  0
SECTION
  2
HEADER
  9
$ACADVER
  1
AC1014
  9
$INSBASE
 10
0.000000
 20
0.000000
 30
0.0
  9
$VIEWCTR
 10
7.531722
 20
4.5
  9
$VIEWSIZE
 40
9.0
  9
$SNAPMODE
 70
     0
  9
$SNAPUNIT
 10
1.0
 20
1.0
  9
$SNAPBASE
 10
0.0
 20
0.0
  9
$SNAPANG
 50
0.0
  9
$SNAPSTYLE
 70
     0
  9
$SNAPISOPAIR
 70
     0
  9
$GRIDMODE
 70
     0
  9
$GRIDUNIT
 10
0.0
 20
0.0
  9
$ORTHOMODE
 70
     0
  9
$REGENMODE
 70
     1
  9
$FILLMODE
 70
     1
  9
$QTEXTMODE
 70
     0
  9
$DRAGMODE
 70
     2
  9
$LTSCALE
  40
     1.000000
  9
$OSMODE
 70
     0
  9
$ATTMODE
 70
     1
  9
$TEXTSIZE
 40
0.2
  9
$TRACEWID
 40
0.05
  9
$TEXTSTYLE
  7
STANDARD
  9
$CELTYPE
  6
BYLAYER
  9
$CECOLOR
 62
   256
  9
$DIMSCALE
 40
1.0
  9
$DIMASZ
 40
0.18
  9
$DIMEXO
 40
0.0625
  9
$DIMDLI
 40
0.38
  9
$DIMRND
 40
0.0
  9
$DIMDLE
 40
0.0
  9
$DIMEXE
 40
0.18
  9
$DIMTP
 40
0.0
  9
$DIMTM
 40
0.0
  9
$DIMTXT
 40
0.18
  9
$DIMCEN
 40
0.09
  9
$DIMTSZ
 40
0.0
  9
$DIMTOL
 70
     0
  9
$DIMLIM
 70
     0
  9
$DIMTIH
 70
     1
  9
$DIMTOH
 70
     1
  9
$DIMSE1
 70
     0
  9
$DIMSE2
 70
     0
  9
$DIMTAD
 70
     0
  9
$DIMZIN
 70
     0
  9
$DIMBLK
  1

  9
$LUNITS
 70
     2
  9
$LUPREC
 70
     4
  9
$AXISMODE
 70
     0
  9
$AXISUNIT
 10
0.0
 20
0.0
  9
$SKETCHINC
 40
0.1
  9
$FILLETRAD
 40
0.0
  9
$AUNITS
 70
     0
  9
$AUPREC
 70
     0
  9
$MENU
  1
ACAD
  9
$ELEVATION
 40
0.0
  9
$THICKNESS
 40
0.0
  9
$VIEWDIR
 10
0.0
 20
0.0
 30
1.0
  9
$LIMCHECK
 70
     0
  9
$BLIPMODE
 70
     1
  9
$CHAMFERA
 40
0.0
  9
$CHAMFERB
 40
0.0
  9
$FASTZOOM
 70
     1
  9
$SKPOLY
 70
     0
  9
$TDCREATE
 40
0000000.0000000000
  9
$TDUPDATE
 40
0000000.0000000000
  9
$TDINDWG
 40
0.0000000000
  9
$TDUSRTIMER
 40
0.0000000000
  9
$USRTIMER
 70
     1
  9
$ANGBASE
 50
0.0
  9
$ANGDIR
 70
     0
  9
$PDMODE
 70
     0
  9
$PDSIZE
 40
0.0
  9
$PLINEWID
 40
0.0
  9
$COORDS
 70
     0
  9
$USERI1
 70
     0
  9
$USERI2
 70
     0
  9
$USERI3
 70
     0
  9
$USERI4
 70
     0
  9
$USERI5
 70
     0
  9
$USERR1
 40
0.0
  9
$USERR2
 40
0.0
  9
$USERR3
 40
0.0
  9
$USERR4
 40
0.0
  9
$USERR5
 40
0.0
  9
$CLAYER
  8
M0
  9
$EXTMIN
 10
25.0
 20
25.0
  9
$EXTMAX
 10
499.999993
 20
712.499989
  9
$LIMMIN
 10
0.0
 20
0.0
  9
$LIMMAX
 10
210.0
 20
297.0
  9
$HANDSEED
  5
188
  0
ENDSEC
  0
SECTION
  2
CLASSES
  0
ENDSEC
  0
SECTION
  2
TABLES
  0
TABLE
  2
VPORT
  5
8
100
AcDbSymbolTable
 70
     2
  0
VPORT
  5
14
100
AcDbSymbolTableRecord
100
AcDbViewportTableRecord
  2
*ACTIVE
 70
     0
 10
0.0
 20
0.0
 11
1.0
 21
1.0
 12
484.0
 22
297.0
 13
0.0
 23
0.0
 14
1.0
 24
1.0
 15
0.0
 25
0.0
 16
0.0
 26
0.0
 36
1.0
 17
0.0
 27
0.0
 37
0.0
 40
594.0
 41
2.0
 42
50.0
 43
0.0
 44
0.0
 50
0.0
 51
0.0
 71
     0
 72
   100
 73
     1
 74
     1
 75
     0
 76
     0
 77
     0
 78
     0
  0
ENDTAB
  0
TABLE
  2
LTYPE
  5
5
100
AcDbSymbolTable
 70
     5
  0
LTYPE
  5
15
100
AcDbSymbolTableRecord
100
AcDbLinetypeTableRecord
  2
BYBLOCK
 70
     0
  3

 72
    65
 73
     0
 40
0.0
  0
LTYPE
  5
16
100
AcDbSymbolTableRecord
100
AcDbLinetypeTableRecord
  2
BYLAYER
 70
     0
  3

 72
    65
 73
     0
 40
0.0
  0
LTYPE
  5
17
100
AcDbSymbolTableRecord
100
AcDbLinetypeTableRecord
  2
CONTINUOUS
 70
    64
  3
Solid line
 72
    65
 73
     0
 40
0.0
  0
LTYPE
  5
18
100
AcDbSymbolTableRecord
100
AcDbLinetypeTableRecord
  2
DASHED
 70
    64
  3
__ __ __ __ __ __ __ __ __ __ __ __ __ __ __ __
 72
    65
 73
     2
 40
0.75
 49
0.5
 74
     0
 49
-0.25
 74
     0
  0
LTYPE
  5
19
100
AcDbSymbolTableRecord
100
AcDbLinetypeTableRecord
  2
DASHDOT
 70
    64
  3
__ . __ . __ . __ . __ . __ . __ . __ . __ . __
 72
    65
 73
     4
 40
1.0
 49
0.5
 74
     0
 49
-0.25
 74
     0
 49
0.0
 74
     0
 49
-0.25
 74
     0
  0
LTYPE
  5
1A
100
AcDbSymbolTableRecord
100
AcDbLinetypeTableRecord
  2
DIVIDE
 70
    64
  3
____ . . ____ . . ____ . . ____ . . ____ . . __
 72
    65
 73
     6
 40
1.25
 49
0.5
 74
     0
 49
-0.25
 74
     0
 49
0.0
 74
     0
 49
-0.25
 74
     0
 49
0.0
 74
     0
 49
-0.25
 74
     0
  0
LTYPE
  5
1B
100
AcDbSymbolTableRecord
100
AcDbLinetypeTableRecord
  2
DOT
 70
    64
  3
. . . . . . . . . . . . . . . . . . . . . . . .
 72
    65
 73
     2
 40
0.25
 49
0.0
 74
     0
 49
-0.25
 74
     0
  0
ENDTAB
  0
TABLE
  2
LAYER
  5
2
100
AcDbSymbolTable
 70
   102
  0
LAYER
  5
F
100
AcDbSymbolTableRecord
100
AcDbLayerTableRecord
  2
0
 70
     0
 62
     7
  6
CONTINUOUS
  0
LAYER
  5
1C
100
AcDbSymbolTableRecord
100
AcDbLayerTableRecord
  2
DEFPOINTS
 70
     0
 62
     7
  6
CONTINUOUS
  0
LAYER
  5
1D
100
AcDbSymbolTableRecord
100
AcDbLayerTableRecord
  2
M0
 70
     0
 62
     3
  6
CONTINUOUS
  0
LAYER
  5
1E
100
AcDbSymbolTableRecord
100
AcDbLayerTableRecord
  2
M1
 70
     0
 62
     3
  6
CONTINUOUS
  0
LAYER
  5
1F
100
AcDbSymbolTableRecord
100
AcDbLayerTableRecord
  2
DD0
 70
     0
 62
     4
  6
CONTINUOUS
  0
ENDTAB
  0
TABLE
  2
STYLE
  5
3
100
AcDbSymbolTable
 70
     2
  0
STYLE
  5
10
100
AcDbSymbolTableRecord
100
AcDbTextStyleTableRecord
  2
STANDARD
 70
     0
 40
0.0
 41
1.0
 50
0.0
 71
     0
 42
0.2
  3
txt
  4
BIGFONT
  0
ENDTAB
  0
TABLE
  2
VIEW
  5
6
100
AcDbSymbolTable
 70
     0
  0
ENDTAB
  0
TABLE
  2
UCS
  5
7
100
AcDbSymbolTable
 70
     0
  0
ENDTAB
  0
TABLE
  2
APPID
  5
9
100
AcDbSymbolTable
 70
     1
  0
APPID
  5
11
100
AcDbSymbolTableRecord
100
AcDbRegAppTableRecord
  2
ACAD
 70
     0
  0
ENDTAB
  0
TABLE
  2
DIMSTYLE
  5
A
100
AcDbSymbolTable
 70
     2
  0
DIMSTYLE
105
26
100
AcDbSymbolTableRecord
100
AcDbDimStyleTableRecord
  2
STANDARD
 70
     0
  3

  4

  5

  6
_OPEN
  7
_OPEN
 40
1.0
 41
7.5
 42
1.0
 43
8.0
 44
1.0
 45
0.0
 46
0.0
 47
0.0
 48
0.0
140
7.875
141
0.09
142
0.0
143
0.03937
144
1.0
145
0.0
146
1.0
147
0.6
 71
     0
 72
     0
 73
     1
 74
     1
 75
     0
 76
     0
 77
     3
 78
     8
170
     0
171
     2
172
     0
173
     1
174
     0
175
     0
176
     0
177
     0
178
     0
270
     2
271
     2
272
     4
273
     2
274
     2
340
10
275
     0
280
     0
281
     0
282
     0
283
     1
284
     0
285
     0
286
     0
287
     3
288
     0
  0
DIMSTYLE
105
27
100
AcDbSymbolTableRecord
100
AcDbDimStyleTableRecord
  2
LEADSTYL
 70
     0
  3

  4

  5

  6
_OPEN
  7
_OPEN
 40
1.0
 41
7.5
 42
0.0625
 43
0.38
 44
0.18
 45
0.0
 46
0.0
 47
0.0
 48
0.0
140
7.875
141
0.09
142
0.0
143
25.4
144
1.0
145
0.0
146
1.0
147
0.6
 71
     0
 72
     0
 73
     1
 74
     1
 75
     0
 76
     0
 77
     0
 78
     0
170
     0
171
     2
172
     0
173
     1
174
     0
175
     0
176
     0
177
     0
178
     0
270
     2
271
     4
272
     4
273
     2
274
     2
340
10
275
     0
280
     0
281
     0
282
     0
283
     1
284
     0
285
     0
286
     0
287
     3
288
     0
  0
ENDTAB
  0
TABLE
  2
BLOCK_RECORD
  5
1
100
AcDbSymbolTable
 70
    15
  0
BLOCK_RECORD
  5
20
100
AcDbSymbolTableRecord
100
AcDbBlockTableRecord
  2
*MODEL_SPACE
  0
BLOCK_RECORD
  5
23
100
AcDbSymbolTableRecord
100
AcDbBlockTableRecord
  2
*PAPER_SPACE
  0
BLOCK_RECORD
  5
28
100
AcDbSymbolTableRecord
100
AcDbBlockTableRecord
  2
_NONE
  0
BLOCK_RECORD
  5
2C
100
AcDbSymbolTableRecord
100
AcDbBlockTableRecord
  2
_OPEN
  0
BLOCK_RECORD
  5
32
100
AcDbSymbolTableRecord
100
AcDbBlockTableRecord
  2
_CLOSED
  0
BLOCK_RECORD
  5
39
100
AcDbSymbolTableRecord
100
AcDbBlockTableRecord
  2
_ORIGIN
  0
BLOCK_RECORD
  5
3E
100
AcDbSymbolTableRecord
100
AcDbBlockTableRecord
  2
_DOT
  0
BLOCK_RECORD
  5
46
100
AcDbSymbolTableRecord
100
AcDbBlockTableRecord
  2
_OBLIQUE
  0
BLOCK_RECORD
  5
4A
100
AcDbSymbolTableRecord
100
AcDbBlockTableRecord
  2
DIMS0
  0
BLOCK_RECORD
  5
55
100
AcDbSymbolTableRecord
100
AcDbBlockTableRecord
  2
DIMS1
  0
BLOCK_RECORD
  5
5F
100
AcDbSymbolTableRecord
100
AcDbBlockTableRecord
  2
DIMS2
  0
BLOCK_RECORD
  5
6B
100
AcDbSymbolTableRecord
100
AcDbBlockTableRecord
  2
DIMS3
  0
BLOCK_RECORD
  5
77
100
AcDbSymbolTableRecord
100
AcDbBlockTableRecord
  2
DIMS4
  0
BLOCK_RECORD
  5
80
100
AcDbSymbolTableRecord
100
AcDbBlockTableRecord
  2
DIMS5
  0
BLOCK_RECORD
  5
89
100
AcDbSymbolTableRecord
100
AcDbBlockTableRecord
  2
DIMS6
  0
BLOCK_RECORD
  5
92
100
AcDbSymbolTableRecord
100
AcDbBlockTableRecord
  2
DIMS7
  0
BLOCK_RECORD
  5
9E
100
AcDbSymbolTableRecord
100
AcDbBlockTableRecord
  2
DIMS8
  0
ENDTAB
  0
ENDSEC
  0
SECTION
  2
BLOCKS
  0
BLOCK
  5
21
100
AcDbEntity
  8
0
100
AcDbBlockBegin
  2
*MODEL_SPACE
 70
     0
 10
0.0
 20
0.0
 30
0.0
  3
*MODEL_SPACE
  1

  0
ENDBLK
  5
22
100
AcDbEntity
  8
0
100
AcDbBlockEnd
  0
BLOCK
  5
24
100
AcDbEntity
 67
     1
  8
0
100
AcDbBlockBegin
  2
*PAPER_SPACE
 70
     0
 10
0.0
 20
0.0
 30
0.0
  3
*PAPER_SPACE
  1

  0
ENDBLK
  5
25
100
AcDbEntity
 67
     1
  8
0
100
AcDbBlockEnd
  0
BLOCK
  5
29
100
AcDbEntity
  8
0
100
AcDbBlockBegin
  2
_NONE
 70
     0
 10
0.0
 20
0.0
  0
CIRCLE
  5
2A
100
AcDbEntity
  8
0
 62
     0
100
AcDbCircle
 10
0.0
 20
0.0
 40
0.25
  0
ENDBLK
  5
2B
100
AcDbEntity
  8
0
100
AcDbBlockEnd
  0
BLOCK
  5
2D
100
AcDbEntity
  8
0
100
AcDbBlockBegin
  2
_OPEN
 70
     0
 10
0.0
 20
0.0
  0
LINE
  5
2E
100
AcDbEntity
  8
0
 62
     0
100
AcDbLine
 10
-0.965926
 20
0.258819
 11
0.0
 21
0.0
  0
LINE
  5
2F
100
AcDbEntity
  8
0
 62
     0
100
AcDbLine
 10
0.0
 20
0.0
 11
-0.965926
 21
-0.258819
  0
LINE
  5
30
100
AcDbEntity
  8
0
 62
     0
100
AcDbLine
 10
0.0
 20
0.0
 11
-1.0
 21
0.0
  0
ENDBLK
  5
31
100
AcDbEntity
  8
0
100
AcDbBlockEnd
  0
BLOCK
  5
33
100
AcDbEntity
  8
0
100
AcDbBlockBegin
  2
_CLOSED
 70
     0
 10
0.0
 20
0.0
  0
LINE
  5
34
100
AcDbEntity
  8
0
 62
     0
100
AcDbLine
 10
-0.965926
 20
0.258819
 11
0.0
 21
0.0
  0
LINE
  5
35
100
AcDbEntity
  8
0
 62
     0
100
AcDbLine
 10
0.0
 20
0.0
 11
-0.965926
 21
-0.258819
  0
LINE
  5
36
100
AcDbEntity
  8
0
 62
     0
100
AcDbLine
 10
-0.965926
 20
0.258819
 11
-0.965926
 21
-0.258819
  0
LINE
  5
37
100
AcDbEntity
  8
0
 62
     0
100
AcDbLine
 10
0.0
 20
0.0
 11
-1.0
 21
0.0
  0
ENDBLK
  5
38
100
AcDbEntity
  8
0
100
AcDbBlockEnd
  0
BLOCK
  5
3A
100
AcDbEntity
  8
0
100
AcDbBlockBegin
  2
_ORIGIN
 70
     0
 10
0.0
 20
0.0
  0
CIRCLE
  5
3B
100
AcDbEntity
  8
0
 62
     0
100
AcDbCircle
 10
0.0
 20
0.0
 40
0.5
  0
LINE
  5
3C
100
AcDbEntity
  8
0
 62
     0
100
AcDbLine
 10
0.0
 20
0.0
 11
-1.0
 21
0.0
  0
ENDBLK
  5
3D
100
AcDbEntity
  8
0
100
AcDbBlockEnd
  0
BLOCK
  5
3F
100
AcDbEntity
  8
0
100
AcDbBlockBegin
  2
_DOT
 70
     0
 10
0.0
 20
0.0
  0
POLYLINE
  5
40
100
AcDbEntity
  8
0
 62
     0
100
AcDb2dPolyline
 66
     1
 70
     1
 40
0.5
 41
0.5
  0
VERTEX
  5
41
100
AcDbEntity
  8
0
 62
     0
100
AcDbVertex
100
AcDb2dVertex
 10
-0.25
 20
0.0
 42
1.0
  0
VERTEX
  5
42
100
AcDbEntity
  8
0
 62
     0
100
AcDbVertex
100
AcDb2dVertex
 10
0.25
 20
0.0
 42
1.0
  0
SEQEND
  5
43
100
AcDbEntity
  8
0
 62
     0
  0
LINE
  5
44
100
AcDbEntity
  8
0
 62
     0
100
AcDbLine
 10
-0.5
 20
0.0
 11
-1.0
 21
0.0
  0
ENDBLK
  5
45
100
AcDbEntity
  8
0
100
AcDbBlockEnd
  0
BLOCK
  5
47
100
AcDbEntity
  8
0
100
AcDbBlockBegin
  2
_OBLIQUE
 70
     0
 10
0.0
 20
0.0
  0
LINE
  5
48
100
AcDbEntity
  8
0
 62
     0
100
AcDbLine
 10
-0.353553
 20
-0.353553
 11
0.353553
 21
0.353553
  0
ENDBLK
  5
49
100
AcDbEntity
  8
0
100
AcDbBlockEnd
  0
BLOCK
  5
4B
100
AcDbEntity
  8
DD0
100
AcDbBlockBegin
  2
DIMS0
 70
     0
 10
0.0
 20
0.0
  0
LINE
  5
4C
100
AcDbEntity
  8
DD0
100
AcDbLine
 10
352.98717
 20
591.347609
 11
352.98717
 21
616.961394
  0
LINE
  5
4D
100
AcDbEntity
  8
DD0
100
AcDbLine
 10
360.231613
 20
616.402537
 11
352.98717
 21
614.461394
  0
LINE
  5
4E
100
AcDbEntity
  8
DD0
100
AcDbLine
 10
352.98717
 20
614.461394
 11
360.231613
 21
612.520251
  0
LINE
  5
4F
100
AcDbEntity
  8
DD0
100
AcDbLine
 10
442.745899
 20
612.520251
 11
449.990342
 21
614.461394
  0
LINE
  5
50
100
AcDbEntity
  8
DD0
100
AcDbLine
 10
449.990342
 20
614.461394
 11
442.745899
 21
616.402537
  0
LINE
  5
51
100
AcDbEntity
  8
DD0
100
AcDbLine
 10
352.98717
 20
614.461394
 11
449.990342
 21
614.461394
  0
TEXT
  5
52
100
AcDbEntity
  8
DD0
100
AcDbText
 10
396.424165
 20
616.211386
 40
7.875
  1
９７
 41
0.584656
  7
STANDARD
100
AcDbText
  0
ENDBLK
  5
53
100
AcDbEntity
  8
DD0
100
AcDbBlockEnd
  0
BLOCK
  5
56
100
AcDbEntity
  8
DD0
100
AcDbBlockBegin
  2
DIMS1
 70
     0
 10
0.0
 20
0.0
  0
LINE
  5
57
100
AcDbEntity
  8
DD0
100
AcDbLine
 10
441.745914
 20
463.611218
 11
448.990357
 21
465.552361
  0
LINE
  5
58
100
AcDbEntity
  8
DD0
100
AcDbLine
 10
448.990357
 20
465.552361
 11
441.745914
 21
467.493504
  0
LINE
  5
59
100
AcDbEntity
  8
DD0
100
AcDbLine
 10
457.234786
 20
467.493504
 11
449.990342
 21
465.552361
  0
LINE
  5
5A
100
AcDbEntity
  8
DD0
100
AcDbLine
 10
449.990342
 20
465.552361
 11
457.234786
 21
463.611218
  0
LINE
  5
5B
100
AcDbEntity
  8
DD0
100
AcDbLine
 10
440.740358
 20
465.552361
 11
485.036356
 21
465.552361
  0
TEXT
  5
5C
100
AcDbEntity
  8
DD0
100
AcDbText
 10
460.896515
 20
467.303888
 40
7.875
  1
ｔ０．８
 50
0.007875
 41
0.584656
  7
STANDARD
100
AcDbText
  0
ENDBLK
  5
5D
100
AcDbEntity
  8
DD0
100
AcDbBlockEnd
  0
BLOCK
  5
60
100
AcDbEntity
  8
DD0
100
AcDbBlockBegin
  2
DIMS2
 70
     0
 10
0.0
 20
0.0
  0
LINE
  5
61
100
AcDbEntity
  8
DD0
100
AcDbLine
 10
70.311655
 20
592.362586
 11
70.311655
 21
615.154372
  0
LINE
  5
62
100
AcDbEntity
  8
DD0
100
AcDbLine
 10
200.311009
 20
595.862609
 11
200.311009
 21
615.154372
  0
LINE
  5
63
100
AcDbEntity
  8
DD0
100
AcDbLine
 10
77.556099
 20
614.595515
 11
70.311655
 21
612.654372
  0
LINE
  5
64
100
AcDbEntity
  8
DD0
100
AcDbLine
 10
70.311655
 20
612.654372
 11
77.556099
 21
610.713229
  0
LINE
  5
65
100
AcDbEntity
  8
DD0
100
AcDbLine
 10
193.066566
 20
610.713229
 11
200.311009
 21
612.654372
  0
LINE
  5
66
100
AcDbEntity
  8
DD0
100
AcDbLine
 10
200.311009
 20
612.654372
 11
193.066566
 21
614.595515
  0
LINE
  5
67
100
AcDbEntity
  8
DD0
100
AcDbLine
 10
70.311655
 20
612.654372
 11
200.311009
 21
612.654372
  0
TEXT
  5
68
100
AcDbEntity
  8
DD0
100
AcDbText
 10
127.484254
 20
614.404364
 40
7.875
  1
１３０
 41
0.584656
  7
STANDARD
100
AcDbText
  0
ENDBLK
  5
69
100
AcDbEntity
  8
DD0
100
AcDbBlockEnd
  0
BLOCK
  5
6C
100
AcDbEntity
  8
DD0
100
AcDbBlockBegin
  2
DIMS3
 70
     0
 10
0.0
 20
0.0
  0
LINE
  5
6D
100
AcDbEntity
  8
DD0
100
AcDbLine
 10
219.326016
 20
576.847602
 11
245.790363
 21
576.847602
  0
LINE
  5
6E
100
AcDbEntity
  8
DD0
100
AcDbLine
 10
220.825993
 20
441.847108
 11
245.790363
 21
441.847108
  0
LINE
  5
6F
100
AcDbEntity
  8
DD0
100
AcDbLine
 10
245.231506
 20
569.603158
 11
243.290364
 21
576.847602
  0
LINE
  5
70
100
AcDbEntity
  8
DD0
100
AcDbLine
 10
243.290364
 20
576.847602
 11
241.349221
 21
569.603158
  0
LINE
  5
71
100
AcDbEntity
  8
DD0
100
AcDbLine
 10
241.349221
 20
449.091552
 11
243.290364
 21
441.847108
  0
LINE
  5
72
100
AcDbEntity
  8
DD0
100
AcDbLine
 10
243.290364
 20
441.847108
 11
245.231506
 21
449.091552
  0
LINE
  5
73
100
AcDbEntity
  8
DD0
100
AcDbLine
 10
243.290364
 20
576.847602
 11
243.290364
 21
441.847108
  0
TEXT
  5
74
100
AcDbEntity
  8
DD0
100
AcDbText
 10
241.540371
 20
501.520294
 40
7.875
  1
１３５
 50
90.000003
 41
0.584656
  7
STANDARD
100
AcDbText
  0
ENDBLK
  5
75
100
AcDbEntity
  8
DD0
100
AcDbBlockEnd
  0
BLOCK
  5
78
100
AcDbEntity
  8
DD0
100
AcDbBlockBegin
  2
DIMS4
 70
     0
 10
0.0
 20
0.0
  0
LINE
  5
79
100
AcDbEntity
  8
DD0
100
AcDbLine
 10
202.898654
 20
586.948154
 11
201.583554
 21
579.564353
  0
LINE
  5
7A
100
AcDbEntity
  8
DD0
100
AcDbLine
 10
201.583554
 20
579.564353
 11
206.414364
 21
585.301362
  0
LINE
  5
7B
100
AcDbEntity
  8
DD0
100
AcDbLine
 10
201.583554
 20
579.564353
 11
224.305722
 21
628.073569
  0
LINE
  5
7C
100
AcDbEntity
  8
DD0
100
AcDbLine
 10
224.305722
 20
628.073569
 11
290.530715
 21
628.073569
  0
TEXT
  5
7D
100
AcDbEntity
  8
DD0
100
AcDbText
 10
227.266186
 20
632.073393
 40
7.875
  1
４－Ｍ４ねじ取付穴
 41
0.584656
  7
STANDARD
100
AcDbText
  0
ENDBLK
  5
7E
100
AcDbEntity
  8
DD0
100
AcDbBlockEnd
  0
BLOCK
  5
81
100
AcDbEntity
  8
DD0
100
AcDbBlockBegin
  2
DIMS5
 70
     0
 10
0.0
 20
0.0
  0
LINE
  5
82
100
AcDbEntity
  8
DD0
100
AcDbLine
 10
204.81115
 20
425.847619
 11
261.047645
 21
425.847619
  0
LINE
  5
83
100
AcDbEntity
  8
DD0
100
AcDbLine
 10
256.606503
 20
433.092063
 11
258.547646
 21
425.847619
  0
LINE
  5
84
100
AcDbEntity
  8
DD0
100
AcDbLine
 10
258.547646
 20
425.847619
 11
260.488788
 21
433.092063
  0
LINE
  5
85
100
AcDbEntity
  8
DD0
100
AcDbLine
 10
258.547646
 20
592.847625
 11
258.547646
 21
425.847619
  0
TEXT
  5
86
100
AcDbEntity
  8
DD0
100
AcDbText
 10
256.797653
 20
501.520523
 40
7.875
  1
１６７
 50
90.000003
 41
0.584656
  7
STANDARD
100
AcDbText
  0
ENDBLK
  5
87
100
AcDbEntity
  8
DD0
100
AcDbBlockEnd
  0
BLOCK
  5
8A
100
AcDbEntity
  8
DD0
100
AcDbBlockBegin
  2
DIMS6
 70
     0
 10
0.0
 20
0.0
  0
LINE
  5
8B
100
AcDbEntity
  8
DD0
100
AcDbLine
 10
141.811359
 20
415.84762
 11
261.047645
 21
415.84762
  0
LINE
  5
8C
100
AcDbEntity
  8
DD0
100
AcDbLine
 10
260.488788
 20
408.603176
 11
258.547646
 21
415.84762
  0
LINE
  5
8D
100
AcDbEntity
  8
DD0
100
AcDbLine
 10
258.547646
 20
415.84762
 11
256.606503
 21
408.603176
  0
LINE
  5
8E
100
AcDbEntity
  8
DD0
100
AcDbLine
 10
258.547646
 20
425.847619
 11
258.547646
 21
394.047619
  0
TEXT
  5
8F
100
AcDbEntity
  8
DD0
100
AcDbText
 10
256.797653
 20
396.208024
 40
7.875
  1
１０
 50
90.000003
 41
0.584656
  7
STANDARD
100
AcDbText
  0
ENDBLK
  5
90
100
AcDbEntity
  8
DD0
100
AcDbBlockEnd
  0
BLOCK
  5
93
100
AcDbEntity
  8
DD0
100
AcDbBlockBegin
  2
DIMS7
 70
     0
 10
0.0
 20
0.0
  0
LINE
  5
94
100
AcDbEntity
  8
DD0
100
AcDbLine
 10
55.311355
 20
582.347365
 11
55.311355
 21
626.741553
  0
LINE
  5
95
100
AcDbEntity
  8
DD0
100
AcDbLine
 10
215.311162
 20
582.347136
 11
215.311162
 21
626.741553
  0
LINE
  5
96
100
AcDbEntity
  8
DD0
100
AcDbLine
 10
62.555798
 20
626.182695
 11
55.311355
 21
624.241553
  0
LINE
  5
97
100
AcDbEntity
  8
DD0
100
AcDbLine
 10
55.311355
 20
624.241553
 11
62.555798
 21
622.30041
  0
LINE
  5
98
100
AcDbEntity
  8
DD0
100
AcDbLine
 10
208.066718
 20
622.30041
 11
215.311162
 21
624.241553
  0
LINE
  5
99
100
AcDbEntity
  8
DD0
100
AcDbLine
 10
215.311162
 20
624.241553
 11
208.066718
 21
626.182695
  0
LINE
  5
9A
100
AcDbEntity
  8
DD0
100
AcDbLine
 10
55.311355
 20
624.241553
 11
215.311162
 21
624.241553
  0
TEXT
  5
9B
100
AcDbEntity
  8
DD0
100
AcDbText
 10
127.484178
 20
625.991545
 40
7.875
  1
１６０
 41
0.584656
  7
STANDARD
100
AcDbText
  0
ENDBLK
  5
9C
100
AcDbEntity
  8
DD0
100
AcDbBlockEnd
  0
BLOCK
  5
9F
100
AcDbEntity
  8
DD0
100
AcDbBlockBegin
  2
DIMS8
 70
     0
 10
0.0
 20
0.0
  0
LINE
  5
A0
100
AcDbEntity
  8
DD0
100
AcDbLine
 10
181.311147
 20
595.84735
 11
261.047645
 21
595.84735
  0
LINE
  5
A1
100
AcDbEntity
  8
DD0
100
AcDbLine
 10
204.81115
 20
592.847625
 11
261.047645
 21
592.847625
  0
LINE
  5
A2
100
AcDbEntity
  8
DD0
100
AcDbLine
 10
256.606503
 20
603.091793
 11
258.547646
 21
595.84735
  0
LINE
  5
A3
100
AcDbEntity
  8
DD0
100
AcDbLine
 10
258.547646
 20
595.84735
 11
260.488788
 21
603.091793
  0
LINE
  5
A4
100
AcDbEntity
  8
DD0
100
AcDbLine
 10
260.488788
 20
585.603181
 11
258.547646
 21
592.847625
  0
LINE
  5
A5
100
AcDbEntity
  8
DD0
100
AcDbLine
 10
258.547646
 20
592.847625
 11
256.606503
 21
585.603181
  0
LINE
  5
A6
100
AcDbEntity
  8
DD0
100
AcDbLine
 10
258.547646
 20
612.12235
 11
258.547646
 21
584.597625
  0
TEXT
  5
A7
100
AcDbEntity
  8
DD0
100
AcDbText
 10
256.797653
 20
604.557783
 40
7.875
  1
３
 50
90.000003
 41
0.584656
  7
STANDARD
100
AcDbText
  0
ENDBLK
  5
A8
100
AcDbEntity
  8
DD0
100
AcDbBlockEnd
  0
ENDSEC
  0
SECTION
  2
ENTITIES
  0
INSERT
  5
54
100
AcDbEntity
  8
DD0
100
AcDbBlockReference
  2
DIMS0
 10
0.0
 20
0.0
  0
INSERT
  5
5E
100
AcDbEntity
  8
DD0
100
AcDbBlockReference
  2
DIMS1
 10
0.0
 20
0.0
  0
INSERT
  5
6A
100
AcDbEntity
  8
DD0
100
AcDbBlockReference
  2
DIMS2
 10
0.0
 20
0.0
  0
INSERT
  5
76
100
AcDbEntity
  8
DD0
100
AcDbBlockReference
  2
DIMS3
 10
0.0
 20
0.0
  0
INSERT
  5
7F
100
AcDbEntity
  8
DD0
100
AcDbBlockReference
  2
DIMS4
 10
0.0
 20
0.0
  0
INSERT
  5
88
100
AcDbEntity
  8
DD0
100
AcDbBlockReference
  2
DIMS5
 10
0.0
 20
0.0
  0
INSERT
  5
91
100
AcDbEntity
  8
DD0
100
AcDbBlockReference
  2
DIMS6
 10
0.0
 20
0.0
  0
INSERT
  5
9D
100
AcDbEntity
  8
DD0
100
AcDbBlockReference
  2
DIMS7
 10
0.0
 20
0.0
  0
INSERT
  5
A9
100
AcDbEntity
  8
DD0
100
AcDbBlockReference
  2
DIMS8
 10
0.0
 20
0.0
  0
LINE
  5
AA
100
AcDbEntity
  8
M0
100
AcDbLine
 10
449.990348
 20
414.357864
 11
464.084586
 21
428.452103
  0
LINE
  5
AB
100
AcDbEntity
  8
M0
100
AcDbLine
 10
449.990104
 20
420.014114
 11
464.084586
 21
434.108841
  0
LINE
  5
AC
100
AcDbEntity
  8
M0
100
AcDbLine
 10
449.990104
 20
425.670853
 11
464.08483
 21
439.765579
  0
LINE
  5
AD
100
AcDbEntity
  8
M0
100
AcDbLine
 10
449.990104
 20
431.327835
 11
464.08483
 21
445.422317
  0
LINE
  5
AE
100
AcDbEntity
  8
M0
100
AcDbLine
 10
449.98986
 20
436.984817
 11
464.084586
 21
451.079544
  0
LINE
  5
AF
100
AcDbEntity
  8
M0
100
AcDbLine
 10
449.990104
 20
442.641556
 11
464.084586
 21
456.736282
  0
LINE
  5
B0
100
AcDbEntity
  8
M0
100
AcDbLine
 10
449.990104
 20
448.298294
 11
464.084586
 21
462.393021
  0
LINE
  5
B1
100
AcDbEntity
  8
M0
100
AcDbLine
 10
449.990104
 20
453.955276
 11
464.08483
 21
468.049759
  0
LINE
  5
B2
100
AcDbEntity
  8
M0
100
AcDbLine
 10
449.98986
 20
459.612259
 11
464.084586
 21
473.706985
  0
LINE
  5
B3
100
AcDbEntity
  8
M0
100
AcDbLine
 10
449.98986
 20
465.268997
 11
464.084586
 21
479.363724
  0
LINE
  5
B4
100
AcDbEntity
  8
M0
100
AcDbLine
 10
449.990104
 20
470.925735
 11
464.084586
 21
485.020462
  0
LINE
  5
B5
100
AcDbEntity
  8
M0
100
AcDbLine
 10
449.990104
 20
476.582718
 11
464.08483
 21
490.6772
  0
LINE
  5
B6
100
AcDbEntity
  8
M0
100
AcDbLine
 10
449.990104
 20
482.239456
 11
464.08483
 21
496.334183
  0
LINE
  5
B7
100
AcDbEntity
  8
M0
100
AcDbLine
 10
449.98986
 20
487.896438
 11
464.084586
 21
501.991165
  0
LINE
  5
B8
100
AcDbEntity
  8
M0
100
AcDbLine
 10
449.990104
 20
493.553177
 11
464.084586
 21
507.647903
  0
LINE
  5
B9
100
AcDbEntity
  8
M0
100
AcDbLine
 10
449.990104
 20
499.210159
 11
464.08483
 21
513.304642
  0
LINE
  5
BA
100
AcDbEntity
  8
M0
100
AcDbLine
 10
449.990104
 20
504.866897
 11
464.08483
 21
518.961624
  0
LINE
  5
BB
100
AcDbEntity
  8
M0
100
AcDbLine
 10
449.98986
 20
510.52388
 11
464.084586
 21
524.618606
  0
LINE
  5
BC
100
AcDbEntity
  8
M0
100
AcDbLine
 10
449.990104
 20
516.180618
 11
464.084586
 21
530.275345
  0
LINE
  5
BD
100
AcDbEntity
  8
M0
100
AcDbLine
 10
449.990104
 20
521.837356
 11
464.084586
 21
535.932083
  0
LINE
  5
BE
100
AcDbEntity
  8
M0
100
AcDbLine
 10
449.990104
 20
527.494339
 11
464.08483
 21
541.588821
  0
LINE
  5
BF
100
AcDbEntity
  8
M0
100
AcDbLine
 10
449.98986
 20
533.151321
 11
464.084586
 21
547.246048
  0
LINE
  5
C0
100
AcDbEntity
  8
M0
100
AcDbLine
 10
449.98986
 20
538.80806
 11
464.084586
 21
552.902786
  0
LINE
  5
C1
100
AcDbEntity
  8
M0
100
AcDbLine
 10
449.990104
 20
544.464798
 11
464.084586
 21
558.559524
  0
LINE
  5
C2
100
AcDbEntity
  8
M0
100
AcDbLine
 10
449.990104
 20
550.12178
 11
464.08483
 21
564.216263
  0
LINE
  5
C3
100
AcDbEntity
  8
M0
100
AcDbLine
 10
449.98986
 20
555.778519
 11
464.084586
 21
569.873245
  0
LINE
  5
C4
100
AcDbEntity
  8
M0
100
AcDbLine
 10
449.98986
 20
561.435501
 11
464.084586
 21
575.530228
  0
LINE
  5
C5
100
AcDbEntity
  8
M0
100
AcDbLine
 10
449.990104
 20
567.092239
 11
464.084586
 21
581.186966
  0
LINE
  5
C6
100
AcDbEntity
  8
M0
100
AcDbLine
 10
449.990104
 20
572.749222
 11
464.08483
 21
586.843704
  0
LINE
  5
C7
100
AcDbEntity
  8
M0
100
AcDbLine
 10
449.98986
 20
578.40596
 11
464.084586
 21
592.500687
  0
LINE
  5
C8
100
AcDbEntity
  8
M0
100
AcDbLine
 10
449.98986
 20
584.062942
 11
464.084586
 21
598.157669
  0
LINE
  5
C9
100
AcDbEntity
  8
M0
100
AcDbLine
 10
449.990104
 20
589.719681
 11
464.084586
 21
603.814407
  0
LINE
  5
CA
100
AcDbEntity
  8
M0
100
AcDbLine
 10
449.990104
 20
595.376663
 11
464.08483
 21
609.471146
  0
LINE
  5
CB
100
AcDbEntity
  8
M0
100
AcDbLine
 10
449.990104
 20
601.033401
 11
464.08483
 21
615.128128
  0
LINE
  5
CC
100
AcDbEntity
  8
M0
100
AcDbLine
 10
449.98986
 20
606.690384
 11
460.151725
 21
616.852249
  0
LINE
  5
CD
100
AcDbEntity
  8
M0
100
AcDbLine
 10
449.990104
 20
612.347122
 11
454.494743
 21
616.852005
  0
LINE
  5
CE
100
AcDbEntity
  8
M0
 62
     4
100
AcDbLine
 10
443.990348
 20
430.847609
 11
435.990348
 21
430.847612
  0
LINE
  5
CF
100
AcDbEntity
  8
M0
 62
     4
100
AcDbLine
 10
443.990348
 20
431.347609
 11
435.990348
 21
431.347612
  0
LINE
  5
D0
100
AcDbEntity
  8
M0
 62
     4
100
AcDbLine
 10
436.490348
 20
429.847611
 11
436.490348
 21
430.847611
  0
LINE
  5
D1
100
AcDbEntity
  8
M0
 62
     4
100
AcDbLine
 10
443.490348
 20
429.847609
 11
443.490348
 21
430.847609
  0
LINE
  5
D2
100
AcDbEntity
  8
M0
 62
     4
100
AcDbLine
 10
435.990348
 20
430.847612
 11
435.990348
 21
431.347612
  0
LINE
  5
D3
100
AcDbEntity
  8
M0
 62
     4
100
AcDbLine
 10
443.990348
 20
430.847609
 11
443.990348
 21
431.347609
  0
LINE
  5
D4
100
AcDbEntity
  8
M0
 62
     4
100
AcDbLine
 10
443.490225
 20
429.847609
 11
436.490225
 21
429.847611
  0
LINE
  5
D5
100
AcDbEntity
  8
M0
 62
     4
100
AcDbLine
 10
437.990225
 20
429.847611
 11
441.990225
 21
429.84761
  0
LINE
  5
D6
100
AcDbEntity
  8
M0
 62
     4
100
AcDbLine
 10
436.490225
 20
429.847611
 11
436.490225
 21
428.868592
  0
ARC
  5
D7
100
AcDbEntity
  8
M0
 62
     4
100
AcDbCircle
 10
437.790228
 20
428.868592
 40
1.299999
100
AcDbArc
 50
179.99994
 51
253.398508
  0
LINE
  5
D8
100
AcDbEntity
  8
M0
 62
     4
100
AcDbLine
 10
443.490225
 20
428.86859
 11
443.490225
 21
429.847609
  0
ARC
  5
D9
100
AcDbEntity
  8
M0
 62
     4
100
AcDbCircle
 10
442.190222
 20
428.86859
 40
1.299999
100
AcDbArc
 50
286.601376
 51
359.99994
  0
LINE
  5
DA
100
AcDbEntity
  8
M0
 62
     4
100
AcDbLine
 10
439.490225
 20
427.261505
 11
439.490225
 21
428.661514
  0
LINE
  5
DB
100
AcDbEntity
  8
M0
 62
     4
100
AcDbLine
 10
439.490225
 20
428.661514
 11
440.490225
 21
428.661514
  0
LINE
  5
DC
100
AcDbEntity
  8
M0
 62
     4
100
AcDbLine
 10
440.490225
 20
428.661514
 11
440.490225
 21
427.261505
  0
ARC
  5
DD
100
AcDbEntity
  8
M0
 62
     4
100
AcDbCircle
 10
439.990227
 20
436.247604
 40
9.0
100
AcDbArc
 50
253.398433
 51
266.81522
  0
ARC
  5
DE
100
AcDbEntity
  8
M0
 62
     4
100
AcDbCircle
 10
439.990227
 20
436.247604
 40
9.0
100
AcDbArc
 50
273.184672
 51
286.601512
  0
LINE
  5
DF
100
AcDbEntity
  8
M0
 62
     4
100
AcDbLine
 10
439.990226
 20
430.84761
 11
440.490225
 21
429.84761
  0
LINE
  5
E0
100
AcDbEntity
  8
M0
 62
     4
100
AcDbLine
 10
439.990225
 20
429.84761
 11
439.490241
 21
430.847611
  0
CIRCLE
  5
E1
100
AcDbEntity
  8
M0
100
AcDbCircle
 10
193.810759
 20
242.735009
 40
2.0
  0
LINE
  5
E2
100
AcDbEntity
  8
M0
100
AcDbLine
 10
193.810759
 20
201.691063
 11
193.810759
 21
240.735009
  0
CIRCLE
  5
E3
100
AcDbEntity
  8
M0
100
AcDbCircle
 10
135.311354
 20
285.7333
 40
4.0
  0
LINE
  5
E4
100
AcDbEntity
  8
M0
  6
DASHDOT
100
AcDbLine
 10
116.29634
 20
285.7333
 11
154.326369
 21
285.7333
  0
LINE
  5
E5
100
AcDbEntity
  8
M0
  6
DASHDOT
100
AcDbLine
 10
135.311354
 20
266.718285
 11
135.311354
 21
304.748314
  0
LINE
  5
E6
100
AcDbEntity
  8
M0
100
AcDbLine
 10
60.811354
 20
232.735024
 11
209.811187
 21
232.735024
  0
LINE
  5
E7
100
AcDbEntity
  8
M0
100
AcDbLine
 10
213.810958
 20
236.735009
 11
213.810958
 21
279.7333
  0
LINE
  5
E8
100
AcDbEntity
  8
M0
100
AcDbLine
 10
56.811354
 20
279.7333
 11
56.811354
 21
236.735009
  0
LINE
  5
E9
100
AcDbEntity
  8
M0
100
AcDbLine
 10
136.311354
 20
242.973015
 11
136.311354
 21
246.780556
  0
LINE
  5
EA
100
AcDbEntity
  8
M0
100
AcDbLine
 10
134.311354
 20
242.973015
 11
134.311354
 21
246.780556
  0
LINE
  5
EB
100
AcDbEntity
  8
M0
100
AcDbLine
 10
136.311354
 20
268.689446
 11
136.311354
 21
272.724663
  0
LINE
  5
EC
100
AcDbEntity
  8
M0
100
AcDbLine
 10
134.311354
 20
268.689446
 11
134.311354
 21
272.724663
  0
ARC
  5
ED
100
AcDbEntity
  8
M0
100
AcDbCircle
 10
60.811354
 20
236.735024
 40
4.0
100
AcDbArc
 50
179.999781
 51
270.0
  0
ARC
  5
EE
100
AcDbEntity
  8
M0
100
AcDbCircle
 10
209.811187
 20
236.735024
 40
4.0
100
AcDbArc
 50
269.999781
 51
360.0
  0
ARC
  5
EF
100
AcDbEntity
  8
M0
100
AcDbCircle
 10
60.811354
 20
236.735024
 40
4.0
100
AcDbArc
 50
179.999781
 51
270.0
  0
ARC
  5
F0
100
AcDbEntity
  8
M0
100
AcDbCircle
 10
209.811187
 20
236.735024
 40
4.0
100
AcDbArc
 50
269.999781
 51
360.0
  0
ARC
  5
F1
100
AcDbEntity
  8
M0
100
AcDbCircle
 10
95.311354
 20
257.735009
 40
10.999996
100
AcDbArc
 50
275.21591
 51
444.78401
  0
LINE
  5
F2
100
AcDbEntity
  8
M0
  6
DASHDOT
100
AcDbLine
 10
95.311354
 20
240.29554
 11
95.311354
 21
275.399941
  0
LINE
  5
F3
100
AcDbEntity
  8
M0
100
AcDbLine
 10
96.311354
 20
243.422524
 11
96.311354
 21
246.780556
  0
LINE
  5
F4
100
AcDbEntity
  8
M0
100
AcDbLine
 10
94.311354
 20
243.422524
 11
94.311354
 21
246.780556
  0
LINE
  5
F5
100
AcDbEntity
  8
M0
100
AcDbLine
 10
96.311354
 20
268.689446
 11
96.311354
 21
271.509514
  0
LINE
  5
F6
100
AcDbEntity
  8
M0
100
AcDbLine
 10
94.311354
 20
268.689446
 11
94.311354
 21
271.509514
  0
ARC
  5
F7
100
AcDbEntity
  8
M0
100
AcDbCircle
 10
95.311354
 20
257.735009
 40
10.999996
100
AcDbArc
 50
95.215831
 51
264.784089
  0
ARC
  5
F8
100
AcDbEntity
  8
M0
100
AcDbCircle
 10
175.311354
 20
257.735009
 40
10.999996
100
AcDbArc
 50
95.215911
 51
264.78401
  0
LINE
  5
F9
100
AcDbEntity
  8
M0
  6
DASHDOT
100
AcDbLine
 10
175.311354
 20
240.411034
 11
175.311354
 21
276.015847
  0
LINE
  5
FA
100
AcDbEntity
  8
M0
100
AcDbLine
 10
176.311354
 20
243.190621
 11
176.311354
 21
246.780556
  0
LINE
  5
FB
100
AcDbEntity
  8
M0
100
AcDbLine
 10
174.311354
 20
243.190621
 11
174.311354
 21
246.780556
  0
LINE
  5
FC
100
AcDbEntity
  8
M0
100
AcDbLine
 10
174.311354
 20
268.689446
 11
174.311354
 21
272.394326
  0
LINE
  5
FD
100
AcDbEntity
  8
M0
100
AcDbLine
 10
176.311354
 20
268.689446
 11
176.311354
 21
272.394326
  0
ARC
  5
FE
100
AcDbEntity
  8
M0
100
AcDbCircle
 10
175.311354
 20
257.735009
 40
10.999996
100
AcDbArc
 50
275.215831
 51
444.784089
  0
ARC
  5
FF
100
AcDbEntity
  8
M0
100
AcDbCircle
 10
135.311354
 20
257.735009
 40
10.999996
100
AcDbArc
 50
95.215897
 51
264.784089
  0
ARC
  5
100
100
AcDbEntity
  8
M0
100
AcDbCircle
 10
135.311354
 20
257.735009
 40
10.999996
100
AcDbArc
 50
275.215861
 51
444.78407
  0
ARC
  5
101
100
AcDbEntity
  8
M0
  6
DASHED
100
AcDbCircle
 10
85.311354
 20
257.735009
 40
10.999996
100
AcDbArc
 50
275.21591
 51
444.78401
  0
LINE
  5
102
100
AcDbEntity
  8
M0
  6
DASHDOT
100
AcDbLine
 10
85.311354
 20
240.410973
 11
85.311354
 21
275.130562
  0
LINE
  5
103
100
AcDbEntity
  8
M0
  6
DASHED
100
AcDbLine
 10
86.311354
 20
243.336358
 11
86.311354
 21
246.780556
  0
LINE
  5
104
100
AcDbEntity
  8
M0
  6
DASHED
100
AcDbLine
 10
84.311354
 20
243.336373
 11
84.311354
 21
246.780556
  0
LINE
  5
105
100
AcDbEntity
  8
M0
  6
DASHED
100
AcDbLine
 10
84.311354
 20
268.689446
 11
84.311354
 21
271.473809
  0
LINE
  5
106
100
AcDbEntity
  8
M0
  6
DASHED
100
AcDbLine
 10
86.311354
 20
268.689446
 11
86.311354
 21
271.435326
  0
ARC
  5
107
100
AcDbEntity
  8
M0
  6
DASHED
100
AcDbCircle
 10
85.311354
 20
257.735009
 40
10.999996
100
AcDbArc
 50
95.215831
 51
264.784089
  0
LINE
  5
108
100
AcDbEntity
  8
M0
  6
DASHED
100
AcDbLine
 10
186.311187
 20
243.336342
 11
186.311187
 21
246.780526
  0
LINE
  5
109
100
AcDbEntity
  8
M0
  6
DASHED
100
AcDbLine
 10
184.311187
 20
243.336327
 11
184.311187
 21
246.780526
  0
LINE
  5
10A
100
AcDbEntity
  8
M0
  6
DASHED
100
AcDbLine
 10
186.311187
 20
268.689415
 11
186.311187
 21
271.473778
  0
LINE
  5
10B
100
AcDbEntity
  8
M0
  6
DASHED
100
AcDbLine
 10
184.311187
 20
268.689415
 11
184.311187
 21
271.435296
  0
ARC
  5
10C
100
AcDbEntity
  8
M0
  6
DASHED
100
AcDbCircle
 10
185.311187
 20
257.735009
 40
10.999996
100
AcDbArc
 50
275.215831
 51
444.784089
  0
LINE
  5
10D
100
AcDbEntity
  8
M0
  6
DASHDOT
100
AcDbLine
 10
185.311187
 20
240.218529
 11
185.311187
 21
275.900383
  0
ARC
  5
10E
100
AcDbEntity
  8
M0
  6
DASHED
100
AcDbCircle
 10
185.311187
 20
257.735009
 40
10.999996
100
AcDbArc
 50
95.215911
 51
264.78401
  0
ARC
  5
10F
100
AcDbEntity
  8
M0
  6
DASHED
100
AcDbCircle
 10
117.811354
 20
257.735009
 40
10.999996
100
AcDbArc
 50
95.215831
 51
264.784089
  0
LINE
  5
110
100
AcDbEntity
  8
M0
  6
DASHDOT
100
AcDbLine
 10
117.811354
 20
240.564934
 11
117.811354
 21
275.400002
  0
LINE
  5
111
100
AcDbEntity
  8
M0
  6
DASHED
100
AcDbLine
 10
118.811354
 20
243.143914
 11
118.811354
 21
246.780556
  0
LINE
  5
112
100
AcDbEntity
  8
M0
  6
DASHED
100
AcDbLine
 10
116.811354
 20
243.143898
 11
116.811354
 21
246.780556
  0
LINE
  5
113
100
AcDbEntity
  8
M0
  6
DASHED
100
AcDbLine
 10
116.811354
 20
268.689446
 11
116.811354
 21
271.435326
  0
LINE
  5
114
100
AcDbEntity
  8
M0
  6
DASHED
100
AcDbLine
 10
118.811354
 20
268.689446
 11
118.811354
 21
271.242867
  0
ARC
  5
115
100
AcDbEntity
  8
M0
  6
DASHED
100
AcDbCircle
 10
117.811354
 20
257.735009
 40
10.999996
100
AcDbArc
 50
275.21591
 51
444.78401
  0
ARC
  5
116
100
AcDbEntity
  8
M0
  6
DASHED
100
AcDbCircle
 10
152.811354
 20
257.735009
 40
10.999996
100
AcDbArc
 50
95.215911
 51
264.78401
  0
LINE
  5
117
100
AcDbEntity
  8
M0
  6
DASHDOT
100
AcDbLine
 10
152.811354
 20
240.218529
 11
152.811354
 21
275.823403
  0
LINE
  5
118
100
AcDbEntity
  8
M0
  6
DASHED
100
AcDbLine
 10
153.811354
 20
243.259377
 11
153.811354
 21
246.780556
  0
LINE
  5
119
100
AcDbEntity
  8
M0
  6
DASHED
100
AcDbLine
 10
151.811354
 20
243.413338
 11
151.811354
 21
246.780556
  0
ARC
  5
11A
100
AcDbEntity
  8
M0
  6
DASHED
100
AcDbCircle
 10
152.811354
 20
257.735009
 40
10.999996
100
AcDbArc
 50
275.215831
 51
444.784089
  0
LINE
  5
11B
100
AcDbEntity
  8
M0
  6
DASHED
100
AcDbLine
 10
153.811354
 20
268.689446
 11
153.811354
 21
271.704812
  0
LINE
  5
11C
100
AcDbEntity
  8
M0
  6
DASHED
100
AcDbLine
 10
151.811354
 20
268.689446
 11
151.811354
 21
271.820275
  0
LINE
  5
11D
100
AcDbEntity
  8
M0
  6
DASHDOT
100
AcDbLine
 10
68.759032
 20
257.735009
 11
206.405425
 21
257.735009
  0
LINE
  5
11E
100
AcDbEntity
  8
M0
  6
DASHDOT
100
AcDbLine
 10
135.311354
 20
240.219994
 11
135.311354
 21
275.250023
  0
ARC
  5
11F
100
AcDbEntity
  8
M0
  6
DASHED
100
AcDbCircle
 10
135.311354
 20
257.735009
 40
2.5
100
AcDbArc
 50
287.457529
 51
612.542415
  0
LINE
  5
120
100
AcDbEntity
  8
M0
  6
DASHED
100
AcDbLine
 10
136.061354
 20
252.076745
 11
136.061354
 21
255.350152
  0
LINE
  5
121
100
AcDbEntity
  8
M0
  6
DASHED
100
AcDbLine
 10
134.561354
 20
252.192208
 11
134.561354
 21
255.350152
  0
LINE
  5
122
100
AcDbEntity
  8
M0
100
AcDbLine
 10
55.311354
 20
279.7333
 11
215.311354
 21
279.7333
  0
LINE
  5
123
100
AcDbEntity
  8
M0
100
AcDbLine
 10
215.311248
 20
279.7333
 11
215.311248
 21
288.732811
  0
LINE
  5
124
100
AcDbEntity
  8
M0
100
AcDbLine
 10
208.811248
 20
329.7333
 11
61.811354
 21
329.733056
  0
LINE
  5
125
100
AcDbEntity
  8
M0
100
AcDbLine
 10
55.311354
 20
288.7333
 11
55.311354
 21
279.7333
  0
LINE
  5
126
100
AcDbEntity
  8
M0
  6
DASHDOT
100
AcDbLine
 10
135.311354
 20
221.514443
 11
135.311354
 21
344.748314
  0
LINE
  5
127
100
AcDbEntity
  8
M0
100
AcDbLine
 10
57.811354
 20
325.733056
 11
57.811354
 21
290.7333
  0
LINE
  5
128
100
AcDbEntity
  8
M0
100
AcDbLine
 10
212.811248
 20
290.733056
 11
212.811248
 21
325.732811
  0
LINE
  5
129
100
AcDbEntity
  8
M0
100
AcDbLine
 10
56.311354
 20
289.7333
 11
56.811354
 21
289.7333
  0
ARC
  5
12A
100
AcDbEntity
  8
M0
100
AcDbCircle
 10
61.811354
 20
325.733056
 40
4.0
100
AcDbArc
 50
89.999781
 51
180.0
  0
ARC
  5
12B
100
AcDbEntity
  8
M0
100
AcDbCircle
 10
208.811248
 20
325.733056
 40
4.0
100
AcDbArc
 50
0.0
 51
90.0
  0
ARC
  5
12C
100
AcDbEntity
  8
M0
100
AcDbCircle
 10
56.311354
 20
288.7333
 40
1.0
100
AcDbArc
 50
89.999126
 51
179.999945
  0
ARC
  5
12D
100
AcDbEntity
  8
M0
100
AcDbCircle
 10
56.811354
 20
290.7333
 40
1.0
100
AcDbArc
 50
270.0
 51
360.0
  0
LINE
  5
12E
100
AcDbEntity
  8
M0
100
AcDbLine
 10
59.505065
 20
290.7333
 11
211.316756
 21
290.7333
  0
ARC
  5
12F
100
AcDbEntity
  8
M0
100
AcDbCircle
 10
213.811248
 20
290.733056
 40
1.0
100
AcDbArc
 50
179.999945
 51
269.999126
  0
LINE
  5
130
100
AcDbEntity
  8
M0
100
AcDbLine
 10
214.311248
 20
289.733056
 11
213.811248
 21
289.733056
  0
ARC
  5
131
100
AcDbEntity
  8
M0
100
AcDbCircle
 10
214.311248
 20
288.733056
 40
1.0
100
AcDbArc
 50
0.0
 51
90.0
  0
LINE
  5
132
100
AcDbEntity
  8
M0
100
AcDbLine
 10
402.987174
 20
429.34761
 11
402.987174
 21
596.34761
  0
LINE
  5
133
100
AcDbEntity
  8
M0
100
AcDbLine
 10
402.987174
 20
596.34761
 11
395.567496
 21
596.34761
  0
LINE
  5
134
100
AcDbEntity
  8
M0
100
AcDbLine
 10
352.987174
 20
588.84761
 11
352.987174
 21
436.84761
  0
LINE
  5
135
100
AcDbEntity
  8
M0
100
AcDbLine
 10
356.987174
 20
592.84761
 11
392.406608
 21
592.84761
  0
LINE
  5
136
100
AcDbEntity
  8
M0
100
AcDbLine
 10
394.699088
 20
595.84346
 11
393.275016
 21
593.351272
  0
ARC
  5
137
100
AcDbEntity
  8
M0
100
AcDbCircle
 10
395.567496
 20
595.347366
 40
1.0
100
AcDbArc
 50
90.0
 51
150.262492
  0
ARC
  5
138
100
AcDbEntity
  8
M0
100
AcDbCircle
 10
392.406608
 20
593.84761
 40
1.0
100
AcDbArc
 50
270.0
 51
330.249236
  0
ARC
  5
139
100
AcDbEntity
  8
M0
100
AcDbCircle
 10
356.987174
 20
588.84761
 40
4.0
100
AcDbArc
 50
89.999781
 51
180.0
  0
LINE
  5
13A
100
AcDbEntity
  8
M0
100
AcDbLine
 10
402.987174
 20
429.34761
 11
393.990348
 21
429.347366
  0
LINE
  5
13B
100
AcDbEntity
  8
M0
100
AcDbLine
 10
356.987174
 20
432.84761
 11
392.406608
 21
432.84761
  0
LINE
  5
13C
100
AcDbEntity
  8
M0
100
AcDbLine
 10
394.699088
 20
429.851761
 11
393.275016
 21
432.343948
  0
ARC
  5
13D
100
AcDbEntity
  8
M0
100
AcDbCircle
 10
395.567496
 20
430.347854
 40
1.0
100
AcDbArc
 50
209.737508
 51
269.999126
  0
ARC
  5
13E
100
AcDbEntity
  8
M0
100
AcDbCircle
 10
392.406608
 20
431.84761
 40
1.0
100
AcDbArc
 50
29.750764
 51
90.0
  0
ARC
  5
13F
100
AcDbEntity
  8
M0
100
AcDbCircle
 10
356.987174
 20
436.84761
 40
4.0
100
AcDbArc
 50
179.999781
 51
270.0
  0
LINE
  5
140
100
AcDbEntity
  8
M0
100
AcDbLine
 10
402.987174
 20
431.347854
 11
445.990348
 21
431.347854
  0
LINE
  5
141
100
AcDbEntity
  8
M0
100
AcDbLine
 10
449.990348
 20
404.416748
 11
449.990348
 21
616.583267
  0
LINE
  5
142
100
AcDbEntity
  8
M0
100
AcDbLine
 10
445.990348
 20
594.347854
 11
402.987174
 21
594.34761
  0
LINE
  5
143
100
AcDbEntity
  8
M0
100
AcDbLine
 10
392.990348
 20
592.852981
 11
392.990348
 21
432.659378
  0
LINE
  5
144
100
AcDbEntity
  8
M0
100
AcDbLine
 10
398.190299
 20
602.347122
 11
398.990348
 21
602.347122
  0
LINE
  5
145
100
AcDbEntity
  8
M0
100
AcDbLine
 10
398.990348
 20
602.347122
 11
398.990348
 21
596.347366
  0
LINE
  5
146
100
AcDbEntity
  8
M0
100
AcDbLine
 10
398.190299
 20
602.347122
 11
398.190299
 21
596.347366
  0
LINE
  5
147
100
AcDbEntity
  8
M0
  6
DASHED
100
AcDbLine
 10
448.990348
 20
592.993118
 11
448.990348
 21
432.702103
  0
ARC
  5
148
100
AcDbEntity
  8
M0
100
AcDbCircle
 10
445.990348
 20
435.347854
 40
4.0
100
AcDbArc
 50
269.999781
 51
360.0
  0
ARC
  5
149
100
AcDbEntity
  8
M0
100
AcDbCircle
 10
445.990348
 20
590.34761
 40
4.0
100
AcDbArc
 50
0.0
 51
90.0
  0
LINE
  5
14A
100
AcDbEntity
  8
M0
  6
DASHDOT
100
AcDbLine
 10
397.990348
 20
413.693039
 11
397.990348
 21
436.17218
  0
LINE
  5
14B
100
AcDbEntity
  8
M0
100
AcDbLine
 10
393.990348
 20
419.347366
 11
401.990348
 21
419.347366
  0
LINE
  5
14C
100
AcDbEntity
  8
M0
100
AcDbLine
 10
401.990348
 20
429.34761
 11
401.990348
 21
419.347366
  0
LINE
  5
14D
100
AcDbEntity
  8
M0
100
AcDbLine
 10
393.990348
 20
431.091995
 11
393.990348
 21
419.347366
  0
LINE
  5
14E
100
AcDbEntity
  8
M0
100
AcDbLine
 10
187.682586
 20
201.691063
 11
199.940642
 21
201.691063
  0
LINE
  5
14F
100
AcDbEntity
  8
M0
100
AcDbLine
 10
188.682341
 20
199.191063
 11
198.940642
 21
199.191063
  0
LINE
  5
150
100
AcDbEntity
  8
M0
100
AcDbLine
 10
189.682341
 20
196.691063
 11
197.940642
 21
196.691063
  0
LINE
  5
151
100
AcDbEntity
  8
M0
  6
DASHED
100
AcDbLine
 10
86.826659
 20
576.8476
 11
53.796691
 21
576.847621
  0
LINE
  5
152
100
AcDbEntity
  8
M0
  6
DASHED
100
AcDbLine
 10
70.311665
 20
560.332626
 11
70.311685
 21
593.362594
  0
ARC
  5
153
100
AcDbEntity
  8
M0
  6
DASHED
100
AcDbCircle
 10
70.311675
 20
576.84761
 40
3.0
100
AcDbArc
 50
0.0
 51
179.999964
  0
ARC
  5
154
100
AcDbEntity
  8
M0
  6
DASHED
100
AcDbCircle
 10
70.311644
 20
569.84761
 40
5.0
100
AcDbArc
 50
-233.130166
 51
53.130072
  0
LINE
  5
155
100
AcDbEntity
  8
M0
  6
DASHED
100
AcDbLine
 10
90.326629
 20
569.847598
 11
50.29666
 21
569.847623
  0
LINE
  5
156
100
AcDbEntity
  8
M0
  6
DASHED
100
AcDbLine
 10
70.311632
 20
549.832626
 11
70.311657
 21
589.862594
  0
LINE
  5
157
100
AcDbEntity
  8
M0
  6
DASHED
100
AcDbLine
 10
73.311648
 20
576.847608
 11
73.311646
 21
573.847608
  0
LINE
  5
158
100
AcDbEntity
  8
M0
  6
DASHED
100
AcDbLine
 10
67.31165
 20
576.84761
 11
67.311648
 21
573.84761
  0
CIRCLE
  5
159
100
AcDbEntity
  8
M0
  6
DASHED
100
AcDbCircle
 10
200.311004
 20
441.847122
 40
3.0
  0
LINE
  5
15A
100
AcDbEntity
  8
M0
  6
DASHED
100
AcDbLine
 10
218.325988
 20
441.847111
 11
182.296019
 21
441.847133
  0
LINE
  5
15B
100
AcDbEntity
  8
M0
  6
DASHED
100
AcDbLine
 10
200.310992
 20
423.832138
 11
200.311015
 21
459.862106
  0
CIRCLE
  5
15C
100
AcDbEntity
  8
M0
  6
DASHED
100
AcDbCircle
 10
70.311354
 20
441.84761
 40
3.0
  0
LINE
  5
15D
100
AcDbEntity
  8
M0
  6
DASHED
100
AcDbLine
 10
52.29634
 20
441.84761
 11
88.326369
 21
441.84761
  0
LINE
  5
15E
100
AcDbEntity
  8
M0
  6
DASHED
100
AcDbLine
 10
70.311354
 20
423.832596
 11
70.311354
 21
459.862625
  0
ARC
  5
15F
100
AcDbEntity
  8
M0
  6
DASHED
100
AcDbCircle
 10
200.311004
 20
569.84761
 40
5.0
100
AcDbArc
 50
126.869889
 51
413.130096
  0
LINE
  5
160
100
AcDbEntity
  8
M0
  6
DASHED
100
AcDbLine
 10
180.295989
 20
569.84761
 11
220.326018
 21
569.84761
  0
LINE
  5
161
100
AcDbEntity
  8
M0
  6
DASHED
100
AcDbLine
 10
200.311004
 20
549.832596
 11
200.311004
 21
589.862625
  0
LINE
  5
162
100
AcDbEntity
  8
M0
  6
DASHED
100
AcDbLine
 10
197.311004
 20
576.84761
 11
197.311004
 21
573.84761
  0
LINE
  5
163
100
AcDbEntity
  8
M0
  6
DASHED
100
AcDbLine
 10
203.311004
 20
576.84761
 11
203.311004
 21
573.84761
  0
LINE
  5
164
100
AcDbEntity
  8
M0
  6
DASHED
100
AcDbLine
 10
183.795989
 20
576.84761
 11
216.826018
 21
576.84761
  0
LINE
  5
165
100
AcDbEntity
  8
M0
  6
DASHED
100
AcDbLine
 10
200.311004
 20
560.332596
 11
200.311004
 21
593.362625
  0
ARC
  5
166
100
AcDbEntity
  8
M0
  6
DASHED
100
AcDbCircle
 10
200.311004
 20
576.84761
 40
3.0
100
AcDbArc
 50
0.0
 51
179.999964
  0
LINE
  5
167
100
AcDbEntity
  8
M0
100
AcDbLine
 10
68.311354
 20
425.84761
 11
202.311156
 21
425.84761
  0
LINE
  5
168
100
AcDbEntity
  8
M0
100
AcDbLine
 10
215.311156
 20
438.847366
 11
215.311156
 21
579.847122
  0
LINE
  5
169
100
AcDbEntity
  8
M0
100
AcDbLine
 10
202.311156
 20
592.84761
 11
68.311354
 21
592.847366
  0
LINE
  5
16A
100
AcDbEntity
  8
M0
100
AcDbLine
 10
55.311354
 20
579.847366
 11
55.311354
 21
438.84761
  0
LINE
  5
16B
100
AcDbEntity
  8
M0
  6
DASHDOT
100
AcDbLine
 10
36.425979
 20
509.34761
 11
232.464904
 21
509.34761
  0
LINE
  5
16C
100
AcDbEntity
  8
M0
  6
DASHDOT
100
AcDbLine
 10
135.311354
 20
407.152161
 11
135.311354
 21
607.886734
  0
ARC
  5
16D
100
AcDbEntity
  8
M0
100
AcDbCircle
 10
68.311354
 20
579.847366
 40
13.0
100
AcDbArc
 50
89.999933
 51
180.0
  0
ARC
  5
16E
100
AcDbEntity
  8
M0
100
AcDbCircle
 10
68.311354
 20
438.84761
 40
13.0
100
AcDbArc
 50
179.999933
 51
270.0
  0
ARC
  5
16F
100
AcDbEntity
  8
M0
100
AcDbCircle
 10
202.311156
 20
438.84761
 40
13.0
100
AcDbArc
 50
269.999933
 51
360.0
  0
ARC
  5
170
100
AcDbEntity
  8
M0
100
AcDbCircle
 10
202.311156
 20
579.847366
 40
13.0
100
AcDbArc
 50
0.0
 51
90.0
  0
LINE
  5
171
100
AcDbEntity
  8
M0
100
AcDbLine
 10
178.811156
 20
595.847366
 11
166.811156
 21
595.847366
  0
LINE
  5
172
100
AcDbEntity
  8
M0
100
AcDbLine
 10
178.811156
 20
595.84761
 11
178.811156
 21
592.847366
  0
LINE
  5
173
100
AcDbEntity
  8
M0
100
AcDbLine
 10
166.811156
 20
595.84761
 11
166.811156
 21
592.847366
  0
LINE
  5
174
100
AcDbEntity
  8
M0
100
AcDbLine
 10
103.811675
 20
595.84761
 11
103.811675
 21
592.847366
  0
LINE
  5
175
100
AcDbEntity
  8
M0
100
AcDbLine
 10
91.811675
 20
595.84761
 11
91.811675
 21
592.847366
  0
LINE
  5
176
100
AcDbEntity
  8
M0
100
AcDbLine
 10
103.811675
 20
595.847366
 11
91.811675
 21
595.847122
  0
LINE
  5
177
100
AcDbEntity
  8
M0
100
AcDbLine
 10
131.311354
 20
415.84761
 11
139.311354
 21
415.84761
  0
LINE
  5
178
100
AcDbEntity
  8
M0
100
AcDbLine
 10
139.311354
 20
425.84761
 11
139.311354
 21
415.84761
  0
LINE
  5
179
100
AcDbEntity
  8
M0
100
AcDbLine
 10
131.311354
 20
425.84761
 11
131.311354
 21
415.84761
  0
LINE
  5
17A
100
AcDbEntity
  8
M1
 62
     2
100
AcDbLine
 10
25.0
 20
25.0
 11
25.0
 21
712.499989
  0
LINE
  5
17B
100
AcDbEntity
  8
M1
 62
     2
100
AcDbLine
 10
25.0
 20
712.499989
 11
499.999993
 21
712.499989
  0
LINE
  5
17C
100
AcDbEntity
  8
M1
 62
     2
100
AcDbLine
 10
499.999993
 20
712.499989
 11
499.999993
 21
25.0
  0
LINE
  5
17D
100
AcDbEntity
  8
M1
 62
     2
100
AcDbLine
 10
499.999993
 20
25.0
 11
25.0
 21
25.0
  0
LINE
  5
17E
100
AcDbEntity
  8
M1
 62
     2
100
AcDbLine
 10
499.999993
 20
49.999999
 11
249.999996
 21
49.999999
  0
LINE
  5
17F
100
AcDbEntity
  8
M1
 62
     2
100
AcDbLine
 10
499.999993
 20
74.999999
 11
249.999996
 21
74.999999
  0
LINE
  5
180
100
AcDbEntity
  8
M1
 62
     2
100
AcDbLine
 10
499.999993
 20
99.999999
 11
249.999996
 21
99.999999
  0
LINE
  5
181
100
AcDbEntity
  8
M1
 62
     2
100
AcDbLine
 10
249.999996
 20
25.0
 11
249.999996
 21
99.999999
  0
TEXT
  5
182
100
AcDbEntity
  8
M1
 62
     2
100
AcDbText
 10
256.249996
 20
31.25
 40
12.5
  1
適　用；
  7
STANDARD
100
AcDbText
  0
TEXT
  5
183
100
AcDbEntity
  8
M1
 62
     2
100
AcDbText
 10
256.249996
 20
81.249999
 40
12.5
  1
登録名：
  7
STANDARD
100
AcDbText
  0
TEXT
  5
184
100
AcDbEntity
  8
M1
 62
     2
100
AcDbText
 10
316.249995
 20
81.249999
 40
12.5
  1
ＤＭＳＨＳ１０ＲＴＲ００
 41
0.5
  7
STANDARD
100
AcDbText
  0
TEXT
  5
185
100
AcDbEntity
  8
M1
 62
     2
100
AcDbText
 10
256.249996
 20
56.249999
 40
12.5
  1
形　式；
  7
STANDARD
100
AcDbText
  0
TEXT
  5
186
100
AcDbEntity
  8
M1
 62
     2
100
AcDbText
 10
316.249995
 20
56.249999
 40
12.5
  1
ＳＨＳ１０－ＲＴ
 41
0.5
  7
STANDARD
100
AcDbText
  0
ENDSEC
  0
SECTION
  2
OBJECTS
  0
DICTIONARY
  5
C
100
AcDbDictionary
  3
ACAD_GROUP
350
D
  3
ACAD_MLINESTYLE
350
E
  0
DICTIONARY
  5
D
102
{ACAD_REACTORS
330
C
102
}
100
AcDbDictionary
  0
DICTIONARY
  5
E
102
{ACAD_REACTORS
330
C
102
}
100
AcDbDictionary
  3
STANDARD
350
13
  0
MLINESTYLE
  5
13
102
{ACAD_REACTORS
330
E
102
}
100
AcDbMlineStyle
  2
STANDARD
 70
     0
  3

 62
     0
 51
90.0
 52
90.0
 71
     2
 49
0.5
 62
   256
  6
BYLAYER
 49
-0.5
 62
   256
  6
BYLAYER
  0
ENDSEC
  0
EOF
