  0
SECTION
  2
HEADER
  9
$ACADVER
  1
AC1009
  9
$INSBASE
 10
0.000000
 20
0.000000
 30
0.0
  9
$VIEWCTR
 10
7.531722
 20
4.5
  9
$VIEWSIZE
 40
9.0
  9
$SNAPMODE
 70
     0
  9
$SNAPUNIT
 10
1.0
 20
1.0
  9
$SNAPBASE
 10
0.0
 20
0.0
  9
$SNAPANG
 50
0.0
  9
$SNAPSTYLE
 70
     0
  9
$SNAPISOPAIR
 70
     0
  9
$GRIDMODE
 70
     0
  9
$GRIDUNIT
 10
0.0
 20
0.0
  9
$ORTHOMODE
 70
     0
  9
$REGENMODE
 70
     1
  9
$FILLMODE
 70
     1
  9
$QTEXTMODE
 70
     0
  9
$DRAGMODE
 70
     2
  9
$LTSCALE
  40
     1.000000
  9
$OSMODE
 70
     0
  9
$ATTMODE
 70
     1
  9
$TEXTSIZE
 40
0.2
  9
$TRACEWID
 40
0.05
  9
$TEXTSTYLE
  7
STANDARD
  9
$CELTYPE
  6
BYLAYER
  9
$CECOLOR
 62
   256
  9
$DIMSCALE
 40
1.0
  9
$DIMASZ
 40
0.18
  9
$DIMEXO
 40
0.0625
  9
$DIMDLI
 40
0.38
  9
$DIMRND
 40
0.0
  9
$DIMDLE
 40
0.0
  9
$DIMEXE
 40
0.18
  9
$DIMTP
 40
0.0
  9
$DIMTM
 40
0.0
  9
$DIMTXT
 40
0.18
  9
$DIMCEN
 40
0.09
  9
$DIMTSZ
 40
0.0
  9
$DIMTOL
 70
     0
  9
$DIMLIM
 70
     0
  9
$DIMTIH
 70
     1
  9
$DIMTOH
 70
     1
  9
$DIMSE1
 70
     0
  9
$DIMSE2
 70
     0
  9
$DIMTAD
 70
     0
  9
$DIMZIN
 70
     0
  9
$DIMBLK
  1

  9
$LUNITS
 70
     2
  9
$LUPREC
 70
     4
  9
$AXISMODE
 70
     0
  9
$AXISUNIT
 10
0.0
 20
0.0
  9
$SKETCHINC
 40
0.1
  9
$FILLETRAD
 40
0.0
  9
$AUNITS
 70
     0
  9
$AUPREC
 70
     0
  9
$MENU
  1
ACAD
  9
$ELEVATION
 40
0.0
  9
$THICKNESS
 40
0.0
  9
$VIEWDIR
 10
0.0
 20
0.0
 30
1.0
  9
$LIMCHECK
 70
     0
  9
$BLIPMODE
 70
     1
  9
$CHAMFERA
 40
0.0
  9
$CHAMFERB
 40
0.0
  9
$FASTZOOM
 70
     1
  9
$SKPOLY
 70
     0
  9
$TDCREATE
 40
0000000.0000000000
  9
$TDUPDATE
 40
0000000.0000000000
  9
$TDINDWG
 40
0.0000000000
  9
$TDUSRTIMER
 40
0.0000000000
  9
$USRTIMER
 70
     1
  9
$ANGBASE
 50
0.0
  9
$ANGDIR
 70
     0
  9
$PDMODE
 70
     0
  9
$PDSIZE
 40
0.0
  9
$PLINEWID
 40
0.0
  9
$COORDS
 70
     0
  9
$USERI1
 70
     0
  9
$USERI2
 70
     0
  9
$USERI3
 70
     0
  9
$USERI4
 70
     0
  9
$USERI5
 70
     0
  9
$USERR1
 40
0.0
  9
$USERR2
 40
0.0
  9
$USERR3
 40
0.0
  9
$USERR4
 40
0.0
  9
$USERR5
 40
0.0
  9
$CLAYER
  8
M0
  9
$EXTMIN
 10
14.717987
 20
15.85014
  9
$EXTMAX
 10
300.003268
 20
428.763047
  9
$LIMMIN
 10
0.0
 20
0.0
  9
$LIMMAX
 10
210.0
 20
297.0
  0
ENDSEC
  0
SECTION
  2
TABLES
  0
TABLE
  2
VPORT
  0
VPORT
  2
*ACTIVE
 70
     0
 10
0.0
 20
0.0
 11
1.0
 21
1.0
 12
484.0
 22
297.0
 13
0.0
 23
0.0
 14
1.0
 24
1.0
 15
0.0
 25
0.0
 16
0.0
 26
0.0
 36
1.0
 17
0.0
 27
0.0
 37
0.0
 40
594.0
 41
2.0
 42
50.0
 43
0.0
 44
0.0
 50
0.0
 51
0.0
 71
     0
 72
   100
 73
     1
 74
     1
 75
     0
 76
     0
 77
     0
 78
     0
  0
ENDTAB
  0
TABLE
  2
LTYPE
 70
     5
  0
LTYPE
  2
CONTINUOUS
 70
    64
  3
Solid line
 72
    65
 73
     0
 40
0.0
  0
LTYPE
  2
DASHED
 70
    64
  3
__ __ __ __ __ __ __ __ __ __ __ __ __ __ __ __
 72
    65
 73
     2
 40
0.75
 49
0.5
 49
-0.25
  0
LTYPE
  2
DASHDOT
 70
    64
  3
__ . __ . __ . __ . __ . __ . __ . __ . __ . __
 72
    65
 73
     4
 40
1.0
 49
0.5
 49
-0.25
 49
0.0
 49
-0.25
  0
LTYPE
  2
DIVIDE
 70
    64
  3
____ . . ____ . . ____ . . ____ . . ____ . . __
 72
    65
 73
     6
 40
1.25
 49
0.5
 49
-0.25
 49
0.0
 49
-0.25
 49
0.0
 49
-0.25
  0
LTYPE
  2
DOT
 70
    64
  3
. . . . . . . . . . . . . . . . . . . . . . . .
 72
    65
 73
     2
 40
0.25
 49
0.0
 49
-0.25
  0
ENDTAB
  0
TABLE
  2
LAYER
 70
   102
  0
LAYER
  2
0
 70
     0
 62
     7
  6
CONTINUOUS
  0
LAYER
  2
M0
 70
     0
 62
     3
  6
CONTINUOUS
  0
LAYER
  2
M3
 70
     0
 62
     3
  6
CONTINUOUS
  0
LAYER
  2
DD0
 70
     0
 62
     4
  6
CONTINUOUS
  0
LAYER
  2
DN0
 70
     0
 62
     2
  6
CONTINUOUS
  0
ENDTAB
  0
TABLE
  2
STYLE
 70
     2
  0
STYLE
  2
STANDARD
 70
     0
 40
0.0
 41
1.0
 50
0.0
 71
     0
 42
0.2
  3
txt
  4
BIGFONT
  0
ENDTAB
  0
TABLE
  2
VIEW
 70
     0
  0
ENDTAB
  0
TABLE
  2
DIMSTYLE
 70
     2
  0
DIMSTYLE
  2
STANDARD
 70
     0
  3

  4

  5

  6
_OPEN
  7
_OPEN
 40
1.0
 41
4.504504
 42
1.0
 43
8.0
 44
1.0
 45
0.0
 46
0.0
 47
0.0
 48
0.0
140
4.72973
141
0.09
142
0.0
143
0.03937
144
1.0
145
0.0
146
1.0
147
0.6
 71
     0
 72
     0
 73
     1
 74
     1
 75
     0
 76
     0
 77
     3
 78
     8
170
     0
171
     2
172
     0
173
     1
174
     0
175
     0
176
     0
177
     0
178
     0
  0
ENDTAB
  0
ENDSEC
  0
SECTION
  2
BLOCKS
  0
BLOCK
  8
DD0
  2
DIMS0
 70
     0
 10
0.0
 20
0.0
  0
LINE
  8
DD0
 10
260.226685
 20
283.690876
 11
260.226685
 21
206.921755
  0
LINE
  8
DD0
 10
177.426711
 20
259.241966
 11
177.426711
 21
206.921755
  0
LINE
  8
DD0
 10
255.875667
 20
207.257405
 11
260.226685
 21
208.423257
  0
LINE
  8
DD0
 10
260.226685
 20
208.423257
 11
255.875667
 21
209.589108
  0
LINE
  8
DD0
 10
181.777728
 20
209.589108
 11
177.426711
 21
208.423257
  0
LINE
  8
DD0
 10
177.426711
 20
208.423257
 11
181.777728
 21
207.257405
  0
LINE
  8
DD0
 10
260.226685
 20
208.423257
 11
177.426711
 21
208.423257
  0
TEXT
  8
DD0
 10
216.081449
 20
209.324167
 40
3.753754
  1
８３
 41
0.666667
  7
STANDARD
  0
ENDBLK
  8
DD0
  0
BLOCK
  8
DD0
  2
DIMS1
 70
     0
 10
0.0
 20
0.0
  0
LINE
  8
DD0
 10
59.400575
 20
276.443867
 11
59.400575
 21
381.031341
  0
LINE
  8
DD0
 10
104.400633
 20
274.943878
 11
104.400633
 21
381.031341
  0
LINE
  8
DD0
 10
63.751592
 20
380.695691
 11
59.400575
 21
379.529839
  0
LINE
  8
DD0
 10
59.400575
 20
379.529839
 11
63.751592
 21
378.363988
  0
LINE
  8
DD0
 10
100.049616
 20
378.363988
 11
104.400633
 21
379.529839
  0
LINE
  8
DD0
 10
104.400633
 20
379.529839
 11
100.049616
 21
380.695691
  0
LINE
  8
DD0
 10
59.400575
 20
379.529839
 11
104.400633
 21
379.529839
  0
TEXT
  8
DD0
 10
79.155361
 20
380.430749
 40
3.753754
  1
４５
 41
0.666667
  7
STANDARD
  0
ENDBLK
  8
DD0
  0
BLOCK
  8
DD0
  2
DIMS2
 70
     0
 10
0.0
 20
0.0
  0
LINE
  8
DD0
 10
179.12668
 20
330.243883
 11
179.12668
 21
388.352398
  0
LINE
  8
DD0
 10
255.875667
 20
385.685045
 11
260.226685
 21
386.850896
  0
LINE
  8
DD0
 10
260.226685
 20
386.850896
 11
255.875667
 21
388.016748
  0
LINE
  8
DD0
 10
183.477697
 20
388.016748
 11
179.12668
 21
386.850896
  0
LINE
  8
DD0
 10
179.12668
 20
386.850896
 11
183.477697
 21
385.685045
  0
LINE
  8
DD0
 10
260.226685
 20
386.850896
 11
179.12668
 21
386.850896
  0
TEXT
  8
DD0
 10
216.931428
 20
387.751806
 40
3.753754
  1
８１
 41
0.666667
  7
STANDARD
  0
ENDBLK
  8
DD0
  0
BLOCK
  8
DD0
  2
DIMS3
 70
     0
 10
0.0
 20
0.0
  0
LINE
  8
DD0
 10
249.226679
 20
353.743884
 11
249.226679
 21
366.461649
  0
LINE
  8
DD0
 10
264.577702
 20
366.125999
 11
260.226685
 21
364.960147
  0
LINE
  8
DD0
 10
260.226685
 20
364.960147
 11
264.577702
 21
363.794296
  0
LINE
  8
DD0
 10
244.875661
 20
363.794296
 11
249.226679
 21
364.960147
  0
LINE
  8
DD0
 10
249.226679
 20
364.960147
 11
244.875661
 21
366.125999
  0
LINE
  8
DD0
 10
265.181639
 20
364.960147
 11
244.271724
 21
364.960147
  0
TEXT
  8
DD0
 10
251.981439
 20
365.861057
 40
3.753754
  1
１１
 41
0.666667
  7
STANDARD
  0
ENDBLK
  8
DD0
  0
BLOCK
  8
DD0
  2
DIMS4
 70
     0
 10
0.0
 20
0.0
  0
LINE
  8
DD0
 10
260.226685
 20
353.793876
 11
260.226685
 21
395.29336
  0
LINE
  8
DD0
 10
147.826688
 20
320.843873
 11
147.826688
 21
395.29336
  0
LINE
  8
DD0
 10
255.875667
 20
392.626007
 11
260.226685
 21
393.791858
  0
LINE
  8
DD0
 10
260.226685
 20
393.791858
 11
255.875667
 21
394.95771
  0
LINE
  8
DD0
 10
152.177705
 20
394.95771
 11
147.826688
 21
393.791858
  0
LINE
  8
DD0
 10
147.826688
 20
393.791858
 11
152.177705
 21
392.626007
  0
LINE
  8
DD0
 10
260.226685
 20
393.791858
 11
147.826688
 21
393.791858
  0
TEXT
  8
DD0
 10
168.248399
 20
394.692768
 40
3.753754
  1
１１２（補助接点ヘッドオンユニットを付けた場合）
 41
0.666667
  7
STANDARD
  0
ENDBLK
  8
DD0
  0
BLOCK
  8
DD0
  2
DIMS5
 70
     0
 10
0.0
 20
0.0
  0
LINE
  8
DD0
 10
174.126677
 20
362.543875
 11
174.126677
 21
373.595064
  0
LINE
  8
DD0
 10
179.12668
 20
330.243883
 11
179.12668
 21
373.595064
  0
LINE
  8
DD0
 10
169.77566
 20
370.927711
 11
174.126677
 21
372.093562
  0
LINE
  8
DD0
 10
174.126677
 20
372.093562
 11
169.77566
 21
373.259414
  0
LINE
  8
DD0
 10
183.477697
 20
373.259414
 11
179.12668
 21
372.093562
  0
LINE
  8
DD0
 10
179.12668
 20
372.093562
 11
183.477697
 21
370.927711
  0
LINE
  8
DD0
 10
164.667218
 20
372.093562
 11
184.081635
 21
372.093562
  0
TEXT
  8
DD0
 10
165.991038
 20
372.994473
 40
3.753754
  1
５
 41
0.666667
  7
STANDARD
  0
ENDBLK
  8
DD0
  0
BLOCK
  8
DD0
  2
DIMS6
 70
     0
 10
0.0
 20
0.0
  0
LINE
  8
DD0
 10
99.127576
 20
361.442378
 11
134.090021
 21
361.442378
  0
LINE
  8
DD0
 10
92.40207
 20
226.442374
 11
134.090021
 21
226.442374
  0
LINE
  8
DD0
 10
133.754371
 20
357.091361
 11
132.588519
 21
361.442378
  0
LINE
  8
DD0
 10
132.588519
 20
361.442378
 11
131.422668
 21
357.091361
  0
LINE
  8
DD0
 10
131.422668
 20
230.793391
 11
132.588519
 21
226.442374
  0
LINE
  8
DD0
 10
132.588519
 20
226.442374
 11
133.754371
 21
230.793391
  0
LINE
  8
DD0
 10
132.588519
 20
361.442378
 11
132.588519
 21
226.442374
  0
TEXT
  8
DD0
 10
131.687621
 20
289.69562
 40
3.753754
  1
１３５
 50
90.000003
 41
0.666667
  7
STANDARD
  0
ENDBLK
  8
DD0
  0
BLOCK
  8
DD0
  2
DIMS7
 70
     0
 10
0.0
 20
0.0
  0
LINE
  8
DD0
 10
76.176072
 20
339.94389
 11
76.176072
 21
373.595064
  0
LINE
  8
DD0
 10
86.276073
 20
339.94389
 11
86.276073
 21
373.595064
  0
LINE
  8
DD0
 10
71.825055
 20
370.927711
 11
76.176072
 21
372.093562
  0
LINE
  8
DD0
 10
76.176072
 20
372.093562
 11
71.825055
 21
373.259414
  0
LINE
  8
DD0
 10
90.62709
 20
373.259414
 11
86.276073
 21
372.093562
  0
LINE
  8
DD0
 10
86.276073
 20
372.093562
 11
90.62709
 21
370.927711
  0
LINE
  8
DD0
 10
71.221118
 20
372.093562
 11
91.231028
 21
372.093562
  0
TEXT
  8
DD0
 10
78.48083
 20
372.994473
 40
3.753754
  1
１０
 41
0.666667
  7
STANDARD
  0
ENDBLK
  8
DD0
  0
BLOCK
  8
DD0
  2
DIMS8
 70
     0
 10
0.0
 20
0.0
  0
LINE
  8
DD0
 10
115.226068
 20
348.243892
 11
115.226068
 21
395.293405
  0
LINE
  8
DD0
 10
47.226075
 20
348.243892
 11
47.226075
 21
395.293405
  0
LINE
  8
DD0
 10
110.875051
 20
392.626052
 11
115.226068
 21
393.791904
  0
LINE
  8
DD0
 10
115.226068
 20
393.791904
 11
110.875051
 21
394.957755
  0
LINE
  8
DD0
 10
51.577092
 20
394.957755
 11
47.226075
 21
393.791904
  0
LINE
  8
DD0
 10
47.226075
 20
393.791904
 11
51.577092
 21
392.626052
  0
LINE
  8
DD0
 10
115.226068
 20
393.791904
 11
47.226075
 21
393.791904
  0
TEXT
  8
DD0
 10
78.48083
 20
394.692814
 40
3.753754
  1
６８
 41
0.666667
  7
STANDARD
  0
TEXT
  8
DD0
 10
49.952302
 20
388.836967
 40
3.753754
  1
（補助接点サイドオンユニットを付けた場合）
 41
0.666667
  7
STANDARD
  0
ENDBLK
  8
DD0
  0
BLOCK
  8
DD0
  2
DIMS9
 70
     0
 10
0.0
 20
0.0
  0
LINE
  8
DD0
 10
85.400566
 20
228.240826
 11
85.400566
 21
214.308361
  0
LINE
  8
DD0
 10
75.400566
 20
228.240826
 11
75.400566
 21
214.308361
  0
LINE
  8
DD0
 10
89.751583
 20
216.975714
 11
85.400566
 21
215.809862
  0
LINE
  8
DD0
 10
85.400566
 20
215.809862
 11
89.751583
 21
214.644011
  0
LINE
  8
DD0
 10
71.049549
 20
214.644011
 11
75.400566
 21
215.809862
  0
LINE
  8
DD0
 10
75.400566
 20
215.809862
 11
71.049549
 21
216.975714
  0
LINE
  8
DD0
 10
90.355521
 20
215.809862
 11
70.445611
 21
215.809862
  0
TEXT
  8
DD0
 10
77.65532
 20
216.710772
 40
3.753754
  1
１０
 41
0.666667
  7
STANDARD
  0
ENDBLK
  8
DD0
  0
BLOCK
  8
DD0
  2
DIMS10
 70
     0
 10
0.0
 20
0.0
  0
TEXT
  8
DD0
 10
111.817171
 20
113.684724
 40
3.753754
  1
２－Ｍ４ねじ穴
 41
0.666667
  7
STANDARD
  0
LINE
  8
DD0
 10
101.467892
 20
121.817109
 11
97.964002
 21
124.647889
  0
LINE
  8
DD0
 10
97.964002
 20
124.647889
 11
99.58307
 21
120.444417
  0
LINE
  8
DD0
 10
97.964002
 20
124.647889
 11
106.604452
 21
112.783826
  0
LINE
  8
DD0
 10
106.604452
 20
112.783826
 11
137.535391
 21
112.783826
  0
ENDBLK
  8
DD0
  0
BLOCK
  8
DD0
  2
DIMS11
 70
     0
 10
0.0
 20
0.0
  0
LINE
  8
DD0
 10
68.999487
 20
180.895164
 11
122.710733
 21
180.895164
  0
LINE
  8
DD0
 10
102.499482
 20
125.895181
 11
122.710733
 21
125.895181
  0
LINE
  8
DD0
 10
122.375083
 20
176.544147
 11
121.209232
 21
180.895164
  0
LINE
  8
DD0
 10
121.209232
 20
180.895164
 11
120.04338
 21
176.544147
  0
LINE
  8
DD0
 10
120.04338
 20
130.246198
 11
121.209232
 21
125.895181
  0
LINE
  8
DD0
 10
121.209232
 20
125.895181
 11
122.375083
 21
130.246198
  0
LINE
  8
DD0
 10
121.209232
 20
180.895164
 11
121.209232
 21
125.895181
  0
TEXT
  8
DD0
 10
120.308333
 20
150.64993
 40
3.753754
  1
５５
 50
90.000003
 41
0.666667
  7
STANDARD
  0
ENDBLK
  8
DD0
  0
BLOCK
  8
DD0
  2
DIMS12
 70
     0
 10
0.0
 20
0.0
  0
LINE
  8
DD0
 10
68.999487
 20
180.895164
 11
122.710722
 21
180.895164
  0
LINE
  8
DD0
 10
99.402074
 20
196.395184
 11
122.710722
 21
196.395184
  0
LINE
  8
DD0
 10
120.043369
 20
185.246182
 11
121.20922
 21
180.895164
  0
LINE
  8
DD0
 10
121.20922
 20
180.895164
 11
122.375072
 21
185.246182
  0
LINE
  8
DD0
 10
122.375072
 20
192.044167
 11
121.20922
 21
196.395184
  0
LINE
  8
DD0
 10
121.20922
 20
196.395184
 11
120.043369
 21
192.044167
  0
LINE
  8
DD0
 10
121.20922
 20
180.895164
 11
121.20922
 21
210.846884
  0
TEXT
  8
DD0
 10
120.308322
 20
197.591119
 40
3.753754
  1
１５．５
 50
90.000003
 41
0.666667
  7
STANDARD
  0
ENDBLK
  8
DD0
  0
BLOCK
  8
DD0
  2
DIMS13
 70
     0
 10
0.0
 20
0.0
  0
LINE
  8
DD0
 10
63.400571
 20
186.494063
 11
63.400571
 21
205.364442
  0
LINE
  8
DD0
 10
96.400572
 20
131.99408
 11
96.400572
 21
205.364442
  0
LINE
  8
DD0
 10
67.751588
 20
205.028792
 11
63.400571
 21
203.862941
  0
LINE
  8
DD0
 10
63.400571
 20
203.862941
 11
67.751588
 21
202.697089
  0
LINE
  8
DD0
 10
92.049555
 20
202.697089
 11
96.400572
 21
203.862941
  0
LINE
  8
DD0
 10
96.400572
 20
203.862941
 11
92.049555
 21
205.028792
  0
LINE
  8
DD0
 10
63.400571
 20
203.862941
 11
96.400572
 21
203.862941
  0
TEXT
  8
DD0
 10
77.155332
 20
204.763851
 40
3.753754
  1
３３
 41
0.666667
  7
STANDARD
  0
ENDBLK
  8
DD0
  0
BLOCK
  8
DD0
  2
DIMS14
 70
     0
 10
0.0
 20
0.0
  0
LINE
  8
DD0
 10
63.400571
 20
186.494063
 11
63.400571
 21
205.364442
  0
LINE
  8
DD0
 10
59.400575
 20
187.371627
 11
59.400575
 21
205.364442
  0
LINE
  8
DD0
 10
67.751588
 20
205.028792
 11
63.400571
 21
203.862941
  0
LINE
  8
DD0
 10
63.400571
 20
203.862941
 11
67.751588
 21
202.697089
  0
LINE
  8
DD0
 10
55.049558
 20
202.697089
 11
59.400575
 21
203.862941
  0
LINE
  8
DD0
 10
59.400575
 20
203.862941
 11
55.049558
 21
205.028792
  0
LINE
  8
DD0
 10
68.355526
 20
203.862941
 11
51.272681
 21
203.862941
  0
TEXT
  8
DD0
 10
53.031942
 20
204.763851
 40
3.753754
  1
４
 41
0.666667
  7
STANDARD
  0
ENDBLK
  8
DD0
  0
ENDSEC
  0
SECTION
  2
ENTITIES
  0
INSERT
  8
DD0
  2
DIMS0
 10
0.0
 20
0.0
  0
INSERT
  8
DD0
  2
DIMS1
 10
0.0
 20
0.0
  0
INSERT
  8
DD0
  2
DIMS2
 10
0.0
 20
0.0
  0
INSERT
  8
DD0
  2
DIMS3
 10
0.0
 20
0.0
  0
INSERT
  8
DD0
  2
DIMS4
 10
0.0
 20
0.0
  0
INSERT
  8
DD0
  2
DIMS5
 10
0.0
 20
0.0
  0
INSERT
  8
DD0
  2
DIMS6
 10
0.0
 20
0.0
  0
INSERT
  8
DD0
  2
DIMS7
 10
0.0
 20
0.0
  0
INSERT
  8
DD0
  2
DIMS8
 10
0.0
 20
0.0
  0
INSERT
  8
DD0
  2
DIMS9
 10
0.0
 20
0.0
  0
INSERT
  8
DD0
  2
DIMS10
 10
0.0
 20
0.0
  0
INSERT
  8
DD0
  2
DIMS11
 10
0.0
 20
0.0
  0
INSERT
  8
DD0
  2
DIMS12
 10
0.0
 20
0.0
  0
INSERT
  8
DD0
  2
DIMS13
 10
0.0
 20
0.0
  0
INSERT
  8
DD0
  2
DIMS14
 10
0.0
 20
0.0
  0
LINE
  8
M0
 10
255.926683
 20
274.643622
 11
252.926684
 21
274.643622
  0
LINE
  8
M0
 10
252.926684
 20
274.643622
 11
252.926684
 21
270.94361
  0
LINE
  8
M0
 10
252.926684
 20
272.94361
 11
255.926683
 21
272.94361
  0
ARC
  8
M0
 10
247.426684
 20
242.943626
 40
1.0
 50
-90.0
 51
0.0
  0
LINE
  8
M0
 10
248.426684
 20
246.443626
 11
248.426684
 21
242.443626
  0
LINE
  8
M0
 10
255.926683
 20
274.643622
 11
255.926683
 21
247.943626
  0
LINE
  8
M0
 10
254.926683
 20
246.943626
 11
248.926684
 21
246.943626
  0
ARC
  8
M0
 10
254.926683
 20
247.943626
 40
1.0
 50
-90.0
 51
0.0
  0
LINE
  8
M0
 10
247.426684
 20
241.943626
 11
231.426716
 21
241.943626
  0
LINE
  8
M0
 10
236.32816
 20
240.44364
 11
231.024784
 21
240.44364
  0
LINE
  8
M0
 10
181.926716
 20
270.94361
 11
186.42667
 21
270.94361
  0
LINE
  8
M0
 10
181.926716
 20
270.94361
 11
181.926716
 21
255.943626
  0
ARC
  8
M0
 10
236.32816
 20
244.443626
 40
4.0
 50
270.0
 51
321.318
  0
LINE
  8
M0
 10
215.726746
 20
270.94361
 11
252.926684
 21
270.94361
  0
ARC
  8
M0
 10
183.926716
 20
270.94361
 40
0.9
 50
180.0
 51
359.999939
  0
LINE
  8
M0
 10
183.726719
 20
259.943622
 11
183.726719
 21
255.943626
  0
LINE
  8
M0
 10
181.926716
 20
259.943622
 11
183.726719
 21
259.943622
  0
LINE
  8
M0
 10
185.326741
 20
259.943625
 11
185.326725
 21
255.943626
  0
LINE
  8
M0
 10
187.326725
 20
250.943626
 11
187.326725
 21
259.94361
  0
LINE
  8
M0
 10
181.926716
 20
255.943626
 11
187.326725
 21
255.943626
  0
LINE
  8
M0
 10
193.326741
 20
244.943626
 11
198.426732
 21
244.943626
  0
LINE
  8
M0
 10
200.297322
 20
242.943626
 11
190.226735
 21
242.943626
  0
LINE
  8
M0
 10
184.226735
 20
255.943626
 11
184.226735
 21
248.943626
  0
ARC
  8
M0
 10
190.226735
 20
248.943626
 40
6.0
 50
179.999982
 51
270.0
  0
ARC
  8
M0
 10
248.926684
 20
246.443626
 40
0.5
 50
90.0
 51
179.999891
  0
LINE
  8
M0
 10
231.426716
 20
241.943672
 11
228.465062
 21
230.890692
  0
LINE
  8
M0
 10
211.740254
 20
226.443625
 11
222.669514
 21
226.443625
  0
LINE
  8
M0
 10
213.426747
 20
228.943625
 11
224.874043
 21
228.943625
  0
ARC
  8
M0
 10
224.874043
 20
232.943625
 40
4.0
 50
270.0
 51
344.999779
  0
ARC
  8
M0
 10
222.669514
 20
232.443625
 40
6.0
 50
270.0
 51
344.999849
  0
LINE
  8
M0
 10
207.426732
 20
232.44364
 11
207.426732
 21
239.943625
  0
ARC
  8
M0
 10
213.426732
 20
234.943625
 40
6.0
 50
179.999854
 51
270.0
  0
ARC
  8
M0
 10
213.426732
 20
232.44364
 40
6.0
 50
179.999854
 51
270.0
  0
LINE
  8
M0
 10
202.426732
 20
243.443626
 11
202.426732
 21
246.943611
  0
LINE
  8
M0
 10
199.426732
 20
242.943626
 11
199.426732
 21
246.943611
  0
LINE
  8
M0
 10
199.426732
 20
246.943611
 11
202.426732
 21
246.943611
  0
ARC
  8
M0
 10
198.426732
 20
245.943626
 40
1.0
 50
270.0
 51
360.0
  0
LINE
  8
M0
 10
181.926716
 20
259.943625
 11
187.326725
 21
259.943625
  0
LINE
  8
M0
 10
181.926716
 20
268.843604
 11
182.926838
 21
268.843604
  0
LINE
  8
M0
 10
182.926716
 20
261.643607
 11
188.626728
 21
261.643607
  0
ARC
  8
M0
 10
189.626728
 20
261.643607
 40
1.0
 50
90.0
 51
180.0
  0
ARC
  8
M0
 10
189.626728
 20
261.643607
 40
1.0
 50
90.0
 51
180.0
  0
LINE
  8
M0
 10
182.926716
 20
260.443625
 11
182.926716
 21
268.843604
  0
ARC
  8
M0
 10
193.326725
 20
250.943626
 40
6.0
 50
179.999982
 51
270.0
  0
LINE
  8
M0
 10
205.926732
 20
265.94361
 11
205.926732
 21
267.9437
  0
LINE
  8
M0
 10
205.926732
 20
266.94361
 11
215.926716
 21
266.94361
  0
LINE
  8
M0
 10
215.926716
 20
266.94361
 11
215.926716
 21
270.94361
  0
LINE
  8
M0
 10
202.926732
 20
266.94361
 11
202.926732
 21
265.94361
  0
LINE
  8
M0
 10
202.926732
 20
265.94361
 11
205.926732
 21
265.94361
  0
LINE
  8
M0
 10
197.926716
 20
266.94361
 11
202.926732
 21
266.94361
  0
LINE
  8
M0
 10
197.926716
 20
266.642844
 11
197.926716
 21
266.94361
  0
LINE
  8
M0
 10
194.622578
 20
262.955868
 11
197.789708
 21
266.298987
  0
ARC
  8
M0
 10
193.896626
 20
263.643607
 40
1.0
 50
270.0
 51
316.548838
  0
ARC
  8
M0
 10
197.426716
 20
266.642844
 40
0.5
 50
316.55055
 51
359.999891
  0
ARC
  8
M0
 10
183.426716
 20
260.443625
 40
0.5
 50
180.0
 51
270.0
  0
LINE
  8
M0
 10
205.126652
 20
233.943625
 11
205.126667
 21
241.74362
  0
LINE
  8
M0
 10
205.126652
 20
233.943625
 11
205.944691
 21
230.890753
  0
ARC
  8
M0
 10
211.740239
 20
232.44361
 40
6.0
 50
194.999447
 51
270.0
  0
LINE
  8
M0
 10
211.740223
 20
226.44364
 11
217.629002
 21
226.44364
  0
LINE
  8
M0
 10
206.92664
 20
239.943625
 11
203.419438
 21
243.450813
  0
ARC
  8
M0
 10
203.065892
 20
243.097267
 40
0.5
 50
44.999382
 51
105.000039
  0
LINE
  8
M0
 10
202.936482
 20
243.580223
 11
200.814946
 21
243.011772
  0
ARC
  8
M0
 10
200.297322
 20
244.943611
 40
2.0
 50
270.0
 51
285.00001
  0
LINE
  8
M0
 10
207.426732
 20
239.943625
 11
206.92664
 21
239.943625
  0
LINE
  8
M0
 10
189.215118
 20
262.643607
 11
193.896626
 21
262.643607
  0
LINE
  8
M0
 10
252.626704
 20
273.443476
 11
252.6267
 21
270.943477
  0
LINE
  8
M0
 10
196.626805
 20
273.443534
 11
252.626713
 21
273.443473
  0
LINE
  8
M0
 10
245.426732
 20
287.543463
 11
249.226683
 21
287.543463
  0
LINE
  8
M0
 10
244.926732
 20
287.043448
 11
244.926747
 21
279.443473
  0
LINE
  8
M0
 10
249.226683
 20
284.243476
 11
248.426762
 21
284.243476
  0
LINE
  8
M0
 10
248.926732
 20
282.043475
 11
250.426747
 21
282.043475
  0
LINE
  8
M0
 10
250.926732
 20
281.543475
 11
250.926716
 21
273.443473
  0
LINE
  8
M0
 10
244.926732
 20
282.043494
 11
242.239247
 21
273.443534
  0
ARC
  8
M0
 10
248.926726
 20
283.043484
 40
1.0
 50
180.0
 51
270.0
  0
LINE
  8
M0
 10
247.926747
 20
283.743476
 11
247.926732
 21
283.043475
  0
LINE
  8
M0
 10
186.926762
 20
276.143613
 11
189.426793
 21
276.143607
  0
LINE
  8
M0
 10
186.926869
 20
276.143613
 11
186.926869
 21
272.4436
  0
LINE
  8
M0
 10
189.426762
 20
272.443595
 11
185.249592
 21
272.443595
  0
LINE
  8
M0
 10
183.926716
 20
273.943606
 11
183.22675
 21
273.943606
  0
ARC
  8
M0
 10
183.926716
 20
270.943606
 40
2.0
 50
-5.395866E-005
 51
179.999982
  0
LINE
  8
M0
 10
182.726735
 20
272.543614
 11
182.726735
 21
273.443608
  0
LINE
  8
M0
 10
183.926716
 20
273.943606
 11
185.249592
 21
272.443602
  0
ARC
  8
M0
 10
183.22675
 20
273.443606
 40
0.5
 50
90.0
 51
180.0
  0
LINE
  8
M0
 10
183.926716
 20
272.943606
 11
182.726735
 21
272.943608
  0
ARC
  8
M0
 10
183.926686
 20
270.643618
 40
1.199999
 50
14.476158
 51
165.522385
  0
LINE
  8
M0
 10
234.926732
 20
270.943503
 11
215.426762
 21
270.943503
  0
LINE
  8
M0
 10
182.926838
 20
262.143622
 11
188.426838
 21
262.143611
  0
LINE
  8
M0
 10
188.926838
 20
262.643622
 11
194.126728
 21
262.643592
  0
ARC
  8
M0
 10
188.926838
 20
262.143611
 40
0.5
 50
90.0
 51
179.999891
  0
LINE
  8
M0
 10
215.426762
 20
267.943547
 11
202.926732
 21
267.943572
  0
LINE
  8
M0
 10
215.426762
 20
267.943534
 11
215.426762
 21
270.943503
  0
LINE
  8
M0
 10
196.626805
 20
268.943579
 11
182.926838
 21
268.94361
  0
ARC
  8
M0
 10
250.426747
 20
278.943473
 40
0.5
 50
359.999891
 51
450.0
  0
ARC
  8
M0
 10
250.426747
 20
281.543475
 40
0.5
 50
359.999891
 51
450.0
  0
ARC
  8
M0
 10
248.426747
 20
283.743476
 40
0.5
 50
90.0
 51
180.0
  0
ARC
  8
M0
 10
245.426732
 20
287.043463
 40
0.5
 50
90.0
 51
180.0
  0
LINE
  8
M0
 10
182.76479
 20
270.943549
 11
181.926716
 21
270.94361
  0
LINE
  8
M0
 10
250.426762
 20
279.443473
 11
244.114232
 21
279.443473
  0
LINE
  8
M0
 10
186.926777
 20
276.143592
 11
189.426808
 21
276.143592
  0
LINE
  8
M0
 10
186.926884
 20
276.143592
 11
186.926899
 21
272.443595
  0
LINE
  8
M0
 10
189.426884
 20
276.143592
 11
189.426899
 21
272.443595
  0
LINE
  8
M0
 10
207.926732
 20
274.443595
 11
191.426747
 21
274.443579
  0
LINE
  8
M0
 10
191.426747
 20
274.443579
 11
189.426747
 21
272.443579
  0
LINE
  8
M0
 10
189.426899
 20
275.143607
 11
191.926747
 21
275.143592
  0
LINE
  8
M0
 10
191.926747
 20
275.943579
 11
191.926747
 21
275.143592
  0
LINE
  8
M0
 10
191.926747
 20
275.943579
 11
197.426808
 21
275.943579
  0
LINE
  8
M0
 10
197.426838
 20
274.443595
 11
197.426838
 21
276.743582
  0
LINE
  8
M0
 10
197.926747
 20
282.043585
 11
197.426808
 21
276.743582
  0
LINE
  8
M0
 10
197.926747
 20
282.043585
 11
199.426747
 21
282.04358
  0
LINE
  8
M0
 10
199.176747
 20
282.043585
 11
199.176747
 21
276.743552
  0
LINE
  8
M0
 10
200.676747
 20
282.043585
 11
200.676747
 21
276.743552
  0
LINE
  8
M0
 10
201.926732
 20
282.04357
 11
201.926732
 21
278.743567
  0
ARC
  8
M0
 10
203.926732
 20
278.743567
 40
2.0
 50
180.0
 51
270.0
  0
LINE
  8
M0
 10
211.426808
 20
276.743552
 11
197.426808
 21
276.743582
  0
LINE
  8
M0
 10
211.426808
 20
276.743552
 11
214.726826
 21
273.443534
  0
LINE
  8
M0
 10
207.926732
 20
274.443595
 11
208.926793
 21
273.443534
  0
LINE
  8
M0
 10
202.926732
 20
267.443518
 11
202.926732
 21
267.943534
  0
LINE
  8
M0
 10
197.626789
 20
267.443518
 11
202.926732
 21
267.443518
  0
LINE
  8
M0
 10
197.626789
 20
267.443518
 11
197.626805
 21
266.943503
  0
LINE
  8
M0
 10
194.126744
 20
262.643622
 11
197.626789
 21
266.943518
  0
LINE
  8
M0
 10
196.626789
 20
273.443534
 11
196.626789
 21
268.943579
  0
LINE
  8
M0
 10
182.926838
 20
269.393622
 11
182.926838
 21
262.143622
  0
LINE
  8
M0
 10
182.926838
 20
269.393622
 11
186.42664
 21
269.393622
  0
LINE
  8
M0
 10
186.42667
 20
269.393607
 11
186.42667
 21
272.443564
  0
LINE
  8
M0
 10
185.088643
 20
270.943579
 11
186.426655
 21
270.943579
  0
LINE
  8
M0
 10
181.926716
 20
260.243472
 11
177.926716
 21
260.243472
  0
ARC
  8
M0
 10
177.926716
 20
260.743472
 40
0.5
 50
180.0
 51
270.0
  0
LINE
  8
M0
 10
177.426716
 20
265.743472
 11
177.426716
 21
260.743472
  0
ARC
  8
M0
 10
177.926716
 20
265.743472
 40
0.5
 50
90.0
 51
180.0
  0
LINE
  8
M0
 10
181.926716
 20
266.243472
 11
177.926716
 21
266.243472
  0
LINE
  8
M0
 10
200.426747
 20
282.043576
 11
201.926732
 21
282.04357
  0
LINE
  8
M0
  6
DOT
 62
     6
 10
70.900575
 20
268.542376
 11
70.900578
 21
269.642376
  0
ARC
  8
M0
  6
DOT
 62
     6
 10
73.400583
 20
269.642375
 40
0.5
 50
359.999891
 51
449.998251
  0
ARC
  8
M0
  6
DOT
 62
     6
 10
71.400583
 20
268.542375
 40
0.5
 50
180.0
 51
270.0
  0
LINE
  8
M0
 62
     6
 10
71.400583
 20
268.042375
 11
73.400583
 21
268.042375
  0
LINE
  8
M0
  6
DOT
 62
     6
 10
73.900583
 20
268.542375
 11
73.900583
 21
269.642375
  0
ARC
  8
M0
  6
DOT
 62
     6
 10
73.400583
 20
268.542375
 40
0.5
 50
270.0
 51
359.999891
  0
LINE
  8
M0
  6
DOT
 62
     6
 10
71.400583
 20
270.142375
 11
73.400583
 21
270.142375
  0
ARC
  8
M0
  6
DOT
 62
     6
 10
71.400583
 20
269.642375
 40
0.5
 50
89.998251
 51
180.0
  0
LINE
  8
M0
 10
74.400573
 20
268.042373
 11
74.400573
 21
270.942382
  0
TEXT
  8
M0
 10
66.567199
 20
256.142411
 40
2.0
  1
９８
 41
0.833333
  7
STANDARD
  0
TEXT
  8
M0
 10
76.567214
 20
256.142411
 40
2.0
  1
９７
 41
0.833333
  7
STANDARD
  0
TEXT
  8
M0
 10
83.567214
 20
256.142427
 40
2.0
  1
９５
 41
0.833333
  7
STANDARD
  0
TEXT
  8
M0
 10
96.567214
 20
256.142427
 40
2.0
  1
９６
 41
0.833333
  7
STANDARD
  0
TEXT
  8
M0
 10
94.608911
 20
240.342393
 40
3.0
  1
Ｃ２
 41
0.694444
  7
STANDARD
  0
TEXT
  8
M0
 10
83.525578
 20
240.342393
 40
3.0
  1
６
 41
1.25
  7
STANDARD
  0
TEXT
  8
M0
 10
73.525578
 20
240.342393
 40
3.0
  1
４
 41
1.25
  7
STANDARD
  0
TEXT
  8
M0
 10
64.150563
 20
240.342393
 40
3.0
  1
２
 41
0.833333
  7
STANDARD
  0
LINE
  8
M0
  6
DASHDOT
 10
81.900573
 20
281.514859
 11
81.900573
 21
224.176693
  0
SOLID
  8
M0
 62
     7
 10
174.126682
 20
361.042383
 11
172.126682
 21
361.042383
 12
174.126682
 22
342.842383
 13
172.126682
 23
342.842383
  0
LINE
  8
M0
 62
     1
 10
63.10058
 20
285.242381
 11
62.900579
 21
285.042381
  0
LINE
  8
M0
 62
     1
 10
64.700579
 20
285.242381
 11
64.900579
 21
285.042381
  0
LINE
  8
M0
 62
     1
 10
63.10058
 20
292.392383
 11
63.10058
 21
285.242381
  0
LINE
  8
M0
 62
     1
 10
64.700579
 20
285.242381
 11
64.700579
 21
292.392383
  0
LINE
  8
M0
 62
     1
 10
62.900579
 20
285.042381
 11
62.900579
 21
282.042388
  0
LINE
  8
M0
 62
     1
 10
64.900579
 20
282.042388
 11
64.900579
 21
285.042381
  0
CIRCLE
  8
M0
 62
   253
 10
65.400568
 20
234.742315
 40
2.999997
  0
LINE
  8
M0
 62
   253
 10
62.441583
 20
238.689657
 11
61.625421
 21
236.042363
  0
LINE
  8
M0
 62
   253
 10
62.441583
 20
230.795064
 11
61.625421
 21
233.442388
  0
LINE
  8
M0
 62
   253
 10
68.359064
 20
238.689672
 11
69.17547
 21
236.042363
  0
LINE
  8
M0
 62
   253
 10
68.359064
 20
230.795049
 11
69.17547
 21
233.442388
  0
LINE
  8
M0
 62
   253
 10
62.91961
 20
230.442388
 11
67.88128
 21
230.442388
  0
LINE
  8
M0
 62
   253
 10
69.17547
 20
233.442388
 11
69.17547
 21
236.042363
  0
LINE
  8
M0
 62
   253
 10
67.88128
 20
239.042363
 11
62.91961
 21
239.042348
  0
LINE
  8
M0
 62
   253
 10
61.625421
 20
236.042363
 11
61.625421
 21
233.442388
  0
LINE
  8
M0
 62
   253
 10
66.991144
 20
233.151494
 11
63.809503
 21
236.333257
  0
LINE
  8
M0
 62
   253
 10
65.753839
 20
236.156499
 11
63.986261
 21
234.388799
  0
LINE
  8
M0
 62
   253
 10
66.814386
 20
235.09583
 11
65.046808
 21
233.328252
  0
ARC
  8
M0
 62
   253
 10
62.91961
 20
238.542348
 40
0.5
 50
89.998251
 51
162.874002
  0
ARC
  8
M0
 62
   253
 10
62.91961
 20
230.942388
 40
0.5
 50
197.129131
 51
270.0
  0
ARC
  8
M0
 62
   253
 10
67.88128
 20
230.942388
 40
0.5
 50
270.0
 51
342.861236
  0
ARC
  8
M0
 62
   253
 10
67.88128
 20
238.542348
 40
0.5
 50
17.136442
 51
90.0
  0
LINE
  8
M0
  6
DASHDOT
 62
   253
 10
60.40057
 20
234.742315
 11
70.400565
 21
234.742315
  0
LINE
  8
M0
  6
DASHDOT
 62
   253
 10
65.400568
 20
229.742317
 11
65.400568
 21
239.742312
  0
LINE
  8
M0
 62
     6
 10
94.700653
 20
274.442382
 11
94.700653
 21
279.442412
  0
LINE
  8
M0
 62
     6
 10
93.850662
 20
279.442412
 11
93.850662
 21
287.542479
  0
LINE
  8
M0
 62
     6
 10
91.700653
 20
276.742431
 11
91.700653
 21
284.867927
  0
LINE
  8
M0
 62
     6
 10
89.700653
 20
276.742431
 11
89.700653
 21
287.542479
  0
LINE
  8
M0
 62
     6
 10
86.700653
 20
276.742431
 11
86.700653
 21
287.542479
  0
LINE
  8
M0
 62
     6
 10
69.700653
 20
276.742431
 11
69.700653
 21
286.242431
  0
LINE
  8
M0
 62
     6
 10
66.700653
 20
276.742431
 11
66.700653
 21
286.242431
  0
LINE
  8
M0
 62
     6
 10
59.400573
 20
270.942382
 11
95.40068
 21
270.942397
  0
LINE
  8
M0
 62
     6
 10
86.700653
 20
287.542388
 11
89.700653
 21
287.542403
  0
LINE
  8
M0
 62
     6
 10
66.700653
 20
286.2424
 11
69.700653
 21
286.242415
  0
LINE
  8
M0
 62
     6
 10
92.476073
 20
287.542409
 11
93.850662
 21
287.542418
  0
LINE
  8
M0
 62
     6
 10
93.850662
 20
279.442397
 11
94.700653
 21
279.442397
  0
LINE
  8
M0
 62
     6
 10
66.40065
 20
282.042388
 11
61.40065
 21
282.042388
  0
LINE
  8
M0
 62
     6
 10
76.400665
 20
282.042388
 11
71.400665
 21
282.042388
  0
LINE
  8
M0
 62
     6
 10
81.400665
 20
282.042403
 11
84.700668
 21
282.042403
  0
LINE
  8
M0
 62
     6
 10
59.400573
 20
276.7424
 11
93.90065
 21
276.7424
  0
LINE
  8
M0
 62
     6
 10
59.400573
 20
276.7424
 11
59.400573
 21
270.942397
  0
LINE
  8
M0
 62
     6
 10
93.90065
 20
276.7424
 11
93.90065
 21
274.442382
  0
LINE
  8
M0
 62
     6
 10
84.700668
 20
282.042403
 11
84.700668
 21
276.742385
  0
LINE
  8
M0
 62
     6
 10
81.400665
 20
282.042403
 11
81.400665
 21
276.7424
  0
LINE
  8
M0
 62
     6
 10
76.400665
 20
282.042388
 11
76.400665
 21
276.7424
  0
LINE
  8
M0
 62
     6
 10
71.400665
 20
282.042388
 11
71.400665
 21
276.7424
  0
LINE
  8
M0
 62
     6
 10
66.40065
 20
282.042388
 11
66.40065
 21
276.7424
  0
LINE
  8
M0
 62
     6
 10
61.40065
 20
282.042388
 11
61.40065
 21
276.7424
  0
LINE
  8
M0
 62
     6
 10
69.700653
 20
279.942397
 11
71.400665
 21
279.942397
  0
LINE
  8
M0
 62
     6
 10
89.700653
 20
279.942397
 11
91.700653
 21
279.942397
  0
LINE
  8
M0
 62
     6
 10
69.450668
 20
282.042403
 11
66.950653
 21
282.042388
  0
LINE
  8
M0
 62
     6
 10
89.450668
 20
282.042403
 11
86.950653
 21
282.042388
  0
LINE
  8
M0
 62
     6
 10
93.600677
 20
282.042403
 11
91.950653
 21
282.042388
  0
LINE
  8
M0
 62
     6
 10
79.90065
 20
276.142394
 11
79.90065
 21
271.942382
  0
LINE
  8
M0
 62
     6
 10
78.40065
 20
272.942412
 11
78.40065
 21
271.942382
  0
LINE
  8
M0
 62
     6
 10
76.90065
 20
276.142394
 11
76.90065
 21
275.142394
  0
LINE
  8
M0
 62
     6
 10
69.40065
 20
275.942382
 11
69.40065
 21
272.942412
  0
LINE
  8
M0
 62
     6
 10
79.90065
 20
276.142394
 11
76.90065
 21
276.142394
  0
LINE
  8
M0
 62
     6
 10
76.90065
 20
275.942382
 11
69.40065
 21
275.942382
  0
LINE
  8
M0
 62
     6
 10
76.90065
 20
275.142394
 11
69.40065
 21
275.142394
  0
LINE
  8
M0
 62
     6
 10
69.40065
 20
273.042388
 11
62.700576
 21
273.042388
  0
LINE
  8
M0
 62
     6
 10
64.400558
 20
272.942397
 11
78.40065
 21
272.942412
  0
LINE
  8
M0
 62
     6
 10
64.400558
 20
272.942397
 11
64.400558
 21
270.942382
  0
LINE
  8
M0
 62
     6
 10
93.500549
 20
272.942397
 11
93.500549
 21
270.942366
  0
LINE
  8
M0
 62
     6
 10
62.700576
 20
273.042388
 11
62.700576
 21
270.942382
  0
LINE
  8
M0
 62
     6
 10
78.40065
 20
272.542388
 11
75.40065
 21
272.542388
  0
LINE
  8
M0
 62
     6
 10
79.900619
 20
272.542388
 11
82.900619
 21
272.542388
  0
LINE
  8
M0
 62
     6
 10
82.900619
 20
272.942412
 11
93.500549
 21
272.942397
  0
LINE
  8
M0
 62
     6
 10
96.000671
 20
274.442382
 11
79.90065
 21
274.442382
  0
LINE
  8
M0
 62
     6
 10
96.000671
 20
274.442382
 11
96.000671
 21
272.442412
  0
LINE
  8
M0
 62
     6
 10
79.90065
 20
271.942382
 11
78.40065
 21
271.942382
  0
LINE
  8
M0
 62
     6
 10
75.40065
 20
272.542388
 11
75.40065
 21
272.942412
  0
LINE
  8
M0
 62
     6
 10
82.900619
 20
272.542388
 11
82.900619
 21
273.942397
  0
LINE
  8
M0
 62
     6
 10
82.900619
 20
273.942397
 11
79.900619
 21
273.942397
  0
LINE
  8
M0
 62
     6
 10
93.500549
 20
272.442397
 11
104.400634
 21
272.442412
  0
LINE
  8
M0
 62
     6
 10
104.400634
 20
273.442382
 11
104.400634
 21
262.142394
  0
LINE
  8
M0
 62
     6
 10
103.900634
 20
262.642394
 11
103.400634
 21
262.642394
  0
LINE
  8
M0
 62
     6
 10
103.400634
 20
262.642394
 11
103.400634
 21
266.942382
  0
LINE
  8
M0
 62
     6
 10
104.400634
 20
273.442382
 11
96.000671
 21
273.442382
  0
LINE
  8
M0
 62
     6
 10
95.400665
 20
270.942397
 11
96.472458
 21
266.942382
  0
LINE
  8
M0
 62
     6
 10
104.400634
 20
268.942397
 11
96.971847
 21
268.942397
  0
LINE
  8
M0
 62
     6
 10
96.034027
 20
272.442412
 11
96.971847
 21
268.942397
  0
LINE
  8
M0
 62
     6
 10
104.400634
 20
268.942397
 11
96.971847
 21
268.942397
  0
LINE
  8
M0
 62
     6
 10
103.400634
 20
266.942382
 11
96.472458
 21
266.942382
  0
LINE
  8
M0
 62
     7
 10
249.726682
 20
352.742383
 11
259.429188
 21
352.742383
  0
LINE
  8
M0
 62
     7
 10
256.726682
 20
333.342383
 11
257.726682
 21
332.342383
  0
LINE
  8
M0
 62
     7
 10
256.726682
 20
334.842383
 11
256.726682
 21
333.342383
  0
LINE
  8
M0
 62
     7
 10
259.926682
 20
352.292383
 11
259.926682
 21
332.842383
  0
LINE
  8
M0
 62
     7
 10
256.026682
 20
331.342383
 11
256.026682
 21
329.342383
  0
LINE
  8
M0
 62
     7
 10
255.726682
 20
328.842383
 11
256.026682
 21
329.342383
  0
LINE
  8
M0
 62
     7
 10
256.026682
 20
331.342383
 11
255.726682
 21
331.342383
  0
LINE
  8
M0
 62
     7
 10
235.726682
 20
356.028169
 11
235.726682
 21
336.142383
  0
LINE
  8
M0
 62
     7
 10
232.519575
 20
359.649489
 11
235.433789
 21
356.735276
  0
LINE
  8
M0
 62
     7
 10
259.926682
 20
298.742383
 11
259.926682
 21
282.742383
  0
LINE
  8
M0
 62
     7
 10
219.626682
 20
330.042383
 11
219.626682
 21
347.942383
  0
LINE
  8
M0
 62
     7
 10
227.380432
 20
361.442383
 11
227.526682
 21
361.442383
  0
LINE
  8
M0
 62
     7
 10
213.126682
 20
351.542383
 11
218.726682
 21
351.542383
  0
LINE
  8
M0
 62
     7
 10
219.626682
 20
347.942383
 11
218.726682
 21
347.942383
  0
LINE
  8
M0
 62
     7
 10
218.726682
 20
347.942383
 11
218.726682
 21
351.542383
  0
LINE
  8
M0
 62
     7
 10
228.526682
 20
360.442383
 11
228.526682
 21
359.942383
  0
LINE
  8
M0
 62
     7
 10
257.726682
 20
332.342383
 11
259.426682
 21
332.342383
  0
LINE
  8
M0
 62
     7
 10
228.526682
 20
359.942383
 11
231.812468
 21
359.942383
  0
LINE
  8
M0
 62
     7
 10
212.526682
 20
351.542383
 11
212.526682
 21
358.442383
  0
LINE
  8
M0
 62
     7
 10
213.126682
 20
351.542383
 11
212.526682
 21
351.542383
  0
POLYLINE
  8
M0
 62
     7
 66
     1
  0
VERTEX
  8
M0
 62
     7
 10
229.456094
 20
336.142383
  0
VERTEX
  8
M0
 62
     7
 10
229.121055
 20
336.12719
  0
VERTEX
  8
M0
 62
     7
 10
228.796196
 20
336.082075
  0
VERTEX
  8
M0
 62
     7
 10
228.491388
 20
336.008408
  0
VERTEX
  8
M0
 62
     7
 10
228.215892
 20
335.908427
  0
VERTEX
  8
M0
 62
     7
 10
227.978079
 20
335.78517
  0
VERTEX
  8
M0
 62
     7
 10
227.785174
 20
335.642383
  0
VERTEX
  8
M0
 62
     7
 10
227.64304
 20
335.484403
  0
VERTEX
  8
M0
 62
     7
 10
227.555994
 20
335.316031
  0
VERTEX
  8
M0
 62
     7
 10
227.526682
 20
335.142383
  0
SEQEND
  8
M0
 62
     7
  0
ARC
  8
M0
 62
     7
 10
231.812468
 20
358.942383
 40
1.0
 50
45.0
 51
90.0
  0
ARC
  8
M0
 62
     7
 10
234.726682
 20
356.028169
 40
1.0
 50
0.0
 51
45.0
  0
ARC
  8
M0
 62
     7
 10
259.426682
 20
332.842383
 40
0.5
 50
270.0
 51
360.0
  0
LINE
  8
M0
 62
     7
 10
225.026682
 20
332.142383
 11
225.026682
 21
338.942383
  0
LINE
  8
M0
 62
     7
 10
225.026682
 20
332.142383
 11
232.426682
 21
332.142383
  0
LINE
  8
M0
 62
     7
 10
225.026682
 20
322.342383
 11
225.026682
 21
329.042383
  0
LINE
  8
M0
 62
     7
 10
224.526682
 20
329.542383
 11
220.126682
 21
329.542383
  0
LINE
  8
M0
 62
     7
 10
239.026682
 20
297.942383
 11
239.026682
 21
288.742383
  0
ARC
  8
M0
 62
     7
 10
224.026682
 20
338.942383
 40
1.0
 50
0.0
 51
90.0
  0
POLYLINE
  8
M0
 62
     7
 66
     1
  0
VERTEX
  8
M0
 62
     7
 10
227.526682
 20
360.842383
  0
VERTEX
  8
M0
 62
     7
 10
227.52446
 20
360.946572
  0
VERTEX
  8
M0
 62
     7
 10
227.517862
 20
361.047595
  0
VERTEX
  8
M0
 62
     7
 10
227.507088
 20
361.142383
  0
VERTEX
  8
M0
 62
     7
 10
227.492466
 20
361.228055
  0
VERTEX
  8
M0
 62
     7
 10
227.47444
 20
361.302009
  0
VERTEX
  8
M0
 62
     7
 10
227.453557
 20
361.361998
  0
VERTEX
  8
M0
 62
     7
 10
227.430453
 20
361.406198
  0
VERTEX
  8
M0
 62
     7
 10
227.405828
 20
361.433267
  0
VERTEX
  8
M0
 62
     7
 10
227.380432
 20
361.442383
  0
SEQEND
  8
M0
 62
     7
  0
ARC
  8
M0
 62
     7
 10
227.526682
 20
360.442383
 40
1.0
 50
0.0
 51
90.0
  0
ARC
  8
M0
 62
     7
 10
226.526682
 20
338.942383
 40
1.0
 50
0.0
 51
90.0
  0
ARC
  8
M0
 62
     7
 10
215.526682
 20
358.442383
 40
3.0
 50
90.0
 51
180.0
  0
ARC
  8
M0
 62
     7
 10
213.926682
 20
360.442383
 40
1.0
 50
90.0
 51
180.0
  0
ARC
  8
M0
 62
     7
 10
232.126682
 20
282.542383
 40
1.0
 50
270.0
 51
360.0
  0
ARC
  8
M0
 62
     7
 10
230.312468
 20
360.442383
 40
1.0
 50
45.0
 51
90.0
  0
LINE
  8
M0
 62
     7
 10
226.726682
 20
294.542383
 11
208.926682
 21
294.542383
  0
LINE
  8
M0
 62
     7
 10
232.426682
 20
296.942383
 11
232.426682
 21
301.942383
  0
LINE
  8
M0
 62
     7
 10
212.926682
 20
359.939046
 11
212.926682
 21
360.442383
  0
LINE
  8
M0
 62
     7
 10
212.926682
 20
351.442383
 11
212.926682
 21
351.542383
  0
ARC
  8
M0
 62
     7
 10
248.626682
 20
283.242383
 40
1.0
 50
180.0
 51
270.0
  0
POLYLINE
  8
M0
 62
     7
 66
     1
  0
VERTEX
  8
M0
 62
     7
 10
240.326682
 20
346.942383
  0
VERTEX
  8
M0
 62
     7
 10
240.320389
 20
347.116031
  0
VERTEX
  8
M0
 62
     7
 10
240.301702
 20
347.284403
  0
VERTEX
  8
M0
 62
     7
 10
240.271188
 20
347.442383
  0
VERTEX
  8
M0
 62
     7
 10
240.229774
 20
347.58517
  0
VERTEX
  8
M0
 62
     7
 10
240.17872
 20
347.708427
  0
VERTEX
  8
M0
 62
     7
 10
240.119575
 20
347.808408
  0
VERTEX
  8
M0
 62
     7
 10
240.054138
 20
347.882075
  0
VERTEX
  8
M0
 62
     7
 10
239.984396
 20
347.92719
  0
VERTEX
  8
M0
 62
     7
 10
239.912468
 20
347.942383
  0
SEQEND
  8
M0
 62
     7
  0
ARC
  8
M0
 62
     7
 10
238.526682
 20
286.542383
 40
0.5
 50
270.0
 51
360.0
  0
LINE
  8
M0
 62
     7
 10
227.526682
 20
338.942383
 11
227.526682
 21
360.842383
  0
ARC
  8
M0
 62
     7
 10
226.726682
 20
295.542383
 40
1.0
 50
270.0
 51
360.0
  0
LINE
  8
M0
 62
     7
 10
255.726682
 20
334.842383
 11
255.726682
 21
299.242383
  0
LINE
  8
M0
 62
     7
 10
260.226682
 20
352.292383
 11
260.226682
 21
338.392383
  0
LINE
  8
M0
 62
     7
 10
227.726682
 20
295.642383
 11
227.726682
 21
295.542383
  0
LINE
  8
M0
 62
     7
 10
260.226682
 20
297.492383
 11
259.926682
 21
297.492383
  0
LINE
  8
M0
 62
     7
 10
227.526682
 20
335.142383
 11
228.026682
 21
332.142383
  0
LINE
  8
M0
 62
     7
 10
208.926682
 20
339.942383
 11
226.526682
 21
339.942383
  0
LINE
  8
M0
 62
     7
 10
227.526682
 20
338.942383
 11
227.526682
 21
335.142383
  0
ARC
  8
M0
 62
     7
 10
233.426682
 20
335.142383
 40
1.0
 50
90.0
 51
180.0
  0
ARC
  8
M0
 62
     7
 10
234.726682
 20
296.642383
 40
1.0
 50
270.0
 51
360.0
  0
ARC
  8
M0
 62
     7
 10
249.726682
 20
282.742383
 40
0.5
 50
180.0
 51
270.0
  0
LINE
  8
M0
 62
     7
 10
260.226682
 20
352.292383
 11
259.926682
 21
352.292383
  0
LINE
  8
M0
 62
     7
 10
252.426682
 20
299.626155
 11
236.926682
 21
299.626155
  0
LINE
  8
M0
 62
     7
 10
252.426682
 20
331.581828
 11
236.926682
 21
331.581828
  0
LINE
  8
M0
 62
     7
 10
236.926682
 20
334.45861
 11
252.426682
 21
334.45861
  0
ARC
  8
M0
 62
     7
 10
259.426682
 20
282.742383
 40
0.5
 50
270.0
 51
360.0
  0
ARC
  8
M0
 62
     7
 10
259.426682
 20
335.342383
 40
0.5
 50
270.0
 51
360.0
  0
ARC
  8
M0
 62
     7
 10
223.226682
 20
321.742383
 40
0.6
 50
90.0
 51
180.0
  0
ARC
  8
M0
 62
     7
 10
223.226682
 20
312.642383
 40
0.6
 50
180.0
 51
270.0
  0
LINE
  8
M0
 62
     7
 10
236.926682
 20
302.502938
 11
252.426682
 21
302.502938
  0
ARC
  8
M0
 62
     7
 10
255.226682
 20
303.742383
 40
0.5
 50
270.0
 51
360.0
  0
ARC
  8
M0
 62
     7
 10
255.226682
 20
330.342383
 40
0.5
 50
0.0
 51
90.0
  0
ARC
  8
M0
 62
     7
 10
259.429188
 20
352.242383
 40
0.5
 50
5.73917
 51
90.0
  0
ARC
  8
M0
 62
     7
 10
252.426682
 20
334.75861
 40
0.3
 50
270.0
 51
360.0
  0
LINE
  8
M0
 62
     7
 10
257.426682
 20
301.542383
 11
257.866682
 21
301.042383
  0
LINE
  8
M0
 62
     7
 10
256.726682
 20
301.542383
 11
257.426682
 21
301.542383
  0
LINE
  8
M0
 62
     7
 10
256.726682
 20
301.042383
 11
256.726682
 21
301.542383
  0
LINE
  8
M0
 62
     7
 10
259.451212
 20
299.241781
 11
257.866682
 21
301.042383
  0
ARC
  8
M0
 62
     7
 10
256.426682
 20
282.042383
 40
0.5
 50
180.0
 51
270.0
  0
ARC
  8
M0
 62
     7
 10
256.426682
 20
299.542383
 40
0.5
 50
90.0
 51
180.0
  0
ARC
  8
M0
 62
     7
 10
252.426682
 20
299.326155
 40
0.3
 50
0.0
 51
90.0
  0
ARC
  8
M0
 62
     7
 10
252.426682
 20
331.281828
 40
0.3
 50
0.0
 51
90.0
  0
ARC
  8
M0
 62
     7
 10
249.726682
 20
352.242383
 40
0.5
 50
90.0
 51
180.0
  0
LINE
  8
M0
 62
     7
 10
259.626682
 20
282.284125
 11
259.626682
 21
281.542383
  0
LINE
  8
M0
 62
     7
 10
255.926682
 20
282.042383
 11
255.926682
 21
282.242383
  0
LINE
  8
M0
 62
     7
 10
259.626682
 20
281.542383
 11
256.426682
 21
281.542383
  0
LINE
  8
M0
 62
     7
 10
259.926682
 20
285.192383
 11
260.226682
 21
285.192383
  0
ARC
  8
M0
 62
     7
 10
259.426682
 20
298.742383
 40
0.5
 50
0.0
 51
90.0
  0
LINE
  8
M0
 62
     7
 10
256.726682
 20
301.042383
 11
256.726682
 21
300.042383
  0
ARC
  8
M0
 62
     7
 10
252.426682
 20
302.802938
 40
0.3
 50
270.0
 51
360.0
  0
LINE
  8
M0
 62
     7
 10
257.926682
 20
299.542383
 11
257.926682
 21
299.242383
  0
LINE
  8
M0
 62
     7
 10
257.926682
 20
300.042383
 11
257.926682
 21
299.542383
  0
LINE
  8
M0
 62
     7
 10
255.926682
 20
299.242383
 11
255.926682
 21
299.542383
  0
LINE
  8
M0
 62
     7
 10
259.426682
 20
334.842383
 11
252.726682
 21
334.842383
  0
LINE
  8
M0
 62
     7
 10
259.426682
 20
282.242383
 11
249.726682
 21
282.242383
  0
LINE
  8
M0
 62
     7
 10
232.426682
 20
301.942383
 11
225.026682
 21
301.942383
  0
LINE
  8
M0
 62
     7
 10
232.426682
 20
296.942383
 11
225.026682
 21
296.942383
  0
LINE
  8
M0
 62
     7
 10
236.926682
 20
302.502938
 11
236.926682
 21
299.626155
  0
LINE
  8
M0
 62
     7
 10
236.926682
 20
334.45861
 11
236.926682
 21
331.581828
  0
LINE
  8
M0
 62
     7
 10
252.726682
 20
299.242383
 11
259.426682
 21
299.242383
  0
LINE
  8
M0
 62
     7
 10
222.626682
 20
312.642383
 11
222.626682
 21
321.742383
  0
LINE
  8
M0
 62
     7
 10
225.026682
 20
322.342383
 11
223.226682
 21
322.342383
  0
LINE
  8
M0
 62
     7
 10
232.426682
 20
332.142383
 11
232.426682
 21
335.142383
  0
LINE
  8
M0
 62
     7
 10
249.226682
 20
297.942383
 11
235.726682
 21
297.942383
  0
LINE
  8
M0
 62
     7
 10
249.226682
 20
282.742383
 11
249.226682
 21
297.942383
  0
LINE
  8
M0
 62
     7
 10
229.456094
 20
336.142383
 11
249.226682
 21
336.142383
  0
ARC
  8
M0
 62
     7
 10
220.126682
 20
330.042383
 40
0.5
 50
180.0
 51
270.0
  0
LINE
  8
M0
 62
     7
 10
256.426682
 20
300.042383
 11
257.926682
 21
300.042383
  0
ARC
  8
M0
 62
     7
 10
224.526682
 20
329.042383
 40
0.5
 50
0.0
 51
90.0
  0
LINE
  8
M0
 62
     7
 10
235.726682
 20
297.942383
 11
235.726682
 21
296.642383
  0
LINE
  8
M0
 62
     7
 10
252.726682
 20
331.281828
 11
252.726682
 21
330.842383
  0
LINE
  8
M0
 62
     7
 10
252.726682
 20
330.842383
 11
255.226682
 21
330.842383
  0
LINE
  8
M0
 62
     7
 10
255.226682
 20
303.242383
 11
252.726682
 21
303.242383
  0
LINE
  8
M0
 62
     7
 10
225.026682
 20
312.042383
 11
223.226682
 21
312.042383
  0
LINE
  8
M0
 62
     7
 10
233.426682
 20
336.142383
 11
235.426682
 21
336.142383
  0
LINE
  8
M0
 62
     7
 10
234.726682
 20
295.642383
 11
227.726682
 21
295.642383
  0
LINE
  8
M0
 62
     7
 10
249.226682
 20
336.142383
 11
249.226682
 21
352.242383
  0
LINE
  8
M0
 62
     7
 10
252.726682
 20
303.242383
 11
252.726682
 21
302.802938
  0
ARC
  8
M0
 62
     7
 10
205.431063
 20
291.242383
 40
3.0
 50
270.0
 51
320.582606
  0
ARC
  8
M0
 62
     7
 10
188.426682
 20
293.242383
 40
5.0
 50
180.0
 51
270.0
  0
ARC
  8
M0
 62
     7
 10
205.529356
 20
342.842383
 40
3.0
 50
41.009087
 51
90.0
  0
ARC
  8
M0
 62
     7
 10
205.926682
 20
342.385457
 40
3.0
 50
0.0
 51
41.009087
  0
ARC
  8
M0
 62
     7
 10
205.926682
 20
291.845385
 40
3.0
 50
320.582606
 51
360.0
  0
ARC
  8
M0
 62
     7
 10
184.426682
 20
321.742383
 40
1.0
 50
180.0
 51
270.0
  0
LINE
  8
M0
 62
     7
 10
201.226682
 20
348.242383
 11
201.226682
 21
349.242383
  0
ARC
  8
M0
 62
     7
 10
184.426682
 20
312.342383
 40
1.0
 50
90.0
 51
180.0
  0
LINE
  8
M0
 62
     7
 10
201.226682
 20
349.242383
 11
204.826682
 21
349.242383
  0
LINE
  8
M0
 62
     7
 10
208.326682
 20
286.042383
 11
207.126682
 21
284.842383
  0
LINE
  8
M0
 62
     7
 10
201.226682
 20
284.842383
 11
201.226682
 21
285.842383
  0
ARC
  8
M0
 62
     7
 10
188.426682
 20
340.842383
 40
5.0
 50
90.0
 51
180.0
  0
ARC
  8
M0
 62
     7
 10
211.326682
 20
314.842383
 40
0.5
 50
180.0
 51
270.0
  0
ARC
  8
M0
 62
     7
 10
211.326682
 20
319.242383
 40
0.5
 50
90.0
 51
180.0
  0
LINE
  8
M0
 62
     7
 10
179.626682
 20
310.542383
 11
181.126682
 21
310.542383
  0
LINE
  8
M0
 62
     7
 10
179.626682
 20
329.242383
 11
183.426682
 21
329.242383
  0
LINE
  8
M0
 62
     7
 10
181.126682
 20
329.242383
 11
181.126682
 21
321.642383
  0
LINE
  8
M0
 62
     7
 10
183.426682
 20
306.042383
 11
179.626682
 21
306.042383
  0
LINE
  8
M0
 62
     7
 10
181.126682
 20
310.542383
 11
181.126682
 21
306.042383
  0
LINE
  8
M0
 62
     7
 10
179.626682
 20
321.642383
 11
181.126682
 21
321.642383
  0
LINE
  8
M0
 62
     7
 10
181.126682
 20
323.142383
 11
179.626682
 21
323.142383
  0
LINE
  8
M0
 62
     7
 10
189.426682
 20
349.242383
 11
199.327984
 21
349.242383
  0
LINE
  8
M0
 62
     7
 10
199.327984
 20
349.242383
 11
199.434477
 21
348.242383
  0
LINE
  8
M0
 62
     7
 10
199.69006
 20
345.842383
 11
199.434477
 21
348.242383
  0
LINE
  8
M0
 62
     7
 10
204.826682
 20
349.242383
 11
206.226682
 21
347.842383
  0
LINE
  8
M0
 62
     7
 10
199.327984
 20
349.242383
 11
201.226682
 21
349.242383
  0
LINE
  8
M0
 62
     7
 10
185.426682
 20
344.842383
 11
185.426682
 21
345.242383
  0
LINE
  8
M0
 62
     7
 10
199.434477
 20
285.842383
 11
199.327984
 21
284.842383
  0
LINE
  8
M0
 62
     7
 10
185.426682
 20
288.842383
 11
185.426682
 21
289.242383
  0
LINE
  8
M0
 62
     7
 10
225.026682
 20
328.942383
 11
225.026682
 21
322.542383
  0
LINE
  8
M0
 62
     7
 10
207.793172
 20
344.810919
 11
208.190499
 21
344.353994
  0
LINE
  8
M0
 62
     7
 10
188.426682
 20
345.842383
 11
205.529356
 21
345.842383
  0
LINE
  8
M0
 62
     7
 10
208.244304
 20
289.94049
 11
207.748686
 21
289.337487
  0
LINE
  8
M0
 62
     7
 10
208.926682
 20
342.385457
 11
208.926682
 21
339.942383
  0
LINE
  8
M0
 62
     7
 10
208.926682
 20
294.542383
 11
208.926682
 21
291.845385
  0
LINE
  8
M0
 62
     7
 10
185.926682
 20
320.742383
 11
185.926682
 21
313.342383
  0
LINE
  8
M0
 62
     7
 10
210.826682
 20
319.242383
 11
210.826682
 21
314.842383
  0
LINE
  8
M0
 62
     7
 10
211.326682
 20
314.342383
 11
222.626682
 21
314.342383
  0
LINE
  8
M0
 62
     7
 10
247.626682
 20
286.042383
 11
208.326682
 21
286.042383
  0
LINE
  8
M0
 62
     7
 10
209.326682
 20
339.942383
 11
209.326682
 21
347.842383
  0
LINE
  8
M0
 62
     7
 10
201.226682
 20
345.842383
 11
201.226682
 21
348.242383
  0
LINE
  8
M0
 62
     7
 10
207.126682
 20
284.842383
 11
200.426747
 21
284.842383
  0
LINE
  8
M0
 62
     7
 10
206.226682
 20
347.842383
 11
209.326682
 21
347.842383
  0
LINE
  8
M0
 62
     7
 10
184.926682
 20
313.342383
 11
184.926682
 21
320.742383
  0
LINE
  8
M0
 62
     7
 10
183.426682
 20
293.242383
 11
183.426682
 21
340.842383
  0
LINE
  8
M0
 62
     7
 10
185.926682
 20
320.742383
 11
184.426682
 21
320.742383
  0
LINE
  8
M0
 62
     7
 10
205.431063
 20
288.242383
 11
188.426682
 21
288.242383
  0
LINE
  8
M0
 62
     7
 10
184.426682
 20
313.342383
 11
185.926682
 21
313.342383
  0
LINE
  8
M0
 62
     7
 10
222.626682
 20
319.742383
 11
211.326682
 21
319.742383
  0
LINE
  8
M0
 62
     7
 10
201.226682
 20
285.842383
 11
201.226682
 21
288.242383
  0
LINE
  8
M0
 62
     7
 10
233.126682
 20
286.042383
 11
233.126682
 21
282.542383
  0
LINE
  8
M0
 62
     7
 10
235.726682
 20
353.842383
 11
235.726682
 21
356.028169
  0
LINE
  8
M0
 62
     7
 10
243.326682
 20
350.942383
 11
249.226682
 21
350.942383
  0
LINE
  8
M0
 62
     7
 10
235.626682
 20
286.042383
 11
233.626682
 21
286.042383
  0
LINE
  8
M0
 62
     7
 10
236.126682
 20
286.042383
 11
235.626682
 21
286.042383
  0
LINE
  8
M0
 62
     7
 10
235.726682
 20
351.542383
 11
235.726682
 21
347.942383
  0
LINE
  8
M0
 62
     7
 10
247.626682
 20
283.242383
 11
247.626682
 21
297.942383
  0
LINE
  8
M0
 62
     7
 10
231.019575
 20
361.149489
 11
232.519575
 21
359.649489
  0
LINE
  8
M0
 62
     7
 10
251.726682
 20
282.242383
 11
248.626682
 21
282.242383
  0
LINE
  8
M0
 62
     7
 10
247.626682
 20
287.742383
 11
249.226682
 21
287.742383
  0
LINE
  8
M0
 62
     7
 10
243.326682
 20
350.942383
 11
243.326682
 21
347.942383
  0
LINE
  8
M0
 62
     7
 10
225.026682
 20
281.542383
 11
225.026682
 21
282.542383
  0
LINE
  8
M0
 62
     7
 10
256.026682
 20
331.342383
 11
255.726682
 21
332.342383
  0
LINE
  8
M0
 62
     7
 10
212.926682
 20
351.442383
 11
209.326682
 21
349.942383
  0
LINE
  8
M0
 62
     7
 10
218.626682
 20
351.442383
 11
212.926682
 21
351.442383
  0
LINE
  8
M0
 62
     7
 10
209.326682
 20
349.942383
 11
209.326682
 21
347.942383
  0
LINE
  8
M0
 62
     7
 10
213.126682
 20
350.442383
 11
210.326682
 21
349.275716
  0
LINE
  8
M0
 62
     7
 10
218.626682
 20
347.942383
 11
218.626682
 21
351.442383
  0
LINE
  8
M0
 62
     7
 10
217.626682
 20
350.442383
 11
213.126682
 21
350.442383
  0
LINE
  8
M0
 62
     7
 10
230.726682
 20
361.442383
 11
213.926682
 21
361.442383
  0
LINE
  8
M0
 62
     7
 10
218.626682
 20
351.442383
 11
218.726682
 21
351.442383
  0
LINE
  8
M0
 62
     7
 10
218.726682
 20
347.942383
 11
218.626682
 21
347.942383
  0
LINE
  8
M0
 62
     7
 10
260.226682
 20
338.392383
 11
259.926682
 21
338.392383
  0
LINE
  8
M0
 62
     7
 10
217.626682
 20
348.942383
 11
217.626682
 21
350.442383
  0
LINE
  8
M0
 62
     7
 10
218.626682
 20
347.942383
 11
209.326682
 21
347.942383
  0
LINE
  8
M0
 62
     7
 10
210.326682
 20
348.942383
 11
217.626682
 21
348.942383
  0
LINE
  8
M0
 62
     7
 10
210.326682
 20
349.275716
 11
210.326682
 21
348.942383
  0
LINE
  8
M0
 62
     7
 10
225.026682
 20
312.042383
 11
225.026682
 21
281.542383
  0
LINE
  8
M0
 62
     7
 10
209.026682
 20
281.542383
 11
201.226682
 21
282.042383
  0
LINE
  8
M0
 62
     7
 10
232.126682
 20
281.542383
 11
209.026682
 21
281.542383
  0
LINE
  8
M0
 62
     7
 10
201.226682
 20
283.044435
 11
201.226682
 21
284.842383
  0
LINE
  8
M0
 62
     7
 10
194.638527
 20
282.311327
 11
191.926682
 21
284.842383
  0
LINE
  8
M0
 62
     7
 10
201.226682
 20
282.042383
 11
200.426747
 21
282.042383
  0
LINE
  8
M0
 62
     7
 10
199.40515
 20
283.042383
 11
199.327566
 21
282.042383
  0
LINE
  8
M0
 62
     7
 10
199.327566
 20
282.042383
 11
195.320845
 21
282.042383
  0
LINE
  8
M0
 62
     7
 10
179.126682
 20
306.542383
 11
179.126682
 21
328.742383
  0
LINE
  8
M0
 62
     7
 10
201.226682
 20
282.042383
 11
201.226682
 21
283.044435
  0
LINE
  8
M0
 62
     7
 10
209.326682
 20
347.842383
 11
209.326682
 21
347.942383
  0
POLYLINE
  8
M0
 62
     7
 66
     1
  0
VERTEX
  8
M0
 62
     7
 10
179.126682
 20
323.349489
  0
VERTEX
  8
M0
 62
     7
 10
179.134278
 20
323.313526
  0
VERTEX
  8
M0
 62
     7
 10
179.156836
 20
323.278655
  0
VERTEX
  8
M0
 62
     7
 10
179.193669
 20
323.245936
  0
VERTEX
  8
M0
 62
     7
 10
179.24366
 20
323.216364
  0
VERTEX
  8
M0
 62
     7
 10
179.305288
 20
323.190836
  0
VERTEX
  8
M0
 62
     7
 10
179.376682
 20
323.17013
  0
VERTEX
  8
M0
 62
     7
 10
179.455672
 20
323.154873
  0
VERTEX
  8
M0
 62
     7
 10
179.539858
 20
323.145529
  0
VERTEX
  8
M0
 62
     7
 10
179.626682
 20
323.142383
  0
SEQEND
  8
M0
 62
     7
  0
POLYLINE
  8
M0
 62
     7
 66
     1
  0
VERTEX
  8
M0
 62
     7
 10
179.126682
 20
321.849489
  0
VERTEX
  8
M0
 62
     7
 10
179.134278
 20
321.813526
  0
VERTEX
  8
M0
 62
     7
 10
179.156836
 20
321.778655
  0
VERTEX
  8
M0
 62
     7
 10
179.193669
 20
321.745936
  0
VERTEX
  8
M0
 62
     7
 10
179.24366
 20
321.716364
  0
VERTEX
  8
M0
 62
     7
 10
179.305288
 20
321.690836
  0
VERTEX
  8
M0
 62
     7
 10
179.376682
 20
321.67013
  0
VERTEX
  8
M0
 62
     7
 10
179.455672
 20
321.654873
  0
VERTEX
  8
M0
 62
     7
 10
179.539858
 20
321.645529
  0
VERTEX
  8
M0
 62
     7
 10
179.626682
 20
321.642383
  0
SEQEND
  8
M0
 62
     7
  0
ARC
  8
M0
 62
     7
 10
212.326682
 20
315.442383
 40
1.0
 50
180.0
 51
270.0
  0
ARC
  8
M0
 62
     7
 10
195.320845
 20
283.042383
 40
1.0
 50
226.974934
 51
270.0
  0
ARC
  8
M0
 62
     7
 10
213.826682
 20
315.442383
 40
1.0
 50
270.0
 51
360.0
  0
ARC
  8
M0
 62
     7
 10
179.626682
 20
328.742383
 40
0.5
 50
90.0
 51
180.0
  0
LINE
  8
M0
 62
     7
 10
260.226682
 20
297.492383
 11
260.226682
 21
285.192383
  0
LINE
  8
M0
 62
     7
 10
238.526682
 20
286.042383
 11
238.432908
 21
286.042383
  0
LINE
  8
M0
 62
     7
 10
235.726682
 20
347.942383
 11
249.226682
 21
347.942383
  0
LINE
  8
M0
 62
     7
 10
240.326682
 20
336.142383
 11
240.326682
 21
346.942383
  0
LINE
  8
M0
 62
     7
 10
214.826682
 20
315.442383
 11
214.826682
 21
319.742383
  0
LINE
  8
M0
 62
     7
 10
212.326682
 20
314.442383
 11
213.826682
 21
314.442383
  0
LINE
  8
M0
 62
     7
 10
216.926682
 20
319.742383
 11
216.926682
 21
314.342383
  0
LINE
  8
M0
 62
     7
 10
179.626682
 20
306.042383
 11
180.626682
 21
306.042383
  0
LINE
  8
M0
 62
     7
 10
214.526682
 20
281.542383
 11
209.026682
 21
281.542383
  0
ARC
  8
M0
 62
     7
 10
179.626682
 20
306.542383
 40
0.5
 50
180.0
 51
270.0
  0
LINE
  8
M0
 62
     7
 10
239.026682
 20
288.742383
 11
239.026682
 21
286.542383
  0
ARC
  8
M0
 62
     7
 10
179.626682
 20
310.042383
 40
0.5
 50
90.0
 51
180.0
  0
ARC
  8
M0
 62
     7
 10
189.426682
 20
345.242383
 40
4.0
 50
90.0
 51
180.0
  0
ARC
  8
M0
 62
     7
 10
189.426682
 20
288.842383
 40
4.0
 50
180.0
 51
270.0
  0
LINE
  8
M0
 62
     7
 10
211.326682
 20
319.742383
 11
211.326682
 21
315.442383
  0
LINE
  8
M0
 62
     7
 10
199.426747
 20
284.842383
 11
189.426682
 21
284.842383
  0
LINE
  8
M0
 62
     7
 10
199.426747
 20
282.042383
 11
199.327566
 21
282.042383
  0
CIRCLE
  8
M0
 62
     4
 10
98.400568
 20
251.242315
 40
2.999997
  0
LINE
  8
M0
 62
     4
 10
95.441583
 20
255.189657
 11
94.625421
 21
252.542363
  0
LINE
  8
M0
 62
     4
 10
95.441583
 20
247.295064
 11
94.625421
 21
249.942388
  0
LINE
  8
M0
 62
     4
 10
101.359064
 20
255.189672
 11
102.17547
 21
252.542363
  0
LINE
  8
M0
 62
     4
 10
101.359064
 20
247.295049
 11
102.17547
 21
249.942388
  0
LINE
  8
M0
 62
     4
 10
95.91961
 20
246.942388
 11
100.88128
 21
246.942388
  0
LINE
  8
M0
 62
     4
 10
102.17547
 20
249.942388
 11
102.17547
 21
252.542363
  0
LINE
  8
M0
 62
     4
 10
100.88128
 20
255.542363
 11
95.91961
 21
255.542348
  0
LINE
  8
M0
 62
     4
 10
94.625421
 20
252.542363
 11
94.625421
 21
249.942388
  0
LINE
  8
M0
 62
     4
 10
99.991144
 20
249.651494
 11
96.809503
 21
252.833257
  0
LINE
  8
M0
 62
     4
 10
98.753839
 20
252.656499
 11
96.986261
 21
250.888799
  0
LINE
  8
M0
 62
     4
 10
99.814386
 20
251.59583
 11
98.046808
 21
249.828252
  0
ARC
  8
M0
 62
     4
 10
95.91961
 20
255.042348
 40
0.5
 50
89.998251
 51
162.874002
  0
ARC
  8
M0
 62
     4
 10
95.91961
 20
247.442388
 40
0.5
 50
197.129131
 51
270.0
  0
ARC
  8
M0
 62
     4
 10
100.88128
 20
247.442388
 40
0.5
 50
270.0
 51
342.861236
  0
ARC
  8
M0
 62
     4
 10
100.88128
 20
255.042348
 40
0.5
 50
17.136442
 51
90.0
  0
LINE
  8
M0
  6
DASHDOT
 62
     4
 10
93.40057
 20
251.242315
 11
103.400565
 21
251.242315
  0
LINE
  8
M0
  6
DASHDOT
 62
     4
 10
98.400568
 20
246.242317
 11
98.400568
 21
256.242312
  0
CIRCLE
  8
M0
 62
     4
 10
68.400568
 20
251.242315
 40
2.999997
  0
LINE
  8
M0
 62
     4
 10
65.441583
 20
255.189657
 11
64.625421
 21
252.542363
  0
LINE
  8
M0
 62
     4
 10
65.441583
 20
247.295064
 11
64.625421
 21
249.942388
  0
LINE
  8
M0
 62
     4
 10
71.359064
 20
255.189672
 11
72.17547
 21
252.542363
  0
LINE
  8
M0
 62
     4
 10
71.359064
 20
247.295049
 11
72.17547
 21
249.942388
  0
LINE
  8
M0
 62
     4
 10
65.91961
 20
246.942388
 11
70.88128
 21
246.942388
  0
LINE
  8
M0
 62
     4
 10
72.17547
 20
249.942388
 11
72.17547
 21
252.542363
  0
LINE
  8
M0
 62
     4
 10
70.88128
 20
255.542363
 11
65.91961
 21
255.542348
  0
LINE
  8
M0
 62
     4
 10
64.625421
 20
252.542363
 11
64.625421
 21
249.942388
  0
LINE
  8
M0
 62
     4
 10
69.991144
 20
249.651494
 11
66.809503
 21
252.833257
  0
LINE
  8
M0
 62
     4
 10
68.753839
 20
252.656499
 11
66.986261
 21
250.888799
  0
LINE
  8
M0
 62
     4
 10
69.814386
 20
251.59583
 11
68.046808
 21
249.828252
  0
ARC
  8
M0
 62
     4
 10
65.91961
 20
255.042348
 40
0.5
 50
89.998251
 51
162.874002
  0
ARC
  8
M0
 62
     4
 10
65.91961
 20
247.442388
 40
0.5
 50
197.129131
 51
270.0
  0
ARC
  8
M0
 62
     4
 10
70.88128
 20
247.442388
 40
0.5
 50
270.0
 51
342.861236
  0
ARC
  8
M0
 62
     4
 10
70.88128
 20
255.042348
 40
0.5
 50
17.136442
 51
90.0
  0
LINE
  8
M0
  6
DASHDOT
 62
     4
 10
63.40057
 20
251.242315
 11
73.400565
 21
251.242315
  0
LINE
  8
M0
  6
DASHDOT
 62
     4
 10
68.400568
 20
246.242317
 11
68.400568
 21
256.242312
  0
ARC
  8
M0
 62
     7
 10
93.051073
 20
341.267383
 40
0.5
 50
90.0
 51
180.0
  0
ARC
  8
M0
 62
     7
 10
93.051073
 20
334.617383
 40
0.5
 50
180.0
 51
270.0
  0
ARC
  8
M0
 62
     7
 10
99.701073
 20
341.267383
 40
0.5
 50
0.0
 51
90.0
  0
ARC
  8
M0
 62
     7
 10
99.701073
 20
334.617383
 40
0.5
 50
270.0
 51
360.0
  0
LINE
  8
M0
 62
     7
 10
92.551073
 20
341.267383
 11
92.551073
 21
334.617383
  0
LINE
  8
M0
 62
     7
 10
100.201073
 20
334.617383
 11
100.201073
 21
341.267383
  0
LINE
  8
M0
 62
     7
 10
93.051073
 20
334.117383
 11
99.701073
 21
334.117383
  0
LINE
  8
M0
 62
     7
 10
99.701073
 20
341.767383
 11
93.051073
 21
341.767383
  0
LINE
  8
M0
  6
DASHDOT
 62
     7
 10
95.876073
 20
337.942383
 11
96.876073
 21
337.942383
  0
LINE
  8
M0
  6
DASHDOT
 62
     7
 10
96.376073
 20
337.442383
 11
96.376073
 21
338.442383
  0
ARC
  8
M0
 62
     7
 10
72.851073
 20
341.267383
 40
0.5
 50
90.0
 51
180.0
  0
ARC
  8
M0
 62
     7
 10
72.851073
 20
334.617383
 40
0.5
 50
180.0
 51
270.0
  0
ARC
  8
M0
 62
     7
 10
79.501073
 20
341.267383
 40
0.5
 50
0.0
 51
90.0
  0
ARC
  8
M0
 62
     7
 10
79.501073
 20
334.617383
 40
0.5
 50
270.0
 51
360.0
  0
LINE
  8
M0
 62
     7
 10
72.351073
 20
341.267383
 11
72.351073
 21
334.617383
  0
LINE
  8
M0
 62
     7
 10
80.001073
 20
334.617383
 11
80.001073
 21
341.267383
  0
LINE
  8
M0
 62
     7
 10
72.851073
 20
334.117383
 11
79.501073
 21
334.117383
  0
LINE
  8
M0
 62
     7
 10
79.501073
 20
341.767383
 11
72.851073
 21
341.767383
  0
LINE
  8
M0
  6
DASHDOT
 62
     7
 10
75.676073
 20
337.942383
 11
76.676073
 21
337.942383
  0
LINE
  8
M0
  6
DASHDOT
 62
     7
 10
76.176073
 20
337.442383
 11
76.176073
 21
338.442383
  0
ARC
  8
M0
 62
     7
 10
82.951073
 20
341.267383
 40
0.5
 50
90.0
 51
180.0
  0
ARC
  8
M0
 62
     7
 10
82.951073
 20
334.617383
 40
0.5
 50
180.0
 51
270.0
  0
ARC
  8
M0
 62
     7
 10
89.601073
 20
341.267383
 40
0.5
 50
0.0
 51
90.0
  0
ARC
  8
M0
 62
     7
 10
89.601073
 20
334.617383
 40
0.5
 50
270.0
 51
360.0
  0
LINE
  8
M0
 62
     7
 10
82.451073
 20
341.267383
 11
82.451073
 21
334.617383
  0
LINE
  8
M0
 62
     7
 10
90.101073
 20
334.617383
 11
90.101073
 21
341.267383
  0
LINE
  8
M0
 62
     7
 10
82.951073
 20
334.117383
 11
89.601073
 21
334.117383
  0
LINE
  8
M0
 62
     7
 10
89.601073
 20
341.767383
 11
82.951073
 21
341.767383
  0
LINE
  8
M0
  6
DASHDOT
 62
     7
 10
85.776073
 20
337.942383
 11
86.776073
 21
337.942383
  0
LINE
  8
M0
  6
DASHDOT
 62
     7
 10
86.276073
 20
337.442383
 11
86.276073
 21
338.442383
  0
ARC
  8
M0
 62
     7
 10
67.001073
 20
358.867383
 40
0.5
 50
90.0
 51
180.0
  0
ARC
  8
M0
 62
     7
 10
67.001073
 20
352.217383
 40
0.5
 50
180.0
 51
270.0
  0
ARC
  8
M0
 62
     7
 10
73.651073
 20
358.867383
 40
0.5
 50
0.0
 51
90.0
  0
ARC
  8
M0
 62
     7
 10
73.651073
 20
352.217383
 40
0.5
 50
270.0
 51
360.0
  0
CIRCLE
  8
M0
 62
     7
 10
70.326073
 20
355.542383
 40
3.0
  0
LINE
  8
M0
 62
     7
 10
66.501073
 20
358.867383
 11
66.501073
 21
352.217383
  0
LINE
  8
M0
 62
     7
 10
74.151073
 20
352.217383
 11
74.151073
 21
358.867383
  0
LINE
  8
M0
 62
     7
 10
67.001073
 20
351.717383
 11
73.651073
 21
351.717383
  0
LINE
  8
M0
 62
     7
 10
73.651073
 20
359.367383
 11
67.001073
 21
359.367383
  0
LINE
  8
M0
  6
DASHDOT
 62
     7
 10
69.826073
 20
355.542383
 11
70.826073
 21
355.542383
  0
LINE
  8
M0
  6
DASHDOT
 62
     7
 10
70.326073
 20
355.042383
 11
70.326073
 21
356.042383
  0
ARC
  8
M0
 62
     7
 10
62.751073
 20
341.267383
 40
0.5
 50
90.0
 51
180.0
  0
ARC
  8
M0
 62
     7
 10
62.751073
 20
334.617383
 40
0.5
 50
180.0
 51
270.0
  0
ARC
  8
M0
 62
     7
 10
69.401073
 20
341.267383
 40
0.5
 50
0.0
 51
90.0
  0
ARC
  8
M0
 62
     7
 10
69.401073
 20
334.617383
 40
0.5
 50
270.0
 51
360.0
  0
LINE
  8
M0
 62
     7
 10
62.251073
 20
341.267383
 11
62.251073
 21
334.617383
  0
LINE
  8
M0
 62
     7
 10
69.901073
 20
334.617383
 11
69.901073
 21
341.267383
  0
LINE
  8
M0
 62
     7
 10
62.751073
 20
334.117383
 11
69.401073
 21
334.117383
  0
LINE
  8
M0
 62
     7
 10
69.401073
 20
341.767383
 11
62.751073
 21
341.767383
  0
LINE
  8
M0
  6
DASHDOT
 62
     7
 10
65.576073
 20
337.942383
 11
66.576073
 21
337.942383
  0
LINE
  8
M0
  6
DASHDOT
 62
     7
 10
66.076073
 20
337.442383
 11
66.076073
 21
338.442383
  0
ARC
  8
M0
 62
     7
 10
88.801073
 20
358.867383
 40
0.5
 50
90.0
 51
180.0
  0
ARC
  8
M0
 62
     7
 10
88.801073
 20
352.217383
 40
0.5
 50
180.0
 51
270.0
  0
ARC
  8
M0
 62
     7
 10
95.451073
 20
358.867383
 40
0.5
 50
0.0
 51
90.0
  0
ARC
  8
M0
 62
     7
 10
95.451073
 20
352.217383
 40
0.5
 50
270.0
 51
360.0
  0
LINE
  8
M0
 62
     7
 10
88.301073
 20
358.867383
 11
88.301073
 21
352.217383
  0
LINE
  8
M0
 62
     7
 10
95.951073
 20
352.217383
 11
95.951073
 21
358.867383
  0
LINE
  8
M0
 62
     7
 10
88.801073
 20
351.717383
 11
95.451073
 21
351.717383
  0
LINE
  8
M0
 62
     7
 10
95.451073
 20
359.367383
 11
88.801073
 21
359.367383
  0
LINE
  8
M0
  6
DASHDOT
 62
     7
 10
91.626073
 20
355.542383
 11
92.626073
 21
355.542383
  0
LINE
  8
M0
  6
DASHDOT
 62
     7
 10
92.126073
 20
355.042383
 11
92.126073
 21
356.042383
  0
ARC
  8
M0
 62
     7
 10
93.051073
 20
299.467383
 40
0.5
 50
90.0
 51
180.0
  0
ARC
  8
M0
 62
     7
 10
93.051073
 20
292.817383
 40
0.5
 50
180.0
 51
270.0
  0
ARC
  8
M0
 62
     7
 10
99.701073
 20
299.467383
 40
0.5
 50
0.0
 51
90.0
  0
ARC
  8
M0
 62
     7
 10
99.701073
 20
292.817383
 40
0.5
 50
270.0
 51
360.0
  0
CIRCLE
  8
M0
 62
     7
 10
96.376073
 20
296.142383
 40
3.0
  0
LINE
  8
M0
 62
     7
 10
92.551073
 20
299.467383
 11
92.551073
 21
292.817383
  0
LINE
  8
M0
 62
     7
 10
100.201073
 20
292.817383
 11
100.201073
 21
299.467383
  0
LINE
  8
M0
 62
     7
 10
93.051073
 20
292.317383
 11
99.701073
 21
292.317383
  0
LINE
  8
M0
 62
     7
 10
99.701073
 20
299.967383
 11
93.051073
 21
299.967383
  0
LINE
  8
M0
  6
DASHDOT
 62
     7
 10
95.876073
 20
296.142383
 11
96.876073
 21
296.142383
  0
LINE
  8
M0
  6
DASHDOT
 62
     7
 10
96.376073
 20
295.642383
 11
96.376073
 21
296.642383
  0
ARC
  8
M0
 62
     7
 10
82.951073
 20
299.467383
 40
0.5
 50
90.0
 51
180.0
  0
ARC
  8
M0
 62
     7
 10
82.951073
 20
292.817383
 40
0.5
 50
180.0
 51
270.0
  0
ARC
  8
M0
 62
     7
 10
89.601073
 20
299.467383
 40
0.5
 50
0.0
 51
90.0
  0
ARC
  8
M0
 62
     7
 10
89.601073
 20
292.817383
 40
0.5
 50
270.0
 51
360.0
  0
LINE
  8
M0
 62
     7
 10
82.451073
 20
299.467383
 11
82.451073
 21
292.817383
  0
LINE
  8
M0
 62
     7
 10
90.101073
 20
292.817383
 11
90.101073
 21
299.467383
  0
LINE
  8
M0
 62
     7
 10
82.951073
 20
292.317383
 11
89.601073
 21
292.317383
  0
LINE
  8
M0
 62
     7
 10
89.601073
 20
299.967383
 11
82.951073
 21
299.967383
  0
LINE
  8
M0
  6
DASHDOT
 62
     7
 10
85.776073
 20
296.142383
 11
86.776073
 21
296.142383
  0
LINE
  8
M0
  6
DASHDOT
 62
     7
 10
86.276073
 20
295.642383
 11
86.276073
 21
296.642383
  0
ARC
  8
M0
 62
     7
 10
72.851073
 20
299.467383
 40
0.5
 50
90.0
 51
180.0
  0
ARC
  8
M0
 62
     7
 10
72.851073
 20
292.817383
 40
0.5
 50
180.0
 51
270.0
  0
ARC
  8
M0
 62
     7
 10
79.501073
 20
299.467383
 40
0.5
 50
0.0
 51
90.0
  0
ARC
  8
M0
 62
     7
 10
79.501073
 20
292.817383
 40
0.5
 50
270.0
 51
360.0
  0
CIRCLE
  8
M0
 62
     7
 10
76.176073
 20
296.142383
 40
3.0
  0
LINE
  8
M0
 62
     7
 10
72.351073
 20
299.467383
 11
72.351073
 21
292.817383
  0
LINE
  8
M0
 62
     7
 10
80.001073
 20
292.817383
 11
80.001073
 21
299.467383
  0
LINE
  8
M0
 62
     7
 10
72.851073
 20
292.317383
 11
79.501073
 21
292.317383
  0
LINE
  8
M0
 62
     7
 10
79.501073
 20
299.967383
 11
72.851073
 21
299.967383
  0
LINE
  8
M0
  6
DASHDOT
 62
     7
 10
75.676073
 20
296.142383
 11
76.676073
 21
296.142383
  0
LINE
  8
M0
  6
DASHDOT
 62
     7
 10
76.176073
 20
295.642383
 11
76.176073
 21
296.642383
  0
ARC
  8
M0
 62
     7
 10
62.751073
 20
299.467383
 40
0.5
 50
90.0
 51
180.0
  0
ARC
  8
M0
 62
     7
 10
62.751073
 20
292.817383
 40
0.5
 50
180.0
 51
270.0
  0
ARC
  8
M0
 62
     7
 10
69.401073
 20
299.467383
 40
0.5
 50
0.0
 51
90.0
  0
ARC
  8
M0
 62
     7
 10
69.401073
 20
292.817383
 40
0.5
 50
270.0
 51
360.0
  0
LINE
  8
M0
 62
     7
 10
62.251073
 20
299.467383
 11
62.251073
 21
292.817383
  0
LINE
  8
M0
 62
     7
 10
69.901073
 20
292.817383
 11
69.901073
 21
299.467383
  0
LINE
  8
M0
 62
     7
 10
62.751073
 20
292.317383
 11
69.401073
 21
292.317383
  0
LINE
  8
M0
 62
     7
 10
69.401073
 20
299.967383
 11
62.751073
 21
299.967383
  0
LINE
  8
M0
  6
DASHDOT
 62
     7
 10
65.576073
 20
296.142383
 11
66.576073
 21
296.142383
  0
LINE
  8
M0
  6
DASHDOT
 62
     7
 10
66.076073
 20
295.642383
 11
66.076073
 21
296.642383
  0
CIRCLE
  8
M0
 62
     7
 10
81.226073
 20
355.142383
 40
2.65
  0
LINE
  8
M0
 62
     7
 10
82.426073
 20
354.692383
 11
82.426073
 21
355.592383
  0
LINE
  8
M0
 62
     7
 10
74.976073
 20
284.092383
 11
74.976073
 21
284.992383
  0
LINE
  8
M0
 62
     7
 10
80.026073
 20
354.692383
 11
80.026073
 21
355.592383
  0
LINE
  8
M0
 62
     7
 10
77.376073
 20
284.092383
 11
77.376073
 21
284.992383
  0
LINE
  8
M0
 62
     7
 10
93.576073
 20
287.742383
 11
92.476073
 21
287.742383
  0
LINE
  8
M0
 62
     7
 10
93.576073
 20
287.542416
 11
93.576073
 21
287.742383
  0
LINE
  8
M0
 62
     7
 10
102.726073
 20
348.742383
 11
102.726073
 21
287.242383
  0
LINE
  8
M0
 62
     7
 10
59.726073
 20
285.742383
 11
59.726073
 21
345.942383
  0
LINE
  8
M0
 62
     7
 10
98.976073
 20
291.342383
 11
98.976073
 21
290.942383
  0
LINE
  8
M0
 62
     7
 10
85.926073
 20
282.242383
 11
86.700653
 21
282.242383
  0
LINE
  8
M0
 62
     7
 10
70.022134
 20
282.242383
 11
69.700653
 21
282.242383
  0
LINE
  8
M0
 62
     7
 10
69.976073
 20
286.542383
 11
66.976073
 21
286.542383
  0
LINE
  8
M0
 62
     7
 10
90.076073
 20
286.042383
 11
90.076073
 21
282.742383
  0
LINE
  8
M0
 62
     7
 10
85.426073
 20
286.042383
 11
85.426073
 21
282.742383
  0
LINE
  8
M0
 62
     7
 10
94.476073
 20
290.942383
 11
94.476073
 21
291.342383
  0
LINE
  8
M0
 62
     7
 10
66.976073
 20
286.542383
 11
66.976073
 21
286.242401
  0
LINE
  8
M0
 62
     7
 10
61.476073
 20
345.942383
 11
61.476073
 21
345.796322
  0
ARC
  8
M0
 62
     7
 10
98.726073
 20
348.742383
 40
4.0
 50
0.0
 51
97.180756
  0
ARC
  8
M0
 62
     7
 10
98.726073
 20
348.742383
 40
2.25
 50
257.160412
 51
462.839588
  0
ARC
  8
M0
 62
     7
 10
85.926073
 20
282.742383
 40
0.5
 50
180.0
 51
270.0
  0
ARC
  8
M0
 62
     7
 10
89.576073
 20
282.742383
 40
0.5
 50
284.427733
 51
360.0
  0
LINE
  8
M0
 62
     7
 10
66.026073
 20
359.942383
 11
74.326073
 21
359.942383
  0
LINE
  8
M0
 62
     7
 10
95.626073
 20
359.942383
 11
96.426073
 21
359.942383
  0
LINE
  8
M0
 62
     7
 10
64.226073
 20
347.942383
 11
64.226073
 21
347.842383
  0
LINE
  8
M0
 62
     7
 10
64.226073
 20
351.542383
 11
64.226073
 21
351.442383
  0
LINE
  8
M0
 62
     7
 10
98.226073
 20
347.842383
 11
98.226073
 21
347.942383
  0
LINE
  8
M0
 62
     7
 10
98.226073
 20
351.442383
 11
98.226073
 21
351.542383
  0
LINE
  8
M0
 62
     7
 10
96.426073
 20
360.842383
 11
96.426073
 21
351.442383
  0
LINE
  8
M0
 62
     7
 10
66.026073
 20
351.442383
 11
66.026073
 21
351.542383
  0
LINE
  8
M0
 62
     7
 10
76.626073
 20
284.992383
 11
76.626073
 21
285.742383
  0
ARC
  8
M0
 62
     7
 10
65.426073
 20
360.842383
 40
0.6
 50
0.0
 51
90.0
  0
LINE
  8
M0
 62
     7
 10
74.976073
 20
284.992383
 11
75.726073
 21
284.992383
  0
LINE
  8
M0
 62
     7
 10
75.726073
 20
285.742383
 11
75.726073
 21
284.992383
  0
LINE
  8
M0
 62
     7
 10
76.626073
 20
284.992383
 11
77.376073
 21
284.992383
  0
ARC
  8
M0
 62
     7
 10
97.026073
 20
360.842383
 40
0.6
 50
90.0
 51
180.0
  0
LINE
  8
M0
 62
     7
 10
76.626073
 20
285.742383
 11
75.726073
 21
285.742383
  0
ARC
  8
M0
 62
     7
 10
64.826073
 20
360.842383
 40
0.6
 50
90.0
 51
180.0
  0
ARC
  8
M0
 62
     7
 10
86.226073
 20
283.542383
 40
2.0
 50
270.0
 51
283.72663
  0
ARC
  8
M0
 62
     7
 10
97.626073
 20
360.842383
 40
0.6
 50
0.0
 51
90.0
  0
LINE
  8
M0
 62
     7
 10
76.626073
 20
283.342383
 11
76.626073
 21
284.092383
  0
LINE
  8
M0
 62
     7
 10
75.726073
 20
284.092383
 11
74.976073
 21
284.092383
  0
LINE
  8
M0
 62
     7
 10
75.726073
 20
283.342383
 11
76.626073
 21
283.342383
  0
LINE
  8
M0
 62
     7
 10
75.726073
 20
284.092383
 11
75.726073
 21
283.342383
  0
ARC
  8
M0
 62
     7
 10
98.726073
 20
293.942383
 40
2.25
 50
286.791447
 51
313.542219
  0
ARC
  8
M0
 62
     7
 10
63.726073
 20
288.742383
 40
2.25
 50
191.257189
 51
253.859307
  0
ARC
  8
M0
 62
     7
 10
96.726073
 20
290.942383
 40
2.25
 50
180.0
 51
360.0
  0
ARC
  8
M0
 62
     7
 10
63.726073
 20
345.942383
 40
2.25
 50
77.160412
 51
180.0
  0
ARC
  8
M0
 62
     7
 10
64.726073
 20
345.942383
 40
5.0
 50
95.73917
 51
180.0
  0
ARC
  8
M0
 62
     7
 10
94.076073
 20
282.742383
 40
0.5
 50
243.203501
 51
270.0
  0
LINE
  8
M0
 62
     7
 10
77.376073
 20
284.092383
 11
76.626073
 21
284.092383
  0
ARC
  8
M0
 62
     7
 10
66.476073
 20
282.742383
 40
0.5
 50
270.0
 51
296.689719
  0
ARC
  8
M0
 62
     7
 10
97.726073
 20
287.242383
 40
5.0
 50
270.0
 51
360.0
  0
ARC
  8
M0
 62
     7
 10
63.226073
 20
285.742383
 40
3.5
 50
180.0
 51
264.663882
  0
LINE
  8
M0
 62
     7
 10
98.226073
 20
358.442383
 11
98.226073
 21
360.842383
  0
LINE
  8
M0
 62
     7
 10
97.026073
 20
361.442383
 11
97.626073
 21
361.442383
  0
LINE
  8
M0
 62
     7
 10
64.826073
 20
361.442383
 11
65.426073
 21
361.442383
  0
LINE
  8
M0
 62
     7
 10
86.226073
 20
281.542383
 11
84.900579
 21
281.542383
  0
LINE
  8
M0
 62
     7
 10
98.226073
 20
358.442383
 11
98.226073
 21
351.542383
  0
LINE
  8
M0
 62
     7
 10
82.376073
 20
283.542383
 11
82.900579
 21
283.542383
  0
LINE
  8
M0
 62
     7
 10
66.026073
 20
351.442383
 11
66.026073
 21
360.842383
  0
LINE
  8
M0
 62
     7
 10
65.026073
 20
320.692383
 11
65.026073
 21
319.442383
  0
LINE
  8
M0
 62
     7
 10
65.226073
 20
319.442383
 11
65.026073
 21
319.442383
  0
LINE
  8
M0
 62
     7
 10
65.026073
 20
314.442383
 11
65.026073
 21
313.392383
  0
LINE
  8
M0
 62
     7
 10
65.026073
 20
314.442383
 11
65.226073
 21
314.442383
  0
LINE
  8
M0
 62
     7
 10
64.944018
 20
313.342383
 11
62.026073
 21
313.342383
  0
LINE
  8
M0
 62
     7
 10
61.676073
 20
323.142383
 11
61.826073
 21
323.142383
  0
LINE
  8
M0
 62
     7
 10
61.826073
 20
325.942383
 11
61.676073
 21
325.942383
  0
LINE
  8
M0
 62
     7
 10
61.176073
 20
288.242383
 11
60.726073
 21
288.242383
  0
ARC
  8
M0
 62
     7
 10
91.476073
 20
285.842383
 40
1.0
 50
270.0
 51
360.0
  0
ARC
  8
M0
 62
     7
 10
71.276073
 20
285.842383
 40
1.0
 50
270.0
 51
360.0
  0
ARC
  8
M0
 62
     7
 10
81.376073
 20
285.842383
 40
1.0
 50
270.0
 51
360.0
  0
ARC
  8
M0
 62
     7
 10
70.976073
 20
285.842383
 40
1.0
 50
180.0
 51
270.0
  0
LINE
  8
M0
 62
     7
 10
62.026073
 20
313.342383
 11
62.026073
 21
320.742383
  0
LINE
  8
M0
 62
     7
 10
60.726073
 20
313.342383
 11
60.726073
 21
320.742383
  0
LINE
  8
M0
 62
     7
 10
62.026073
 20
320.742383
 11
64.944018
 21
320.742383
  0
LINE
  8
M0
 62
     7
 10
100.276073
 20
289.242383
 11
100.276073
 21
300.342383
  0
LINE
  8
M0
 62
     7
 10
101.726073
 20
288.242383
 11
101.276073
 21
288.242383
  0
LINE
  8
M0
 62
     7
 10
86.126073
 20
328.042383
 11
86.276073
 21
328.042383
  0
LINE
  8
M0
 62
     7
 10
100.673442
 20
323.142383
 11
100.673442
 21
325.942383
  0
LINE
  8
M0
 62
     7
 10
76.326073
 20
328.042383
 11
76.176073
 21
328.042383
  0
LINE
  8
M0
 62
     7
 10
97.226073
 20
314.442383
 11
97.426073
 21
314.442383
  0
LINE
  8
M0
 62
     7
 10
97.426073
 20
314.442383
 11
97.426073
 21
313.392383
  0
LINE
  8
M0
 62
     7
 10
97.426073
 20
319.442383
 11
97.226073
 21
319.442383
  0
LINE
  8
M0
 62
     7
 10
69.976073
 20
345.242383
 11
69.976073
 21
348.242383
  0
LINE
  8
M0
 62
     7
 10
100.776073
 20
325.942383
 11
100.626073
 21
325.942383
  0
LINE
  8
M0
 62
     7
 10
101.726073
 20
313.342383
 11
101.726073
 21
320.742383
  0
LINE
  8
M0
 62
     7
 10
97.426073
 20
320.692383
 11
97.426073
 21
319.442383
  0
LINE
  8
M0
 62
     7
 10
61.778705
 20
323.142383
 11
61.778705
 21
325.942383
  0
LINE
  8
M0
 62
     7
 10
100.426073
 20
320.742383
 11
97.508128
 21
320.742383
  0
LINE
  8
M0
 62
     7
 10
97.508128
 20
313.342383
 11
100.426073
 21
313.342383
  0
LINE
  8
M0
 62
     7
 10
100.426073
 20
313.342383
 11
100.426073
 21
320.742383
  0
LINE
  8
M0
 62
     7
 10
100.626073
 20
323.142383
 11
100.776073
 21
323.142383
  0
LINE
  8
M0
 62
     7
 10
81.176073
 20
284.842383
 11
81.076073
 21
284.842383
  0
LINE
  8
M0
 62
     7
 10
81.276073
 20
284.842383
 11
81.176073
 21
284.842383
  0
LINE
  8
M0
 62
     7
 10
91.276073
 20
284.842383
 11
91.176073
 21
284.842383
  0
LINE
  8
M0
 62
     7
 10
81.376073
 20
284.842383
 11
81.276073
 21
284.842383
  0
LINE
  8
M0
 62
     7
 10
91.476073
 20
284.842383
 11
91.276073
 21
284.842383
  0
LINE
  8
M0
 62
     7
 10
82.376073
 20
333.742383
 11
82.376073
 21
348.242383
  0
LINE
  8
M0
 62
     7
 10
92.476073
 20
333.742383
 11
92.476073
 21
348.242383
  0
LINE
  8
M0
 62
     7
 10
81.076073
 20
298.842383
 11
81.376073
 21
298.842383
  0
LINE
  8
M0
 62
     7
 10
90.176073
 20
285.842383
 11
90.176073
 21
300.342383
  0
LINE
  8
M0
 62
     7
 10
71.176073
 20
284.842383
 11
70.976073
 21
284.842383
  0
LINE
  8
M0
 62
     7
 10
71.276073
 20
284.842383
 11
71.176073
 21
284.842383
  0
LINE
  8
M0
 62
     7
 10
92.476073
 20
300.342383
 11
92.476073
 21
285.842383
  0
ARC
  8
M0
 62
     7
 10
81.376073
 20
297.842383
 40
1.0
 50
0.0
 51
90.0
  0
ARC
  8
M0
 62
     7
 10
71.276073
 20
297.842383
 40
1.0
 50
0.0
 51
90.0
  0
ARC
  8
M0
 62
     7
 10
70.976073
 20
336.242383
 40
1.0
 50
180.0
 51
270.0
  0
ARC
  8
M0
 62
     7
 10
81.376073
 20
336.242383
 40
1.0
 50
270.0
 51
360.0
  0
ARC
  8
M0
 62
     7
 10
81.076073
 20
336.242383
 40
1.0
 50
180.0
 51
270.0
  0
ARC
  8
M0
 62
     7
 10
91.176073
 20
336.242383
 40
1.0
 50
180.0
 51
270.0
  0
ARC
  8
M0
 62
     7
 10
81.076073
 20
285.842383
 40
1.0
 50
180.0
 51
270.0
  0
ARC
  8
M0
 62
     7
 10
91.176073
 20
285.842383
 40
1.0
 50
180.0
 51
270.0
  0
ARC
  8
M0
 62
     7
 10
91.176073
 20
297.842383
 40
1.0
 50
90.0
 51
180.0
  0
ARC
  8
M0
 62
     7
 10
91.476073
 20
297.842383
 40
1.0
 50
0.0
 51
90.0
  0
ARC
  8
M0
 62
     7
 10
70.976073
 20
297.842383
 40
1.0
 50
90.0
 51
180.0
  0
LINE
  8
M0
 62
     7
 10
69.976073
 20
333.742383
 11
69.976073
 21
336.242383
  0
LINE
  8
M0
 62
     7
 10
72.276073
 20
336.242383
 11
72.276073
 21
333.742383
  0
LINE
  8
M0
 62
     7
 10
90.176073
 20
348.242383
 11
90.176073
 21
333.742383
  0
ARC
  8
M0
 62
     7
 10
91.476073
 20
336.242383
 40
1.0
 50
270.0
 51
360.0
  0
ARC
  8
M0
 62
     7
 10
81.076073
 20
297.842383
 40
1.0
 50
90.0
 51
180.0
  0
ARC
  8
M0
 62
     7
 10
71.276073
 20
336.242383
 40
1.0
 50
270.0
 51
360.0
  0
LINE
  8
M0
 62
     7
 10
100.776073
 20
312.342383
 11
100.776073
 21
312.343633
  0
LINE
  8
M0
 62
     7
 10
61.676073
 20
312.343633
 11
61.676073
 21
312.342383
  0
LINE
  8
M0
 62
     7
 10
100.776073
 20
321.741132
 11
100.776073
 21
321.742383
  0
LINE
  8
M0
 62
     7
 10
61.676073
 20
321.742383
 11
61.676073
 21
321.741132
  0
LINE
  8
M0
 62
     7
 10
100.776073
 20
300.342383
 11
100.776073
 21
312.342383
  0
LINE
  8
M0
 62
     7
 10
61.676073
 20
312.342383
 11
61.676073
 21
300.342383
  0
LINE
  8
M0
 62
     7
 10
73.026073
 20
329.242383
 11
73.526073
 21
329.242383
  0
LINE
  8
M0
 62
     7
 10
90.426073
 20
309.542383
 11
90.426073
 21
323.142383
  0
LINE
  8
M0
 62
     7
 10
73.526073
 20
306.042383
 11
73.026073
 21
306.042383
  0
LINE
  8
M0
 62
     7
 10
61.676073
 20
333.742383
 11
61.676073
 21
321.742383
  0
LINE
  8
M0
 62
     7
 10
72.026073
 20
309.542383
 11
72.026073
 21
323.142383
  0
LINE
  8
M0
 62
     7
 10
100.776073
 20
321.742383
 11
100.776073
 21
333.742383
  0
LINE
  8
M0
 62
     7
 10
86.776073
 20
321.842383
 11
75.676073
 21
321.842383
  0
LINE
  8
M0
 62
     7
 10
88.926073
 20
329.242383
 11
89.426073
 21
329.242383
  0
LINE
  8
M0
 62
     7
 10
86.276073
 20
327.042383
 11
76.176073
 21
327.042383
  0
LINE
  8
M0
 62
     7
 10
88.926073
 20
306.042383
 11
89.426073
 21
306.042383
  0
ARC
  8
M0
 62
     7
 10
60.726073
 20
321.742383
 40
1.0
 50
180.0
 51
270.0
  0
ARC
  8
M0
 62
     7
 10
101.776073
 20
321.741132
 40
1.0
 50
180.0
 51
267.134016
  0
ARC
  8
M0
 62
     7
 10
101.726073
 20
321.742383
 40
1.0
 50
270.0
 51
360.0
  0
ARC
  8
M0
 62
     7
 10
101.726073
 20
344.842383
 40
1.0
 50
0.0
 51
90.0
  0
ARC
  8
M0
 62
     7
 10
61.176073
 20
344.842383
 40
1.0
 50
0.0
 51
90.0
  0
ARC
  8
M0
 62
     7
 10
101.276073
 20
344.842383
 40
1.0
 50
90.0
 51
180.0
  0
ARC
  8
M0
 62
     7
 10
60.726073
 20
312.342383
 40
1.0
 50
90.0
 51
180.0
  0
LINE
  8
M0
 62
     7
 10
63.076073
 20
342.742383
 11
69.076073
 21
342.742383
  0
ARC
  8
M0
 62
     7
 10
101.726073
 20
312.342383
 40
1.0
 50
0.0
 51
90.0
  0
ARC
  8
M0
 62
     7
 10
101.776073
 20
312.343633
 40
1.0
 50
92.865984
 51
180.0
  0
ARC
  8
M0
 62
     7
 10
60.676073
 20
312.343633
 40
1.0
 50
0.0
 51
87.134016
  0
LINE
  8
M0
 62
     7
 10
62.176073
 20
300.342383
 11
62.176073
 21
293.242383
  0
ARC
  8
M0
 62
     7
 10
60.726073
 20
344.842383
 40
1.0
 50
90.0
 51
180.0
  0
ARC
  8
M0
 62
     7
 10
60.676073
 20
321.741132
 40
1.0
 50
272.865984
 51
360.0
  0
ARC
  8
M0
 62
     7
 10
87.276073
 20
306.542383
 40
0.5
 50
180.0
 51
270.0
  0
LINE
  8
M0
 62
     7
 10
62.176073
 20
293.242383
 11
62.176073
 21
289.242383
  0
ARC
  8
M0
 62
     7
 10
75.176073
 20
306.542383
 40
0.5
 50
270.0
 51
360.0
  0
ARC
  8
M0
 62
     7
 10
89.676073
 20
305.542383
 40
0.5
 50
67.201593
 51
90.0
  0
ARC
  8
M0
 62
     7
 10
89.676073
 20
329.742383
 40
0.5
 50
270.0
 51
292.798407
  0
ARC
  8
M0
 62
     7
 10
72.776073
 20
305.542383
 40
0.5
 50
90.0
 51
112.798407
  0
ARC
  8
M0
 62
     7
 10
60.726073
 20
289.242383
 40
1.0
 50
180.0
 51
270.0
  0
ARC
  8
M0
 62
     7
 10
72.776073
 20
329.742383
 40
0.5
 50
247.201593
 51
270.0
  0
ARC
  8
M0
 62
     7
 10
101.276073
 20
289.242383
 40
1.0
 50
180.0
 51
270.0
  0
ARC
  8
M0
 62
     7
 10
91.476073
 20
348.242383
 40
1.0
 50
0.0
 51
90.0
  0
ARC
  8
M0
 62
     7
 10
81.376073
 20
348.242383
 40
1.0
 50
0.0
 51
90.0
  0
ARC
  8
M0
 62
     7
 10
91.176073
 20
348.242383
 40
1.0
 50
90.0
 51
180.0
  0
ARC
  8
M0
 62
     7
 10
79.576073
 20
305.542383
 40
0.5
 50
53.130102
 51
90.0
  0
ARC
  8
M0
 62
     7
 10
70.976073
 20
348.242383
 40
1.0
 50
90.0
 51
180.0
  0
LINE
  8
M0
 62
     7
 10
91.276073
 20
349.242383
 11
91.476073
 21
349.242383
  0
LINE
  8
M0
 62
     7
 10
91.176073
 20
349.242383
 11
91.276073
 21
349.242383
  0
ARC
  8
M0
 62
     7
 10
101.726073
 20
289.242383
 40
1.0
 50
270.0
 51
360.0
  0
ARC
  8
M0
 62
     7
 10
82.876073
 20
305.542383
 40
0.5
 50
90.0
 51
126.869898
  0
ARC
  8
M0
 62
     7
 10
61.176073
 20
289.242383
 40
1.0
 50
270.0
 51
360.0
  0
LINE
  8
M0
 62
     7
 10
80.076073
 20
333.742383
 11
80.076073
 21
348.242383
  0
LINE
  8
M0
 62
     7
 10
70.976073
 20
349.242383
 11
71.176073
 21
349.242383
  0
LINE
  8
M0
 62
     7
 10
72.276073
 20
348.242383
 11
72.276073
 21
345.242383
  0
LINE
  8
M0
 62
     7
 10
101.276073
 20
345.842383
 11
101.726073
 21
345.842383
  0
LINE
  8
M0
 62
     7
 10
62.176073
 20
344.842383
 11
62.176073
 21
340.842383
  0
LINE
  8
M0
 62
     7
 10
100.776073
 20
333.742383
 11
61.676073
 21
333.742383
  0
LINE
  8
M0
 62
     7
 10
86.776073
 20
310.742383
 11
75.676073
 21
310.742383
  0
LINE
  8
M0
 62
     7
 10
75.676073
 20
307.542383
 11
86.776073
 21
307.542383
  0
LINE
  8
M0
 62
     7
 10
75.676073
 20
312.142383
 11
86.776073
 21
312.142383
  0
ARC
  8
M0
 62
     7
 10
81.076073
 20
348.242383
 40
1.0
 50
90.0
 51
180.0
  0
LINE
  8
M0
 62
     7
 10
73.026073
 20
306.042383
 11
75.176073
 21
306.042383
  0
ARC
  8
M0
 62
     7
 10
71.276073
 20
348.242383
 40
1.0
 50
0.0
 51
90.0
  0
LINE
  8
M0
 62
     7
 10
62.176073
 20
340.842383
 11
62.176073
 21
333.742383
  0
LINE
  8
M0
 62
     7
 10
60.726073
 20
345.842383
 11
61.176073
 21
345.842383
  0
LINE
  8
M0
 62
     7
 10
87.276073
 20
306.042383
 11
75.176073
 21
306.042383
  0
LINE
  8
M0
 62
     7
 10
75.926073
 20
351.859049
 11
75.926073
 21
358.942383
  0
LINE
  8
M0
 62
     7
 10
86.526073
 20
358.942383
 11
86.526073
 21
351.859049
  0
LINE
  8
M0
 62
     7
 10
69.976073
 20
347.842383
 11
64.226073
 21
347.842383
  0
LINE
  8
M0
 62
     7
 10
76.926073
 20
359.942383
 11
85.526073
 21
359.942383
  0
LINE
  8
M0
 62
     7
 10
64.226073
 20
360.842383
 11
64.226073
 21
342.742383
  0
LINE
  8
M0
 62
     7
 10
80.076073
 20
312.942383
 11
80.076073
 21
313.442383
  0
LINE
  8
M0
 62
     7
 10
86.526073
 20
321.142383
 11
86.526073
 21
312.942383
  0
LINE
  8
M0
 62
     7
 10
83.476073
 20
321.642383
 11
86.026073
 21
321.642383
  0
LINE
  8
M0
 62
     7
 10
78.976073
 20
321.642383
 11
76.426073
 21
321.642383
  0
LINE
  8
M0
 62
     7
 10
76.926073
 20
351.442383
 11
85.526073
 21
351.442383
  0
LINE
  8
M0
 62
     7
 10
75.926073
 20
349.942383
 11
75.926073
 21
351.859049
  0
LINE
  8
M0
 62
     7
 10
75.926073
 20
349.942383
 11
86.526073
 21
349.942383
  0
LINE
  8
M0
 62
     7
 10
78.076073
 20
288.042383
 11
74.700579
 21
288.042383
  0
LINE
  8
M0
 62
     7
 10
90.176073
 20
286.042383
 11
89.700653
 21
286.042383
  0
LINE
  8
M0
 62
     7
 10
82.376073
 20
347.842383
 11
90.176073
 21
347.842383
  0
LINE
  8
M0
 62
     7
 10
98.226073
 20
347.842383
 11
92.476073
 21
347.842383
  0
LINE
  8
M0
 62
     7
 10
98.226073
 20
342.742383
 11
98.226073
 21
347.842383
  0
LINE
  8
M0
 62
     7
 10
75.926073
 20
349.942383
 11
75.926073
 21
347.842383
  0
LINE
  8
M0
 62
     7
 10
86.526073
 20
347.842383
 11
86.526073
 21
349.942383
  0
LINE
  8
M0
 62
     7
 10
86.526073
 20
349.942383
 11
86.526073
 21
351.859049
  0
ARC
  8
M0
 62
     7
 10
78.076073
 20
286.042383
 40
2.0
 50
0.0
 51
90.0
  0
ARC
  8
M0
 62
     7
 10
74.276073
 20
286.042383
 40
2.0
 50
125.99726
 51
180.0
  0
ARC
  8
M0
 62
     7
 10
71.276073
 20
282.542383
 40
1.0
 50
270.0
 51
277.157169
  0
ARC
  8
M0
 62
     7
 10
81.376073
 20
282.542383
 40
1.0
 50
270.0
 51
271.409134
  0
ARC
  8
M0
 62
     7
 10
70.976073
 20
282.542383
 40
1.0
 50
180.0
 51
270.0
  0
ARC
  8
M0
 62
     7
 10
81.076073
 20
282.542383
 40
1.0
 50
180.0
 51
270.0
  0
ARC
  8
M0
 62
     7
 10
83.476073
 20
321.142383
 40
0.5
 50
90.0
 51
180.0
  0
ARC
  8
M0
 62
     7
 10
78.976073
 20
321.142383
 40
0.5
 50
0.0
 51
90.0
  0
ARC
  8
M0
 62
     7
 10
86.026073
 20
321.142383
 40
0.5
 50
0.0
 51
90.0
  0
ARC
  8
M0
 62
     7
 10
85.526073
 20
358.942383
 40
1.0
 50
0.0
 51
90.0
  0
ARC
  8
M0
 62
     7
 10
76.426073
 20
321.142383
 40
0.5
 50
90.0
 51
180.0
  0
LINE
  8
M0
 62
     7
 10
82.376073
 20
313.942383
 11
82.476073
 21
313.942383
  0
LINE
  8
M0
 62
     7
 10
82.376073
 20
313.442383
 11
82.376073
 21
313.942383
  0
LINE
  8
M0
 62
     7
 10
75.926073
 20
321.142383
 11
75.926073
 21
312.942383
  0
LINE
  8
M0
 62
     7
 10
82.976073
 20
314.442383
 11
82.976073
 21
321.142383
  0
LINE
  8
M0
 62
     7
 10
82.376073
 20
312.942383
 11
82.376073
 21
313.442383
  0
LINE
  8
M0
 62
     7
 10
79.476073
 20
314.442383
 11
79.476073
 21
321.142383
  0
ARC
  8
M0
 62
     7
 10
76.926073
 20
358.942383
 40
1.0
 50
90.0
 51
180.0
  0
LINE
  8
M0
 62
     7
 10
86.026073
 20
312.442383
 11
82.876073
 21
312.442383
  0
LINE
  8
M0
 62
     7
 10
80.076073
 20
313.442383
 11
80.076073
 21
313.942383
  0
LINE
  8
M0
 62
     7
 10
76.426073
 20
312.442383
 11
79.576073
 21
312.442383
  0
LINE
  8
M0
 62
     7
 10
80.076073
 20
313.942383
 11
79.976073
 21
313.942383
  0
LINE
  8
M0
 62
     7
 10
80.076073
 20
320.642383
 11
80.076073
 21
321.842383
  0
LINE
  8
M0
 62
     7
 10
86.776073
 20
312.742383
 11
86.740216
 21
312.742383
  0
LINE
  8
M0
 62
     7
 10
75.993061
 20
321.392383
 11
75.989109
 21
321.385398
  0
LINE
  8
M0
 62
     7
 10
75.676073
 20
312.742383
 11
75.711931
 21
312.742383
  0
LINE
  8
M0
 62
     7
 10
80.576073
 20
318.442383
 11
81.876073
 21
318.442383
  0
LINE
  8
M0
 62
     7
 10
82.376073
 20
312.142383
 11
82.376073
 21
312.942383
  0
LINE
  8
M0
 62
     7
 10
80.076073
 20
312.142383
 11
80.076073
 21
312.942383
  0
LINE
  8
M0
 62
     7
 10
82.876073
 20
321.642383
 11
84.226073
 21
321.642383
  0
LINE
  8
M0
 62
     7
 10
79.576073
 20
321.642383
 11
78.226073
 21
321.642383
  0
LINE
  8
M0
 62
     7
 10
82.376073
 20
313.942383
 11
82.376073
 21
314.442383
  0
LINE
  8
M0
 62
     7
 10
85.226073
 20
321.642383
 11
84.226073
 21
321.642383
  0
LINE
  8
M0
 62
     7
 10
80.076073
 20
313.942383
 11
80.076073
 21
314.442383
  0
LINE
  8
M0
 62
     7
 10
77.226073
 20
321.642383
 11
78.226073
 21
321.642383
  0
LINE
  8
M0
 62
     7
 10
80.076073
 20
314.942383
 11
80.076073
 21
314.442383
  0
LINE
  8
M0
 62
     7
 10
82.376073
 20
320.642383
 11
82.376073
 21
321.842383
  0
LINE
  8
M0
 62
     7
 10
82.376073
 20
314.942383
 11
82.376073
 21
314.442383
  0
LINE
  8
M0
 62
     7
 10
80.076073
 20
318.942383
 11
80.076073
 21
321.142383
  0
LINE
  8
M0
 62
     7
 10
80.576073
 20
315.442383
 11
81.876073
 21
315.442383
  0
LINE
  8
M0
 62
     7
 10
82.376073
 20
318.942383
 11
82.376073
 21
321.142383
  0
LINE
  8
M0
 62
     7
 10
69.976073
 20
292.342383
 11
69.076073
 21
292.342383
  0
LINE
  8
M0
 62
     7
 10
80.076073
 20
282.542383
 11
80.076073
 21
300.342383
  0
LINE
  8
M0
 62
     7
 10
100.276073
 20
292.342383
 11
99.376073
 21
292.342383
  0
LINE
  8
M0
 62
     7
 10
63.076073
 20
292.342383
 11
62.176073
 21
292.342383
  0
LINE
  8
M0
 62
     7
 10
83.276073
 20
292.342383
 11
82.376073
 21
292.342383
  0
LINE
  8
M0
 62
     7
 10
81.076073
 20
281.542383
 11
81.376073
 21
281.542383
  0
LINE
  8
M0
 62
     7
 10
72.276073
 20
347.842383
 11
80.076073
 21
347.842383
  0
LINE
  8
M0
 62
     7
 10
70.976073
 20
281.542383
 11
71.276073
 21
281.542383
  0
LINE
  8
M0
 62
     7
 10
69.976073
 20
282.542383
 11
69.976073
 21
300.342383
  0
LINE
  8
M0
 62
     7
 10
72.276073
 20
300.342383
 11
72.276073
 21
282.542383
  0
ARC
  8
M0
 62
     7
 10
80.576073
 20
314.942383
 40
0.5
 50
90.0
 51
180.0
  0
ARC
  8
M0
 62
     7
 10
81.876073
 20
318.942383
 40
0.5
 50
270.0
 51
360.0
  0
ARC
  8
M0
 62
     7
 10
81.876073
 20
314.942383
 40
0.5
 50
0.0
 51
90.0
  0
ARC
  8
M0
 62
     7
 10
79.576073
 20
321.142383
 40
0.5
 50
0.0
 51
90.0
  0
ARC
  8
M0
 62
     7
 10
82.876073
 20
321.142383
 40
0.5
 50
90.0
 51
180.0
  0
ARC
  8
M0
 62
     7
 10
82.876073
 20
312.942383
 40
0.5
 50
180.0
 51
270.0
  0
LINE
  8
M0
 62
     7
 10
82.376073
 20
300.342383
 11
82.376073
 21
282.542383
  0
ARC
  8
M0
 62
     7
 10
76.384107
 20
312.90355
 40
0.44285
 50
206.131697
 51
224.639687
  0
LINE
  8
M0
 62
     7
 10
89.026073
 20
306.042383
 11
89.026073
 21
305.942383
  0
LINE
  8
M0
 62
     7
 10
91.376073
 20
284.842383
 11
91.476073
 21
284.842383
  0
LINE
  8
M0
 62
     7
 10
73.426073
 20
305.942383
 11
73.426073
 21
306.042383
  0
LINE
  8
M0
 62
     7
 10
79.176073
 20
341.742383
 11
80.076073
 21
341.742383
  0
LINE
  8
M0
 62
     7
 10
89.276073
 20
341.742383
 11
90.176073
 21
341.742383
  0
LINE
  8
M0
 62
     7
 10
82.376073
 20
341.742383
 11
83.276073
 21
341.742383
  0
LINE
  8
M0
 62
     7
 10
73.176073
 20
292.342383
 11
72.276073
 21
292.342383
  0
LINE
  8
M0
 62
     7
 10
93.376073
 20
292.342383
 11
92.476073
 21
292.342383
  0
LINE
  8
M0
 62
     7
 10
80.076073
 20
292.342383
 11
79.176073
 21
292.342383
  0
LINE
  8
M0
 62
     7
 10
83.526073
 20
305.942383
 11
83.526073
 21
306.042383
  0
LINE
  8
M0
 62
     7
 10
90.176073
 20
292.342383
 11
89.276073
 21
292.342383
  0
LINE
  8
M0
 62
     7
 10
89.026073
 20
329.342383
 11
89.026073
 21
329.242383
  0
LINE
  8
M0
 62
     7
 10
91.476073
 20
349.242383
 11
91.376073
 21
349.242383
  0
LINE
  8
M0
 62
     7
 10
71.076073
 20
349.242383
 11
70.976073
 21
349.242383
  0
LINE
  8
M0
 62
     7
 10
71.276073
 20
282.042383
 11
70.976073
 21
282.042383
  0
LINE
  8
M0
 62
     7
 10
73.426073
 20
329.242383
 11
73.426073
 21
329.342383
  0
LINE
  8
M0
 62
     7
 10
81.376073
 20
282.042383
 11
81.076073
 21
282.042383
  0
LINE
  8
M0
 62
     7
 10
92.476073
 20
341.742383
 11
93.376073
 21
341.742383
  0
LINE
  8
M0
 62
     7
 10
78.926073
 20
306.042383
 11
78.926073
 21
305.942383
  0
LINE
  8
M0
 62
     7
 10
99.376073
 20
341.742383
 11
100.276073
 21
341.742383
  0
LINE
  8
M0
 62
     7
 10
72.276073
 20
341.742383
 11
73.176073
 21
341.742383
  0
LINE
  8
M0
 62
     7
 10
62.176073
 20
341.742383
 11
63.076073
 21
341.742383
  0
LINE
  8
M0
 62
     7
 10
69.076073
 20
341.742383
 11
69.976073
 21
341.742383
  0
LINE
  8
M0
 62
     7
 10
72.276073
 20
345.242383
 11
72.276073
 21
336.242383
  0
LINE
  8
M0
 62
     7
 10
81.076073
 20
349.242383
 11
81.176073
 21
349.242383
  0
LINE
  8
M0
 62
     7
 10
91.176073
 20
298.842383
 11
91.476073
 21
298.842383
  0
LINE
  8
M0
 62
     7
 10
70.976073
 20
298.842383
 11
71.276073
 21
298.842383
  0
LINE
  8
M0
 62
     7
 10
91.476073
 20
335.242383
 11
91.176073
 21
335.242383
  0
LINE
  8
M0
 62
     7
 10
81.376073
 20
335.242383
 11
81.076073
 21
335.242383
  0
LINE
  8
M0
 62
     7
 10
71.276073
 20
335.242383
 11
70.976073
 21
335.242383
  0
ARC
  8
M0
 62
     7
 10
81.376073
 20
283.042383
 40
1.0
 50
270.0
 51
360.0
  0
ARC
  8
M0
 62
     7
 10
81.076073
 20
283.042383
 40
1.0
 50
180.0
 51
270.0
  0
ARC
  8
M0
 62
     7
 10
81.376073
 20
314.542383
 40
0.5
 50
0.0
 51
90.0
  0
ARC
  8
M0
 62
     7
 10
81.376073
 20
319.542383
 40
0.5
 50
270.0
 51
360.0
  0
ARC
  8
M0
 62
     7
 10
81.076073
 20
314.542383
 40
0.5
 50
90.0
 51
180.0
  0
ARC
  8
M0
 62
     7
 10
81.076073
 20
319.542383
 40
0.5
 50
180.0
 51
270.0
  0
LINE
  8
M0
 62
     7
 10
81.276073
 20
349.242383
 11
81.376073
 21
349.242383
  0
LINE
  8
M0
 62
     7
 10
69.976073
 20
336.242383
 11
69.976073
 21
345.242383
  0
LINE
  8
M0
 62
     7
 10
81.176073
 20
349.242383
 11
81.276073
 21
349.242383
  0
ARC
  8
M0
 62
     7
 10
71.276073
 20
283.042383
 40
1.0
 50
270.0
 51
360.0
  0
LINE
  8
M0
 62
     7
 10
71.176073
 20
349.242383
 11
71.276073
 21
349.242383
  0
ARC
  8
M0
 62
     7
 10
70.976073
 20
283.042383
 40
1.0
 50
180.0
 51
270.0
  0
LINE
  8
M0
 62
     7
 10
72.276073
 20
291.242383
 11
72.276073
 21
290.242383
  0
LINE
  8
M0
 62
     7
 10
62.176073
 20
290.242383
 11
62.176073
 21
291.242383
  0
LINE
  8
M0
 62
     7
 10
100.276073
 20
291.242383
 11
100.276073
 21
290.242383
  0
ARC
  8
M0
 62
     7
 10
76.426073
 20
312.942383
 40
0.5
 50
180.0
 51
270.0
  0
ARC
  8
M0
 62
     7
 10
86.026073
 20
312.942383
 40
0.5
 50
270.0
 51
360.0
  0
ARC
  8
M0
 62
     7
 10
79.576073
 20
312.942383
 40
0.5
 50
270.0
 51
360.0
  0
ARC
  8
M0
 62
     7
 10
82.476073
 20
314.442383
 40
0.5
 50
270.0
 51
360.0
  0
ARC
  8
M0
 62
     7
 10
79.976073
 20
314.442383
 40
0.5
 50
180.0
 51
270.0
  0
ARC
  8
M0
 62
     7
 10
80.576073
 20
318.942383
 40
0.5
 50
180.0
 51
270.0
  0
LINE
  8
M0
 62
     7
 10
62.176073
 20
342.842383
 11
62.176073
 21
343.842383
  0
POLYLINE
  8
M0
 62
     7
 66
     1
  0
VERTEX
  8
M0
 62
     7
 10
85.526073
 20
351.442383
  0
VERTEX
  8
M0
 62
     7
 10
85.699722
 20
351.448713
  0
VERTEX
  8
M0
 62
     7
 10
85.868093
 20
351.467511
  0
VERTEX
  8
M0
 62
     7
 10
86.026073
 20
351.498205
  0
VERTEX
  8
M0
 62
     7
 10
86.168861
 20
351.539864
  0
VERTEX
  8
M0
 62
     7
 10
86.292118
 20
351.591221
  0
VERTEX
  8
M0
 62
     7
 10
86.392099
 20
351.650716
  0
VERTEX
  8
M0
 62
     7
 10
86.465766
 20
351.716541
  0
VERTEX
  8
M0
 62
     7
 10
86.510881
 20
351.786696
  0
VERTEX
  8
M0
 62
     7
 10
86.526073
 20
351.859049
  0
SEQEND
  8
M0
 62
     7
  0
LINE
  8
M0
 62
     7
 10
72.276073
 20
342.842383
 11
72.276073
 21
343.842383
  0
POLYLINE
  8
M0
 62
     7
 66
     1
  0
VERTEX
  8
M0
 62
     7
 10
75.926073
 20
351.859049
  0
VERTEX
  8
M0
 62
     7
 10
75.941266
 20
351.786696
  0
VERTEX
  8
M0
 62
     7
 10
75.986381
 20
351.716541
  0
VERTEX
  8
M0
 62
     7
 10
76.060048
 20
351.650716
  0
VERTEX
  8
M0
 62
     7
 10
76.160029
 20
351.591221
  0
VERTEX
  8
M0
 62
     7
 10
76.283286
 20
351.539864
  0
VERTEX
  8
M0
 62
     7
 10
76.426073
 20
351.498205
  0
VERTEX
  8
M0
 62
     7
 10
76.584053
 20
351.467511
  0
VERTEX
  8
M0
 62
     7
 10
76.752425
 20
351.448713
  0
VERTEX
  8
M0
 62
     7
 10
76.926073
 20
351.442383
  0
SEQEND
  8
M0
 62
     7
  0
LINE
  8
M0
 62
     7
 10
101.476073
 20
345.842383
 11
101.276073
 21
345.842383
  0
LINE
  8
M0
 62
     7
 10
100.276073
 20
344.842383
 11
100.276073
 21
333.742383
  0
LINE
  8
M0
 62
     7
 10
101.476073
 20
288.242383
 11
101.276073
 21
288.242383
  0
LINE
  8
M0
 62
     7
 10
100.276073
 20
290.242383
 11
100.276073
 21
289.242383
  0
LINE
  8
M0
 62
     7
 10
62.176073
 20
289.242383
 11
62.176073
 21
290.242383
  0
LINE
  8
M0
 62
     7
 10
62.176073
 20
343.842383
 11
62.176073
 21
344.842383
  0
LINE
  8
M0
 62
     7
 10
60.976073
 20
288.242383
 11
61.176073
 21
288.242383
  0
LINE
  8
M0
 62
     7
 10
81.076073
 20
319.042383
 11
81.376073
 21
319.042383
  0
LINE
  8
M0
 62
     7
 10
72.276073
 20
343.842383
 11
72.276073
 21
348.242383
  0
LINE
  8
M0
 62
     7
 10
81.876073
 20
312.142383
 11
81.876073
 21
314.542383
  0
LINE
  8
M0
 62
     7
 10
60.976073
 20
345.842383
 11
61.176073
 21
345.842383
  0
LINE
  8
M0
 62
     7
 10
80.576073
 20
314.542383
 11
80.576073
 21
312.142383
  0
LINE
  8
M0
 62
     7
 10
80.576073
 20
321.842383
 11
80.576073
 21
319.542383
  0
LINE
  8
M0
 62
     7
 10
81.076073
 20
315.042383
 11
81.376073
 21
315.042383
  0
LINE
  8
M0
 62
     7
 10
81.876073
 20
319.542383
 11
81.876073
 21
321.842383
  0
LINE
  8
M0
 62
     7
 10
61.826073
 20
333.242383
 11
61.826073
 21
321.292383
  0
LINE
  8
M0
 62
     7
 10
89.526073
 20
305.942383
 11
72.926073
 21
305.942383
  0
LINE
  8
M0
 62
     7
 10
75.826073
 20
359.942383
 11
76.926073
 21
359.942383
  0
LINE
  8
M0
 62
     7
 10
85.526073
 20
359.942383
 11
86.626073
 21
359.942383
  0
LINE
  8
M0
 62
     7
 10
76.326073
 20
327.642383
 11
76.326073
 21
328.342383
  0
LINE
  8
M0
 62
     7
 10
75.326073
 20
329.342383
 11
72.926073
 21
329.342383
  0
LINE
  8
M0
 62
     7
 10
85.626073
 20
327.142383
 11
76.826073
 21
327.142383
  0
LINE
  8
M0
 62
     7
 10
87.126073
 20
329.342383
 11
89.526073
 21
329.342383
  0
LINE
  8
M0
 62
     7
 10
86.126073
 20
327.642383
 11
86.126073
 21
328.342383
  0
LINE
  8
M0
 62
     7
 10
90.526073
 20
306.942383
 11
90.526073
 21
328.342383
  0
ARC
  8
M0
 62
     7
 10
72.926073
 20
328.342383
 40
1.0
 50
90.0
 51
180.0
  0
ARC
  8
M0
 62
     7
 10
75.326073
 20
328.342383
 40
1.0
 50
0.0
 51
90.0
  0
ARC
  8
M0
 62
     7
 10
85.626073
 20
327.642383
 40
0.5
 50
270.0
 51
360.0
  0
ARC
  8
M0
 62
     7
 10
76.826073
 20
327.642383
 40
0.5
 50
180.0
 51
270.0
  0
ARC
  8
M0
 62
     7
 10
87.126073
 20
328.342383
 40
1.0
 50
90.0
 51
180.0
  0
ARC
  8
M0
 62
     7
 10
87.126073
 20
360.942383
 40
0.5
 50
90.0
 51
180.0
  0
ARC
  8
M0
 62
     7
 10
75.326073
 20
360.942383
 40
0.5
 50
0.0
 51
90.0
  0
ARC
  8
M0
 62
     7
 10
87.126073
 20
360.442383
 40
1.0
 50
0.0
 51
90.0
  0
ARC
  8
M0
 62
     7
 10
75.326073
 20
360.442383
 40
1.0
 50
90.0
 51
180.0
  0
ARC
  8
M0
 62
     7
 10
89.526073
 20
328.342383
 40
1.0
 50
0.0
 51
90.0
  0
ARC
  8
M0
 62
     7
 10
89.526073
 20
306.942383
 40
1.0
 50
270.0
 51
360.0
  0
ARC
  8
M0
 62
     7
 10
62.326073
 20
333.242383
 40
0.5
 50
90.0
 51
180.0
  0
ARC
  8
M0
 62
     7
 10
72.926073
 20
306.942383
 40
1.0
 50
180.0
 51
270.0
  0
ARC
  8
M0
 62
     7
 10
64.726073
 20
313.792383
 40
0.5
 50
270.0
 51
360.0
  0
ARC
  8
M0
 62
     7
 10
62.326073
 20
312.792383
 40
0.5
 50
90.0
 51
180.0
  0
ARC
  8
M0
 62
     7
 10
97.726073
 20
320.292383
 40
0.5
 50
90.0
 51
180.0
  0
ARC
  8
M0
 62
     7
 10
64.726073
 20
320.292383
 40
0.5
 50
0.0
 51
90.0
  0
ARC
  8
M0
 62
     7
 10
100.126073
 20
321.292383
 40
0.5
 50
270.0
 51
360.0
  0
ARC
  8
M0
 62
     7
 10
62.326073
 20
321.292383
 40
0.5
 50
180.0
 51
270.0
  0
ARC
  8
M0
 62
     7
 10
83.776073
 20
305.542383
 40
0.5
 50
53.130102
 51
90.0
  0
ARC
  8
M0
 62
     7
 10
88.776073
 20
305.542383
 40
0.5
 50
90.0
 51
126.869898
  0
ARC
  8
M0
 62
     7
 10
100.126073
 20
300.842383
 40
0.5
 50
270.0
 51
360.0
  0
ARC
  8
M0
 62
     7
 10
100.126073
 20
312.792383
 40
0.5
 50
0.0
 51
90.0
  0
ARC
  8
M0
 62
     7
 10
62.326073
 20
300.842383
 40
0.5
 50
180.0
 51
270.0
  0
LINE
  8
M0
 62
     7
 10
89.276073
 20
292.342383
 11
89.276073
 21
291.342383
  0
LINE
  8
M0
 62
     7
 10
89.276073
 20
291.342383
 11
84.700579
 21
291.342383
  0
ARC
  8
M0
 62
     7
 10
100.126073
 20
333.242383
 40
0.5
 50
0.0
 51
90.0
  0
ARC
  8
M0
 62
     7
 10
97.726073
 20
313.792383
 40
0.5
 50
180.0
 51
270.0
  0
LINE
  8
M0
 62
     7
 10
92.476073
 20
347.942383
 11
98.226073
 21
347.942383
  0
LINE
  8
M0
 62
     7
 10
98.226073
 20
349.942383
 11
98.226073
 21
347.942383
  0
LINE
  8
M0
 62
     7
 10
86.626073
 20
347.942383
 11
90.176073
 21
347.942383
  0
LINE
  8
M0
 62
     7
 10
75.826073
 20
360.942383
 11
75.826073
 21
347.942383
  0
LINE
  8
M0
 62
     7
 10
72.276073
 20
347.942383
 11
75.826073
 21
347.942383
  0
LINE
  8
M0
 62
     7
 10
74.326073
 20
351.442383
 11
74.326073
 21
360.442383
  0
LINE
  8
M0
 62
     7
 10
88.126073
 20
360.442383
 11
88.126073
 21
351.442383
  0
LINE
  8
M0
 62
     7
 10
75.826073
 20
351.442383
 11
64.226073
 21
351.442383
  0
LINE
  8
M0
 62
     7
 10
75.826073
 20
349.942383
 11
64.226073
 21
349.942383
  0
LINE
  8
M0
 62
     7
 10
64.226073
 20
347.942383
 11
69.976073
 21
347.942383
  0
LINE
  8
M0
 62
     7
 10
86.626073
 20
347.942383
 11
86.626073
 21
360.942383
  0
LINE
  8
M0
 62
     7
 10
98.226073
 20
351.442383
 11
98.226073
 21
349.942383
  0
LINE
  8
M0
 62
     7
 10
98.226073
 20
349.942383
 11
86.626073
 21
349.942383
  0
LINE
  8
M0
 62
     7
 10
86.626073
 20
351.442383
 11
98.226073
 21
351.442383
  0
LINE
  8
M0
 62
     7
 10
95.626073
 20
359.942383
 11
88.126073
 21
359.942383
  0
ARC
  8
M0
 62
     7
 10
86.776073
 20
322.342383
 40
0.5
 50
180.0
 51
270.0
  0
ARC
  8
M0
 62
     7
 10
75.676073
 20
322.342383
 40
0.5
 50
270.0
 51
360.0
  0
ARC
  8
M0
 62
     7
 10
87.476073
 20
328.042383
 40
1.2
 50
90.0
 51
180.0
  0
ARC
  8
M0
 62
     7
 10
74.976073
 20
328.042383
 40
1.2
 50
0.0
 51
90.0
  0
ARC
  8
M0
 62
     7
 10
73.026073
 20
328.242383
 40
1.0
 50
90.0
 51
180.0
  0
ARC
  8
M0
 62
     7
 10
89.426073
 20
328.242383
 40
1.0
 50
0.0
 51
90.0
  0
ARC
  8
M0
 62
     7
 10
89.426073
 20
307.042383
 40
1.0
 50
270.0
 51
360.0
  0
ARC
  8
M0
 62
     7
 10
73.026073
 20
309.542383
 40
1.0
 50
90.0
 51
180.0
  0
ARC
  8
M0
 62
     7
 10
73.026073
 20
307.042383
 40
1.0
 50
180.0
 51
270.0
  0
LINE
  8
M0
 62
     7
 10
86.776073
 20
306.542383
 11
86.776073
 21
314.392383
  0
LINE
  8
M0
 62
     7
 10
75.676073
 20
306.542383
 11
75.676073
 21
314.392383
  0
LINE
  8
M0
 62
     7
 10
86.776073
 20
314.392383
 11
87.026073
 21
314.892383
  0
LINE
  8
M0
 62
     7
 10
75.676073
 20
314.392383
 11
75.426073
 21
314.892383
  0
LINE
  8
M0
 62
     7
 10
89.426073
 20
306.042383
 11
87.276073
 21
306.042383
  0
ARC
  8
M0
 62
     7
 10
89.426073
 20
309.542383
 40
1.0
 50
0.0
 51
90.0
  0
LINE
  8
M0
 62
     7
 10
90.426073
 20
309.542383
 11
90.426073
 21
307.042383
  0
LINE
  8
M0
 62
     7
 10
88.926073
 20
310.542383
 11
89.426073
 21
310.542383
  0
LINE
  8
M0
 62
     7
 10
72.026073
 20
309.542383
 11
72.026073
 21
307.042383
  0
LINE
  8
M0
 62
     7
 10
73.526073
 20
310.542383
 11
73.026073
 21
310.542383
  0
LINE
  8
M0
 62
     7
 10
99.376073
 20
292.392383
 11
99.376073
 21
291.342383
  0
LINE
  8
M0
 62
     7
 10
99.376073
 20
291.342383
 11
93.376073
 21
291.342383
  0
LINE
  8
M0
 62
     7
 10
79.176073
 20
291.342383
 11
74.700579
 21
291.342383
  0
LINE
  8
M0
 62
     7
 10
79.176073
 20
292.342383
 11
79.176073
 21
291.342383
  0
LINE
  8
M0
 62
     7
 10
93.376073
 20
291.342383
 11
93.376073
 21
292.392383
  0
LINE
  8
M0
 62
     7
 10
83.276073
 20
341.692383
 11
83.276073
 21
342.742383
  0
LINE
  8
M0
 62
     7
 10
73.026073
 20
329.242383
 11
74.976073
 21
329.242383
  0
LINE
  8
M0
 62
     7
 10
89.276073
 20
342.742383
 11
89.276073
 21
341.692383
  0
LINE
  8
M0
 62
     7
 10
88.276073
 20
329.242383
 11
88.276073
 21
329.342383
  0
LINE
  8
M0
 62
     7
 10
83.276073
 20
342.742383
 11
89.276073
 21
342.742383
  0
LINE
  8
M0
 62
     7
 10
72.026073
 20
328.242383
 11
72.026073
 21
323.142383
  0
LINE
  8
M0
 62
     7
 10
90.426073
 20
328.242383
 11
90.426073
 21
323.142383
  0
LINE
  8
M0
 62
     7
 10
76.176073
 20
322.342383
 11
76.176073
 21
328.042383
  0
LINE
  8
M0
 62
     7
 10
69.076073
 20
342.742383
 11
69.076073
 21
341.692383
  0
LINE
  8
M0
 62
     7
 10
63.076073
 20
341.692383
 11
63.076073
 21
342.742383
  0
LINE
  8
M0
 62
     7
 10
87.476073
 20
329.242383
 11
89.426073
 21
329.242383
  0
LINE
  8
M0
 62
     7
 10
87.026073
 20
320.392383
 11
86.776073
 21
320.892383
  0
LINE
  8
M0
 62
     7
 10
73.526073
 20
321.642383
 11
73.526073
 21
310.542383
  0
LINE
  8
M0
 62
     7
 10
88.926073
 20
321.642383
 11
88.926073
 21
310.542383
  0
LINE
  8
M0
 62
     7
 10
75.426073
 20
314.892383
 11
75.426073
 21
320.392383
  0
LINE
  8
M0
 62
     7
 10
87.026073
 20
314.892383
 11
87.026073
 21
320.392383
  0
LINE
  8
M0
 62
     7
 10
72.026073
 20
323.142383
 11
73.526073
 21
321.642383
  0
LINE
  8
M0
 62
     7
 10
90.426073
 20
323.142383
 11
88.926073
 21
321.642383
  0
LINE
  8
M0
 62
     7
 10
86.276073
 20
322.342383
 11
86.276073
 21
328.042383
  0
LINE
  8
M0
 62
     7
 10
75.426073
 20
320.392383
 11
75.676073
 21
320.892383
  0
LINE
  8
M0
 62
     7
 10
75.676073
 20
320.892383
 11
75.676073
 21
321.842383
  0
LINE
  8
M0
 62
     7
 10
86.776073
 20
320.892383
 11
86.776073
 21
321.842383
  0
LINE
  8
M0
 62
     7
 10
100.626073
 20
300.842383
 11
100.626073
 21
312.792383
  0
LINE
  8
M0
 62
     7
 10
100.776073
 20
300.342383
 11
61.676073
 21
300.342383
  0
LINE
  8
M0
 62
     7
 10
97.726073
 20
313.292383
 11
100.126073
 21
313.292383
  0
LINE
  8
M0
 62
     7
 10
62.326073
 20
313.292383
 11
64.726073
 21
313.292383
  0
LINE
  8
M0
 62
     7
 10
61.826073
 20
300.842383
 11
61.826073
 21
312.792383
  0
LINE
  8
M0
 62
     7
 10
97.226073
 20
320.292383
 11
97.226073
 21
313.792383
  0
LINE
  8
M0
 62
     7
 10
100.126073
 20
333.742383
 11
100.276073
 21
333.742383
  0
LINE
  8
M0
 62
     7
 10
62.326073
 20
333.742383
 11
62.176073
 21
333.742383
  0
LINE
  8
M0
 62
     7
 10
84.226073
 20
330.642383
 11
78.226073
 21
330.642383
  0
LINE
  8
M0
 62
     7
 10
78.226073
 20
330.642383
 11
78.226073
 21
329.042383
  0
LINE
  8
M0
 62
     7
 10
84.226073
 20
329.042383
 11
84.226073
 21
330.642383
  0
ARC
  8
M0
 62
     7
 10
78.676073
 20
305.542383
 40
0.5
 50
90.0
 51
126.869898
  0
LINE
  8
M0
 62
     7
 10
71.926073
 20
306.942383
 11
71.926073
 21
328.342383
  0
ARC
  8
M0
 62
     7
 10
73.676073
 20
305.542383
 40
0.5
 50
53.130102
 51
90.0
  0
LINE
  8
M0
 62
     7
 10
100.126073
 20
320.792383
 11
97.726073
 21
320.792383
  0
LINE
  8
M0
 62
     7
 10
65.226073
 20
313.792383
 11
65.226073
 21
320.292383
  0
LINE
  8
M0
 62
     7
 10
100.626073
 20
333.242383
 11
100.626073
 21
321.292383
  0
LINE
  8
M0
 62
     7
 10
64.726073
 20
320.792383
 11
62.326073
 21
320.792383
  0
LINE
  8
M0
 62
     7
 10
78.226073
 20
329.042383
 11
84.226073
 21
329.042383
  0
LINE
  8
M0
 62
     7
 10
100.126073
 20
300.342383
 11
100.276073
 21
300.342383
  0
LINE
  8
M0
 62
     7
 10
62.326073
 20
300.342383
 11
62.176073
 21
300.342383
  0
LINE
  8
M0
 62
     7
 10
100.673442
 20
325.792383
 11
100.626073
 21
325.792383
  0
LINE
  8
M0
 62
     7
 10
61.778705
 20
325.792383
 11
61.826073
 21
325.792383
  0
LINE
  8
M0
 62
     7
 10
100.673442
 20
323.292383
 11
100.626073
 21
323.292383
  0
LINE
  8
M0
 62
     7
 10
61.778705
 20
323.292383
 11
61.826073
 21
323.292383
  0
LINE
  8
M0
 62
     7
 10
69.076073
 20
291.342383
 11
64.700579
 21
291.342383
  0
LINE
  8
M0
 62
     7
 10
63.076073
 20
291.342383
 11
63.076073
 21
292.392383
  0
LINE
  8
M0
 62
     7
 10
69.076073
 20
292.392383
 11
69.076073
 21
291.342383
  0
LINE
  8
M0
 62
     7
 10
74.176073
 20
329.342383
 11
74.176073
 21
329.242383
  0
LINE
  8
M0
 62
     7
 10
73.176073
 20
341.692383
 11
73.176073
 21
342.742383
  0
LINE
  8
M0
 62
     7
 10
73.176073
 20
342.742383
 11
79.176073
 21
342.742383
  0
LINE
  8
M0
 62
     7
 10
79.176073
 20
342.742383
 11
79.176073
 21
341.692383
  0
LINE
  8
M0
 62
     7
 10
93.376073
 20
341.742383
 11
93.376073
 21
342.742383
  0
LINE
  8
M0
 62
     7
 10
99.376073
 20
342.742383
 11
99.376073
 21
341.742383
  0
LINE
  8
M0
 62
     7
 10
93.376073
 20
342.742383
 11
99.376073
 21
342.742383
  0
LINE
  8
M0
  6
DASHDOT
 62
     7
 10
59.476073
 20
345.942383
 11
67.976073
 21
345.942383
  0
LINE
  8
M0
  6
DASHDOT
 62
     7
 10
63.726073
 20
341.692383
 11
63.726073
 21
350.192383
  0
LINE
  8
M0
  6
DASHDOT
 62
     7
 10
92.476073
 20
290.942383
 11
100.976073
 21
290.942383
  0
LINE
  8
M0
  6
DASHDOT
 62
     7
 10
96.726073
 20
286.692383
 11
96.726073
 21
295.192383
  0
LINE
  8
M0
  6
DASHDOT
 62
     7
 10
75.676073
 20
284.542383
 11
76.676073
 21
284.542383
  0
LINE
  8
M0
  6
DASHDOT
 62
     7
 10
76.176073
 20
284.042383
 11
76.176073
 21
285.042383
  0
LINE
  8
M0
  6
DASHDOT
 62
     7
 10
75.676073
 20
296.142383
 11
76.676073
 21
296.142383
  0
LINE
  8
M0
  6
DASHDOT
 62
     7
 10
76.176073
 20
295.642383
 11
76.176073
 21
296.642383
  0
LINE
  8
M0
  6
DASHDOT
 62
     7
 10
85.776073
 20
296.142383
 11
86.776073
 21
296.142383
  0
LINE
  8
M0
  6
DASHDOT
 62
     7
 10
86.276073
 20
295.642383
 11
86.276073
 21
296.642383
  0
LINE
  8
M0
  6
DASHDOT
 62
     7
 10
95.876073
 20
296.142383
 11
96.876073
 21
296.142383
  0
LINE
  8
M0
  6
DASHDOT
 62
     7
 10
96.376073
 20
295.642383
 11
96.376073
 21
296.642383
  0
LINE
  8
M0
  6
DASHDOT
 62
     7
 10
95.876073
 20
337.942383
 11
96.876073
 21
337.942383
  0
LINE
  8
M0
  6
DASHDOT
 62
     7
 10
96.376073
 20
337.442383
 11
96.376073
 21
338.442383
  0
LINE
  8
M0
  6
DASHDOT
 62
     7
 10
85.776073
 20
337.942383
 11
86.776073
 21
337.942383
  0
LINE
  8
M0
  6
DASHDOT
 62
     7
 10
86.276073
 20
337.442383
 11
86.276073
 21
338.442383
  0
LINE
  8
M0
  6
DASHDOT
 62
     7
 10
75.676073
 20
337.942383
 11
76.676073
 21
337.942383
  0
LINE
  8
M0
  6
DASHDOT
 62
     7
 10
76.176073
 20
337.442383
 11
76.176073
 21
338.442383
  0
LINE
  8
M0
  6
DASHDOT
 62
     7
 10
65.576073
 20
337.942383
 11
66.576073
 21
337.942383
  0
LINE
  8
M0
  6
DASHDOT
 62
     7
 10
66.076073
 20
337.442383
 11
66.076073
 21
338.442383
  0
LINE
  8
M0
  6
DASHDOT
 62
     7
 10
69.826073
 20
355.542383
 11
70.826073
 21
355.542383
  0
LINE
  8
M0
  6
DASHDOT
 62
     7
 10
70.326073
 20
355.042383
 11
70.326073
 21
356.042383
  0
LINE
  8
M0
  6
DASHDOT
 62
     7
 10
91.626073
 20
355.542383
 11
92.626073
 21
355.542383
  0
LINE
  8
M0
  6
DASHDOT
 62
     7
 10
92.126073
 20
355.042383
 11
92.126073
 21
356.042383
  0
LINE
  8
M0
  6
DASHDOT
 62
     7
 10
65.576073
 20
296.142383
 11
66.576073
 21
296.142383
  0
LINE
  8
M0
  6
DASHDOT
 62
     7
 10
66.076073
 20
295.642383
 11
66.076073
 21
296.642383
  0
LINE
  8
M0
  6
DASHDOT
 62
     7
 10
80.726073
 20
355.142383
 11
81.726073
 21
355.142383
  0
LINE
  8
M0
 62
     7
 10
80.776073
 20
353.942383
 11
81.676073
 21
353.942383
  0
LINE
  8
M0
 62
     7
 10
80.776073
 20
354.692383
 11
80.776073
 21
353.942383
  0
LINE
  8
M0
 62
     7
 10
81.676073
 20
353.942383
 11
81.676073
 21
354.692383
  0
LINE
  8
M0
  6
DASHDOT
 62
     7
 10
80.726073
 20
355.142383
 11
81.726073
 21
355.142383
  0
LINE
  8
M0
 62
     7
 10
80.776073
 20
354.692383
 11
80.026073
 21
354.692383
  0
LINE
  8
M0
 62
     7
 10
80.026073
 20
355.592383
 11
80.776073
 21
355.592383
  0
LINE
  8
M0
 62
     7
 10
80.776073
 20
356.342383
 11
80.776073
 21
355.592383
  0
CIRCLE
  8
M0
 62
     7
 10
81.226073
 20
355.142383
 40
2.85
  0
LINE
  8
M0
 62
     7
 10
81.676073
 20
356.342383
 11
80.776073
 21
356.342383
  0
LINE
  8
M0
 62
     7
 10
82.426073
 20
354.692383
 11
81.676073
 21
354.692383
  0
LINE
  8
M0
 62
     7
 10
81.676073
 20
355.592383
 11
81.676073
 21
356.342383
  0
LINE
  8
M0
 62
     7
 10
81.676073
 20
355.592383
 11
82.426073
 21
355.592383
  0
CIRCLE
  8
M0
 62
     7
 10
92.126073
 20
355.542383
 40
3.0
  0
CIRCLE
  8
M0
 62
     7
 10
96.376073
 20
337.942383
 40
3.0
  0
CIRCLE
  8
M0
 62
     7
 10
86.276073
 20
337.942383
 40
3.0
  0
CIRCLE
  8
M0
 62
     7
 10
76.176073
 20
337.942383
 40
3.0
  0
CIRCLE
  8
M0
 62
     7
 10
66.076073
 20
337.942383
 40
3.0
  0
CIRCLE
  8
M0
 62
     7
 10
86.276073
 20
296.142383
 40
3.0
  0
CIRCLE
  8
M0
 62
     7
 10
66.076073
 20
296.142383
 40
3.0
  0
ARC
  8
M0
 62
     7
 10
63.726073
 20
288.742383
 40
2.25
 50
295.665313
 51
424.334687
  0
ARC
  8
M0
 62
     7
 10
63.726073
 20
288.742383
 40
2.25
 50
106.140693
 51
133.542219
  0
ARC
  8
M0
 62
     7
 10
76.176073
 20
284.542383
 40
2.65
 50
241.228452
 51
250.629626
  0
ARC
  8
M0
 62
     7
 10
76.176073
 20
284.542383
 40
2.85
 50
274.519826
 51
481.179265
  0
LINE
  8
M0
 62
     7
 10
83.10058
 20
286.042383
 11
82.376073
 21
286.042383
  0
LINE
  8
M0
 62
     7
 10
84.900579
 20
283.542383
 11
85.426073
 21
283.542383
  0
LINE
  8
M0
 62
     7
 10
81.400665
 20
281.542383
 11
76.400665
 21
281.542383
  0
ARC
  8
M0
 62
     7
 10
81.376073
 20
282.542383
 40
1.0
 50
330.00135
 51
360.0
  0
LINE
  8
M0
 62
     7
 10
86.700653
 20
286.042383
 11
84.700579
 21
286.042383
  0
LINE
  8
M0
 62
     7
 10
89.700653
 20
282.242383
 11
91.700653
 21
282.242383
  0
LINE
  8
M0
 62
     7
 10
93.850662
 20
282.242383
 11
97.726073
 21
282.242383
  0
ARC
  8
M0
 62
     7
 10
76.176073
 20
284.542383
 40
2.65
 50
274.861737
 51
483.834124
  0
ARC
  8
M0
 62
     7
 10
71.276073
 20
282.542383
 40
1.0
 50
330.000341
 51
360.0
  0
LINE
  8
M0
 62
     7
 10
66.700653
 20
282.242383
 11
64.900579
 21
282.242383
  0
LINE
  8
M0
 62
    74
 10
100.600574
 20
265.692382
 11
100.600574
 21
263.792382
  0
LINE
  8
M0
 62
    74
 10
97.200565
 20
265.692382
 11
97.200565
 21
263.792382
  0
LINE
  8
M0
 62
    74
 10
97.400565
 20
265.892382
 11
100.400574
 21
265.892382
  0
LINE
  8
M0
 62
    74
 10
97.400565
 20
263.592382
 11
100.400574
 21
263.592382
  0
ARC
  8
M0
 62
    74
 10
100.400574
 20
265.692382
 40
0.2
 50
0.0
 51
90.0
  0
ARC
  8
M0
 62
    74
 10
97.400565
 20
265.692382
 40
0.2
 50
90.0
 51
180.0
  0
ARC
  8
M0
 62
    74
 10
97.400565
 20
263.792382
 40
0.2
 50
180.0
 51
270.0
  0
ARC
  8
M0
 62
    74
 10
100.400574
 20
263.792382
 40
0.2
 50
270.0
 51
360.0
  0
LINE
  8
M0
  6
DASHDOT
 10
96.200565
 20
264.742382
 11
101.600574
 21
264.742382
  0
LINE
  8
M0
  6
DASHDOT
 10
98.90057
 20
266.892382
 11
98.90057
 21
262.592382
  0
CIRCLE
  8
M0
 62
   234
 10
72.400573
 20
263.242369
 40
3.0
  0
LINE
  8
M0
 62
   234
 10
73.034547
 20
260.310122
 11
73.034547
 21
266.174617
  0
LINE
  8
M0
 62
   234
 10
71.766598
 20
260.310122
 11
71.766598
 21
266.174617
  0
LINE
  8
M0
 62
   234
 10
73.150573
 20
266.147107
 11
73.150573
 21
266.967621
  0
LINE
  8
M0
 62
   234
 10
71.650573
 20
266.147107
 11
71.650573
 21
266.967621
  0
ARC
  8
M0
 62
   234
 10
72.400573
 20
263.242369
 40
3.799999
 50
78.616869
 51
101.383087
  0
LINE
  8
M0
  6
DASHDOT
 62
   234
 10
67.400573
 20
263.242369
 11
77.400573
 21
263.242369
  0
LINE
  8
M0
  6
DASHDOT
 62
   234
 10
72.400573
 20
258.242369
 11
72.400573
 21
268.242369
  0
LINE
  8
M0
  6
DASHED
 62
     7
 10
147.826683
 20
319.342376
 11
147.826683
 21
316.542377
  0
LINE
  8
M0
  6
DASHED
 62
     7
 10
147.826683
 20
319.342376
 11
149.426682
 21
319.342376
  0
LINE
  8
M0
  6
DASHED
 62
     7
 10
149.426682
 20
316.542377
 11
147.826683
 21
316.542377
  0
LINE
  8
M0
  6
DASHED
 62
     7
 10
182.926682
 20
335.74237
 11
173.526682
 21
335.74237
  0
LINE
  8
M0
  6
DASHED
 62
     7
 10
182.926683
 20
300.342383
 11
178.126682
 21
300.342383
  0
LINE
  8
M0
  6
DASHED
 62
     7
 10
149.426682
 20
298.642376
 11
149.426682
 21
337.442376
  0
ARC
  8
M0
  6
DASHED
 62
     7
 10
153.426682
 20
298.642376
 40
4.0
 50
180.0
 51
270.0
  0
ARC
  8
M0
  6
DASHED
 62
     7
 10
168.526682
 20
299.642376
 40
5.0
 50
270.0
 51
360.0
  0
ARC
  8
M0
  6
DASHED
 62
     7
 10
182.926682
 20
300.842382
 40
0.5
 50
270.0
 51
360.0
  0
ARC
  8
M0
  6
DASHED
 62
     7
 10
153.426682
 20
337.442376
 40
4.0
 50
90.0
 51
180.0
  0
ARC
  8
M0
  6
DASHED
 62
     7
 10
168.526682
 20
336.442376
 40
5.0
 50
0.0
 51
90.0
  0
ARC
  8
M0
  6
DASHED
 62
     7
 10
182.926682
 20
335.24237
 40
0.5
 50
0.0
 51
90.0
  0
LINE
  8
M0
  6
DASHED
 62
     7
 10
173.526682
 20
335.74237
 11
173.526682
 21
336.442376
  0
LINE
  8
M0
  6
DASHED
 62
     7
 10
168.526682
 20
341.442377
 11
153.426682
 21
341.442377
  0
LINE
  8
M0
  6
DASHED
 62
     7
 10
181.326682
 20
335.74237
 11
181.326682
 21
337.742376
  0
LINE
  8
M0
  6
DASHED
 62
     7
 10
181.726682
 20
337.742376
 11
182.326684
 21
335.74237
  0
LINE
  8
M0
  6
DASHED
 62
     7
 10
181.326682
 20
337.742376
 11
181.726682
 21
337.742376
  0
LINE
  8
M0
  6
DASHED
 62
     7
 10
182.926683
 20
300.342383
 11
173.526682
 21
300.342383
  0
LINE
  8
M0
  6
DASHED
 62
     7
 10
173.526682
 20
300.342383
 11
173.526682
 21
299.642376
  0
LINE
  8
M0
  6
DASHED
 62
     7
 10
168.526682
 20
294.642376
 11
153.426682
 21
294.642376
  0
LINE
  8
M0
 62
     1
 10
199.426747
 20
276.743578
 11
199.426747
 21
288.242383
  0
LINE
  8
M0
 62
     1
 10
200.426747
 20
276.743576
 11
200.426747
 21
288.242383
  0
LINE
  8
M0
 62
     1
 10
200.426747
 20
285.243443
 11
199.426747
 21
285.243443
  0
LINE
  8
M0
 62
     1
 10
199.426747
 20
285.043442
 11
200.426747
 21
285.043442
  0
LINE
  8
M0
 62
     1
 10
199.426747
 20
278.743442
 11
200.426747
 21
278.743442
  0
LINE
  8
M0
 62
     1
 10
200.426747
 20
277.243442
 11
199.426747
 21
277.243442
  0
LINE
  8
M0
  6
DASHED
 62
     7
 10
115.226073
 20
346.742383
 11
115.226073
 21
287.342383
  0
LINE
  8
M0
  6
DASHED
 62
     7
 10
115.226073
 20
287.342383
 11
102.726073
 21
287.342383
  0
LINE
  8
M0
  6
DASHED
 62
     7
 10
115.226073
 20
346.742383
 11
102.726073
 21
346.742383
  0
LINE
  8
M0
  6
DASHED
 62
     7
 10
47.226073
 20
346.742383
 11
59.726073
 21
346.742383
  0
LINE
  8
M0
  6
DASHED
 62
     7
 10
47.226073
 20
346.742383
 11
47.226073
 21
287.342383
  0
LINE
  8
M0
  6
DASHED
 62
     7
 10
47.226073
 20
287.342383
 11
59.726073
 21
287.342383
  0
LINE
  8
M0
  6
DIVIDE
 62
     6
 10
263.226682
 20
330.542383
 11
256.726682
 21
330.542383
  0
LINE
  8
M0
  6
DIVIDE
 62
     6
 10
263.226682
 20
303.542383
 11
256.726682
 21
303.542383
  0
LINE
  8
M0
  6
DIVIDE
 62
     6
 10
262.226682
 20
329.542383
 11
255.726682
 21
329.542383
  0
LINE
  8
M0
  6
DIVIDE
 62
     6
 10
256.726682
 20
303.542383
 11
256.726682
 21
299.542383
  0
LINE
  8
M0
  6
DIVIDE
 62
     6
 10
262.226682
 20
304.542383
 11
255.726682
 21
304.542383
  0
LINE
  8
M0
  6
DIVIDE
 62
     6
 10
255.726682
 20
304.542383
 11
255.726682
 21
299.542383
  0
LINE
  8
M0
  6
DIVIDE
 62
     6
 10
256.726682
 20
334.542383
 11
255.726682
 21
334.542383
  0
LINE
  8
M0
  6
DIVIDE
 62
     6
 10
263.226682
 20
303.542383
 11
263.226682
 21
330.542383
  0
LINE
  8
M0
  6
DIVIDE
 62
     6
 10
255.726682
 20
334.542383
 11
255.726682
 21
329.542383
  0
LINE
  8
M0
  6
DIVIDE
 62
     6
 10
256.726682
 20
334.542383
 11
256.726682
 21
330.542383
  0
LINE
  8
M0
  6
DIVIDE
 62
     6
 10
255.726682
 20
299.542383
 11
256.726682
 21
299.542383
  0
LINE
  8
M0
  6
DIVIDE
 62
     6
 10
262.226682
 20
329.542383
 11
262.226682
 21
304.542383
  0
CIRCLE
  8
M0
 62
   253
 10
75.400568
 20
234.742315
 40
2.999997
  0
LINE
  8
M0
 62
   253
 10
72.441583
 20
238.689657
 11
71.625421
 21
236.042363
  0
LINE
  8
M0
 62
   253
 10
72.441583
 20
230.795064
 11
71.625421
 21
233.442388
  0
LINE
  8
M0
 62
   253
 10
78.359064
 20
238.689672
 11
79.17547
 21
236.042363
  0
LINE
  8
M0
 62
   253
 10
78.359064
 20
230.795049
 11
79.17547
 21
233.442388
  0
LINE
  8
M0
 62
   253
 10
72.91961
 20
230.442388
 11
77.88128
 21
230.442388
  0
LINE
  8
M0
 62
   253
 10
79.17547
 20
233.442388
 11
79.17547
 21
236.042363
  0
LINE
  8
M0
 62
   253
 10
77.88128
 20
239.042363
 11
72.91961
 21
239.042348
  0
LINE
  8
M0
 62
   253
 10
71.625421
 20
236.042363
 11
71.625421
 21
233.442388
  0
LINE
  8
M0
 62
   253
 10
76.991144
 20
233.151494
 11
73.809503
 21
236.333257
  0
LINE
  8
M0
 62
   253
 10
75.753839
 20
236.156499
 11
73.986261
 21
234.388799
  0
LINE
  8
M0
 62
   253
 10
76.814386
 20
235.09583
 11
75.046808
 21
233.328252
  0
ARC
  8
M0
 62
   253
 10
72.91961
 20
238.542348
 40
0.5
 50
89.998251
 51
162.874002
  0
ARC
  8
M0
 62
   253
 10
72.91961
 20
230.942388
 40
0.5
 50
197.129131
 51
270.0
  0
ARC
  8
M0
 62
   253
 10
77.88128
 20
230.942388
 40
0.5
 50
270.0
 51
342.861236
  0
ARC
  8
M0
 62
   253
 10
77.88128
 20
238.542348
 40
0.5
 50
17.136442
 51
90.0
  0
LINE
  8
M0
  6
DASHDOT
 62
   253
 10
70.40057
 20
234.742315
 11
80.400565
 21
234.742315
  0
LINE
  8
M0
  6
DASHDOT
 62
   253
 10
75.400568
 20
229.742317
 11
75.400568
 21
239.742312
  0
LINE
  8
M0
 62
     1
 10
73.10058
 20
285.242381
 11
72.900579
 21
285.042381
  0
LINE
  8
M0
 62
     1
 10
74.700579
 20
285.242381
 11
74.900579
 21
285.042381
  0
LINE
  8
M0
 62
     1
 10
73.10058
 20
292.392383
 11
73.10058
 21
285.242381
  0
LINE
  8
M0
 62
     1
 10
74.700579
 20
285.242381
 11
74.700579
 21
292.392383
  0
LINE
  8
M0
 62
     1
 10
72.900579
 20
285.042381
 11
72.900579
 21
282.042388
  0
LINE
  8
M0
 62
     1
 10
74.900579
 20
282.042388
 11
74.900579
 21
285.042381
  0
CIRCLE
  8
M0
 62
   253
 10
85.400568
 20
234.742315
 40
2.999997
  0
LINE
  8
M0
 62
   253
 10
82.441583
 20
238.689657
 11
81.625421
 21
236.042363
  0
LINE
  8
M0
 62
   253
 10
82.441583
 20
230.795064
 11
81.625421
 21
233.442388
  0
LINE
  8
M0
 62
   253
 10
88.359064
 20
238.689672
 11
89.17547
 21
236.042363
  0
LINE
  8
M0
 62
   253
 10
88.359064
 20
230.795049
 11
89.17547
 21
233.442388
  0
LINE
  8
M0
 62
   253
 10
82.91961
 20
230.442388
 11
87.88128
 21
230.442388
  0
LINE
  8
M0
 62
   253
 10
89.17547
 20
233.442388
 11
89.17547
 21
236.042363
  0
LINE
  8
M0
 62
   253
 10
87.88128
 20
239.042363
 11
82.91961
 21
239.042348
  0
LINE
  8
M0
 62
   253
 10
81.625421
 20
236.042363
 11
81.625421
 21
233.442388
  0
LINE
  8
M0
 62
   253
 10
86.991144
 20
233.151494
 11
83.809503
 21
236.333257
  0
LINE
  8
M0
 62
   253
 10
85.753839
 20
236.156499
 11
83.986261
 21
234.388799
  0
LINE
  8
M0
 62
   253
 10
86.814386
 20
235.09583
 11
85.046808
 21
233.328252
  0
ARC
  8
M0
 62
   253
 10
82.91961
 20
238.542348
 40
0.5
 50
89.998251
 51
162.874002
  0
ARC
  8
M0
 62
   253
 10
82.91961
 20
230.942388
 40
0.5
 50
197.129131
 51
270.0
  0
ARC
  8
M0
 62
   253
 10
87.88128
 20
230.942388
 40
0.5
 50
270.0
 51
342.861236
  0
ARC
  8
M0
 62
   253
 10
87.88128
 20
238.542348
 40
0.5
 50
17.136442
 51
90.0
  0
ARC
  8
M0
 62
   253
 10
99.38128
 20
230.942388
 40
0.5
 50
270.0
 51
342.861236
  0
LINE
  8
M0
 62
   253
 10
94.41961
 20
230.442388
 11
99.38128
 21
230.442388
  0
ARC
  8
M0
 62
   253
 10
94.41961
 20
230.942388
 40
0.5
 50
197.129131
 51
270.0
  0
LINE
  8
M0
  6
DASHDOT
 62
   253
 10
80.40057
 20
234.742315
 11
90.400565
 21
234.742315
  0
LINE
  8
M0
  6
DASHDOT
 62
   253
 10
85.400568
 20
229.742317
 11
85.400568
 21
239.742312
  0
CIRCLE
  8
M0
 62
     4
 10
88.400568
 20
251.242315
 40
2.999997
  0
LINE
  8
M0
 62
     4
 10
85.441583
 20
255.189657
 11
84.625421
 21
252.542363
  0
LINE
  8
M0
 62
     4
 10
85.441583
 20
247.295064
 11
84.625421
 21
249.942388
  0
LINE
  8
M0
 62
     4
 10
91.359064
 20
255.189672
 11
92.17547
 21
252.542363
  0
LINE
  8
M0
 62
     4
 10
91.359064
 20
247.295049
 11
92.17547
 21
249.942388
  0
LINE
  8
M0
 62
     4
 10
85.91961
 20
246.942388
 11
90.88128
 21
246.942388
  0
LINE
  8
M0
 62
     4
 10
92.17547
 20
249.942388
 11
92.17547
 21
252.542363
  0
LINE
  8
M0
 62
     4
 10
90.88128
 20
255.542363
 11
85.91961
 21
255.542348
  0
LINE
  8
M0
 62
     4
 10
84.625421
 20
252.542363
 11
84.625421
 21
249.942388
  0
LINE
  8
M0
 62
     4
 10
89.991144
 20
249.651494
 11
86.809503
 21
252.833257
  0
LINE
  8
M0
 62
     4
 10
88.753839
 20
252.656499
 11
86.986261
 21
250.888799
  0
LINE
  8
M0
 62
     4
 10
89.814386
 20
251.59583
 11
88.046808
 21
249.828252
  0
ARC
  8
M0
 62
     4
 10
85.91961
 20
255.042348
 40
0.5
 50
89.998251
 51
162.874002
  0
ARC
  8
M0
 62
     4
 10
85.91961
 20
247.442388
 40
0.5
 50
197.129131
 51
270.0
  0
ARC
  8
M0
 62
     4
 10
90.88128
 20
247.442388
 40
0.5
 50
270.0
 51
342.861236
  0
ARC
  8
M0
 62
     4
 10
90.88128
 20
255.042348
 40
0.5
 50
17.136442
 51
90.0
  0
LINE
  8
M0
  6
DASHDOT
 62
     4
 10
83.40057
 20
251.242315
 11
93.400565
 21
251.242315
  0
LINE
  8
M0
  6
DASHDOT
 62
     4
 10
88.400568
 20
246.242317
 11
88.400568
 21
256.242312
  0
LINE
  8
M0
 10
74.534546
 20
255.442398
 11
72.266586
 21
255.442398
  0
LINE
  8
M0
 10
84.53453
 20
255.442398
 11
82.266586
 21
255.442398
  0
LINE
  8
M0
 10
94.534519
 20
255.442398
 11
92.26657
 21
255.442398
  0
ARC
  8
M0
 10
89.40056
 20
263.442382
 40
7.0
 50
295.376814
 51
330.940685
  0
LINE
  8
M0
 10
92.400545
 20
255.942398
 11
92.400545
 21
257.11783
  0
LINE
  8
M0
 10
104.400543
 20
260.042379
 11
95.519381
 21
260.042379
  0
LINE
  8
M0
 10
92.400545
 20
243.442398
 11
84.400558
 21
243.442398
  0
LINE
  8
M0
 10
82.400558
 20
243.442398
 11
74.400558
 21
243.442398
  0
LINE
  8
M0
 10
72.400558
 20
243.442398
 11
59.900573
 21
243.442398
  0
LINE
  8
M0
 10
104.400543
 20
243.442398
 11
94.400545
 21
243.442398
  0
LINE
  8
M0
 10
79.400589
 20
228.942398
 11
71.400589
 21
228.942398
  0
ARC
  8
M0
 10
60.900589
 20
229.442398
 40
0.5
 50
270.0
 51
360.0
  0
ARC
  8
M0
 10
81.200592
 20
234.14241
 40
0.2
 50
270.0
 51
360.0
  0
ARC
  8
M0
 10
71.200592
 20
234.14241
 40
0.2
 50
270.0
 51
360.0
  0
LINE
  8
M0
 10
81.200592
 20
233.942398
 11
79.600601
 21
233.942398
  0
LINE
  8
M0
 10
71.200592
 20
233.942398
 11
69.600601
 21
233.942398
  0
LINE
  8
M0
 10
89.400575
 20
228.942398
 11
81.400589
 21
228.942398
  0
LINE
  8
M0
 10
93.900589
 20
239.942398
 11
99.900589
 21
239.942398
  0
LINE
  8
M0
 10
82.400589
 20
239.942398
 11
88.400589
 21
239.942398
  0
LINE
  8
M0
 10
72.400589
 20
239.942398
 11
78.400589
 21
239.942398
  0
LINE
  8
M0
 10
62.400589
 20
239.942398
 11
68.400589
 21
239.942398
  0
ARC
  8
M0
 10
100.329379
 20
254.442398
 40
1.5
 50
14.036703
 51
90.0
  0
LINE
  8
M0
 10
102.400543
 20
252.342392
 11
101.784593
 21
254.806213
  0
LINE
  8
M0
 10
102.400543
 20
232.242401
 11
100.305409
 21
232.242401
  0
ARC
  8
M0
 10
102.334356
 20
273.642382
 40
1.0
 50
30.9637
 51
90.0
  0
LINE
  8
M0
 10
103.620544
 20
273.442382
 11
103.191848
 21
274.156876
  0
LINE
  8
M0
 10
104.400543
 20
255.942398
 11
85.400558
 21
255.942398
  0
ARC
  8
M0
 10
103.900543
 20
245.442398
 40
0.5
 50
270.0
 51
360.0
  0
ARC
  8
M0
 10
102.900543
 20
245.442398
 40
0.5
 50
180.0
 51
270.0
  0
LINE
  8
M0
 10
103.900543
 20
244.942398
 11
102.900543
 21
244.942398
  0
LINE
  8
M0
 10
64.400558
 20
255.942398
 11
64.400558
 21
245.942398
  0
LINE
  8
M0
 10
72.400558
 20
254.942398
 11
72.400558
 21
243.442398
  0
LINE
  8
M0
 10
74.400558
 20
254.942398
 11
74.400558
 21
243.442398
  0
LINE
  8
M0
 10
82.400558
 20
254.942398
 11
82.400558
 21
243.442398
  0
LINE
  8
M0
 10
84.400558
 20
243.442398
 11
84.400558
 21
254.942398
  0
LINE
  8
M0
 10
92.400545
 20
243.442398
 11
92.400545
 21
254.942398
  0
LINE
  8
M0
 10
90.90057
 20
226.442383
 11
89.900575
 21
226.442383
  0
ARC
  8
M0
 10
103.900543
 20
229.442383
 40
0.5
 50
270.0
 51
360.0
  0
ARC
  8
M0
 10
102.900543
 20
229.442383
 40
0.5
 50
180.0
 51
270.0
  0
LINE
  8
M0
 10
103.900543
 20
228.942383
 11
102.900543
 21
228.942383
  0
LINE
  8
M0
 10
94.400545
 20
254.942398
 11
94.400545
 21
243.442398
  0
LINE
  8
M0
 10
82.900589
 20
263.442382
 11
81.400589
 21
264.942382
  0
LINE
  8
M0
 10
80.400573
 20
264.942382
 11
81.400589
 21
264.942382
  0
LINE
  8
M0
 10
80.400573
 20
261.942382
 11
81.400589
 21
261.942382
  0
LINE
  8
M0
 10
82.900589
 20
263.442382
 11
81.400589
 21
261.942382
  0
LINE
  8
M0
 10
80.400573
 20
264.942382
 11
80.400573
 21
261.942382
  0
LINE
  8
M0
 10
84.204422
 20
260.442382
 11
82.400573
 21
259.400924
  0
LINE
  8
M0
 10
82.400573
 20
255.942398
 11
82.400573
 21
259.400924
  0
ARC
  8
M0
 10
70.400573
 20
268.542373
 40
0.5
 50
180.0
 51
270.0
  0
LINE
  8
M0
 10
69.900573
 20
270.942382
 11
59.400573
 21
270.942382
  0
LINE
  8
M0
 10
69.900573
 20
268.542373
 11
69.900573
 21
270.942382
  0
LINE
  8
M0
 10
70.400573
 20
268.042373
 11
74.400573
 21
268.042373
  0
LINE
  8
M0
 10
64.400573
 20
255.942398
 11
64.400573
 21
270.942382
  0
LINE
  8
M0
 10
95.400669
 20
270.942382
 11
78.900573
 21
270.942382
  0
LINE
  8
M0
 10
69.400589
 20
228.942398
 11
59.900573
 21
228.942398
  0
ARC
  8
M0
 10
80.900589
 20
226.942383
 40
0.5
 50
270.0
 51
360.0
  0
ARC
  8
M0
 10
79.900589
 20
226.942383
 40
0.5
 50
180.0
 51
270.0
  0
ARC
  8
M0
 10
70.900589
 20
226.942383
 40
0.5
 50
270.0
 51
360.0
  0
ARC
  8
M0
 10
69.900589
 20
226.942383
 40
0.5
 50
180.0
 51
270.0
  0
LINE
  8
M0
 10
83.900558
 20
242.942398
 11
82.900558
 21
242.942398
  0
LINE
  8
M0
 10
73.900558
 20
242.942398
 11
72.900558
 21
242.942398
  0
LINE
  8
M0
 10
93.900545
 20
242.942398
 11
92.900545
 21
242.942398
  0
LINE
  8
M0
 10
70.900589
 20
226.442383
 11
69.900589
 21
226.442383
  0
LINE
  8
M0
 10
80.900589
 20
226.442383
 11
79.900589
 21
226.442383
  0
LINE
  8
M0
 10
89.400575
 20
226.942383
 11
89.400575
 21
238.947565
  0
LINE
  8
M0
 10
91.40057
 20
226.942383
 11
91.40057
 21
232.242401
  0
LINE
  8
M0
 10
81.400589
 20
226.942383
 11
81.400589
 21
241.942398
  0
LINE
  8
M0
 10
79.400589
 20
226.942383
 11
79.400589
 21
241.942398
  0
LINE
  8
M0
 10
71.400589
 20
226.942383
 11
71.400589
 21
241.942398
  0
LINE
  8
M0
 10
69.400589
 20
226.942383
 11
69.400589
 21
241.942398
  0
LINE
  8
M0
 10
61.400589
 20
229.442398
 11
61.400589
 21
238.942398
  0
ARC
  8
M0
 10
60.400573
 20
245.942398
 40
1.0
 50
180.0
 51
270.0
  0
ARC
  8
M0
 10
63.400558
 20
245.942398
 40
1.0
 50
270.0
 51
360.0
  0
LINE
  8
M0
 10
60.400573
 20
244.942398
 11
63.400558
 21
244.942398
  0
ARC
  8
M0
 10
66.081344
 20
254.942398
 40
1.0
 50
89.999126
 51
165.962696
  0
LINE
  8
M0
 10
64.400558
 20
252.342392
 11
65.111206
 21
255.184936
  0
ARC
  8
M0
 10
71.400558
 20
254.942398
 40
1.0
 50
0.0
 51
89.999126
  0
ARC
  8
M0
 10
75.400558
 20
254.942398
 40
1.0
 50
89.999126
 51
180.0
  0
ARC
  8
M0
 10
81.400558
 20
254.942398
 40
1.0
 50
0.0
 51
89.999126
  0
ARC
  8
M0
 10
85.400558
 20
254.942398
 40
1.0
 50
89.999126
 51
180.0
  0
ARC
  8
M0
 10
91.400545
 20
254.942398
 40
1.0
 50
0.0
 51
90.0
  0
LINE
  8
M0
 10
102.400543
 20
252.342392
 11
102.400543
 21
245.442398
  0
LINE
  8
M0
 10
59.400573
 20
229.442398
 11
59.400573
 21
274.942365
  0
ARC
  8
M0
 10
95.400545
 20
254.942398
 40
1.0
 50
90.0
 51
180.0
  0
LINE
  8
M0
 10
104.400543
 20
262.642379
 11
96.400548
 21
262.642379
  0
LINE
  8
M0
 10
104.400543
 20
229.442383
 11
104.400543
 21
272.003891
  0
ARC
  8
M0
 10
59.900573
 20
243.942398
 40
0.5
 50
180.0
 51
270.0
  0
LINE
  8
M0
 10
94.900548
 20
274.442382
 11
94.900548
 21
274.642382
  0
LINE
  8
M0
 10
100.900548
 20
273.442382
 11
100.900548
 21
274.642382
  0
ARC
  8
M0
 10
96.400548
 20
263.142379
 40
0.5
 50
180.0
 51
270.0
  0
LINE
  8
M0
 10
95.900548
 20
263.142379
 11
95.900548
 21
268.842382
  0
LINE
  8
M0
 10
95.900548
 20
268.842382
 11
93.700551
 21
268.842382
  0
LINE
  8
M0
 10
93.700551
 20
268.842382
 11
93.700551
 21
270.942382
  0
LINE
  8
M0
 10
102.334356
 20
274.642382
 11
94.700653
 21
274.642382
  0
LINE
  8
M0
 10
85.000579
 20
274.442382
 11
82.800583
 21
274.442382
  0
LINE
  8
M0
 10
62.400573
 20
270.942382
 11
62.400573
 21
268.442382
  0
LINE
  8
M0
 10
61.900573
 20
268.442382
 11
62.400573
 21
268.442382
  0
LINE
  8
M0
 10
61.900573
 20
244.942398
 11
61.900573
 21
268.442382
  0
LINE
  8
M0
 10
64.900573
 20
255.942398
 11
64.900573
 21
259.942382
  0
LINE
  8
M0
 10
64.900573
 20
259.942382
 11
64.400573
 21
259.942382
  0
LINE
  8
M0
 10
103.700543
 20
260.042379
 11
103.700543
 21
255.942398
  0
LINE
  8
M0
 10
103.200543
 20
260.042379
 11
103.200543
 21
255.942398
  0
ARC
  8
M0
 10
59.900573
 20
229.442398
 40
0.5
 50
180.0
 51
270.0
  0
ARC
  8
M0
 10
79.600601
 20
234.14241
 40
0.2
 50
180.0
 51
270.0
  0
ARC
  8
M0
 10
69.600601
 20
234.14241
 40
0.2
 50
180.0
 51
270.0
  0
ARC
  8
M0
 10
73.900558
 20
243.442398
 40
0.5
 50
270.0
 51
360.0
  0
ARC
  8
M0
 10
72.900558
 20
243.442398
 40
0.5
 50
180.0
 51
270.0
  0
ARC
  8
M0
 10
83.900558
 20
243.442398
 40
0.5
 50
270.0
 51
360.0
  0
ARC
  8
M0
 10
82.900558
 20
243.442398
 40
0.5
 50
180.0
 51
270.0
  0
ARC
  8
M0
 10
93.900545
 20
243.442398
 40
0.5
 50
270.0
 51
360.0
  0
ARC
  8
M0
 10
92.900545
 20
243.442398
 40
0.5
 50
180.0
 51
270.0
  0
ARC
  8
M0
 10
90.90057
 20
226.942383
 40
0.5
 50
270.0
 51
360.0
  0
ARC
  8
M0
 10
89.900575
 20
226.942383
 40
0.5
 50
180.0
 51
270.0
  0
LINE
  8
M0
 10
82.400573
 20
255.942398
 11
64.400573
 21
255.942398
  0
LINE
  8
M0
 10
102.400543
 20
232.242401
 11
102.400543
 21
229.442383
  0
ARC
  8
M0
 10
68.400589
 20
238.942398
 40
1.0
 50
0.0
 51
89.999126
  0
ARC
  8
M0
 10
72.400589
 20
238.942398
 40
1.0
 50
89.999126
 51
180.0
  0
ARC
  8
M0
 10
78.400589
 20
238.942398
 40
1.0
 50
0.0
 51
89.999126
  0
LINE
  8
M0
 10
92.900548
 20
232.242401
 11
92.900548
 21
239.042344
  0
LINE
  8
M0
 10
100.900548
 20
232.242401
 11
100.900548
 21
238.951454
  0
ARC
  8
M0
 10
62.400589
 20
238.942398
 40
1.0
 50
89.999126
 51
180.0
  0
LINE
  8
M0
 10
93.495378
 20
232.242401
 11
91.40057
 21
232.242401
  0
ARC
  8
M0
 10
82.400589
 20
238.942398
 40
1.0
 50
89.999126
 51
180.0
  0
ARC
  8
M0
 10
88.400589
 20
238.942398
 40
1.0
 50
0.0
 51
89.999126
  0
ARC
  8
M0
 10
93.900589
 20
238.942398
 40
1.0
 50
89.999126
 51
180.0
  0
ARC
  8
M0
 10
99.900589
 20
238.942398
 40
1.0
 50
0.0
 51
89.999126
  0
ARC
  8
M0
 62
    34
 10
89.40056
 20
263.442382
 40
6.7
 50
284.999947
 51
335.000001
  0
LINE
  8
M0
 62
    34
 10
90.927592
 20
257.743419
 11
91.134647
 21
256.970679
  0
LINE
  8
M0
 62
    34
 10
94.747776
 20
260.948934
 11
95.472822
 21
260.61084
  0
LINE
  8
M0
 62
    34
 10
91.15056
 20
263.942382
 11
91.15056
 21
262.942382
  0
LINE
  8
M0
 62
    34
 10
87.65056
 20
263.942382
 11
87.65056
 21
262.942382
  0
LINE
  8
M0
 62
    34
 10
88.90056
 20
265.192382
 11
89.90056
 21
265.192382
  0
LINE
  8
M0
 62
    34
 10
88.90056
 20
261.692382
 11
89.90056
 21
261.692382
  0
LINE
  8
M0
 62
    34
 10
88.90056
 20
261.692382
 11
88.90056
 21
262.942382
  0
LINE
  8
M0
 62
    34
 10
88.90056
 20
263.942382
 11
88.90056
 21
265.192382
  0
LINE
  8
M0
 62
    34
 10
89.90056
 20
261.692382
 11
89.90056
 21
262.942382
  0
LINE
  8
M0
 62
    34
 10
89.90056
 20
263.942382
 11
89.90056
 21
265.192382
  0
LINE
  8
M0
 62
    34
 10
91.15056
 20
263.942382
 11
89.90056
 21
263.942382
  0
LINE
  8
M0
 62
    34
 10
88.90056
 20
263.942382
 11
87.65056
 21
263.942382
  0
LINE
  8
M0
 62
    34
 10
91.15056
 20
262.942382
 11
89.90056
 21
262.942382
  0
LINE
  8
M0
 62
    34
 10
88.90056
 20
262.942382
 11
87.65056
 21
262.942382
  0
ARC
  8
M0
 62
    34
 10
89.40056
 20
263.442382
 40
5.9
 50
180.0
 51
284.999949
  0
ARC
  8
M0
 62
    34
 10
89.40056
 20
263.442382
 40
5.9
 50
334.999999
 51
540.0
  0
LINE
  8
M0
  6
DASHDOT
 62
    34
 10
81.50056
 20
263.442382
 11
97.30056
 21
263.442382
  0
LINE
  8
M0
  6
DASHDOT
 62
    34
 10
89.40056
 20
255.542382
 11
89.40056
 21
271.342381
  0
LINE
  8
M0
 10
86.629352
 20
297.556743
 11
84.861774
 21
295.789043
  0
LINE
  8
M0
 10
97.966657
 20
294.551738
 11
94.785017
 21
297.733501
  0
LINE
  8
M0
 10
87.689899
 20
296.496074
 11
85.922321
 21
294.728496
  0
LINE
  8
M0
 10
76.529352
 20
297.556743
 11
74.761774
 21
295.789043
  0
LINE
  8
M0
 10
87.866657
 20
294.551738
 11
84.685017
 21
297.733501
  0
LINE
  8
M0
 10
77.589899
 20
296.496074
 11
75.822321
 21
294.728496
  0
LINE
  8
M0
 10
96.729352
 20
339.356743
 11
94.961774
 21
337.589043
  0
LINE
  8
M0
 10
87.689899
 20
338.296074
 11
85.922321
 21
336.528496
  0
LINE
  8
M0
 10
97.966657
 20
336.351738
 11
94.785017
 21
339.533501
  0
LINE
  8
M0
 10
96.729352
 20
297.556743
 11
94.961774
 21
295.789043
  0
LINE
  8
M0
 10
97.789899
 20
338.296074
 11
96.022321
 21
336.528496
  0
LINE
  8
M0
 10
97.789899
 20
296.496074
 11
96.022321
 21
294.728496
  0
LINE
  8
M0
 10
66.429352
 20
297.556743
 11
64.661774
 21
295.789043
  0
LINE
  8
M0
 10
77.766657
 20
294.551738
 11
74.585017
 21
297.733501
  0
LINE
  8
M0
 10
67.489899
 20
296.496074
 11
65.722321
 21
294.728496
  0
LINE
  8
M0
 10
67.666657
 20
294.551738
 11
64.485017
 21
297.733501
  0
LINE
  8
M0
 10
71.916657
 20
353.951738
 11
68.735017
 21
357.133501
  0
LINE
  8
M0
 10
70.679352
 20
356.956743
 11
68.911774
 21
355.189043
  0
LINE
  8
M0
 10
71.739899
 20
355.896074
 11
69.972321
 21
354.128496
  0
LINE
  8
M0
 10
77.766657
 20
336.351738
 11
74.585017
 21
339.533501
  0
LINE
  8
M0
 10
76.529352
 20
339.356743
 11
74.761774
 21
337.589043
  0
LINE
  8
M0
 10
77.589899
 20
338.296074
 11
75.822321
 21
336.528496
  0
LINE
  8
M0
 10
87.866657
 20
336.351738
 11
84.685017
 21
339.533501
  0
LINE
  8
M0
 10
86.629352
 20
339.356743
 11
84.861774
 21
337.589043
  0
LINE
  8
M0
 10
93.716657
 20
353.951738
 11
90.535017
 21
357.133501
  0
LINE
  8
M0
 10
92.479352
 20
356.956743
 11
90.711774
 21
355.189043
  0
LINE
  8
M0
 10
93.539899
 20
355.896074
 11
91.772321
 21
354.128496
  0
LINE
  8
M0
 10
67.666657
 20
336.351738
 11
64.485017
 21
339.533501
  0
LINE
  8
M0
 10
66.429352
 20
339.356743
 11
64.661774
 21
337.589043
  0
LINE
  8
M0
 10
67.489899
 20
338.296074
 11
65.722321
 21
336.528496
  0
LINE
  8
M0
 62
     7
 10
174.126682
 20
342.842383
 11
174.126682
 21
361.042383
  0
CIRCLE
  8
M0
 62
   253
 10
96.900568
 20
234.742315
 40
2.999997
  0
LINE
  8
M0
 62
   253
 10
93.941583
 20
238.689657
 11
93.125421
 21
236.042363
  0
LINE
  8
M0
 62
   253
 10
93.896188
 20
230.942342
 11
93.125421
 21
233.442388
  0
LINE
  8
M0
 62
   253
 10
99.859064
 20
238.689672
 11
100.67547
 21
236.042363
  0
LINE
  8
M0
 62
   253
 10
99.857955
 20
230.791454
 11
100.67547
 21
233.442388
  0
LINE
  8
M0
 62
   253
 10
100.67547
 20
233.442388
 11
100.67547
 21
236.042363
  0
LINE
  8
M0
 62
   253
 10
99.38128
 20
239.042363
 11
94.41961
 21
239.042348
  0
LINE
  8
M0
 62
   253
 10
93.125421
 20
236.042363
 11
93.125421
 21
233.442388
  0
LINE
  8
M0
 62
   253
 10
98.491144
 20
233.151494
 11
95.309503
 21
236.333257
  0
LINE
  8
M0
 62
   253
 10
97.253839
 20
236.156499
 11
95.486261
 21
234.388799
  0
LINE
  8
M0
 62
   253
 10
98.314386
 20
235.09583
 11
96.546808
 21
233.328252
  0
ARC
  8
M0
 62
   253
 10
94.41961
 20
238.542348
 40
0.5
 50
89.998251
 51
162.874002
  0
ARC
  8
M0
 62
   253
 10
99.38128
 20
238.542348
 40
0.5
 50
17.136442
 51
90.0
  0
LINE
  8
M0
  6
DASHDOT
 62
   253
 10
91.90057
 20
234.742315
 11
101.900565
 21
234.742315
  0
LINE
  8
M0
  6
DASHDOT
 62
   253
 10
96.900568
 20
229.742317
 11
96.900568
 21
239.742312
  0
ARC
  8
M0
 62
     1
 10
89.800579
 20
277.747393
 40
5.0
 50
168.521659
 51
191.478341
  0
LINE
  8
M0
 62
     1
 10
83.10058
 20
285.242381
 11
82.900579
 21
285.042381
  0
LINE
  8
M0
 62
     1
 10
84.700579
 20
285.242381
 11
84.900579
 21
285.042381
  0
LINE
  8
M0
 62
     1
 10
83.10058
 20
292.392383
 11
83.10058
 21
285.242381
  0
LINE
  8
M0
 62
     1
 10
84.700579
 20
285.242381
 11
84.700579
 21
292.392383
  0
LINE
  8
M0
 62
     1
 10
82.900579
 20
285.042381
 11
82.900579
 21
282.042403
  0
LINE
  8
M0
 62
     1
 10
84.900579
 20
278.742381
 11
84.900579
 21
285.042381
  0
LINE
  8
M0
 62
     7
 10
84.900579
 20
276.7424
 11
84.900579
 21
276.752406
  0
CIRCLE
  8
M0
 62
     4
 10
78.400568
 20
251.242315
 40
2.999997
  0
LINE
  8
M0
 62
     4
 10
75.441583
 20
255.189657
 11
74.625421
 21
252.542363
  0
LINE
  8
M0
 62
     4
 10
75.441583
 20
247.295064
 11
74.625421
 21
249.942388
  0
LINE
  8
M0
 62
     4
 10
81.359064
 20
255.189672
 11
82.17547
 21
252.542363
  0
LINE
  8
M0
 62
     4
 10
81.359064
 20
247.295049
 11
82.17547
 21
249.942388
  0
LINE
  8
M0
 62
     4
 10
75.91961
 20
246.942388
 11
80.88128
 21
246.942388
  0
LINE
  8
M0
 62
     4
 10
82.17547
 20
249.942388
 11
82.17547
 21
252.542363
  0
LINE
  8
M0
 62
     4
 10
80.88128
 20
255.542363
 11
75.91961
 21
255.542348
  0
LINE
  8
M0
 62
     4
 10
74.625421
 20
252.542363
 11
74.625421
 21
249.942388
  0
LINE
  8
M0
 62
     4
 10
79.991144
 20
249.651494
 11
76.809503
 21
252.833257
  0
LINE
  8
M0
 62
     4
 10
78.753839
 20
252.656499
 11
76.986261
 21
250.888799
  0
LINE
  8
M0
 62
     4
 10
79.814386
 20
251.59583
 11
78.046808
 21
249.828252
  0
ARC
  8
M0
 62
     4
 10
75.91961
 20
255.042348
 40
0.5
 50
89.998251
 51
162.874002
  0
ARC
  8
M0
 62
     4
 10
75.91961
 20
247.442388
 40
0.5
 50
197.129131
 51
270.0
  0
ARC
  8
M0
 62
     4
 10
80.88128
 20
247.442388
 40
0.5
 50
270.0
 51
342.861236
  0
ARC
  8
M0
 62
     4
 10
80.88128
 20
255.042348
 40
0.5
 50
17.136442
 51
90.0
  0
LINE
  8
M0
  6
DASHDOT
 62
     4
 10
73.40057
 20
251.242315
 11
83.400565
 21
251.242315
  0
LINE
  8
M0
  6
DASHDOT
 62
     4
 10
78.400568
 20
246.242317
 11
78.400568
 21
256.242312
  0
CIRCLE
  8
M0
 10
96.400588
 20
125.895184
 40
2.0
  0
LINE
  8
M0
  6
DASHDOT
 10
100.997984
 20
125.895184
 11
91.803175
 21
125.895184
  0
LINE
  8
M0
  6
DASHDOT
 10
96.400572
 20
130.492581
 11
96.400574
 21
121.430059
  0
CIRCLE
  8
M0
 10
63.400588
 20
180.895169
 40
2.0
  0
LINE
  8
M0
  6
DASHDOT
 10
67.497984
 20
180.895169
 11
59.303175
 21
180.895169
  0
LINE
  8
M0
  6
DASHDOT
 10
63.400572
 20
184.992566
 11
63.400588
 21
176.797757
  0
LINE
  8
M0
  6
DIVIDE
 10
59.400573
 20
116.495189
 11
59.400573
 21
124.195184
  0
LINE
  8
M0
  6
DIVIDE
 10
102.400573
 20
187.695184
 11
102.400573
 21
179.795184
  0
LINE
  8
M0
  6
DIVIDE
 10
63.900573
 20
186.495184
 11
63.900573
 21
186.395184
  0
LINE
  8
M0
  6
DIVIDE
 10
63.900573
 20
185.870121
 11
63.900573
 21
193.395184
  0
ARC
  8
M0
  6
DIVIDE
 10
64.500573
 20
195.795184
 40
0.6
 50
90.0
 51
180.0
  0
LINE
  8
M0
  6
DIVIDE
 10
63.900573
 20
195.795184
 11
63.900573
 21
193.395184
  0
LINE
  8
M0
  6
DIVIDE
 10
97.900573
 20
187.695184
 11
97.900573
 21
196.395184
  0
LINE
  8
M0
  6
DIVIDE
 10
64.500573
 20
196.395184
 11
97.900573
 21
196.395184
  0
LINE
  8
M0
  6
DIVIDE
 10
59.400573
 20
124.195184
 11
59.400573
 21
128.195184
  0
LINE
  8
M0
  6
DIVIDE
 10
102.400573
 20
156.695184
 11
102.400573
 21
147.295184
  0
LINE
  8
M0
  6
DIVIDE
 10
59.400573
 20
128.195184
 11
59.400573
 21
185.870121
  0
LINE
  8
M0
  6
DIVIDE
 10
102.400573
 20
147.295184
 11
102.400573
 21
117.195184
  0
LINE
  8
M0
  6
DIVIDE
 10
102.400573
 20
175.795184
 11
102.400573
 21
156.695184
  0
LINE
  8
M0
  6
DIVIDE
 10
102.400573
 20
179.795184
 11
102.400573
 21
175.795184
  0
LINE
  8
M0
  6
DIVIDE
 10
59.400573
 20
116.495189
 11
59.075073
 21
116.495189
  0
LINE
  8
M0
  6
DIVIDE
 10
59.075073
 20
111.195201
 11
59.075073
 21
105.395198
  0
LINE
  8
M0
  6
DIVIDE
 10
104.075043
 20
60.895184
 11
59.075073
 21
60.895184
  0
LINE
  8
M0
  6
DIVIDE
 10
59.075073
 20
60.895184
 11
59.075073
 21
116.495189
  0
LINE
  8
M0
  6
DIVIDE
 10
104.075043
 20
60.895184
 11
104.075043
 21
117.195184
  0
LINE
  8
M0
  6
DIVIDE
 10
102.400573
 20
187.695184
 11
97.900573
 21
187.695184
  0
LINE
  8
M0
  6
DIVIDE
 10
63.900573
 20
185.870121
 11
59.400573
 21
185.870121
  0
LINE
  8
M0
  6
DIVIDE
 10
102.400573
 20
117.195184
 11
104.075043
 21
117.195184
  0
CIRCLE
  8
M0
 10
96.400573
 20
125.895184
 40
1.7
  0
CIRCLE
  8
M0
 10
63.40058
 20
180.895169
 40
1.7
  0
LINE
  8
M3
 62
     2
 10
300.003268
 20
60.895184
 11
149.85312
 21
60.895184
  0
LINE
  8
M3
 62
     2
 10
14.717987
 20
15.85014
 11
14.717987
 21
428.763047
  0
LINE
  8
M3
 62
     2
 10
300.003268
 20
15.85014
 11
14.717987
 21
15.85014
  0
LINE
  8
M3
 62
     2
 10
300.003268
 20
30.865154
 11
149.85312
 21
30.865154
  0
TEXT
  8
M3
 62
     2
 10
153.106369
 20
34.618908
 40
7.507507
  1
形　式；
 41
1.0
  7
STANDARD
  0
LINE
  8
M3
 62
     2
 10
300.003268
 20
45.880169
 11
149.85312
 21
45.880169
  0
TEXT
  8
M3
 62
     2
 10
153.106369
 20
49.633923
 40
7.507507
  1
登録名：
 41
1.0
  7
STANDARD
  0
LINE
  8
M3
 62
     2
 10
149.85312
 20
15.85014
 11
149.85312
 21
60.895184
  0
TEXT
  8
M3
 62
     2
 10
153.106369
 20
19.603893
 40
7.507507
  1
適　用；
 41
1.0
  7
STANDARD
  0
LINE
  8
M3
 62
     2
 10
14.717987
 20
428.763047
 11
300.003268
 21
428.763047
  0
LINE
  8
M3
 62
     2
 10
300.003268
 20
428.763047
 11
300.003268
 21
15.85014
  0
TEXT
  8
M3
 62
     2
 10
189.392663
 20
49.633923
 40
7.507507
  1
ＤＭＨＳ８ＴＲ００
 41
0.5
  7
STANDARD
  0
TEXT
  8
M3
 62
     2
 10
189.392663
 20
34.618908
 40
7.507507
  1
ＨＳ８－Ｔ
 41
0.5
  7
STANDARD
  0
LINE
  8
DN0
 10
70.913368
 20
42.402891
 11
95.282737
 21
42.402891
  0
TEXT
  8
DN0
 10
71.586541
 20
43.003491
 40
6.006006
  1
せん孔図
 41
0.833333
  7
STANDARD
  0
ENDSEC
  0
EOF
