  0
SECTION
  2
HEADER
  9
$ACADVER
  1
AC1014
  9
$INSBASE
 10
0.000000
 20
0.000000
 30
0.0
  9
$VIEWCTR
 10
7.531722
 20
4.5
  9
$VIEWSIZE
 40
9.0
  9
$SNAPMODE
 70
     0
  9
$SNAPUNIT
 10
1.0
 20
1.0
  9
$SNAPBASE
 10
0.0
 20
0.0
  9
$SNAPANG
 50
0.0
  9
$SNAPSTYLE
 70
     0
  9
$SNAPISOPAIR
 70
     0
  9
$GRIDMODE
 70
     0
  9
$GRIDUNIT
 10
0.0
 20
0.0
  9
$ORTHOMODE
 70
     0
  9
$REGENMODE
 70
     1
  9
$FILLMODE
 70
     1
  9
$QTEXTMODE
 70
     0
  9
$DRAGMODE
 70
     2
  9
$LTSCALE
  40
     1.000000
  9
$OSMODE
 70
     0
  9
$ATTMODE
 70
     1
  9
$TEXTSIZE
 40
0.2
  9
$TRACEWID
 40
0.05
  9
$TEXTSTYLE
  7
STANDARD
  9
$CELTYPE
  6
BYLAYER
  9
$CECOLOR
 62
   256
  9
$DIMSCALE
 40
1.0
  9
$DIMASZ
 40
0.18
  9
$DIMEXO
 40
0.0625
  9
$DIMDLI
 40
0.38
  9
$DIMRND
 40
0.0
  9
$DIMDLE
 40
0.0
  9
$DIMEXE
 40
0.18
  9
$DIMTP
 40
0.0
  9
$DIMTM
 40
0.0
  9
$DIMTXT
 40
0.18
  9
$DIMCEN
 40
0.09
  9
$DIMTSZ
 40
0.0
  9
$DIMTOL
 70
     0
  9
$DIMLIM
 70
     0
  9
$DIMTIH
 70
     1
  9
$DIMTOH
 70
     1
  9
$DIMSE1
 70
     0
  9
$DIMSE2
 70
     0
  9
$DIMTAD
 70
     0
  9
$DIMZIN
 70
     0
  9
$DIMBLK
  1

  9
$LUNITS
 70
     2
  9
$LUPREC
 70
     4
  9
$AXISMODE
 70
     0
  9
$AXISUNIT
 10
0.0
 20
0.0
  9
$SKETCHINC
 40
0.1
  9
$FILLETRAD
 40
0.0
  9
$AUNITS
 70
     0
  9
$AUPREC
 70
     0
  9
$MENU
  1
ACAD
  9
$ELEVATION
 40
0.0
  9
$THICKNESS
 40
0.0
  9
$VIEWDIR
 10
0.0
 20
0.0
 30
1.0
  9
$LIMCHECK
 70
     0
  9
$BLIPMODE
 70
     1
  9
$CHAMFERA
 40
0.0
  9
$CHAMFERB
 40
0.0
  9
$FASTZOOM
 70
     1
  9
$SKPOLY
 70
     0
  9
$TDCREATE
 40
0000000.0000000000
  9
$TDUPDATE
 40
0000000.0000000000
  9
$TDINDWG
 40
0.0000000000
  9
$TDUSRTIMER
 40
0.0000000000
  9
$USRTIMER
 70
     1
  9
$ANGBASE
 50
0.0
  9
$ANGDIR
 70
     0
  9
$PDMODE
 70
     0
  9
$PDSIZE
 40
0.0
  9
$PLINEWID
 40
0.0
  9
$COORDS
 70
     0
  9
$USERI1
 70
     0
  9
$USERI2
 70
     0
  9
$USERI3
 70
     0
  9
$USERI4
 70
     0
  9
$USERI5
 70
     0
  9
$USERR1
 40
0.0
  9
$USERR2
 40
0.0
  9
$USERR3
 40
0.0
  9
$USERR4
 40
0.0
  9
$USERR5
 40
0.0
  9
$CLAYER
  8
M0
  9
$EXTMIN
 10
25.0
 20
25.0
  9
$EXTMAX
 10
499.999993
 20
712.499989
  9
$LIMMIN
 10
0.0
 20
0.0
  9
$LIMMAX
 10
210.0
 20
297.0
  9
$HANDSEED
  5
869
  0
ENDSEC
  0
SECTION
  2
CLASSES
  0
CLASS
  1
DICTIONARYVAR
  2
AcDbDictionaryVar
  3
"AutoCAD"
 90
        0
280
     0
281
     0
  0
CLASS
  1
HATCH
  2
AcDbHatch
  3
"ACAD_SEDONA"
 90
        0
280
     0
281
     1
  0
ENDSEC
  0
SECTION
  2
TABLES
  0
TABLE
  2
VPORT
  5
8
100
AcDbSymbolTable
 70
     2
  0
VPORT
  5
14
100
AcDbSymbolTableRecord
100
AcDbViewportTableRecord
  2
*ACTIVE
 70
     0
 10
0.0
 20
0.0
 11
1.0
 21
1.0
 12
484.0
 22
297.0
 13
0.0
 23
0.0
 14
1.0
 24
1.0
 15
0.0
 25
0.0
 16
0.0
 26
0.0
 36
1.0
 17
0.0
 27
0.0
 37
0.0
 40
594.0
 41
2.0
 42
50.0
 43
0.0
 44
0.0
 50
0.0
 51
0.0
 71
     0
 72
   100
 73
     1
 74
     1
 75
     0
 76
     0
 77
     0
 78
     0
  0
ENDTAB
  0
TABLE
  2
LTYPE
  5
5
100
AcDbSymbolTable
 70
     5
  0
LTYPE
  5
15
100
AcDbSymbolTableRecord
100
AcDbLinetypeTableRecord
  2
BYBLOCK
 70
     0
  3

 72
    65
 73
     0
 40
0.0
  0
LTYPE
  5
16
100
AcDbSymbolTableRecord
100
AcDbLinetypeTableRecord
  2
BYLAYER
 70
     0
  3

 72
    65
 73
     0
 40
0.0
  0
LTYPE
  5
17
100
AcDbSymbolTableRecord
100
AcDbLinetypeTableRecord
  2
CONTINUOUS
 70
    64
  3
Solid line
 72
    65
 73
     0
 40
0.0
  0
LTYPE
  5
18
100
AcDbSymbolTableRecord
100
AcDbLinetypeTableRecord
  2
DASHED
 70
    64
  3
__ __ __ __ __ __ __ __ __ __ __ __ __ __ __ __
 72
    65
 73
     2
 40
0.75
 49
0.5
 74
     0
 49
-0.25
 74
     0
  0
LTYPE
  5
19
100
AcDbSymbolTableRecord
100
AcDbLinetypeTableRecord
  2
DASHDOT
 70
    64
  3
__ . __ . __ . __ . __ . __ . __ . __ . __ . __
 72
    65
 73
     4
 40
1.0
 49
0.5
 74
     0
 49
-0.25
 74
     0
 49
0.0
 74
     0
 49
-0.25
 74
     0
  0
LTYPE
  5
1A
100
AcDbSymbolTableRecord
100
AcDbLinetypeTableRecord
  2
DIVIDE
 70
    64
  3
____ . . ____ . . ____ . . ____ . . ____ . . __
 72
    65
 73
     6
 40
1.25
 49
0.5
 74
     0
 49
-0.25
 74
     0
 49
0.0
 74
     0
 49
-0.25
 74
     0
 49
0.0
 74
     0
 49
-0.25
 74
     0
  0
LTYPE
  5
1B
100
AcDbSymbolTableRecord
100
AcDbLinetypeTableRecord
  2
DOT
 70
    64
  3
. . . . . . . . . . . . . . . . . . . . . . . .
 72
    65
 73
     2
 40
0.25
 49
0.0
 74
     0
 49
-0.25
 74
     0
  0
ENDTAB
  0
TABLE
  2
LAYER
  5
2
100
AcDbSymbolTable
 70
   102
  0
LAYER
  5
F
100
AcDbSymbolTableRecord
100
AcDbLayerTableRecord
  2
0
 70
     0
 62
     7
  6
CONTINUOUS
  0
LAYER
  5
1C
100
AcDbSymbolTableRecord
100
AcDbLayerTableRecord
  2
DEFPOINTS
 70
     0
 62
     7
  6
CONTINUOUS
  0
LAYER
  5
1D
100
AcDbSymbolTableRecord
100
AcDbLayerTableRecord
  2
M0
 70
     0
 62
     3
  6
CONTINUOUS
  0
LAYER
  5
1E
100
AcDbSymbolTableRecord
100
AcDbLayerTableRecord
  2
M1
 70
     0
 62
     3
  6
CONTINUOUS
  0
LAYER
  5
1F
100
AcDbSymbolTableRecord
100
AcDbLayerTableRecord
  2
DD0
 70
     0
 62
     4
  6
CONTINUOUS
  0
LAYER
  5
20
100
AcDbSymbolTableRecord
100
AcDbLayerTableRecord
  2
DN0
 70
     0
 62
     2
  6
CONTINUOUS
  0
ENDTAB
  0
TABLE
  2
STYLE
  5
3
100
AcDbSymbolTable
 70
     2
  0
STYLE
  5
10
100
AcDbSymbolTableRecord
100
AcDbTextStyleTableRecord
  2
STANDARD
 70
     0
 40
0.0
 41
1.0
 50
0.0
 71
     0
 42
0.2
  3
txt
  4
BIGFONT
  0
ENDTAB
  0
TABLE
  2
VIEW
  5
6
100
AcDbSymbolTable
 70
     0
  0
ENDTAB
  0
TABLE
  2
UCS
  5
7
100
AcDbSymbolTable
 70
     0
  0
ENDTAB
  0
TABLE
  2
APPID
  5
9
100
AcDbSymbolTable
 70
     1
  0
APPID
  5
11
100
AcDbSymbolTableRecord
100
AcDbRegAppTableRecord
  2
ACAD
 70
     0
  0
ENDTAB
  0
TABLE
  2
DIMSTYLE
  5
A
100
AcDbSymbolTable
 70
     2
  0
DIMSTYLE
105
27
100
AcDbSymbolTableRecord
100
AcDbDimStyleTableRecord
  2
STANDARD
 70
     0
  3

  4

  5

  6
_OPEN
  7
_OPEN
 40
1.0
 41
7.5
 42
1.0
 43
8.0
 44
1.0
 45
0.0
 46
0.0
 47
0.0
 48
0.0
140
7.875
141
0.09
142
0.0
143
0.03937
144
1.0
145
0.0
146
1.0
147
0.6
 71
     0
 72
     0
 73
     1
 74
     1
 75
     0
 76
     0
 77
     3
 78
     8
170
     0
171
     2
172
     0
173
     1
174
     0
175
     0
176
     0
177
     0
178
     0
270
     2
271
     2
272
     4
273
     2
274
     2
340
10
275
     0
280
     0
281
     0
282
     0
283
     1
284
     0
285
     0
286
     0
287
     3
288
     0
  0
DIMSTYLE
105
28
100
AcDbSymbolTableRecord
100
AcDbDimStyleTableRecord
  2
LEADSTYL
 70
     0
  3

  4

  5

  6
_OPEN
  7
_OPEN
 40
1.0
 41
7.5
 42
0.0625
 43
0.38
 44
0.18
 45
0.0
 46
0.0
 47
0.0
 48
0.0
140
7.875
141
0.09
142
0.0
143
25.4
144
1.0
145
0.0
146
1.0
147
0.6
 71
     0
 72
     0
 73
     1
 74
     1
 75
     0
 76
     0
 77
     0
 78
     0
170
     0
171
     2
172
     0
173
     1
174
     0
175
     0
176
     0
177
     0
178
     0
270
     2
271
     4
272
     4
273
     2
274
     2
340
10
275
     0
280
     0
281
     0
282
     0
283
     1
284
     0
285
     0
286
     0
287
     3
288
     0
  0
ENDTAB
  0
TABLE
  2
BLOCK_RECORD
  5
1
100
AcDbSymbolTable
 70
    24
  0
BLOCK_RECORD
  5
21
100
AcDbSymbolTableRecord
100
AcDbBlockTableRecord
  2
*MODEL_SPACE
  0
BLOCK_RECORD
  5
24
100
AcDbSymbolTableRecord
100
AcDbBlockTableRecord
  2
*PAPER_SPACE
  0
BLOCK_RECORD
  5
29
100
AcDbSymbolTableRecord
100
AcDbBlockTableRecord
  2
_NONE
  0
BLOCK_RECORD
  5
2D
100
AcDbSymbolTableRecord
100
AcDbBlockTableRecord
  2
_OPEN
  0
BLOCK_RECORD
  5
33
100
AcDbSymbolTableRecord
100
AcDbBlockTableRecord
  2
_CLOSED
  0
BLOCK_RECORD
  5
3A
100
AcDbSymbolTableRecord
100
AcDbBlockTableRecord
  2
_ORIGIN
  0
BLOCK_RECORD
  5
3F
100
AcDbSymbolTableRecord
100
AcDbBlockTableRecord
  2
_DOT
  0
BLOCK_RECORD
  5
47
100
AcDbSymbolTableRecord
100
AcDbBlockTableRecord
  2
_OBLIQUE
  0
BLOCK_RECORD
  5
4B
100
AcDbSymbolTableRecord
100
AcDbBlockTableRecord
  2
DIMS0
  0
BLOCK_RECORD
  5
57
100
AcDbSymbolTableRecord
100
AcDbBlockTableRecord
  2
DIMS1
  0
BLOCK_RECORD
  5
63
100
AcDbSymbolTableRecord
100
AcDbBlockTableRecord
  2
DIMS2
  0
BLOCK_RECORD
  5
6F
100
AcDbSymbolTableRecord
100
AcDbBlockTableRecord
  2
DIMS3
  0
BLOCK_RECORD
  5
7B
100
AcDbSymbolTableRecord
100
AcDbBlockTableRecord
  2
DIMS4
  0
BLOCK_RECORD
  5
87
100
AcDbSymbolTableRecord
100
AcDbBlockTableRecord
  2
DIMS5
  0
BLOCK_RECORD
  5
94
100
AcDbSymbolTableRecord
100
AcDbBlockTableRecord
  2
DIMS6
  0
BLOCK_RECORD
  5
A0
100
AcDbSymbolTableRecord
100
AcDbBlockTableRecord
  2
DIMS7
  0
BLOCK_RECORD
  5
AB
100
AcDbSymbolTableRecord
100
AcDbBlockTableRecord
  2
DIMS8
  0
BLOCK_RECORD
  5
B7
100
AcDbSymbolTableRecord
100
AcDbBlockTableRecord
  2
DIMS9
  0
BLOCK_RECORD
  5
C3
100
AcDbSymbolTableRecord
100
AcDbBlockTableRecord
  2
DIMS10
  0
BLOCK_RECORD
  5
CF
100
AcDbSymbolTableRecord
100
AcDbBlockTableRecord
  2
DIMS11
  0
BLOCK_RECORD
  5
DB
100
AcDbSymbolTableRecord
100
AcDbBlockTableRecord
  2
DIMS12
  0
BLOCK_RECORD
  5
E7
100
AcDbSymbolTableRecord
100
AcDbBlockTableRecord
  2
DIMS13
  0
BLOCK_RECORD
  5
F3
100
AcDbSymbolTableRecord
100
AcDbBlockTableRecord
  2
DIMS14
  0
BLOCK_RECORD
  5
FC
100
AcDbSymbolTableRecord
100
AcDbBlockTableRecord
  2
DIMS15
  0
BLOCK_RECORD
  5
108
100
AcDbSymbolTableRecord
100
AcDbBlockTableRecord
  2
DIMS16
  0
BLOCK_RECORD
  5
114
100
AcDbSymbolTableRecord
100
AcDbBlockTableRecord
  2
DIMS17
  0
ENDTAB
  0
ENDSEC
  0
SECTION
  2
BLOCKS
  0
BLOCK
  5
22
100
AcDbEntity
  8
0
100
AcDbBlockBegin
  2
*MODEL_SPACE
 70
     0
 10
0.0
 20
0.0
 30
0.0
  3
*MODEL_SPACE
  1

  0
ENDBLK
  5
23
100
AcDbEntity
  8
0
100
AcDbBlockEnd
  0
BLOCK
  5
25
100
AcDbEntity
 67
     1
  8
0
100
AcDbBlockBegin
  2
*PAPER_SPACE
 70
     0
 10
0.0
 20
0.0
 30
0.0
  3
*PAPER_SPACE
  1

  0
ENDBLK
  5
26
100
AcDbEntity
 67
     1
  8
0
100
AcDbBlockEnd
  0
BLOCK
  5
2A
100
AcDbEntity
  8
0
100
AcDbBlockBegin
  2
_NONE
 70
     0
 10
0.0
 20
0.0
  0
CIRCLE
  5
2B
100
AcDbEntity
  8
0
 62
     0
100
AcDbCircle
 10
0.0
 20
0.0
 40
0.25
  0
ENDBLK
  5
2C
100
AcDbEntity
  8
0
100
AcDbBlockEnd
  0
BLOCK
  5
2E
100
AcDbEntity
  8
0
100
AcDbBlockBegin
  2
_OPEN
 70
     0
 10
0.0
 20
0.0
  0
LINE
  5
2F
100
AcDbEntity
  8
0
 62
     0
100
AcDbLine
 10
-0.965926
 20
0.258819
 11
0.0
 21
0.0
  0
LINE
  5
30
100
AcDbEntity
  8
0
 62
     0
100
AcDbLine
 10
0.0
 20
0.0
 11
-0.965926
 21
-0.258819
  0
LINE
  5
31
100
AcDbEntity
  8
0
 62
     0
100
AcDbLine
 10
0.0
 20
0.0
 11
-1.0
 21
0.0
  0
ENDBLK
  5
32
100
AcDbEntity
  8
0
100
AcDbBlockEnd
  0
BLOCK
  5
34
100
AcDbEntity
  8
0
100
AcDbBlockBegin
  2
_CLOSED
 70
     0
 10
0.0
 20
0.0
  0
LINE
  5
35
100
AcDbEntity
  8
0
 62
     0
100
AcDbLine
 10
-0.965926
 20
0.258819
 11
0.0
 21
0.0
  0
LINE
  5
36
100
AcDbEntity
  8
0
 62
     0
100
AcDbLine
 10
0.0
 20
0.0
 11
-0.965926
 21
-0.258819
  0
LINE
  5
37
100
AcDbEntity
  8
0
 62
     0
100
AcDbLine
 10
-0.965926
 20
0.258819
 11
-0.965926
 21
-0.258819
  0
LINE
  5
38
100
AcDbEntity
  8
0
 62
     0
100
AcDbLine
 10
0.0
 20
0.0
 11
-1.0
 21
0.0
  0
ENDBLK
  5
39
100
AcDbEntity
  8
0
100
AcDbBlockEnd
  0
BLOCK
  5
3B
100
AcDbEntity
  8
0
100
AcDbBlockBegin
  2
_ORIGIN
 70
     0
 10
0.0
 20
0.0
  0
CIRCLE
  5
3C
100
AcDbEntity
  8
0
 62
     0
100
AcDbCircle
 10
0.0
 20
0.0
 40
0.5
  0
LINE
  5
3D
100
AcDbEntity
  8
0
 62
     0
100
AcDbLine
 10
0.0
 20
0.0
 11
-1.0
 21
0.0
  0
ENDBLK
  5
3E
100
AcDbEntity
  8
0
100
AcDbBlockEnd
  0
BLOCK
  5
40
100
AcDbEntity
  8
0
100
AcDbBlockBegin
  2
_DOT
 70
     0
 10
0.0
 20
0.0
  0
POLYLINE
  5
41
100
AcDbEntity
  8
0
 62
     0
100
AcDb2dPolyline
 66
     1
 70
     1
 40
0.5
 41
0.5
  0
VERTEX
  5
42
100
AcDbEntity
  8
0
 62
     0
100
AcDbVertex
100
AcDb2dVertex
 10
-0.25
 20
0.0
 42
1.0
  0
VERTEX
  5
43
100
AcDbEntity
  8
0
 62
     0
100
AcDbVertex
100
AcDb2dVertex
 10
0.25
 20
0.0
 42
1.0
  0
SEQEND
  5
44
100
AcDbEntity
  8
0
 62
     0
  0
LINE
  5
45
100
AcDbEntity
  8
0
 62
     0
100
AcDbLine
 10
-0.5
 20
0.0
 11
-1.0
 21
0.0
  0
ENDBLK
  5
46
100
AcDbEntity
  8
0
100
AcDbBlockEnd
  0
BLOCK
  5
48
100
AcDbEntity
  8
0
100
AcDbBlockBegin
  2
_OBLIQUE
 70
     0
 10
0.0
 20
0.0
  0
LINE
  5
49
100
AcDbEntity
  8
0
 62
     0
100
AcDbLine
 10
-0.353553
 20
-0.353553
 11
0.353553
 21
0.353553
  0
ENDBLK
  5
4A
100
AcDbEntity
  8
0
100
AcDbBlockEnd
  0
BLOCK
  5
4C
100
AcDbEntity
  8
DD0
100
AcDbBlockBegin
  2
DIMS0
 70
     0
 10
0.0
 20
0.0
  0
LINE
  5
4D
100
AcDbEntity
  8
DD0
100
AcDbLine
 10
117.285135
 20
557.924758
 11
117.285135
 21
573.460189
  0
LINE
  5
4E
100
AcDbEntity
  8
DD0
100
AcDbLine
 10
204.185139
 20
557.924758
 11
204.185139
 21
573.460189
  0
LINE
  5
4F
100
AcDbEntity
  8
DD0
100
AcDbLine
 10
124.529579
 20
572.901332
 11
117.285135
 21
570.960189
  0
LINE
  5
50
100
AcDbEntity
  8
DD0
100
AcDbLine
 10
117.285135
 20
570.960189
 11
124.529579
 21
569.019046
  0
LINE
  5
51
100
AcDbEntity
  8
DD0
100
AcDbLine
 10
196.940696
 20
569.019046
 11
204.185139
 21
570.960189
  0
LINE
  5
52
100
AcDbEntity
  8
DD0
100
AcDbLine
 10
204.185139
 20
570.960189
 11
196.940696
 21
572.901332
  0
LINE
  5
53
100
AcDbEntity
  8
DD0
100
AcDbLine
 10
117.285135
 20
570.960189
 11
204.185139
 21
570.960189
  0
TEXT
  5
54
100
AcDbEntity
  8
DD0
100
AcDbText
 10
151.164299
 20
572.460204
 40
6.25
  1
８６．９
 41
0.666667
  7
STANDARD
100
AcDbText
  0
ENDBLK
  5
55
100
AcDbEntity
  8
DD0
100
AcDbBlockEnd
  0
BLOCK
  5
58
100
AcDbEntity
  8
DD0
100
AcDbBlockBegin
  2
DIMS1
 70
     0
 10
0.0
 20
0.0
  0
LINE
  5
59
100
AcDbEntity
  8
DD0
100
AcDbLine
 10
117.285135
 20
453.924783
 11
117.285135
 21
424.131997
  0
LINE
  5
5A
100
AcDbEntity
  8
DD0
100
AcDbLine
 10
99.685133
 20
471.424782
 11
99.685133
 21
424.131997
  0
LINE
  5
5B
100
AcDbEntity
  8
DD0
100
AcDbLine
 10
124.529579
 20
428.57314
 11
117.285135
 21
426.631997
  0
LINE
  5
5C
100
AcDbEntity
  8
DD0
100
AcDbLine
 10
117.285135
 20
426.631997
 11
124.529579
 21
424.690855
  0
LINE
  5
5D
100
AcDbEntity
  8
DD0
100
AcDbLine
 10
92.44069
 20
424.690855
 11
99.685133
 21
426.631997
  0
LINE
  5
5E
100
AcDbEntity
  8
DD0
100
AcDbLine
 10
99.685133
 20
426.631997
 11
92.44069
 21
428.57314
  0
LINE
  5
5F
100
AcDbEntity
  8
DD0
100
AcDbLine
 10
125.535135
 20
426.631997
 11
91.435134
 21
426.631997
  0
TEXT
  5
60
100
AcDbEntity
  8
DD0
100
AcDbText
 10
98.914305
 20
428.132013
 40
6.25
  1
１７．５
 41
0.666667
  7
STANDARD
100
AcDbText
  0
ENDBLK
  5
61
100
AcDbEntity
  8
DD0
100
AcDbBlockEnd
  0
BLOCK
  5
64
100
AcDbEntity
  8
DD0
100
AcDbBlockBegin
  2
DIMS2
 70
     0
 10
0.0
 20
0.0
  0
LINE
  5
65
100
AcDbEntity
  8
DD0
100
AcDbLine
 10
78.335136
 20
544.924766
 11
78.335136
 21
591.081343
  0
LINE
  5
66
100
AcDbEntity
  8
DD0
100
AcDbLine
 10
243.135124
 20
477.624772
 11
243.135124
 21
591.081343
  0
LINE
  5
67
100
AcDbEntity
  8
DD0
100
AcDbLine
 10
85.57958
 20
590.522486
 11
78.335136
 21
588.581343
  0
LINE
  5
68
100
AcDbEntity
  8
DD0
100
AcDbLine
 10
78.335136
 20
588.581343
 11
85.57958
 21
586.640201
  0
LINE
  5
69
100
AcDbEntity
  8
DD0
100
AcDbLine
 10
235.890681
 20
586.640201
 11
243.135124
 21
588.581343
  0
LINE
  5
6A
100
AcDbEntity
  8
DD0
100
AcDbLine
 10
243.135124
 20
588.581343
 11
235.890681
 21
590.522486
  0
LINE
  5
6B
100
AcDbEntity
  8
DD0
100
AcDbLine
 10
78.335136
 20
588.581343
 11
243.135124
 21
588.581343
  0
TEXT
  5
6C
100
AcDbEntity
  8
DD0
100
AcDbText
 10
148.664299
 20
590.081359
 40
6.25
  1
１６４．８
 41
0.666667
  7
STANDARD
100
AcDbText
  0
ENDBLK
  5
6D
100
AcDbEntity
  8
DD0
100
AcDbBlockEnd
  0
BLOCK
  5
70
100
AcDbEntity
  8
DD0
100
AcDbBlockBegin
  2
DIMS3
 70
     0
 10
0.0
 20
0.0
  0
LINE
  5
71
100
AcDbEntity
  8
DD0
100
AcDbLine
 10
96.685132
 20
533.424789
 11
51.549305
 21
533.424789
  0
LINE
  5
72
100
AcDbEntity
  8
DD0
100
AcDbLine
 10
96.685132
 20
474.424775
 11
51.549305
 21
474.424775
  0
LINE
  5
73
100
AcDbEntity
  8
DD0
100
AcDbLine
 10
55.990448
 20
526.180346
 11
54.049305
 21
533.424789
  0
LINE
  5
74
100
AcDbEntity
  8
DD0
100
AcDbLine
 10
54.049305
 20
533.424789
 11
52.108162
 21
526.180346
  0
LINE
  5
75
100
AcDbEntity
  8
DD0
100
AcDbLine
 10
52.108162
 20
481.669218
 11
54.049305
 21
474.424775
  0
LINE
  5
76
100
AcDbEntity
  8
DD0
100
AcDbLine
 10
54.049305
 20
474.424775
 11
55.990448
 21
481.669218
  0
LINE
  5
77
100
AcDbEntity
  8
DD0
100
AcDbLine
 10
54.049305
 20
533.424789
 11
54.049305
 21
474.424775
  0
TEXT
  5
78
100
AcDbEntity
  8
DD0
100
AcDbText
 10
52.549304
 20
499.353933
 40
6.25
  1
５９
 50
90.000003
 41
0.666667
  7
STANDARD
100
AcDbText
  0
ENDBLK
  5
79
100
AcDbEntity
  8
DD0
100
AcDbBlockEnd
  0
BLOCK
  5
7C
100
AcDbEntity
  8
DD0
100
AcDbBlockBegin
  2
DIMS4
 70
     0
 10
0.0
 20
0.0
  0
LINE
  5
7D
100
AcDbEntity
  8
DD0
100
AcDbLine
 10
93.335131
 20
550.424758
 11
51.5493
 21
550.424758
  0
LINE
  5
7E
100
AcDbEntity
  8
DD0
100
AcDbLine
 10
96.685132
 20
533.424789
 11
51.5493
 21
533.424789
  0
LINE
  5
7F
100
AcDbEntity
  8
DD0
100
AcDbLine
 10
52.108157
 20
557.669202
 11
54.0493
 21
550.424758
  0
LINE
  5
80
100
AcDbEntity
  8
DD0
100
AcDbLine
 10
54.0493
 20
550.424758
 11
55.990443
 21
557.669202
  0
LINE
  5
81
100
AcDbEntity
  8
DD0
100
AcDbLine
 10
55.990443
 20
526.180346
 11
54.0493
 21
533.424789
  0
LINE
  5
82
100
AcDbEntity
  8
DD0
100
AcDbLine
 10
54.0493
 20
533.424789
 11
52.108157
 21
526.180346
  0
LINE
  5
83
100
AcDbEntity
  8
DD0
100
AcDbLine
 10
54.0493
 20
558.674758
 11
54.0493
 21
525.174789
  0
TEXT
  5
84
100
AcDbEntity
  8
DD0
100
AcDbText
 10
52.549299
 20
537.353925
 40
6.25
  1
１７
 50
90.000003
 41
0.666667
  7
STANDARD
100
AcDbText
  0
ENDBLK
  5
85
100
AcDbEntity
  8
DD0
100
AcDbBlockEnd
  0
BLOCK
  5
88
100
AcDbEntity
  8
DD0
100
AcDbBlockBegin
  2
DIMS5
 70
     0
 10
0.0
 20
0.0
  0
LINE
  5
89
100
AcDbEntity
  8
DD0
100
AcDbLine
 10
66.335138
 20
536.124755
 11
66.335138
 21
615.405875
  0
LINE
  5
8A
100
AcDbEntity
  8
DD0
100
AcDbLine
 10
255.135132
 20
536.124755
 11
255.135132
 21
615.405875
  0
LINE
  5
8B
100
AcDbEntity
  8
DD0
100
AcDbLine
 10
73.579582
 20
614.847018
 11
66.335138
 21
612.905875
  0
LINE
  5
8C
100
AcDbEntity
  8
DD0
100
AcDbLine
 10
66.335138
 20
612.905875
 11
73.579582
 21
610.964732
  0
LINE
  5
8D
100
AcDbEntity
  8
DD0
100
AcDbLine
 10
247.890688
 20
610.964732
 11
255.135132
 21
612.905875
  0
LINE
  5
8E
100
AcDbEntity
  8
DD0
100
AcDbLine
 10
255.135132
 20
612.905875
 11
247.890688
 21
614.847018
  0
LINE
  5
8F
100
AcDbEntity
  8
DD0
100
AcDbLine
 10
66.335138
 20
612.905875
 11
255.135132
 21
612.905875
  0
TEXT
  5
90
100
AcDbEntity
  8
DD0
100
AcDbText
 10
153.664299
 20
614.40589
 40
6.25
  1
１８９
 41
0.666667
  7
STANDARD
100
AcDbText
  0
TEXT
  5
91
100
AcDbEntity
  8
DD0
100
AcDbText
 10
108.664299
 20
604.655905
 40
6.25
  1
（補助接点サイドオンユニットを付けた場合）
 41
0.666667
  7
STANDARD
100
AcDbText
  0
ENDBLK
  5
92
100
AcDbEntity
  8
DD0
100
AcDbBlockEnd
  0
BLOCK
  5
95
100
AcDbEntity
  8
DD0
100
AcDbBlockBegin
  2
DIMS6
 70
     0
 10
0.0
 20
0.0
  0
LINE
  5
96
100
AcDbEntity
  8
DD0
100
AcDbLine
 10
333.349795
 20
553.944885
 11
333.349795
 21
592.056342
  0
LINE
  5
97
100
AcDbEntity
  8
DD0
100
AcDbLine
 10
338.349833
 20
516.024773
 11
338.349833
 21
592.056342
  0
LINE
  5
98
100
AcDbEntity
  8
DD0
100
AcDbLine
 10
326.105352
 20
587.615199
 11
333.349795
 21
589.556342
  0
LINE
  5
99
100
AcDbEntity
  8
DD0
100
AcDbLine
 10
333.349795
 20
589.556342
 11
326.105352
 21
591.497485
  0
LINE
  5
9A
100
AcDbEntity
  8
DD0
100
AcDbLine
 10
345.594277
 20
591.497485
 11
338.349833
 21
589.556342
  0
LINE
  5
9B
100
AcDbEntity
  8
DD0
100
AcDbLine
 10
338.349833
 20
589.556342
 11
345.594277
 21
587.615199
  0
LINE
  5
9C
100
AcDbEntity
  8
DD0
100
AcDbLine
 10
317.599795
 20
589.556342
 11
346.599833
 21
589.556342
  0
TEXT
  5
9D
100
AcDbEntity
  8
DD0
100
AcDbText
 10
319.803956
 20
591.056357
 40
6.25
  1
５
 41
0.666667
  7
STANDARD
100
AcDbText
  0
ENDBLK
  5
9E
100
AcDbEntity
  8
DD0
100
AcDbBlockEnd
  0
BLOCK
  5
A1
100
AcDbEntity
  8
DD0
100
AcDbBlockBegin
  2
DIMS7
 70
     0
 10
0.0
 20
0.0
  0
LINE
  5
A2
100
AcDbEntity
  8
DD0
100
AcDbLine
 10
338.349833
 20
516.024773
 11
338.349833
 21
592.056342
  0
LINE
  5
A3
100
AcDbEntity
  8
DD0
100
AcDbLine
 10
451.60538
 20
587.615199
 11
458.849824
 21
589.556342
  0
LINE
  5
A4
100
AcDbEntity
  8
DD0
100
AcDbLine
 10
458.849824
 20
589.556342
 11
451.60538
 21
591.497485
  0
LINE
  5
A5
100
AcDbEntity
  8
DD0
100
AcDbLine
 10
345.594277
 20
591.497485
 11
338.349833
 21
589.556342
  0
LINE
  5
A6
100
AcDbEntity
  8
DD0
100
AcDbLine
 10
338.349833
 20
589.556342
 11
345.594277
 21
587.615199
  0
LINE
  5
A7
100
AcDbEntity
  8
DD0
100
AcDbLine
 10
458.849824
 20
589.556342
 11
338.349833
 21
589.556342
  0
TEXT
  5
A8
100
AcDbEntity
  8
DD0
100
AcDbText
 10
391.528999
 20
591.056357
 40
6.25
  1
１２１
 41
0.666667
  7
STANDARD
100
AcDbText
  0
ENDBLK
  5
A9
100
AcDbEntity
  8
DD0
100
AcDbBlockEnd
  0
BLOCK
  5
AC
100
AcDbEntity
  8
DD0
100
AcDbBlockBegin
  2
DIMS8
 70
     0
 10
0.0
 20
0.0
  0
LINE
  5
AD
100
AcDbEntity
  8
DD0
100
AcDbLine
 10
458.849824
 20
546.524765
 11
458.849824
 21
614.180861
  0
LINE
  5
AE
100
AcDbEntity
  8
DD0
100
AcDbLine
 10
307.049804
 20
507.824776
 11
307.049804
 21
614.180861
  0
LINE
  5
AF
100
AcDbEntity
  8
DD0
100
AcDbLine
 10
451.60538
 20
609.739718
 11
458.849824
 21
611.680861
  0
LINE
  5
B0
100
AcDbEntity
  8
DD0
100
AcDbLine
 10
458.849824
 20
611.680861
 11
451.60538
 21
613.622004
  0
LINE
  5
B1
100
AcDbEntity
  8
DD0
100
AcDbLine
 10
314.294248
 20
613.622004
 11
307.049804
 21
611.680861
  0
LINE
  5
B2
100
AcDbEntity
  8
DD0
100
AcDbLine
 10
307.049804
 20
611.680861
 11
314.294248
 21
609.739718
  0
LINE
  5
B3
100
AcDbEntity
  8
DD0
100
AcDbLine
 10
458.849824
 20
611.680861
 11
307.049804
 21
611.680861
  0
TEXT
  5
B4
100
AcDbEntity
  8
DD0
100
AcDbText
 10
323.378976
 20
613.180876
 40
6.25
  1
１５２（補助接点ヘッドオンユニットを付けた場合）
 41
0.666667
  7
STANDARD
100
AcDbText
  0
ENDBLK
  5
B5
100
AcDbEntity
  8
DD0
100
AcDbBlockEnd
  0
BLOCK
  5
B8
100
AcDbEntity
  8
DD0
100
AcDbBlockBegin
  2
DIMS9
 70
     0
 10
0.0
 20
0.0
  0
LINE
  5
B9
100
AcDbEntity
  8
DD0
100
AcDbLine
 10
447.849801
 20
459.024766
 11
447.849801
 21
424.232019
  0
LINE
  5
BA
100
AcDbEntity
  8
DD0
100
AcDbLine
 10
458.849824
 20
459.274781
 11
458.849824
 21
424.232019
  0
LINE
  5
BB
100
AcDbEntity
  8
DD0
100
AcDbLine
 10
440.605357
 20
424.790876
 11
447.849801
 21
426.732019
  0
LINE
  5
BC
100
AcDbEntity
  8
DD0
100
AcDbLine
 10
447.849801
 20
426.732019
 11
440.605357
 21
428.673162
  0
LINE
  5
BD
100
AcDbEntity
  8
DD0
100
AcDbLine
 10
466.094267
 20
428.673162
 11
458.849824
 21
426.732019
  0
LINE
  5
BE
100
AcDbEntity
  8
DD0
100
AcDbLine
 10
458.849824
 20
426.732019
 11
466.094267
 21
424.790876
  0
LINE
  5
BF
100
AcDbEntity
  8
DD0
100
AcDbLine
 10
439.599801
 20
426.732019
 11
467.099824
 21
426.732019
  0
TEXT
  5
C0
100
AcDbEntity
  8
DD0
100
AcDbText
 10
448.778983
 20
428.232034
 40
6.25
  1
１１
 41
0.666667
  7
STANDARD
100
AcDbText
  0
ENDBLK
  5
C1
100
AcDbEntity
  8
DD0
100
AcDbBlockEnd
  0
BLOCK
  5
C4
100
AcDbEntity
  8
DD0
100
AcDbBlockBegin
  2
DIMS10
 70
     0
 10
0.0
 20
0.0
  0
LINE
  5
C5
100
AcDbEntity
  8
DD0
100
AcDbLine
 10
228.135125
 20
550.424758
 11
280.511947
 21
550.424758
  0
LINE
  5
C6
100
AcDbEntity
  8
DD0
100
AcDbLine
 10
242.635132
 20
461.424783
 11
280.511947
 21
461.424783
  0
LINE
  5
C7
100
AcDbEntity
  8
DD0
100
AcDbLine
 10
279.95309
 20
543.180315
 11
278.011947
 21
550.424758
  0
LINE
  5
C8
100
AcDbEntity
  8
DD0
100
AcDbLine
 10
278.011947
 20
550.424758
 11
276.070804
 21
543.180315
  0
LINE
  5
C9
100
AcDbEntity
  8
DD0
100
AcDbLine
 10
276.070804
 20
468.669226
 11
278.011947
 21
461.424783
  0
LINE
  5
CA
100
AcDbEntity
  8
DD0
100
AcDbLine
 10
278.011947
 20
461.424783
 11
279.95309
 21
468.669226
  0
LINE
  5
CB
100
AcDbEntity
  8
DD0
100
AcDbLine
 10
278.011947
 20
550.424758
 11
278.011947
 21
461.424783
  0
TEXT
  5
CC
100
AcDbEntity
  8
DD0
100
AcDbText
 10
276.511951
 20
501.353903
 40
6.25
  1
８９
 50
90.000003
 41
0.666667
  7
STANDARD
100
AcDbText
  0
ENDBLK
  5
CD
100
AcDbEntity
  8
DD0
100
AcDbBlockEnd
  0
BLOCK
  5
D0
100
AcDbEntity
  8
DD0
100
AcDbBlockBegin
  2
DIMS11
 70
     0
 10
0.0
 20
0.0
  0
LINE
  5
D1
100
AcDbEntity
  8
DD0
100
AcDbLine
 10
81.785125
 20
340.544276
 11
81.785125
 21
366.301111
  0
LINE
  5
D2
100
AcDbEntity
  8
DD0
100
AcDbLine
 10
78.335136
 20
346.446871
 11
78.335136
 21
366.301111
  0
LINE
  5
D3
100
AcDbEntity
  8
DD0
100
AcDbLine
 10
89.029568
 20
365.742254
 11
81.785125
 21
363.801112
  0
LINE
  5
D4
100
AcDbEntity
  8
DD0
100
AcDbLine
 10
81.785125
 20
363.801112
 11
89.029568
 21
361.859969
  0
LINE
  5
D5
100
AcDbEntity
  8
DD0
100
AcDbLine
 10
71.090693
 20
361.859969
 11
78.335136
 21
363.801112
  0
LINE
  5
D6
100
AcDbEntity
  8
DD0
100
AcDbLine
 10
78.335136
 20
363.801112
 11
71.090693
 21
365.742254
  0
LINE
  5
D7
100
AcDbEntity
  8
DD0
100
AcDbLine
 10
90.035124
 20
363.801112
 11
52.585136
 21
363.801112
  0
TEXT
  5
D8
100
AcDbEntity
  8
DD0
100
AcDbText
 10
54.789307
 20
365.301127
 40
6.25
  1
３．５
 41
0.666667
  7
STANDARD
100
AcDbText
  0
ENDBLK
  5
D9
100
AcDbEntity
  8
DD0
100
AcDbBlockEnd
  0
BLOCK
  5
DC
100
AcDbEntity
  8
DD0
100
AcDbBlockBegin
  2
DIMS12
 70
     0
 10
0.0
 20
0.0
  0
LINE
  5
DD
100
AcDbEntity
  8
DD0
100
AcDbLine
 10
88.382538
 20
333.946872
 11
280.511947
 21
333.946872
  0
LINE
  5
DE
100
AcDbEntity
  8
DD0
100
AcDbLine
 10
229.135128
 20
347.946887
 11
280.511947
 21
347.946887
  0
LINE
  5
DF
100
AcDbEntity
  8
DD0
100
AcDbLine
 10
279.95309
 20
326.702428
 11
278.011947
 21
333.946872
  0
LINE
  5
E0
100
AcDbEntity
  8
DD0
100
AcDbLine
 10
278.011947
 20
333.946872
 11
276.070804
 21
326.702428
  0
LINE
  5
E1
100
AcDbEntity
  8
DD0
100
AcDbLine
 10
276.070804
 20
355.19133
 11
278.011947
 21
347.946887
  0
LINE
  5
E2
100
AcDbEntity
  8
DD0
100
AcDbLine
 10
278.011947
 20
347.946887
 11
279.95309
 21
355.19133
  0
LINE
  5
E3
100
AcDbEntity
  8
DD0
100
AcDbLine
 10
278.011947
 20
325.696872
 11
278.011947
 21
368.696887
  0
TEXT
  5
E4
100
AcDbEntity
  8
DD0
100
AcDbText
 10
276.511951
 20
356.626046
 40
6.25
  1
１４
 50
90.000003
 41
0.666667
  7
STANDARD
100
AcDbText
  0
ENDBLK
  5
E5
100
AcDbEntity
  8
DD0
100
AcDbBlockEnd
  0
BLOCK
  5
E8
100
AcDbEntity
  8
DD0
100
AcDbBlockBegin
  2
DIMS13
 70
     0
 10
0.0
 20
0.0
  0
LINE
  5
E9
100
AcDbEntity
  8
DD0
100
AcDbLine
 10
88.382538
 20
333.946872
 11
280.511947
 21
333.946872
  0
LINE
  5
EA
100
AcDbEntity
  8
DD0
100
AcDbLine
 10
159.382541
 20
268.946892
 11
280.511947
 21
268.946892
  0
LINE
  5
EB
100
AcDbEntity
  8
DD0
100
AcDbLine
 10
279.95309
 20
326.702428
 11
278.011947
 21
333.946872
  0
LINE
  5
EC
100
AcDbEntity
  8
DD0
100
AcDbLine
 10
278.011947
 20
333.946872
 11
276.070804
 21
326.702428
  0
LINE
  5
ED
100
AcDbEntity
  8
DD0
100
AcDbLine
 10
276.070804
 20
276.191335
 11
278.011947
 21
268.946892
  0
LINE
  5
EE
100
AcDbEntity
  8
DD0
100
AcDbLine
 10
278.011947
 20
268.946892
 11
279.95309
 21
276.191335
  0
LINE
  5
EF
100
AcDbEntity
  8
DD0
100
AcDbLine
 10
278.011947
 20
333.946872
 11
278.011947
 21
268.946892
  0
TEXT
  5
F0
100
AcDbEntity
  8
DD0
100
AcDbText
 10
276.511951
 20
296.876043
 40
6.25
  1
６５
 50
90.000003
 41
0.666667
  7
STANDARD
100
AcDbText
  0
ENDBLK
  5
F1
100
AcDbEntity
  8
DD0
100
AcDbBlockEnd
  0
BLOCK
  5
F4
100
AcDbEntity
  8
DD0
100
AcDbBlockBegin
  2
DIMS14
 70
     0
 10
0.0
 20
0.0
  0
TEXT
  5
F5
100
AcDbEntity
  8
DD0
100
AcDbText
 10
256.658415
 20
241.182533
 40
6.25
  1
４－Ｍ４ねじ穴
 41
0.666667
  7
STANDARD
100
AcDbText
  0
LINE
  5
F6
100
AcDbEntity
  8
DD0
100
AcDbLine
 10
244.579739
 20
260.823959
 11
240.905262
 21
267.362171
  0
LINE
  5
F7
100
AcDbEntity
  8
DD0
100
AcDbLine
 10
240.905262
 20
267.362171
 11
240.818347
 21
259.862675
  0
LINE
  5
F8
100
AcDbEntity
  8
DD0
100
AcDbLine
 10
240.905262
 20
267.362171
 11
247.979237
 21
239.682537
  0
LINE
  5
F9
100
AcDbEntity
  8
DD0
100
AcDbLine
 10
247.979237
 20
239.682537
 11
299.479232
 21
239.682537
  0
ENDBLK
  5
FA
100
AcDbEntity
  8
DD0
100
AcDbBlockEnd
  0
BLOCK
  5
FD
100
AcDbEntity
  8
DD0
100
AcDbBlockBegin
  2
DIMS15
 70
     0
 10
0.0
 20
0.0
  0
LINE
  5
FE
100
AcDbEntity
  8
DD0
100
AcDbLine
 10
152.785127
 20
275.544277
 11
152.785127
 21
366.301111
  0
LINE
  5
FF
100
AcDbEntity
  8
DD0
100
AcDbLine
 10
81.785125
 20
340.544276
 11
81.785125
 21
366.301111
  0
LINE
  5
100
100
AcDbEntity
  8
DD0
100
AcDbLine
 10
145.540684
 20
361.859969
 11
152.785127
 21
363.801112
  0
LINE
  5
101
100
AcDbEntity
  8
DD0
100
AcDbLine
 10
152.785127
 20
363.801112
 11
145.540684
 21
365.742254
  0
LINE
  5
102
100
AcDbEntity
  8
DD0
100
AcDbLine
 10
89.029568
 20
365.742254
 11
81.785125
 21
363.801112
  0
LINE
  5
103
100
AcDbEntity
  8
DD0
100
AcDbLine
 10
81.785125
 20
363.801112
 11
89.029568
 21
361.859969
  0
LINE
  5
104
100
AcDbEntity
  8
DD0
100
AcDbLine
 10
152.785127
 20
363.801112
 11
81.785125
 21
363.801112
  0
TEXT
  5
105
100
AcDbEntity
  8
DD0
100
AcDbText
 10
112.714296
 20
365.301127
 40
6.25
  1
７１
 41
0.666667
  7
STANDARD
100
AcDbText
  0
ENDBLK
  5
106
100
AcDbEntity
  8
DD0
100
AcDbBlockEnd
  0
BLOCK
  5
109
100
AcDbEntity
  8
DD0
100
AcDbBlockBegin
  2
DIMS16
 70
     0
 10
0.0
 20
0.0
  0
LINE
  5
10A
100
AcDbEntity
  8
DD0
100
AcDbLine
 10
152.785127
 20
275.544277
 11
152.785127
 21
366.301111
  0
LINE
  5
10B
100
AcDbEntity
  8
DD0
100
AcDbLine
 10
168.685129
 20
340.544276
 11
168.685129
 21
366.301111
  0
LINE
  5
10C
100
AcDbEntity
  8
DD0
100
AcDbLine
 10
145.540684
 20
361.859969
 11
152.785127
 21
363.801112
  0
LINE
  5
10D
100
AcDbEntity
  8
DD0
100
AcDbLine
 10
152.785127
 20
363.801112
 11
145.540684
 21
365.742254
  0
LINE
  5
10E
100
AcDbEntity
  8
DD0
100
AcDbLine
 10
175.929572
 20
365.742254
 11
168.685129
 21
363.801112
  0
LINE
  5
10F
100
AcDbEntity
  8
DD0
100
AcDbLine
 10
168.685129
 20
363.801112
 11
175.929572
 21
361.859969
  0
LINE
  5
110
100
AcDbEntity
  8
DD0
100
AcDbLine
 10
144.535128
 20
363.801112
 11
176.935128
 21
363.801112
  0
TEXT
  5
111
100
AcDbEntity
  8
DD0
100
AcDbText
 10
156.164299
 20
365.301127
 40
6.25
  1
１６
 41
0.666667
  7
STANDARD
100
AcDbText
  0
ENDBLK
  5
112
100
AcDbEntity
  8
DD0
100
AcDbBlockEnd
  0
BLOCK
  5
115
100
AcDbEntity
  8
DD0
100
AcDbBlockBegin
  2
DIMS17
 70
     0
 10
0.0
 20
0.0
  0
LINE
  5
116
100
AcDbEntity
  8
DD0
100
AcDbLine
 10
168.685129
 20
340.544276
 11
168.685129
 21
366.301111
  0
LINE
  5
117
100
AcDbEntity
  8
DD0
100
AcDbLine
 10
239.685131
 20
275.544277
 11
239.685131
 21
366.301111
  0
LINE
  5
118
100
AcDbEntity
  8
DD0
100
AcDbLine
 10
175.929572
 20
365.742254
 11
168.685129
 21
363.801112
  0
LINE
  5
119
100
AcDbEntity
  8
DD0
100
AcDbLine
 10
168.685129
 20
363.801112
 11
175.929572
 21
361.859969
  0
LINE
  5
11A
100
AcDbEntity
  8
DD0
100
AcDbLine
 10
232.440688
 20
361.859969
 11
239.685131
 21
363.801112
  0
LINE
  5
11B
100
AcDbEntity
  8
DD0
100
AcDbLine
 10
239.685131
 20
363.801112
 11
232.440688
 21
365.742254
  0
LINE
  5
11C
100
AcDbEntity
  8
DD0
100
AcDbLine
 10
168.685129
 20
363.801112
 11
239.685131
 21
363.801112
  0
TEXT
  5
11D
100
AcDbEntity
  8
DD0
100
AcDbText
 10
199.61431
 20
365.301127
 40
6.25
  1
７１
 41
0.666667
  7
STANDARD
100
AcDbText
  0
ENDBLK
  5
11E
100
AcDbEntity
  8
DD0
100
AcDbBlockEnd
  0
ENDSEC
  0
SECTION
  2
ENTITIES
  0
INSERT
  5
56
100
AcDbEntity
  8
DD0
100
AcDbBlockReference
  2
DIMS0
 10
0.0
 20
0.0
  0
INSERT
  5
62
100
AcDbEntity
  8
DD0
100
AcDbBlockReference
  2
DIMS1
 10
0.0
 20
0.0
  0
INSERT
  5
6E
100
AcDbEntity
  8
DD0
100
AcDbBlockReference
  2
DIMS2
 10
0.0
 20
0.0
  0
INSERT
  5
7A
100
AcDbEntity
  8
DD0
100
AcDbBlockReference
  2
DIMS3
 10
0.0
 20
0.0
  0
INSERT
  5
86
100
AcDbEntity
  8
DD0
100
AcDbBlockReference
  2
DIMS4
 10
0.0
 20
0.0
  0
INSERT
  5
93
100
AcDbEntity
  8
DD0
100
AcDbBlockReference
  2
DIMS5
 10
0.0
 20
0.0
  0
INSERT
  5
9F
100
AcDbEntity
  8
DD0
100
AcDbBlockReference
  2
DIMS6
 10
0.0
 20
0.0
  0
INSERT
  5
AA
100
AcDbEntity
  8
DD0
100
AcDbBlockReference
  2
DIMS7
 10
0.0
 20
0.0
  0
INSERT
  5
B6
100
AcDbEntity
  8
DD0
100
AcDbBlockReference
  2
DIMS8
 10
0.0
 20
0.0
  0
INSERT
  5
C2
100
AcDbEntity
  8
DD0
100
AcDbBlockReference
  2
DIMS9
 10
0.0
 20
0.0
  0
INSERT
  5
CE
100
AcDbEntity
  8
DD0
100
AcDbBlockReference
  2
DIMS10
 10
0.0
 20
0.0
  0
INSERT
  5
DA
100
AcDbEntity
  8
DD0
100
AcDbBlockReference
  2
DIMS11
 10
0.0
 20
0.0
  0
INSERT
  5
E6
100
AcDbEntity
  8
DD0
100
AcDbBlockReference
  2
DIMS12
 10
0.0
 20
0.0
  0
INSERT
  5
F2
100
AcDbEntity
  8
DD0
100
AcDbBlockReference
  2
DIMS13
 10
0.0
 20
0.0
  0
INSERT
  5
FB
100
AcDbEntity
  8
DD0
100
AcDbBlockReference
  2
DIMS14
 10
0.0
 20
0.0
  0
INSERT
  5
107
100
AcDbEntity
  8
DD0
100
AcDbBlockReference
  2
DIMS15
 10
0.0
 20
0.0
  0
INSERT
  5
113
100
AcDbEntity
  8
DD0
100
AcDbBlockReference
  2
DIMS16
 10
0.0
 20
0.0
  0
INSERT
  5
11F
100
AcDbEntity
  8
DD0
100
AcDbBlockReference
  2
DIMS17
 10
0.0
 20
0.0
  0
ARC
  5
120
100
AcDbEntity
  8
M0
100
AcDbCircle
 10
91.035136
 20
462.424772
 40
1.0
100
AcDbArc
 50
180.0
 51
270.0
  0
ARC
  5
121
100
AcDbEntity
  8
M0
100
AcDbCircle
 10
117.285136
 20
544.224772
 40
2.65
100
AcDbArc
 50
350.223151
 51
369.776849
  0
ARC
  5
122
100
AcDbEntity
  8
M0
100
AcDbCircle
 10
153.935136
 20
523.024772
 40
1.0
100
AcDbArc
 50
90.0
 51
180.0
  0
ARC
  5
123
100
AcDbEntity
  8
M0
100
AcDbCircle
 10
91.735136
 20
462.424772
 40
1.0
100
AcDbArc
 50
270.0
 51
360.0
  0
ARC
  5
124
100
AcDbEntity
  8
M0
100
AcDbCircle
 10
142.835136
 20
462.424772
 40
1.0
100
AcDbArc
 50
180.0
 51
270.0
  0
LINE
  5
125
100
AcDbEntity
  8
M0
100
AcDbLine
 10
99.535135
 20
549.424771
 11
99.535135
 21
549.924772
  0
ARC
  5
126
100
AcDbEntity
  8
M0
100
AcDbCircle
 10
117.285136
 20
544.224772
 40
2.65
100
AcDbArc
 50
189.776849
 51
350.223151
  0
ARC
  5
127
100
AcDbEntity
  8
M0
100
AcDbCircle
 10
117.285136
 20
544.224772
 40
2.65
100
AcDbArc
 50
170.223151
 51
189.776849
  0
ARC
  5
128
100
AcDbEntity
  8
M0
100
AcDbCircle
 10
134.635136
 20
464.424772
 40
2.65
100
AcDbArc
 50
350.223151
 51
369.776849
  0
ARC
  5
129
100
AcDbEntity
  8
M0
100
AcDbCircle
 10
117.285136
 20
544.224772
 40
2.65
100
AcDbArc
 50
9.776849
 51
170.223151
  0
ARC
  5
12A
100
AcDbEntity
  8
M0
100
AcDbCircle
 10
130.135136
 20
541.124772
 40
0.6
100
AcDbArc
 50
187.490122
 51
324.314617
  0
ARC
  5
12B
100
AcDbEntity
  8
M0
100
AcDbCircle
 10
132.835136
 20
539.924772
 40
1.0
100
AcDbArc
 50
121.788346
 51
150.0
  0
LINE
  5
12C
100
AcDbEntity
  8
M0
100
AcDbLine
 10
123.785136
 20
490.924772
 11
125.785136
 21
490.924772
  0
LINE
  5
12D
100
AcDbEntity
  8
M0
100
AcDbLine
 10
111.285136
 20
489.424773
 11
111.285136
 21
490.424772
  0
LINE
  5
12E
100
AcDbEntity
  8
M0
100
AcDbLine
 10
108.285136
 20
490.424772
 11
108.285136
 21
489.424773
  0
LINE
  5
12F
100
AcDbEntity
  8
M0
100
AcDbLine
 10
108.785135
 20
488.924773
 11
110.785135
 21
488.924773
  0
LINE
  5
130
100
AcDbEntity
  8
M0
100
AcDbLine
 10
125.785136
 20
488.924773
 11
123.785136
 21
488.924773
  0
LINE
  5
131
100
AcDbEntity
  8
M0
100
AcDbLine
 10
120.285136
 20
516.124772
 11
120.285136
 21
517.724772
  0
LINE
  5
132
100
AcDbEntity
  8
M0
100
AcDbLine
 10
135.035136
 20
549.424771
 11
135.035136
 21
549.924772
  0
LINE
  5
133
100
AcDbEntity
  8
M0
100
AcDbLine
 10
96.835136
 20
541.924771
 11
97.335135
 21
541.924771
  0
LINE
  5
134
100
AcDbEntity
  8
M0
100
AcDbLine
 10
126.285135
 20
490.424772
 11
126.285135
 21
489.424773
  0
LINE
  5
135
100
AcDbEntity
  8
M0
100
AcDbLine
 10
91.035136
 20
526.624773
 11
143.535135
 21
526.624773
  0
LINE
  5
136
100
AcDbEntity
  8
M0
100
AcDbLine
 10
122.185136
 20
514.124773
 11
122.185136
 21
513.624773
  0
LINE
  5
137
100
AcDbEntity
  8
M0
100
AcDbLine
 10
81.785134
 20
487.274772
 11
81.785134
 21
493.774772
  0
LINE
  5
138
100
AcDbEntity
  8
M0
100
AcDbLine
 10
116.835136
 20
543.774773
 11
116.835136
 21
543.024771
  0
LINE
  5
139
100
AcDbEntity
  8
M0
100
AcDbLine
 10
118.872586
 20
543.774773
 11
117.735136
 21
543.774773
  0
CIRCLE
  5
13A
100
AcDbEntity
  8
M0
100
AcDbCircle
 10
134.635136
 20
464.424772
 40
2.825
  0
ARC
  5
13B
100
AcDbEntity
  8
M0
100
AcDbCircle
 10
112.485136
 20
499.224772
 40
0.5
100
AcDbArc
 50
180.0
 51
270.0
  0
ARC
  5
13C
100
AcDbEntity
  8
M0
100
AcDbCircle
 10
112.485136
 20
508.624772
 40
0.5
100
AcDbArc
 50
90.0
 51
180.0
  0
ARC
  5
13D
100
AcDbEntity
  8
M0
100
AcDbCircle
 10
118.535136
 20
501.224772
 40
0.5
100
AcDbArc
 50
270.0
 51
360.0
  0
LINE
  5
13E
100
AcDbEntity
  8
M0
100
AcDbLine
 10
136.735135
 20
548.924774
 11
129.435135
 21
548.924774
  0
LINE
  5
13F
100
AcDbEntity
  8
M0
100
AcDbLine
 10
116.835136
 20
545.424771
 11
116.835136
 21
544.674773
  0
LINE
  5
140
100
AcDbEntity
  8
M0
100
AcDbLine
 10
116.835136
 20
543.774773
 11
115.697685
 21
543.774773
  0
LINE
  5
141
100
AcDbEntity
  8
M0
100
AcDbLine
 10
97.835136
 20
548.924774
 11
97.335135
 21
548.424773
  0
LINE
  5
142
100
AcDbEntity
  8
M0
100
AcDbLine
 10
111.235136
 20
514.924772
 11
109.085136
 21
514.924772
  0
LINE
  5
143
100
AcDbEntity
  8
M0
100
AcDbLine
 10
97.335135
 20
548.424773
 11
97.335135
 21
540.424772
  0
ARC
  5
144
100
AcDbEntity
  8
M0
100
AcDbCircle
 10
122.085136
 20
508.624772
 40
0.5
100
AcDbArc
 50
0.0
 51
90.0
  0
ARC
  5
145
100
AcDbEntity
  8
M0
100
AcDbCircle
 10
117.285135
 20
544.174772
 40
4.25
100
AcDbArc
 50
241.927521
 51
298.072495
  0
ARC
  5
146
100
AcDbEntity
  8
M0
100
AcDbCircle
 10
117.285135
 20
544.174772
 40
4.25
100
AcDbArc
 50
241.927521
 51
270.0
  0
ARC
  5
147
100
AcDbEntity
  8
M0
100
AcDbCircle
 10
104.435136
 20
541.124772
 40
0.6
100
AcDbArc
 50
215.685335
 51
270.0
  0
ARC
  5
148
100
AcDbEntity
  8
M0
100
AcDbCircle
 10
134.885136
 20
463.674772
 40
4.25
100
AcDbArc
 50
61.927513
 51
118.072487
  0
ARC
  5
149
100
AcDbEntity
  8
M0
100
AcDbCircle
 10
132.835136
 20
539.924772
 40
1.0
100
AcDbArc
 50
30.0
 51
58.211672
  0
ARC
  5
14A
100
AcDbEntity
  8
M0
100
AcDbCircle
 10
117.285136
 20
463.674772
 40
4.25
100
AcDbArc
 50
61.927513
 51
118.072487
  0
ARC
  5
14B
100
AcDbEntity
  8
M0
100
AcDbCircle
 10
134.885135
 20
544.174772
 40
4.25
100
AcDbArc
 50
241.927521
 51
298.072495
  0
ARC
  5
14C
100
AcDbEntity
  8
M0
100
AcDbCircle
 10
99.685136
 20
463.674772
 40
4.25
100
AcDbArc
 50
61.927513
 51
118.072487
  0
ARC
  5
14D
100
AcDbEntity
  8
M0
100
AcDbCircle
 10
122.085136
 20
499.224772
 40
0.5
100
AcDbArc
 50
270.0
 51
360.0
  0
ARC
  5
14E
100
AcDbEntity
  8
M0
100
AcDbCircle
 10
134.885135
 20
544.174772
 40
4.25
100
AcDbArc
 50
241.927521
 51
270.0
  0
ARC
  5
14F
100
AcDbEntity
  8
M0
100
AcDbCircle
 10
152.285136
 20
479.674773
 40
0.5
100
AcDbArc
 50
270.0
 51
360.0
  0
ARC
  5
150
100
AcDbEntity
  8
M0
100
AcDbCircle
 10
152.285135
 20
486.174773
 40
0.5
100
AcDbArc
 50
0.0
 51
90.0
  0
ARC
  5
151
100
AcDbEntity
  8
M0
100
AcDbCircle
 10
145.785136
 20
514.074772
 40
0.5
100
AcDbArc
 50
180.0
 51
270.0
  0
ARC
  5
152
100
AcDbEntity
  8
M0
100
AcDbCircle
 10
145.785135
 20
486.174772
 40
0.5
100
AcDbArc
 50
90.0
 51
180.0
  0
ARC
  5
153
100
AcDbEntity
  8
M0
100
AcDbCircle
 10
152.285136
 20
514.074772
 40
0.5
100
AcDbArc
 50
270.0
 51
360.0
  0
ARC
  5
154
100
AcDbEntity
  8
M0
100
AcDbCircle
 10
152.285136
 20
520.574772
 40
0.5
100
AcDbArc
 50
0.0
 51
90.0
  0
ARC
  5
155
100
AcDbEntity
  8
M0
100
AcDbCircle
 10
123.185136
 20
514.124772
 40
1.0
100
AcDbArc
 50
90.0
 51
180.0
  0
ARC
  5
156
100
AcDbEntity
  8
M0
100
AcDbCircle
 10
144.035136
 20
511.624772
 40
0.5
100
AcDbArc
 50
270.0
 51
360.0
  0
ARC
  5
157
100
AcDbEntity
  8
M0
100
AcDbCircle
 10
99.685135
 20
544.174772
 40
4.25
100
AcDbArc
 50
241.927521
 51
270.0
  0
ARC
  5
158
100
AcDbEntity
  8
M0
100
AcDbCircle
 10
99.685135
 20
544.174772
 40
4.25
100
AcDbArc
 50
241.927521
 51
298.072495
  0
ARC
  5
159
100
AcDbEntity
  8
M0
100
AcDbCircle
 10
111.385136
 20
514.124772
 40
1.0
100
AcDbArc
 50
0.0
 51
90.0
  0
ARC
  5
15A
100
AcDbEntity
  8
M0
100
AcDbCircle
 10
91.035136
 20
525.624772
 40
1.0
100
AcDbArc
 50
90.0
 51
180.0
  0
ARC
  5
15B
100
AcDbEntity
  8
M0
100
AcDbCircle
 10
82.285136
 20
493.774772
 40
0.5
100
AcDbArc
 50
90.0
 51
180.0
  0
ARC
  5
15C
100
AcDbEntity
  8
M0
100
AcDbCircle
 10
88.785136
 20
487.274772
 40
0.5
100
AcDbArc
 50
270.0
 51
360.0
  0
ARC
  5
15D
100
AcDbEntity
  8
M0
100
AcDbCircle
 10
82.285135
 20
520.574772
 40
0.5
100
AcDbArc
 50
90.0
 51
180.0
  0
ARC
  5
15E
100
AcDbEntity
  8
M0
100
AcDbCircle
 10
82.285136
 20
514.074772
 40
0.5
100
AcDbArc
 50
180.0
 51
270.0
  0
ARC
  5
15F
100
AcDbEntity
  8
M0
100
AcDbCircle
 10
82.285136
 20
514.074772
 40
0.5
100
AcDbArc
 50
180.0
 51
270.0
  0
ARC
  5
160
100
AcDbEntity
  8
M0
100
AcDbCircle
 10
88.785136
 20
514.074773
 40
0.5
100
AcDbArc
 50
270.0
 51
360.0
  0
ARC
  5
161
100
AcDbEntity
  8
M0
100
AcDbCircle
 10
82.285136
 20
487.274772
 40
0.5
100
AcDbArc
 50
180.0
 51
270.0
  0
ARC
  5
162
100
AcDbEntity
  8
M0
100
AcDbCircle
 10
145.785136
 20
520.574772
 40
0.5
100
AcDbArc
 50
90.0
 51
180.0
  0
ARC
  5
163
100
AcDbEntity
  8
M0
100
AcDbCircle
 10
112.485136
 20
508.193726
 40
0.5
100
AcDbArc
 50
90.0
 51
180.0
  0
ARC
  5
164
100
AcDbEntity
  8
M0
100
AcDbCircle
 10
88.785135
 20
520.574773
 40
0.5
100
AcDbArc
 50
0.0
 51
90.0
  0
ARC
  5
165
100
AcDbEntity
  8
M0
100
AcDbCircle
 10
122.085135
 20
508.193726
 40
0.5
100
AcDbArc
 50
0.0
 51
90.0
  0
ARC
  5
166
100
AcDbEntity
  8
M0
100
AcDbCircle
 10
88.785136
 20
493.774772
 40
0.5
100
AcDbArc
 50
0.0
 51
90.0
  0
LINE
  5
167
100
AcDbEntity
  8
M0
100
AcDbLine
 10
125.685135
 20
515.124772
 11
123.185136
 21
515.124772
  0
LINE
  5
168
100
AcDbEntity
  8
M0
100
AcDbLine
 10
126.685135
 20
493.724772
 11
126.685135
 21
514.124773
  0
LINE
  5
169
100
AcDbEntity
  8
M0
100
AcDbLine
 10
88.785136
 20
486.774773
 11
82.285135
 21
486.774773
  0
LINE
  5
16A
100
AcDbEntity
  8
M0
100
AcDbLine
 10
152.285136
 20
513.574773
 11
145.785136
 21
513.574773
  0
LINE
  5
16B
100
AcDbEntity
  8
M0
100
AcDbLine
 10
145.785136
 20
521.074772
 11
152.285136
 21
521.074772
  0
LINE
  5
16C
100
AcDbEntity
  8
M0
100
AcDbLine
 10
152.785137
 20
520.574772
 11
152.785137
 21
514.074773
  0
LINE
  5
16D
100
AcDbEntity
  8
M0
100
AcDbLine
 10
120.285136
 20
517.724772
 11
114.285136
 21
517.724772
  0
ARC
  5
16E
100
AcDbEntity
  8
M0
100
AcDbCircle
 10
116.035136
 20
501.224772
 40
0.5
100
AcDbArc
 50
180.0
 51
270.0
  0
LINE
  5
16F
100
AcDbEntity
  8
M0
100
AcDbLine
 10
114.285136
 20
516.124772
 11
114.285136
 21
517.724772
  0
LINE
  5
170
100
AcDbEntity
  8
M0
100
AcDbLine
 10
107.885136
 20
493.724772
 11
107.885136
 21
514.124773
  0
LINE
  5
171
100
AcDbEntity
  8
M0
100
AcDbLine
 10
114.285136
 20
516.124772
 11
120.285136
 21
516.124772
  0
LINE
  5
172
100
AcDbEntity
  8
M0
100
AcDbLine
 10
108.885136
 20
492.724773
 11
125.685135
 21
492.724773
  0
LINE
  5
173
100
AcDbEntity
  8
M0
100
AcDbLine
 10
82.285136
 20
494.274772
 11
88.785136
 21
494.274772
  0
LINE
  5
174
100
AcDbEntity
  8
M0
100
AcDbLine
 10
152.285136
 20
486.774773
 11
145.785136
 21
486.774773
  0
LINE
  5
175
100
AcDbEntity
  8
M0
100
AcDbLine
 10
152.785137
 20
487.274774
 11
152.785137
 21
493.774773
  0
LINE
  5
176
100
AcDbEntity
  8
M0
100
AcDbLine
 10
88.785136
 20
479.174772
 11
82.285136
 21
479.174772
  0
LINE
  5
177
100
AcDbEntity
  8
M0
100
AcDbLine
 10
145.785136
 20
494.274772
 11
152.285135
 21
494.274772
  0
ARC
  5
178
100
AcDbEntity
  8
M0
100
AcDbCircle
 10
90.535136
 20
511.624772
 40
0.5
100
AcDbArc
 50
180.0
 51
270.0
  0
LINE
  5
179
100
AcDbEntity
  8
M0
  6
DASHDOT
100
AcDbLine
 10
257.135129
 20
503.924772
 11
64.335139
 21
503.924772
  0
LINE
  5
17A
100
AcDbEntity
  8
M0
100
AcDbLine
 10
145.285136
 20
514.074772
 11
145.285136
 21
520.574773
  0
LINE
  5
17B
100
AcDbEntity
  8
M0
  6
DASHDOT
100
AcDbLine
 10
117.285136
 20
456.424772
 11
117.285136
 21
555.424773
  0
LINE
  5
17C
100
AcDbEntity
  8
M0
100
AcDbLine
 10
82.285135
 20
521.074772
 11
88.785136
 21
521.074772
  0
LINE
  5
17D
100
AcDbEntity
  8
M0
100
AcDbLine
 10
88.785136
 20
513.574773
 11
82.285136
 21
513.574773
  0
LINE
  5
17E
100
AcDbEntity
  8
M0
100
AcDbLine
 10
136.485136
 20
540.77477
 11
129.985136
 21
540.77477
  0
LINE
  5
17F
100
AcDbEntity
  8
M0
100
AcDbLine
 10
80.635137
 20
483.824773
 11
80.535136
 21
483.824773
  0
LINE
  5
180
100
AcDbEntity
  8
M0
100
AcDbLine
 10
81.785134
 20
528.174771
 11
81.785134
 21
521.674772
  0
LINE
  5
181
100
AcDbEntity
  8
M0
100
AcDbLine
 10
136.985136
 20
541.274771
 11
136.985136
 21
547.774773
  0
LINE
  5
182
100
AcDbEntity
  8
M0
100
AcDbLine
 10
89.285137
 20
528.174773
 11
89.285137
 21
521.674773
  0
LINE
  5
183
100
AcDbEntity
  8
M0
100
AcDbLine
 10
129.985135
 20
548.274774
 11
136.485135
 21
548.274774
  0
LINE
  5
184
100
AcDbEntity
  8
M0
100
AcDbLine
 10
141.835136
 20
462.424774
 11
141.835136
 21
464.42477
  0
LINE
  5
185
100
AcDbEntity
  8
M0
100
AcDbLine
 10
129.485136
 20
541.274771
 11
129.485133
 21
547.774772
  0
LINE
  5
186
100
AcDbEntity
  8
M0
100
AcDbLine
 10
106.635136
 20
464.42477
 11
106.635136
 21
462.424774
  0
LINE
  5
187
100
AcDbEntity
  8
M0
100
AcDbLine
 10
154.035136
 20
524.024772
 11
153.935134
 21
524.024772
  0
LINE
  5
188
100
AcDbEntity
  8
M0
100
AcDbLine
 10
153.935134
 20
483.824773
 11
154.035136
 21
483.824773
  0
LINE
  5
189
100
AcDbEntity
  8
M0
100
AcDbLine
 10
80.535136
 20
524.024772
 11
80.635137
 21
524.024772
  0
ARC
  5
18A
100
AcDbEntity
  8
M0
100
AcDbCircle
 10
152.285136
 20
487.274773
 40
0.5
100
AcDbArc
 50
270.0
 51
360.0
  0
ARC
  5
18B
100
AcDbEntity
  8
M0
100
AcDbCircle
 10
152.285136
 20
487.274773
 40
0.5
100
AcDbArc
 50
270.0
 51
360.0
  0
ARC
  5
18C
100
AcDbEntity
  8
M0
100
AcDbCircle
 10
89.385136
 20
464.924772
 40
0.5
100
AcDbArc
 50
180.0
 51
270.0
  0
ARC
  5
18D
100
AcDbEntity
  8
M0
100
AcDbCircle
 10
88.835136
 20
543.424772
 40
2.0
100
AcDbArc
 50
53.130102
 51
90.0
  0
ARC
  5
18E
100
AcDbEntity
  8
M0
100
AcDbCircle
 10
145.735136
 20
543.424772
 40
2.0
100
AcDbArc
 50
90.0
 51
126.869898
  0
ARC
  5
18F
100
AcDbEntity
  8
M0
100
AcDbCircle
 10
82.285136
 20
479.674772
 40
0.5
100
AcDbArc
 50
180.0
 51
270.0
  0
CIRCLE
  5
190
100
AcDbEntity
  8
M0
100
AcDbCircle
 10
99.935136
 20
464.424772
 40
2.85
  0
CIRCLE
  5
191
100
AcDbEntity
  8
M0
100
AcDbCircle
 10
99.935136
 20
464.424772
 40
2.825
  0
ARC
  5
192
100
AcDbEntity
  8
M0
100
AcDbCircle
 10
82.285135
 20
520.574772
 40
0.5
100
AcDbArc
 50
90.0
 51
180.0
  0
ARC
  5
193
100
AcDbEntity
  8
M0
100
AcDbCircle
 10
145.785135
 20
493.774772
 40
0.5
100
AcDbArc
 50
90.0
 51
180.0
  0
ARC
  5
194
100
AcDbEntity
  8
M0
100
AcDbCircle
 10
145.785136
 20
487.274772
 40
0.5
100
AcDbArc
 50
180.0
 51
270.0
  0
ARC
  5
195
100
AcDbEntity
  8
M0
100
AcDbCircle
 10
152.285135
 20
493.774773
 40
0.5
100
AcDbArc
 50
0.0
 51
90.0
  0
LINE
  5
196
100
AcDbEntity
  8
M0
100
AcDbLine
 10
81.785134
 20
520.574771
 11
81.785134
 21
514.074772
  0
ARC
  5
197
100
AcDbEntity
  8
M0
100
AcDbCircle
 10
153.935136
 20
477.574772
 40
1.0
100
AcDbArc
 50
180.0
 51
270.0
  0
LINE
  5
198
100
AcDbEntity
  8
M0
100
AcDbLine
 10
152.785137
 20
486.174773
 11
152.785137
 21
479.674773
  0
LINE
  5
199
100
AcDbEntity
  8
M0
100
AcDbLine
 10
145.785135
 20
486.674773
 11
152.285136
 21
486.674773
  0
LINE
  5
19A
100
AcDbEntity
  8
M0
100
AcDbLine
 10
145.285136
 20
479.674772
 11
145.285136
 21
486.174772
  0
LINE
  5
19B
100
AcDbEntity
  8
M0
100
AcDbLine
 10
152.285136
 20
479.174772
 11
145.785136
 21
479.174772
  0
ARC
  5
19C
100
AcDbEntity
  8
M0
100
AcDbCircle
 10
94.332003
 20
515.774029
 40
5.573176
100
AcDbArc
 50
208.520126
 51
219.557059
  0
ARC
  5
19D
100
AcDbEntity
  8
M0
100
AcDbCircle
 10
140.238268
 20
515.774029
 40
5.573176
100
AcDbArc
 50
320.442941
 51
331.479874
  0
ARC
  5
19E
100
AcDbEntity
  8
M0
100
AcDbCircle
 10
90.035136
 20
523.424772
 40
0.6
100
AcDbArc
 50
90.0
 51
180.0
  0
ARC
  5
19F
100
AcDbEntity
  8
M0
100
AcDbCircle
 10
79.835136
 20
530.274772
 40
1.0
100
AcDbArc
 50
90.0
 51
180.0
  0
ARC
  5
1A0
100
AcDbEntity
  8
M0
100
AcDbCircle
 10
144.535136
 20
523.424772
 40
0.6
100
AcDbArc
 50
0.0
 51
90.0
  0
ARC
  5
1A1
100
AcDbEntity
  8
M0
100
AcDbCircle
 10
80.635136
 20
530.274772
 40
1.0
100
AcDbArc
 50
0.0
 51
90.0
  0
LINE
  5
1A2
100
AcDbEntity
  8
M0
100
AcDbLine
 10
105.085136
 20
547.774772
 11
105.085136
 21
541.274771
  0
LINE
  5
1A3
100
AcDbEntity
  8
M0
100
AcDbLine
 10
89.285135
 20
486.174772
 11
89.285135
 21
479.674772
  0
LINE
  5
1A4
100
AcDbEntity
  8
M0
100
AcDbLine
 10
145.785136
 20
528.674772
 11
152.285136
 21
528.674772
  0
LINE
  5
1A5
100
AcDbEntity
  8
M0
100
AcDbLine
 10
152.285136
 20
521.174772
 11
145.785136
 21
521.174772
  0
LINE
  5
1A6
100
AcDbEntity
  8
M0
100
AcDbLine
 10
145.285136
 20
521.674773
 11
145.285136
 21
528.174772
  0
LINE
  5
1A7
100
AcDbEntity
  8
M0
100
AcDbLine
 10
98.085136
 20
548.274771
 11
104.585136
 21
548.274771
  0
LINE
  5
1A8
100
AcDbEntity
  8
M0
100
AcDbLine
 10
82.285135
 20
486.674773
 11
88.785136
 21
486.674773
  0
LINE
  5
1A9
100
AcDbEntity
  8
M0
100
AcDbLine
 10
145.285136
 20
487.274772
 11
145.285136
 21
493.774772
  0
LINE
  5
1AA
100
AcDbEntity
  8
M0
100
AcDbLine
 10
97.585136
 20
541.274771
 11
97.585136
 21
547.774772
  0
LINE
  5
1AB
100
AcDbEntity
  8
M0
100
AcDbLine
 10
152.785137
 20
528.174773
 11
152.785137
 21
521.674772
  0
LINE
  5
1AC
100
AcDbEntity
  8
M0
100
AcDbLine
 10
104.585136
 20
540.774774
 11
98.085136
 21
540.774774
  0
LINE
  5
1AD
100
AcDbEntity
  8
M0
100
AcDbLine
 10
115.697685
 20
544.674773
 11
114.673623
 21
544.674773
  0
LINE
  5
1AE
100
AcDbEntity
  8
M0
100
AcDbLine
 10
134.185135
 20
463.974774
 11
134.185135
 21
463.224773
  0
LINE
  5
1AF
100
AcDbEntity
  8
M0
100
AcDbLine
 10
134.185135
 20
465.624772
 11
134.185135
 21
464.874771
  0
LINE
  5
1B0
100
AcDbEntity
  8
M0
100
AcDbLine
 10
114.673623
 20
543.774773
 11
115.697685
 21
543.774773
  0
LINE
  5
1B1
100
AcDbEntity
  8
M0
100
AcDbLine
 10
135.085135
 20
463.224773
 11
135.085135
 21
463.974774
  0
LINE
  5
1B2
100
AcDbEntity
  8
M0
100
AcDbLine
 10
135.085135
 20
465.624772
 11
134.185135
 21
465.624772
  0
LINE
  5
1B3
100
AcDbEntity
  8
M0
100
AcDbLine
 10
122.085136
 20
498.724772
 11
122.835136
 21
498.724772
  0
LINE
  5
1B4
100
AcDbEntity
  8
M0
100
AcDbLine
 10
92.735135
 20
467.424773
 11
97.685135
 21
467.424773
  0
LINE
  5
1B5
100
AcDbEntity
  8
M0
100
AcDbLine
 10
137.235136
 20
548.424773
 11
136.735135
 21
548.924774
  0
LINE
  5
1B6
100
AcDbEntity
  8
M0
100
AcDbLine
 10
145.135136
 20
486.724772
 11
152.935136
 21
486.724772
  0
LINE
  5
1B7
100
AcDbEntity
  8
M0
100
AcDbLine
 10
137.235136
 20
540.424772
 11
137.235136
 21
548.424773
  0
LINE
  5
1B8
100
AcDbEntity
  8
M0
100
AcDbLine
 10
135.085135
 20
464.874771
 11
136.222586
 21
464.874771
  0
LINE
  5
1B9
100
AcDbEntity
  8
M0
100
AcDbLine
 10
105.135136
 20
548.924774
 11
96.835136
 21
548.924774
  0
LINE
  5
1BA
100
AcDbEntity
  8
M0
100
AcDbLine
 10
117.735136
 20
545.424771
 11
116.835136
 21
545.424771
  0
LINE
  5
1BB
100
AcDbEntity
  8
M0
100
AcDbLine
 10
116.835136
 20
543.024771
 11
117.735136
 21
543.024771
  0
LINE
  5
1BC
100
AcDbEntity
  8
M0
100
AcDbLine
 10
117.735136
 20
544.674773
 11
118.872586
 21
544.674773
  0
LINE
  5
1BD
100
AcDbEntity
  8
M0
100
AcDbLine
 10
115.697685
 20
544.674773
 11
116.835136
 21
544.674773
  0
LINE
  5
1BE
100
AcDbEntity
  8
M0
100
AcDbLine
 10
89.285135
 20
493.774772
 11
89.285135
 21
487.274772
  0
LINE
  5
1BF
100
AcDbEntity
  8
M0
100
AcDbLine
 10
118.872586
 20
543.774773
 11
119.896649
 21
543.774773
  0
LINE
  5
1C0
100
AcDbEntity
  8
M0
100
AcDbLine
 10
119.896649
 20
544.674773
 11
118.872586
 21
544.674773
  0
LINE
  5
1C1
100
AcDbEntity
  8
M0
100
AcDbLine
 10
136.222586
 20
463.974774
 11
135.085135
 21
463.974774
  0
LINE
  5
1C2
100
AcDbEntity
  8
M0
100
AcDbLine
 10
134.185135
 20
463.974774
 11
133.047685
 21
463.974774
  0
LINE
  5
1C3
100
AcDbEntity
  8
M0
100
AcDbLine
 10
117.735136
 20
544.674773
 11
117.735136
 21
545.424771
  0
LINE
  5
1C4
100
AcDbEntity
  8
M0
100
AcDbLine
 10
117.735136
 20
543.024771
 11
117.735136
 21
543.774773
  0
ARC
  5
1C5
100
AcDbEntity
  8
M0
100
AcDbCircle
 10
152.285135
 20
486.174773
 40
0.5
100
AcDbArc
 50
0.0
 51
90.0
  0
ARC
  5
1C6
100
AcDbEntity
  8
M0
100
AcDbCircle
 10
145.785136
 20
479.674772
 40
0.5
100
AcDbArc
 50
180.0
 51
270.0
  0
ARC
  5
1C7
100
AcDbEntity
  8
M0
100
AcDbCircle
 10
143.535136
 20
545.424772
 40
1.0
100
AcDbArc
 50
0.0
 51
90.0
  0
ARC
  5
1C8
100
AcDbEntity
  8
M0
100
AcDbCircle
 10
152.285136
 20
479.674773
 40
0.5
100
AcDbArc
 50
270.0
 51
360.0
  0
ARC
  5
1C9
100
AcDbEntity
  8
M0
100
AcDbCircle
 10
88.785136
 20
486.174772
 40
0.5
100
AcDbArc
 50
0.0
 51
90.0
  0
ARC
  5
1CA
100
AcDbEntity
  8
M0
100
AcDbCircle
 10
99.935136
 20
464.424772
 40
2.65
100
AcDbArc
 50
189.776849
 51
350.223151
  0
ARC
  5
1CB
100
AcDbEntity
  8
M0
100
AcDbCircle
 10
88.785136
 20
479.674772
 40
0.5
100
AcDbArc
 50
270.0
 51
360.0
  0
LINE
  5
1CC
100
AcDbEntity
  8
M0
100
AcDbLine
 10
81.785134
 20
479.674772
 11
81.785134
 21
486.174772
  0
ARC
  5
1CD
100
AcDbEntity
  8
M0
100
AcDbCircle
 10
98.085136
 20
541.274772
 40
0.5
100
AcDbArc
 50
180.0
 51
270.0
  0
ARC
  5
1CE
100
AcDbEntity
  8
M0
100
AcDbCircle
 10
82.285136
 20
486.174772
 40
0.5
100
AcDbArc
 50
90.0
 51
180.0
  0
ARC
  5
1CF
100
AcDbEntity
  8
M0
100
AcDbCircle
 10
104.585136
 20
541.274772
 40
0.5
100
AcDbArc
 50
270.0
 51
360.0
  0
ARC
  5
1D0
100
AcDbEntity
  8
M0
100
AcDbCircle
 10
104.585136
 20
547.774772
 40
0.5
100
AcDbArc
 50
0.0
 51
90.0
  0
ARC
  5
1D1
100
AcDbEntity
  8
M0
100
AcDbCircle
 10
88.785135
 20
528.174773
 40
0.5
100
AcDbArc
 50
0.0
 51
90.0
  0
ARC
  5
1D2
100
AcDbEntity
  8
M0
100
AcDbCircle
 10
88.785136
 20
521.674773
 40
0.5
100
AcDbArc
 50
270.0
 51
360.0
  0
LINE
  5
1D3
100
AcDbEntity
  8
M0
100
AcDbLine
 10
141.835136
 20
540.424772
 11
136.885136
 21
540.424772
  0
LINE
  5
1D4
100
AcDbEntity
  8
M0
100
AcDbLine
 10
110.335136
 20
467.424773
 11
115.285136
 21
467.424773
  0
LINE
  5
1D5
100
AcDbEntity
  8
M0
100
AcDbLine
 10
127.935135
 20
467.424773
 11
132.885135
 21
467.424773
  0
LINE
  5
1D6
100
AcDbEntity
  8
M0
100
AcDbLine
 10
113.135136
 20
498.224772
 11
113.135136
 21
498.724772
  0
ARC
  5
1D7
100
AcDbEntity
  8
M0
100
AcDbCircle
 10
82.285136
 20
521.674772
 40
0.5
100
AcDbArc
 50
180.0
 51
270.0
  0
ARC
  5
1D8
100
AcDbEntity
  8
M0
100
AcDbCircle
 10
129.985135
 20
547.774772
 40
0.5
100
AcDbArc
 50
90.0
 51
180.0
  0
ARC
  5
1D9
100
AcDbEntity
  8
M0
100
AcDbCircle
 10
129.985136
 20
541.274772
 40
0.5
100
AcDbArc
 50
180.0
 51
270.0
  0
ARC
  5
1DA
100
AcDbEntity
  8
M0
100
AcDbCircle
 10
82.285135
 20
528.174772
 40
0.5
100
AcDbArc
 50
90.0
 51
180.0
  0
ARC
  5
1DB
100
AcDbEntity
  8
M0
100
AcDbCircle
 10
136.485136
 20
541.274773
 40
0.5
100
AcDbArc
 50
270.0
 51
360.0
  0
ARC
  5
1DC
100
AcDbEntity
  8
M0
100
AcDbCircle
 10
136.485135
 20
547.774773
 40
0.5
100
AcDbArc
 50
0.0
 51
90.0
  0
LINE
  5
1DD
100
AcDbEntity
  8
M0
100
AcDbLine
 10
82.535136
 20
528.724773
 11
81.635136
 21
528.724773
  0
LINE
  5
1DE
100
AcDbEntity
  8
M0
100
AcDbLine
 10
106.835136
 20
546.024773
 11
106.835136
 21
548.224773
  0
LINE
  5
1DF
100
AcDbEntity
  8
M0
100
AcDbLine
 10
152.035135
 20
528.724773
 11
152.935136
 21
528.724773
  0
LINE
  5
1E0
100
AcDbEntity
  8
M0
100
AcDbLine
 10
115.285136
 20
467.424773
 11
119.285136
 21
467.424773
  0
LINE
  5
1E1
100
AcDbEntity
  8
M0
100
AcDbLine
 10
132.885134
 20
540.424772
 11
139.335136
 21
540.424772
  0
LINE
  5
1E2
100
AcDbEntity
  8
M0
100
AcDbLine
 10
145.135136
 20
528.724773
 11
146.035136
 21
528.724773
  0
ARC
  5
1E3
100
AcDbEntity
  8
M0
100
AcDbCircle
 10
89.035136
 20
498.724772
 40
1.0
100
AcDbArc
 50
180.0
 51
270.0
  0
ARC
  5
1E4
100
AcDbEntity
  8
M0
100
AcDbCircle
 10
85.834645
 20
536.374772
 40
0.3
100
AcDbArc
 50
90.0
 51
178.876481
  0
ARC
  5
1E5
100
AcDbEntity
  8
M0
100
AcDbCircle
 10
107.135136
 20
528.824772
 40
0.5
100
AcDbArc
 50
180.0
 51
270.0
  0
ARC
  5
1E6
100
AcDbEntity
  8
M0
100
AcDbCircle
 10
134.635136
 20
464.424772
 40
3.5
100
AcDbArc
 50
121.002719
 51
180.0
  0
ARC
  5
1E7
100
AcDbEntity
  8
M0
100
AcDbCircle
 10
124.735136
 20
479.024772
 40
0.5
100
AcDbArc
 50
90.0
 51
180.0
  0
LINE
  5
1E8
100
AcDbEntity
  8
M0
100
AcDbLine
 10
154.035136
 20
531.274771
 11
153.935134
 21
531.274771
  0
LINE
  5
1E9
100
AcDbEntity
  8
M0
100
AcDbLine
 10
106.185136
 20
462.424774
 11
106.185136
 21
467.424773
  0
LINE
  5
1EA
100
AcDbEntity
  8
M0
100
AcDbLine
 10
93.685135
 20
462.424774
 11
93.685135
 21
467.424773
  0
LINE
  5
1EB
100
AcDbEntity
  8
M0
100
AcDbLine
 10
128.385135
 20
462.424774
 11
128.385135
 21
467.424773
  0
LINE
  5
1EC
100
AcDbEntity
  8
M0
100
AcDbLine
 10
107.335136
 20
548.724771
 11
127.235135
 21
548.724771
  0
LINE
  5
1ED
100
AcDbEntity
  8
M0
100
AcDbLine
 10
80.535136
 20
476.574773
 11
80.635137
 21
476.574773
  0
LINE
  5
1EE
100
AcDbEntity
  8
M0
100
AcDbLine
 10
140.885137
 20
467.424773
 11
140.885137
 21
462.424774
  0
LINE
  5
1EF
100
AcDbEntity
  8
M0
100
AcDbLine
 10
131.135135
 20
464.42477
 11
131.135135
 21
462.424774
  0
LINE
  5
1F0
100
AcDbEntity
  8
M0
100
AcDbLine
 10
96.435135
 20
464.42477
 11
96.435135
 21
462.424774
  0
LINE
  5
1F1
100
AcDbEntity
  8
M0
100
AcDbLine
 10
96.835136
 20
540.424772
 11
96.835136
 21
549.424772
  0
LINE
  5
1F2
100
AcDbEntity
  8
M0
100
AcDbLine
 10
153.235136
 20
461.424772
 11
129.385136
 21
461.424772
  0
LINE
  5
1F3
100
AcDbEntity
  8
M0
100
AcDbLine
 10
80.535136
 20
531.274771
 11
80.635137
 21
531.274771
  0
LINE
  5
1F4
100
AcDbEntity
  8
M0
100
AcDbLine
 10
127.735136
 20
548.224773
 11
127.735136
 21
546.024773
  0
ARC
  5
1F5
100
AcDbEntity
  8
M0
100
AcDbCircle
 10
81.335136
 20
542.424772
 40
3.0
100
AcDbArc
 50
90.0
 51
180.0
  0
ARC
  5
1F6
100
AcDbEntity
  8
M0
100
AcDbCircle
 10
152.735136
 20
542.424772
 40
3.0
100
AcDbArc
 50
0.0
 51
90.0
  0
ARC
  5
1F7
100
AcDbEntity
  8
M0
100
AcDbCircle
 10
99.035136
 20
549.424772
 40
0.5
100
AcDbArc
 50
270.0
 51
360.0
  0
ARC
  5
1F8
100
AcDbEntity
  8
M0
100
AcDbCircle
 10
89.385136
 20
463.424772
 40
0.5
100
AcDbArc
 50
180.0
 51
270.0
  0
ARC
  5
1F9
100
AcDbEntity
  8
M0
100
AcDbCircle
 10
135.535136
 20
549.924772
 40
0.5
100
AcDbArc
 50
90.0
 51
180.0
  0
ARC
  5
1FA
100
AcDbEntity
  8
M0
100
AcDbCircle
 10
135.535136
 20
549.424772
 40
0.5
100
AcDbArc
 50
180.0
 51
270.0
  0
ARC
  5
1FB
100
AcDbEntity
  8
M0
100
AcDbCircle
 10
139.135136
 20
462.424772
 40
1.0
100
AcDbArc
 50
180.0
 51
270.0
  0
ARC
  5
1FC
100
AcDbEntity
  8
M0
100
AcDbCircle
 10
105.185136
 20
462.424772
 40
1.0
100
AcDbArc
 50
270.0
 51
360.0
  0
ARC
  5
1FD
100
AcDbEntity
  8
M0
100
AcDbCircle
 10
94.685136
 20
462.424772
 40
1.0
100
AcDbArc
 50
180.0
 51
270.0
  0
ARC
  5
1FE
100
AcDbEntity
  8
M0
100
AcDbCircle
 10
130.135136
 20
462.424772
 40
1.0
100
AcDbArc
 50
270.0
 51
360.0
  0
ARC
  5
1FF
100
AcDbEntity
  8
M0
100
AcDbCircle
 10
95.835136
 20
549.424772
 40
1.0
100
AcDbArc
 50
90.0
 51
180.0
  0
ARC
  5
200
100
AcDbEntity
  8
M0
100
AcDbCircle
 10
95.435136
 20
462.424772
 40
1.0
100
AcDbArc
 50
270.0
 51
360.0
  0
ARC
  5
201
100
AcDbEntity
  8
M0
100
AcDbCircle
 10
149.785136
 20
468.924772
 40
2.25
100
AcDbArc
 50
270.0
 51
355.815286
  0
ARC
  5
202
100
AcDbEntity
  8
M0
100
AcDbCircle
 10
125.235136
 20
462.424772
 40
1.0
100
AcDbArc
 50
180.0
 51
270.0
  0
ARC
  5
203
100
AcDbEntity
  8
M0
100
AcDbCircle
 10
82.235626
 20
538.974772
 40
0.3
100
AcDbArc
 50
270.0
 51
358.876481
  0
ARC
  5
204
100
AcDbEntity
  8
M0
100
AcDbCircle
 10
84.785136
 20
538.924772
 40
2.25
100
AcDbArc
 50
90.0
 51
178.876481
  0
ARC
  5
205
100
AcDbEntity
  8
M0
100
AcDbCircle
 10
87.285136
 20
538.924772
 40
2.25
100
AcDbArc
 50
270.0
 51
450.0
  0
ARC
  5
206
100
AcDbEntity
  8
M0
100
AcDbCircle
 10
99.035136
 20
549.924772
 40
0.5
100
AcDbArc
 50
0.0
 51
90.0
  0
ARC
  5
207
100
AcDbEntity
  8
M0
100
AcDbCircle
 10
127.435136
 20
479.024772
 40
0.5
100
AcDbArc
 50
0.0
 51
90.0
  0
ARC
  5
208
100
AcDbEntity
  8
M0
100
AcDbCircle
 10
83.285136
 20
536.424772
 40
2.25
100
AcDbArc
 50
272.401074
 51
358.876481
  0
ARC
  5
209
100
AcDbEntity
  8
M0
100
AcDbCircle
 10
147.285136
 20
468.924772
 40
2.25
100
AcDbArc
 50
90.0
 51
270.0
  0
ARC
  5
20A
100
AcDbEntity
  8
M0
100
AcDbCircle
 10
107.135136
 20
479.024772
 40
0.5
100
AcDbArc
 50
90.0
 51
180.0
  0
ARC
  5
20B
100
AcDbEntity
  8
M0
100
AcDbCircle
 10
109.835136
 20
479.024772
 40
0.5
100
AcDbArc
 50
0.0
 51
90.0
  0
LINE
  5
20C
100
AcDbEntity
  8
M0
100
AcDbLine
 10
145.735135
 20
545.424771
 11
152.735136
 21
545.424771
  0
LINE
  5
20D
100
AcDbEntity
  8
M0
100
AcDbLine
 10
155.735135
 20
480.124772
 11
156.235136
 21
475.124773
  0
LINE
  5
20E
100
AcDbEntity
  8
M0
100
AcDbLine
 10
90.035136
 20
464.42477
 11
89.385136
 21
464.42477
  0
LINE
  5
20F
100
AcDbEntity
  8
M0
100
AcDbLine
 10
82.235626
 20
538.674772
 11
81.785134
 21
538.674772
  0
LINE
  5
210
100
AcDbEntity
  8
M0
100
AcDbLine
 10
87.285136
 20
541.174773
 11
84.785137
 21
541.174773
  0
LINE
  5
211
100
AcDbEntity
  8
M0
100
AcDbLine
 10
81.785134
 20
534.174772
 11
83.379399
 21
534.176748
  0
LINE
  5
212
100
AcDbEntity
  8
M0
100
AcDbLine
 10
88.885135
 20
464.924771
 11
88.885135
 21
465.424772
  0
LINE
  5
213
100
AcDbEntity
  8
M0
100
AcDbLine
 10
96.835136
 20
544.924773
 11
97.335135
 21
544.924773
  0
LINE
  5
214
100
AcDbEntity
  8
M0
100
AcDbLine
 10
90.035136
 20
465.424772
 11
88.885135
 21
465.424772
  0
LINE
  5
215
100
AcDbEntity
  8
M0
100
AcDbLine
 10
137.735135
 20
546.024773
 11
137.235136
 21
546.024773
  0
LINE
  5
216
100
AcDbEntity
  8
M0
100
AcDbLine
 10
96.835136
 20
547.224771
 11
97.335135
 21
547.224771
  0
LINE
  5
217
100
AcDbEntity
  8
M0
100
AcDbLine
 10
97.335135
 20
546.024773
 11
96.835136
 21
546.024773
  0
ARC
  5
218
100
AcDbEntity
  8
M0
100
AcDbCircle
 10
129.385136
 20
462.424772
 40
1.0
100
AcDbArc
 50
180.0
 51
270.0
  0
ARC
  5
219
100
AcDbEntity
  8
M0
100
AcDbCircle
 10
139.885136
 20
462.424772
 40
1.0
100
AcDbArc
 50
270.0
 51
360.0
  0
ARC
  5
21A
100
AcDbEntity
  8
M0
100
AcDbCircle
 10
134.635136
 20
464.424772
 40
3.5
100
AcDbArc
 50
0.0
 51
58.997281
  0
ARC
  5
21B
100
AcDbEntity
  8
M0
100
AcDbCircle
 10
127.235136
 20
548.224772
 40
0.5
100
AcDbArc
 50
0.0
 51
90.0
  0
ARC
  5
21C
100
AcDbEntity
  8
M0
100
AcDbCircle
 10
99.935136
 20
464.424772
 40
3.5
100
AcDbArc
 50
91.94738
 51
121.002719
  0
ARC
  5
21D
100
AcDbEntity
  8
M0
100
AcDbCircle
 10
99.935136
 20
464.424772
 40
3.5
100
AcDbArc
 50
121.002719
 51
180.0
  0
CIRCLE
  5
21E
100
AcDbEntity
  8
M0
100
AcDbCircle
 10
117.285136
 20
544.224772
 40
3.1
  0
LINE
  5
21F
100
AcDbEntity
  8
M0
100
AcDbLine
 10
85.834644
 20
536.674772
 11
87.285136
 21
536.674772
  0
ARC
  5
220
100
AcDbEntity
  8
M0
100
AcDbCircle
 10
134.635136
 20
464.424772
 40
3.5
100
AcDbArc
 50
58.997281
 51
88.05262
  0
ARC
  5
221
100
AcDbEntity
  8
M0
100
AcDbCircle
 10
79.835136
 20
477.574772
 40
1.0
100
AcDbArc
 50
180.0
 51
270.0
  0
ARC
  5
222
100
AcDbEntity
  8
M0
100
AcDbCircle
 10
107.335136
 20
548.224772
 40
0.5
100
AcDbArc
 50
90.0
 51
180.0
  0
ARC
  5
223
100
AcDbEntity
  8
M0
100
AcDbCircle
 10
99.935136
 20
464.424772
 40
3.5
100
AcDbArc
 50
0.0
 51
58.997281
  0
LINE
  5
224
100
AcDbEntity
  8
M0
100
AcDbLine
 10
124.235135
 20
462.424774
 11
124.235135
 21
466.424771
  0
LINE
  5
225
100
AcDbEntity
  8
M0
100
AcDbLine
 10
124.235135
 20
466.424771
 11
124.235135
 21
479.024772
  0
LINE
  5
226
100
AcDbEntity
  8
M0
100
AcDbLine
 10
125.235136
 20
479.524773
 11
126.935136
 21
479.524773
  0
LINE
  5
227
100
AcDbEntity
  8
M0
100
AcDbLine
 10
138.135137
 20
462.424774
 11
138.135137
 21
464.42477
  0
LINE
  5
228
100
AcDbEntity
  8
M0
100
AcDbLine
 10
105.185136
 20
461.424772
 11
81.835136
 21
461.424772
  0
LINE
  5
229
100
AcDbEntity
  8
M0
100
AcDbLine
 10
103.435136
 20
464.42477
 11
103.435136
 21
462.424774
  0
LINE
  5
22A
100
AcDbEntity
  8
M0
100
AcDbLine
 10
78.835137
 20
530.274772
 11
78.835137
 21
464.424772
  0
ARC
  5
22B
100
AcDbEntity
  8
M0
100
AcDbCircle
 10
81.785136
 20
536.424772
 40
2.25
100
AcDbArc
 50
90.0
 51
270.0
  0
LINE
  5
22C
100
AcDbEntity
  8
M0
100
AcDbLine
 10
79.835135
 20
476.574773
 11
80.635137
 21
476.574773
  0
LINE
  5
22D
100
AcDbEntity
  8
M0
100
AcDbLine
 10
136.437911
 20
467.424773
 11
136.885136
 21
467.424773
  0
LINE
  5
22E
100
AcDbEntity
  8
M0
100
AcDbLine
 10
94.835136
 20
540.424772
 11
94.835136
 21
549.424771
  0
LINE
  5
22F
100
AcDbEntity
  8
M0
100
AcDbLine
 10
98.13236
 20
467.424773
 11
97.685135
 21
467.424773
  0
LINE
  5
230
100
AcDbEntity
  8
M0
100
AcDbLine
 10
155.735135
 20
542.424772
 11
155.735135
 21
477.574772
  0
LINE
  5
231
100
AcDbEntity
  8
M0
100
AcDbLine
 10
81.335134
 20
545.424771
 11
88.835136
 21
545.424771
  0
LINE
  5
232
100
AcDbEntity
  8
M0
100
AcDbLine
 10
90.035136
 20
472.424772
 11
88.885135
 21
472.424772
  0
LINE
  5
233
100
AcDbEntity
  8
M0
100
AcDbLine
 10
139.735136
 20
541.924771
 11
141.835136
 21
541.924771
  0
LINE
  5
234
100
AcDbEntity
  8
M0
100
AcDbLine
 10
92.735135
 20
541.924771
 11
94.835136
 21
541.924771
  0
LINE
  5
235
100
AcDbEntity
  8
M0
100
AcDbLine
 10
137.735135
 20
544.924773
 11
137.235136
 21
544.924773
  0
LINE
  5
236
100
AcDbEntity
  8
M0
100
AcDbLine
 10
107.635135
 20
461.424772
 11
108.135132
 21
461.424772
  0
LINE
  5
237
100
AcDbEntity
  8
M0
100
AcDbLine
 10
108.135132
 20
461.424772
 11
109.335135
 21
461.424772
  0
LINE
  5
238
100
AcDbEntity
  8
M0
100
AcDbLine
 10
78.335136
 20
532.724772
 11
78.335136
 21
542.424772
  0
LINE
  5
239
100
AcDbEntity
  8
M0
100
AcDbLine
 10
88.885135
 20
466.424771
 11
90.035136
 21
466.424771
  0
LINE
  5
23A
100
AcDbEntity
  8
M0
100
AcDbLine
 10
148.736625
 20
471.174773
 11
147.285135
 21
471.174773
  0
LINE
  5
23B
100
AcDbEntity
  8
M0
100
AcDbLine
 10
144.535135
 20
508.624772
 11
144.535135
 21
505.324772
  0
LINE
  5
23C
100
AcDbEntity
  8
M0
100
AcDbLine
 10
144.535135
 20
505.424772
 11
143.535135
 21
505.424772
  0
LINE
  5
23D
100
AcDbEntity
  8
M0
100
AcDbLine
 10
144.035136
 20
511.124772
 11
143.535135
 21
511.124772
  0
LINE
  5
23E
100
AcDbEntity
  8
M0
100
AcDbLine
 10
137.235136
 20
547.224771
 11
137.735135
 21
547.224771
  0
LINE
  5
23F
100
AcDbEntity
  8
M0
100
AcDbLine
 10
110.785135
 20
490.924772
 11
108.785135
 21
490.924772
  0
LINE
  5
240
100
AcDbEntity
  8
M0
100
AcDbLine
 10
108.885136
 20
515.124772
 11
111.385135
 21
515.124772
  0
LINE
  5
241
100
AcDbEntity
  8
M0
100
AcDbLine
 10
143.535135
 20
508.424772
 11
144.535135
 21
508.424772
  0
LINE
  5
242
100
AcDbEntity
  8
M0
100
AcDbLine
 10
122.185136
 20
513.624773
 11
112.385136
 21
513.624773
  0
LINE
  5
243
100
AcDbEntity
  8
M0
100
AcDbLine
 10
90.035136
 20
505.424772
 11
91.035136
 21
505.424772
  0
LINE
  5
244
100
AcDbEntity
  8
M0
100
AcDbLine
 10
143.535135
 20
505.424772
 11
143.535135
 21
502.424772
  0
LINE
  5
245
100
AcDbEntity
  8
M0
100
AcDbLine
 10
91.035136
 20
511.124772
 11
90.535135
 21
511.124772
  0
LINE
  5
246
100
AcDbEntity
  8
M0
100
AcDbLine
 10
90.035136
 20
508.624772
 11
90.035136
 21
505.424772
  0
ARC
  5
247
100
AcDbEntity
  8
M0
100
AcDbCircle
 10
127.435136
 20
528.824772
 40
0.5
100
AcDbArc
 50
270.0
 51
360.0
  0
ARC
  5
248
100
AcDbEntity
  8
M0
100
AcDbCircle
 10
124.735136
 20
528.824772
 40
0.5
100
AcDbArc
 50
180.0
 51
270.0
  0
ARC
  5
249
100
AcDbEntity
  8
M0
100
AcDbCircle
 10
109.835136
 20
528.824772
 40
0.5
100
AcDbArc
 50
270.0
 51
360.0
  0
ARC
  5
24A
100
AcDbEntity
  8
M0
100
AcDbCircle
 10
145.535136
 20
509.124772
 40
1.0
100
AcDbArc
 50
0.0
 51
90.0
  0
ARC
  5
24B
100
AcDbEntity
  8
M0
100
AcDbCircle
 10
145.535136
 20
498.724772
 40
1.0
100
AcDbArc
 50
270.0
 51
360.0
  0
ARC
  5
24C
100
AcDbEntity
  8
M0
100
AcDbCircle
 10
109.335136
 20
462.424772
 40
1.0
100
AcDbArc
 50
270.0
 51
360.0
  0
LINE
  5
24D
100
AcDbEntity
  8
M0
100
AcDbLine
 10
137.735135
 20
548.924774
 11
136.735135
 21
548.924774
  0
LINE
  5
24E
100
AcDbEntity
  8
M0
100
AcDbLine
 10
123.285136
 20
489.424773
 11
123.285136
 21
490.424772
  0
LINE
  5
24F
100
AcDbEntity
  8
M0
100
AcDbLine
 10
137.735135
 20
541.924771
 11
137.235136
 21
541.924771
  0
CIRCLE
  5
250
100
AcDbEntity
  8
M0
100
AcDbCircle
 10
152.285136
 20
540.924772
 40
2.25
  0
CIRCLE
  5
251
100
AcDbEntity
  8
M0
100
AcDbCircle
 10
82.285136
 20
465.924772
 40
2.25
  0
ARC
  5
252
100
AcDbEntity
  8
M0
100
AcDbCircle
 10
89.035136
 20
509.124772
 40
1.0
100
AcDbArc
 50
90.0
 51
180.0
  0
LINE
  5
253
100
AcDbEntity
  8
M0
100
AcDbLine
 10
127.435136
 20
528.324772
 11
124.735136
 21
528.324772
  0
LINE
  5
254
100
AcDbEntity
  8
M0
100
AcDbLine
 10
90.035136
 20
510.124772
 11
89.035136
 21
510.124772
  0
LINE
  5
255
100
AcDbEntity
  8
M0
100
AcDbLine
 10
147.285135
 20
466.674771
 11
149.785134
 21
466.674771
  0
LINE
  5
256
100
AcDbEntity
  8
M0
100
AcDbLine
 10
115.035136
 20
508.693726
 11
112.485136
 21
508.693726
  0
LINE
  5
257
100
AcDbEntity
  8
M0
100
AcDbLine
 10
106.635136
 20
540.424772
 11
92.735135
 21
540.424772
  0
LINE
  5
258
100
AcDbEntity
  8
M0
100
AcDbLine
 10
122.085135
 20
508.693726
 11
119.535136
 21
508.693726
  0
LINE
  5
259
100
AcDbEntity
  8
M0
100
AcDbLine
 10
81.635136
 20
479.124772
 11
82.535136
 21
479.124772
  0
ARC
  5
25A
100
AcDbEntity
  8
M0
100
AcDbCircle
 10
152.285135
 20
493.774773
 40
0.5
100
AcDbArc
 50
0.0
 51
90.0
  0
LINE
  5
25B
100
AcDbEntity
  8
M0
100
AcDbLine
 10
109.335135
 20
479.524773
 11
107.635135
 21
479.524773
  0
LINE
  5
25C
100
AcDbEntity
  8
M0
100
AcDbLine
 10
109.835136
 20
479.524773
 11
109.335135
 21
479.524773
  0
LINE
  5
25D
100
AcDbEntity
  8
M0
100
AcDbLine
 10
107.635135
 20
479.524773
 11
107.135135
 21
479.524773
  0
LINE
  5
25E
100
AcDbEntity
  8
M0
100
AcDbLine
 10
144.535135
 20
510.124772
 11
145.535135
 21
510.124772
  0
LINE
  5
25F
100
AcDbEntity
  8
M0
100
AcDbLine
 10
112.385136
 20
514.124773
 11
112.385136
 21
513.624773
  0
LINE
  5
260
100
AcDbEntity
  8
M0
100
AcDbLine
 10
143.535135
 20
502.424772
 11
144.535135
 21
502.424772
  0
LINE
  5
261
100
AcDbEntity
  8
M0
100
AcDbLine
 10
91.035136
 20
505.424772
 11
91.035136
 21
502.424772
  0
LINE
  5
262
100
AcDbEntity
  8
M0
100
AcDbLine
 10
112.385136
 20
514.124773
 11
122.185136
 21
514.124773
  0
LINE
  5
263
100
AcDbEntity
  8
M0
100
AcDbLine
 10
144.535135
 20
502.524772
 11
144.535135
 21
499.224772
  0
LINE
  5
264
100
AcDbEntity
  8
M0
100
AcDbLine
 10
91.035136
 20
499.424772
 11
91.035136
 21
496.724772
  0
LINE
  5
265
100
AcDbEntity
  8
M0
100
AcDbLine
 10
91.035136
 20
508.424772
 11
90.035136
 21
508.424772
  0
LINE
  5
266
100
AcDbEntity
  8
M0
100
AcDbLine
 10
143.535135
 20
511.124772
 11
143.535135
 21
508.424772
  0
LINE
  5
267
100
AcDbEntity
  8
M0
100
AcDbLine
 10
143.535135
 20
499.424772
 11
143.535135
 21
496.724772
  0
LINE
  5
268
100
AcDbEntity
  8
M0
100
AcDbLine
 10
90.035136
 20
502.424772
 11
90.035136
 21
499.224772
  0
LINE
  5
269
100
AcDbEntity
  8
M0
100
AcDbLine
 10
144.535135
 20
499.424772
 11
143.535135
 21
499.424772
  0
LINE
  5
26A
100
AcDbEntity
  8
M0
100
AcDbLine
 10
89.035136
 20
502.524772
 11
90.735135
 21
502.524772
  0
LINE
  5
26B
100
AcDbEntity
  8
M0
100
AcDbLine
 10
92.735135
 20
481.024772
 11
91.735135
 21
481.024772
  0
LINE
  5
26C
100
AcDbEntity
  8
M0
100
AcDbLine
 10
88.035136
 20
509.124772
 11
88.035136
 21
498.724772
  0
LINE
  5
26D
100
AcDbEntity
  8
M0
100
AcDbLine
 10
92.735135
 20
466.424771
 11
92.735135
 21
481.024772
  0
LINE
  5
26E
100
AcDbEntity
  8
M0
100
AcDbLine
 10
146.535135
 20
509.124772
 11
146.535135
 21
498.724772
  0
LINE
  5
26F
100
AcDbEntity
  8
M0
100
AcDbLine
 10
89.035136
 20
497.724772
 11
90.035136
 21
497.724772
  0
LINE
  5
270
100
AcDbEntity
  8
M0
100
AcDbLine
 10
154.035136
 20
476.574773
 11
153.935134
 21
476.574773
  0
LINE
  5
271
100
AcDbEntity
  8
M0
100
AcDbLine
 10
78.835137
 20
527.724773
 11
78.335136
 21
532.724772
  0
LINE
  5
272
100
AcDbEntity
  8
M0
100
AcDbLine
 10
146.035136
 20
479.124772
 11
145.135136
 21
479.124772
  0
LINE
  5
273
100
AcDbEntity
  8
M0
100
AcDbLine
 10
90.735135
 20
505.324772
 11
89.035136
 21
505.324772
  0
LINE
  5
274
100
AcDbEntity
  8
M0
100
AcDbLine
 10
152.935136
 20
479.124772
 11
152.035135
 21
479.124772
  0
LINE
  5
275
100
AcDbEntity
  8
M0
100
AcDbLine
 10
90.035136
 20
502.524772
 11
90.035136
 21
502.424772
  0
LINE
  5
276
100
AcDbEntity
  8
M0
100
AcDbLine
 10
127.935135
 20
479.024772
 11
127.935135
 21
466.424771
  0
LINE
  5
277
100
AcDbEntity
  8
M0
100
AcDbLine
 10
126.935136
 20
479.524773
 11
127.435136
 21
479.524773
  0
LINE
  5
278
100
AcDbEntity
  8
M0
100
AcDbLine
 10
141.835136
 20
466.424771
 11
141.835136
 21
481.024772
  0
ARC
  5
279
100
AcDbEntity
  8
M0
100
AcDbCircle
 10
104.435136
 20
462.424772
 40
1.0
100
AcDbArc
 50
180.0
 51
270.0
  0
ARC
  5
27A
100
AcDbEntity
  8
M0
100
AcDbCircle
 10
95.835136
 20
549.424772
 40
1.0
100
AcDbArc
 50
0.0
 51
90.0
  0
LINE
  5
27B
100
AcDbEntity
  8
M0
100
AcDbLine
 10
88.885135
 20
472.424772
 11
88.885135
 21
466.424771
  0
LINE
  5
27C
100
AcDbEntity
  8
M0
100
AcDbLine
 10
124.735136
 20
479.524773
 11
125.235136
 21
479.524773
  0
LINE
  5
27D
100
AcDbEntity
  8
M0
100
AcDbLine
 10
90.035136
 20
505.324772
 11
90.035136
 21
505.424772
  0
LINE
  5
27E
100
AcDbEntity
  8
M0
100
AcDbLine
 10
145.535135
 20
497.724772
 11
144.535135
 21
497.724772
  0
LINE
  5
27F
100
AcDbEntity
  8
M0
100
AcDbLine
 10
89.035136
 20
508.624772
 11
89.035136
 21
499.224772
  0
LINE
  5
280
100
AcDbEntity
  8
M0
100
AcDbLine
 10
145.535135
 20
508.624772
 11
145.535135
 21
499.224772
  0
LINE
  5
281
100
AcDbEntity
  8
M0
100
AcDbLine
 10
141.835136
 20
481.024772
 11
142.835136
 21
481.024772
  0
ARC
  5
282
100
AcDbEntity
  8
M0
100
AcDbCircle
 10
108.885136
 20
493.724772
 40
1.0
100
AcDbArc
 50
180.0
 51
270.0
  0
ARC
  5
283
100
AcDbEntity
  8
M0
100
AcDbCircle
 10
143.535136
 20
525.624772
 40
1.0
100
AcDbArc
 50
0.0
 51
90.0
  0
ARC
  5
284
100
AcDbEntity
  8
M0
100
AcDbCircle
 10
110.785136
 20
489.424772
 40
0.5
100
AcDbArc
 50
270.0
 51
360.0
  0
ARC
  5
285
100
AcDbEntity
  8
M0
100
AcDbCircle
 10
125.785136
 20
489.424772
 40
0.5
100
AcDbArc
 50
270.0
 51
360.0
  0
ARC
  5
286
100
AcDbEntity
  8
M0
100
AcDbCircle
 10
125.785136
 20
490.424772
 40
0.5
100
AcDbArc
 50
0.0
 51
90.0
  0
ARC
  5
287
100
AcDbEntity
  8
M0
100
AcDbCircle
 10
110.785136
 20
490.424772
 40
0.5
100
AcDbArc
 50
0.0
 51
90.0
  0
ARC
  5
288
100
AcDbEntity
  8
M0
100
AcDbCircle
 10
143.535136
 20
462.424772
 40
1.0
100
AcDbArc
 50
270.0
 51
360.0
  0
LINE
  5
289
100
AcDbEntity
  8
M0
100
AcDbLine
 10
91.035136
 20
511.124772
 11
91.035136
 21
508.424772
  0
ARC
  5
28A
100
AcDbEntity
  8
M0
100
AcDbCircle
 10
115.035136
 20
508.193726
 40
0.5
100
AcDbArc
 50
0.0
 51
90.0
  0
ARC
  5
28B
100
AcDbEntity
  8
M0
100
AcDbCircle
 10
108.885136
 20
514.124772
 40
1.0
100
AcDbArc
 50
90.0
 51
180.0
  0
ARC
  5
28C
100
AcDbEntity
  8
M0
100
AcDbCircle
 10
119.535136
 20
508.193726
 40
0.5
100
AcDbArc
 50
90.0
 51
180.0
  0
ARC
  5
28D
100
AcDbEntity
  8
M0
100
AcDbCircle
 10
125.685136
 20
514.124772
 40
1.0
100
AcDbArc
 50
0.0
 51
90.0
  0
LINE
  5
28E
100
AcDbEntity
  8
M0
100
AcDbLine
 10
88.885135
 20
463.424772
 11
88.885135
 21
464.924771
  0
LINE
  5
28F
100
AcDbEntity
  8
M0
100
AcDbLine
 10
89.435135
 20
528.724773
 11
88.535135
 21
528.724773
  0
LINE
  5
290
100
AcDbEntity
  8
M0
100
AcDbLine
 10
90.035136
 20
462.924771
 11
89.385136
 21
462.924771
  0
LINE
  5
291
100
AcDbEntity
  8
M0
100
AcDbLine
 10
141.835136
 20
464.42477
 11
140.885137
 21
464.42477
  0
LINE
  5
292
100
AcDbEntity
  8
M0
100
AcDbLine
 10
141.835136
 20
465.424772
 11
140.885137
 21
465.424772
  0
LINE
  5
293
100
AcDbEntity
  8
M0
100
AcDbLine
 10
141.835136
 20
462.924771
 11
140.885137
 21
462.924771
  0
ARC
  5
294
100
AcDbEntity
  8
M0
100
AcDbCircle
 10
123.785136
 20
490.424772
 40
0.5
100
AcDbArc
 50
90.0
 51
180.0
  0
ARC
  5
295
100
AcDbEntity
  8
M0
100
AcDbCircle
 10
108.785136
 20
489.424772
 40
0.5
100
AcDbArc
 50
180.0
 51
270.0
  0
ARC
  5
296
100
AcDbEntity
  8
M0
100
AcDbCircle
 10
123.785136
 20
489.424772
 40
0.5
100
AcDbArc
 50
180.0
 51
270.0
  0
ARC
  5
297
100
AcDbEntity
  8
M0
100
AcDbCircle
 10
108.785136
 20
490.424772
 40
0.5
100
AcDbArc
 50
90.0
 51
180.0
  0
ARC
  5
298
100
AcDbEntity
  8
M0
100
AcDbCircle
 10
125.685136
 20
493.724772
 40
1.0
100
AcDbArc
 50
270.0
 51
360.0
  0
LINE
  5
299
100
AcDbEntity
  8
M0
100
AcDbLine
 10
88.535135
 20
479.124772
 11
89.435135
 21
479.124772
  0
ARC
  5
29A
100
AcDbEntity
  8
M0
100
AcDbCircle
 10
109.085136
 20
513.924772
 40
1.0
100
AcDbArc
 50
90.0
 51
180.0
  0
ARC
  5
29B
100
AcDbEntity
  8
M0
100
AcDbCircle
 10
111.735136
 20
509.924772
 40
0.5
100
AcDbArc
 50
270.0
 51
360.0
  0
ARC
  5
29C
100
AcDbEntity
  8
M0
100
AcDbCircle
 10
91.035136
 20
482.224772
 40
1.0
100
AcDbArc
 50
180.0
 51
270.0
  0
ARC
  5
29D
100
AcDbEntity
  8
M0
100
AcDbCircle
 10
144.035136
 20
496.224772
 40
0.5
100
AcDbArc
 50
0.0
 51
90.0
  0
ARC
  5
29E
100
AcDbEntity
  8
M0
100
AcDbCircle
 10
109.085136
 20
496.424772
 40
1.0
100
AcDbArc
 50
90.0
 51
180.0
  0
LINE
  5
29F
100
AcDbEntity
  8
M0
  6
DASHDOT
100
AcDbLine
 10
99.185136
 20
474.424772
 11
100.185136
 21
474.424772
  0
ARC
  5
2A0
100
AcDbEntity
  8
M0
100
AcDbCircle
 10
143.535136
 20
482.224772
 40
1.0
100
AcDbArc
 50
270.0
 51
360.0
  0
ARC
  5
2A1
100
AcDbEntity
  8
M0
100
AcDbCircle
 10
123.835136
 20
493.924772
 40
1.0
100
AcDbArc
 50
180.0
 51
270.0
  0
ARC
  5
2A2
100
AcDbEntity
  8
M0
100
AcDbCircle
 10
125.485136
 20
493.924772
 40
1.0
100
AcDbArc
 50
270.0
 51
360.0
  0
ARC
  5
2A3
100
AcDbEntity
  8
M0
100
AcDbCircle
 10
90.535136
 20
496.224772
 40
0.5
100
AcDbArc
 50
90.0
 51
180.0
  0
ARC
  5
2A4
100
AcDbEntity
  8
M0
100
AcDbCircle
 10
109.085136
 20
493.924772
 40
1.0
100
AcDbArc
 50
180.0
 51
270.0
  0
ARC
  5
2A5
100
AcDbEntity
  8
M0
100
AcDbCircle
 10
125.485136
 20
513.924772
 40
1.0
100
AcDbArc
 50
0.0
 51
90.0
  0
LINE
  5
2A6
100
AcDbEntity
  8
M0
  6
DASHDOT
100
AcDbLine
 10
117.285136
 20
533.924772
 11
117.285136
 21
532.924772
  0
LINE
  5
2A7
100
AcDbEntity
  8
M0
  6
DASHDOT
100
AcDbLine
 10
116.785136
 20
533.424772
 11
117.785136
 21
533.424772
  0
LINE
  5
2A8
100
AcDbEntity
  8
M0
  6
DASHDOT
100
AcDbLine
 10
134.885136
 20
533.924772
 11
134.885136
 21
532.924772
  0
LINE
  5
2A9
100
AcDbEntity
  8
M0
  6
DASHDOT
100
AcDbLine
 10
134.385136
 20
533.424772
 11
135.385136
 21
533.424772
  0
LINE
  5
2AA
100
AcDbEntity
  8
M0
  6
DASHDOT
100
AcDbLine
 10
99.685136
 20
533.924772
 11
99.685136
 21
532.924772
  0
LINE
  5
2AB
100
AcDbEntity
  8
M0
  6
DASHDOT
100
AcDbLine
 10
99.185136
 20
533.424772
 11
100.185136
 21
533.424772
  0
LINE
  5
2AC
100
AcDbEntity
  8
M0
  6
DASHDOT
100
AcDbLine
 10
134.385136
 20
474.424772
 11
135.385136
 21
474.424772
  0
LINE
  5
2AD
100
AcDbEntity
  8
M0
  6
DASHDOT
100
AcDbLine
 10
99.685136
 20
473.924772
 11
99.685136
 21
474.924772
  0
LINE
  5
2AE
100
AcDbEntity
  8
M0
  6
DASHDOT
100
AcDbLine
 10
134.885136
 20
473.924772
 11
134.885136
 21
474.924772
  0
LINE
  5
2AF
100
AcDbEntity
  8
M0
  6
DASHDOT
100
AcDbLine
 10
117.285136
 20
473.924772
 11
117.285136
 21
474.924772
  0
LINE
  5
2B0
100
AcDbEntity
  8
M0
  6
DASHDOT
100
AcDbLine
 10
116.785136
 20
474.424772
 11
117.785136
 21
474.424772
  0
LINE
  5
2B1
100
AcDbEntity
  8
M0
100
AcDbLine
 10
89.285135
 20
520.574773
 11
89.285135
 21
514.074773
  0
LINE
  5
2B2
100
AcDbEntity
  8
M0
100
AcDbLine
 10
127.935135
 20
526.624773
 11
127.935135
 21
548.924774
  0
LINE
  5
2B3
100
AcDbEntity
  8
M0
100
AcDbLine
 10
134.835137
 20
549.924772
 11
134.835137
 21
548.924774
  0
LINE
  5
2B4
100
AcDbEntity
  8
M0
100
AcDbLine
 10
97.035136
 20
540.424772
 11
97.035136
 21
541.424774
  0
LINE
  5
2B5
100
AcDbEntity
  8
M0
100
AcDbLine
 10
99.735135
 20
548.924774
 11
99.735135
 21
549.924772
  0
LINE
  5
2B6
100
AcDbEntity
  8
M0
100
AcDbLine
 10
105.135136
 20
540.424772
 11
105.135136
 21
549.424771
  0
LINE
  5
2B7
100
AcDbEntity
  8
M0
100
AcDbLine
 10
82.535136
 20
529.724773
 11
88.535135
 21
529.724773
  0
LINE
  5
2B8
100
AcDbEntity
  8
M0
100
AcDbLine
 10
152.935136
 20
521.124773
 11
145.135136
 21
521.124773
  0
LINE
  5
2B9
100
AcDbEntity
  8
M0
100
AcDbLine
 10
95.835136
 20
550.424773
 11
138.735136
 21
550.424773
  0
LINE
  5
2BA
100
AcDbEntity
  8
M0
100
AcDbLine
 10
127.935135
 20
548.924774
 11
106.635136
 21
548.924774
  0
LINE
  5
2BB
100
AcDbEntity
  8
M0
100
AcDbLine
 10
88.535135
 20
478.124771
 11
82.535136
 21
478.124771
  0
LINE
  5
2BC
100
AcDbEntity
  8
M0
100
AcDbLine
 10
89.435135
 20
521.124773
 11
81.635136
 21
521.124773
  0
LINE
  5
2BD
100
AcDbEntity
  8
M0
100
AcDbLine
 10
123.985135
 20
514.924772
 11
125.485136
 21
514.924772
  0
ARC
  5
2BE
100
AcDbEntity
  8
M0
100
AcDbCircle
 10
151.285136
 20
471.424772
 40
2.25
100
AcDbArc
 50
89.957854
 51
177.916058
  0
ARC
  5
2BF
100
AcDbEntity
  8
M0
100
AcDbCircle
 10
153.235136
 20
464.424772
 40
3.0
100
AcDbArc
 50
270.0
 51
360.0
  0
ARC
  5
2C0
100
AcDbEntity
  8
M0
100
AcDbCircle
 10
81.835136
 20
464.424772
 40
3.0
100
AcDbArc
 50
180.0
 51
270.0
  0
ARC
  5
2C1
100
AcDbEntity
  8
M0
100
AcDbCircle
 10
148.736624
 20
471.474772
 40
0.3
100
AcDbArc
 50
270.0
 51
360.0
  0
ARC
  5
2C2
100
AcDbEntity
  8
M0
100
AcDbCircle
 10
80.635136
 20
523.024772
 40
1.0
100
AcDbArc
 50
0.0
 51
90.0
  0
ARC
  5
2C3
100
AcDbEntity
  8
M0
100
AcDbCircle
 10
110.735136
 20
493.924772
 40
1.0
100
AcDbArc
 50
270.0
 51
360.0
  0
LINE
  5
2C4
100
AcDbEntity
  8
M0
100
AcDbLine
 10
82.535136
 20
528.674772
 11
82.535136
 21
529.724773
  0
LINE
  5
2C5
100
AcDbEntity
  8
M0
100
AcDbLine
 10
88.535135
 20
529.724773
 11
88.535135
 21
528.674772
  0
LINE
  5
2C6
100
AcDbEntity
  8
M0
100
AcDbLine
 10
146.035136
 20
529.724773
 11
152.035135
 21
529.724773
  0
LINE
  5
2C7
100
AcDbEntity
  8
M0
100
AcDbLine
 10
81.787642
 20
528.224772
 11
81.635136
 21
528.224772
  0
LINE
  5
2C8
100
AcDbEntity
  8
M0
100
AcDbLine
 10
152.035135
 20
529.724773
 11
152.035135
 21
528.674772
  0
LINE
  5
2C9
100
AcDbEntity
  8
M0
100
AcDbLine
 10
87.125718
 20
488.934129
 11
83.944078
 21
492.115892
  0
LINE
  5
2CA
100
AcDbEntity
  8
M0
100
AcDbLine
 10
85.888414
 20
491.939134
 11
84.120836
 21
490.171434
  0
LINE
  5
2CB
100
AcDbEntity
  8
M0
100
AcDbLine
 10
150.448963
 20
525.278465
 11
148.681384
 21
523.510887
  0
LINE
  5
2CC
100
AcDbEntity
  8
M0
100
AcDbLine
 10
149.388416
 20
526.339134
 11
147.620838
 21
524.571434
  0
LINE
  5
2CD
100
AcDbEntity
  8
M0
100
AcDbLine
 10
150.62572
 20
523.334129
 11
147.44408
 21
526.515892
  0
LINE
  5
2CE
100
AcDbEntity
  8
M0
100
AcDbLine
 10
150.62572
 20
515.734129
 11
147.44408
 21
518.915892
  0
LINE
  5
2CF
100
AcDbEntity
  8
M0
100
AcDbLine
 10
87.125718
 20
515.734129
 11
83.944078
 21
518.915892
  0
LINE
  5
2D0
100
AcDbEntity
  8
M0
100
AcDbLine
 10
86.948961
 20
517.678465
 11
85.181382
 21
515.910887
  0
LINE
  5
2D1
100
AcDbEntity
  8
M0
100
AcDbLine
 10
85.888414
 20
484.339134
 11
84.120836
 21
482.571433
  0
LINE
  5
2D2
100
AcDbEntity
  8
M0
100
AcDbLine
 10
87.125718
 20
481.334129
 11
83.944078
 21
484.515891
  0
LINE
  5
2D3
100
AcDbEntity
  8
M0
100
AcDbLine
 10
86.948961
 20
483.278465
 11
85.181382
 21
481.510887
  0
LINE
  5
2D4
100
AcDbEntity
  8
M0
100
AcDbLine
 10
86.948961
 20
490.878465
 11
85.181382
 21
489.110887
  0
CIRCLE
  5
2D5
100
AcDbEntity
  8
M0
100
AcDbCircle
 10
85.535135
 20
524.924774
 40
3.0
  0
CIRCLE
  5
2D6
100
AcDbEntity
  8
M0
100
AcDbCircle
 10
133.235133
 20
544.524776
 40
3.0
  0
CIRCLE
  5
2D7
100
AcDbEntity
  8
M0
100
AcDbCircle
 10
85.535135
 20
517.324774
 40
3.0
  0
CIRCLE
  5
2D8
100
AcDbEntity
  8
M0
100
AcDbCircle
 10
85.535135
 20
482.924771
 40
3.0
  0
CIRCLE
  5
2D9
100
AcDbEntity
  8
M0
100
AcDbCircle
 10
85.535135
 20
490.524771
 40
3.0
  0
CIRCLE
  5
2DA
100
AcDbEntity
  8
M0
100
AcDbCircle
 10
149.035137
 20
524.924774
 40
3.0
  0
LINE
  5
2DB
100
AcDbEntity
  8
M0
100
AcDbLine
 10
150.448963
 20
517.678465
 11
148.681384
 21
515.910887
  0
LINE
  5
2DC
100
AcDbEntity
  8
M0
100
AcDbLine
 10
149.388416
 20
518.739134
 11
147.620838
 21
516.971434
  0
CIRCLE
  5
2DD
100
AcDbEntity
  8
M0
100
AcDbCircle
 10
99.685136
 20
533.424803
 40
4.499996
  0
CIRCLE
  5
2DE
100
AcDbEntity
  8
M0
100
AcDbCircle
 10
134.885136
 20
533.424803
 40
4.499996
  0
CIRCLE
  5
2DF
100
AcDbEntity
  8
M0
100
AcDbCircle
 10
117.285136
 20
533.424803
 40
4.499996
  0
CIRCLE
  5
2E0
100
AcDbEntity
  8
M0
100
AcDbCircle
 10
101.335136
 20
544.524772
 40
3.0
  0
LINE
  5
2E1
100
AcDbEntity
  8
M0
100
AcDbLine
 10
119.166239
 20
533.891722
 11
116.818262
 21
531.54373
  0
LINE
  5
2E2
100
AcDbEntity
  8
M0
100
AcDbLine
 10
117.752039
 20
535.305937
 11
115.404063
 21
532.957945
  0
LINE
  5
2E3
100
AcDbEntity
  8
M0
100
AcDbLine
 10
115.216181
 20
535.493712
 11
119.479151
 21
531.230772
  0
LINE
  5
2E4
100
AcDbEntity
  8
M0
100
AcDbLine
 10
136.766239
 20
533.891722
 11
134.418262
 21
531.54373
  0
LINE
  5
2E5
100
AcDbEntity
  8
M0
100
AcDbLine
 10
135.352039
 20
535.305937
 11
133.004063
 21
532.957945
  0
LINE
  5
2E6
100
AcDbEntity
  8
M0
100
AcDbLine
 10
132.816181
 20
535.493712
 11
137.079151
 21
531.230772
  0
LINE
  5
2E7
100
AcDbEntity
  8
M0
100
AcDbLine
 10
137.735135
 20
540.424772
 11
137.735135
 21
549.424772
  0
LINE
  5
2E8
100
AcDbEntity
  8
M0
100
AcDbLine
 10
146.035136
 20
528.674772
 11
146.035136
 21
529.724773
  0
LINE
  5
2E9
100
AcDbEntity
  8
M0
100
AcDbLine
 10
139.735136
 20
540.424772
 11
139.735136
 21
549.424771
  0
LINE
  5
2EA
100
AcDbEntity
  8
M0
100
AcDbLine
 10
101.566239
 20
533.891722
 11
99.218262
 21
531.54373
  0
LINE
  5
2EB
100
AcDbEntity
  8
M0
100
AcDbLine
 10
100.152039
 20
535.305937
 11
97.804063
 21
532.957945
  0
LINE
  5
2EC
100
AcDbEntity
  8
M0
100
AcDbLine
 10
97.616181
 20
535.493712
 11
101.879151
 21
531.230772
  0
LINE
  5
2ED
100
AcDbEntity
  8
M0
100
AcDbLine
 10
134.825716
 20
542.934131
 11
131.644076
 21
546.115894
  0
LINE
  5
2EE
100
AcDbEntity
  8
M0
100
AcDbLine
 10
134.648959
 20
544.878467
 11
132.881381
 21
543.110889
  0
LINE
  5
2EF
100
AcDbEntity
  8
M0
100
AcDbLine
 10
85.888414
 20
526.339134
 11
84.120836
 21
524.571434
  0
LINE
  5
2F0
100
AcDbEntity
  8
M0
100
AcDbLine
 10
87.125718
 20
523.334129
 11
83.944078
 21
526.515892
  0
LINE
  5
2F1
100
AcDbEntity
  8
M0
100
AcDbLine
 10
86.948961
 20
525.278465
 11
85.181382
 21
523.510887
  0
LINE
  5
2F2
100
AcDbEntity
  8
M0
100
AcDbLine
 10
85.888414
 20
518.739134
 11
84.120836
 21
516.971434
  0
LINE
  5
2F3
100
AcDbEntity
  8
M0
100
AcDbLine
 10
102.748962
 20
544.878463
 11
100.981383
 21
543.110885
  0
LINE
  5
2F4
100
AcDbEntity
  8
M0
100
AcDbLine
 10
101.688415
 20
545.939132
 11
99.920837
 21
544.171432
  0
LINE
  5
2F5
100
AcDbEntity
  8
M0
100
AcDbLine
 10
102.925719
 20
542.934127
 11
99.744079
 21
546.11589
  0
LINE
  5
2F6
100
AcDbEntity
  8
M0
  6
DASHDOT
100
AcDbLine
 10
85.535136
 20
524.424772
 11
85.535136
 21
525.424772
  0
LINE
  5
2F7
100
AcDbEntity
  8
M0
  6
DASHDOT
100
AcDbLine
 10
85.035136
 20
524.924772
 11
86.035136
 21
524.924772
  0
LINE
  5
2F8
100
AcDbEntity
  8
M0
100
AcDbLine
 10
146.035136
 20
478.124771
 11
146.035136
 21
479.174772
  0
LINE
  5
2F9
100
AcDbEntity
  8
M0
100
AcDbLine
 10
111.985136
 20
499.632241
 11
111.985136
 21
499.224772
  0
LINE
  5
2FA
100
AcDbEntity
  8
M0
100
AcDbLine
 10
112.485135
 20
498.724772
 11
111.735136
 21
498.724772
  0
LINE
  5
2FB
100
AcDbEntity
  8
M0
100
AcDbLine
 10
121.435136
 20
509.124772
 11
121.435136
 21
509.424772
  0
LINE
  5
2FC
100
AcDbEntity
  8
M0
100
AcDbLine
 10
122.585135
 20
499.632241
 11
122.585135
 21
499.224772
  0
LINE
  5
2FD
100
AcDbEntity
  8
M0
100
AcDbLine
 10
111.735136
 20
509.124772
 11
122.835136
 21
509.124772
  0
LINE
  5
2FE
100
AcDbEntity
  8
M0
100
AcDbLine
 10
152.035135
 20
479.174772
 11
152.035135
 21
478.124771
  0
LINE
  5
2FF
100
AcDbEntity
  8
M0
100
AcDbLine
 10
152.035135
 20
478.124771
 11
146.035136
 21
478.124771
  0
LINE
  5
300
100
AcDbEntity
  8
M0
100
AcDbLine
 10
145.135136
 20
479.624773
 11
145.287642
 21
479.624773
  0
LINE
  5
301
100
AcDbEntity
  8
M0
100
AcDbLine
 10
119.035136
 20
508.172278
 11
119.035136
 21
508.193726
  0
LINE
  5
302
100
AcDbEntity
  8
M0
100
AcDbLine
 10
115.535136
 20
508.172278
 11
115.535136
 21
508.193726
  0
LINE
  5
303
100
AcDbEntity
  8
M0
100
AcDbLine
 10
111.985136
 20
508.193726
 11
111.985136
 21
508.172278
  0
LINE
  5
304
100
AcDbEntity
  8
M0
100
AcDbLine
 10
136.885136
 20
467.424773
 11
141.835136
 21
467.424773
  0
LINE
  5
305
100
AcDbEntity
  8
M0
100
AcDbLine
 10
132.885135
 20
540.424772
 11
127.935135
 21
540.424772
  0
LINE
  5
306
100
AcDbEntity
  8
M0
100
AcDbLine
 10
119.285136
 20
467.424773
 11
124.235135
 21
467.424773
  0
ARC
  5
307
100
AcDbEntity
  8
M0
100
AcDbCircle
 10
154.735136
 20
484.824772
 40
1.0
100
AcDbArc
 50
270.0
 51
360.0
  0
ARC
  5
308
100
AcDbEntity
  8
M0
100
AcDbCircle
 10
80.635136
 20
499.224772
 40
1.0
100
AcDbArc
 50
0.0
 51
90.0
  0
ARC
  5
309
100
AcDbEntity
  8
M0
100
AcDbCircle
 10
153.935136
 20
484.824772
 40
1.0
100
AcDbArc
 50
180.0
 51
270.0
  0
LINE
  5
30A
100
AcDbEntity
  8
M0
100
AcDbLine
 10
127.935135
 20
537.124772
 11
127.935135
 21
539.924771
  0
LINE
  5
30B
100
AcDbEntity
  8
M0
100
AcDbLine
 10
112.485135
 20
498.724772
 11
122.085136
 21
498.724772
  0
LINE
  5
30C
100
AcDbEntity
  8
M0
100
AcDbLine
 10
113.135136
 20
509.124772
 11
113.135136
 21
509.424772
  0
LINE
  5
30D
100
AcDbEntity
  8
M0
100
AcDbLine
 10
101.685136
 20
467.424773
 11
106.635136
 21
467.424773
  0
LINE
  5
30E
100
AcDbEntity
  8
M0
100
AcDbLine
 10
100.385136
 20
465.624772
 11
99.485136
 21
465.624772
  0
LINE
  5
30F
100
AcDbEntity
  8
M0
100
AcDbLine
 10
121.435136
 20
498.224772
 11
121.435136
 21
498.724772
  0
LINE
  5
310
100
AcDbEntity
  8
M0
100
AcDbLine
 10
100.385136
 20
464.874771
 11
101.522587
 21
464.874771
  0
LINE
  5
311
100
AcDbEntity
  8
M0
100
AcDbLine
 10
99.485136
 20
463.974774
 11
98.347686
 21
463.974774
  0
LINE
  5
312
100
AcDbEntity
  8
M0
100
AcDbLine
 10
100.385136
 20
464.874771
 11
100.385136
 21
465.624772
  0
LINE
  5
313
100
AcDbEntity
  8
M0
100
AcDbLine
 10
97.323622
 20
463.974774
 11
98.347686
 21
463.974774
  0
LINE
  5
314
100
AcDbEntity
  8
M0
100
AcDbLine
 10
101.522587
 20
463.974774
 11
102.546649
 21
463.974774
  0
LINE
  5
315
100
AcDbEntity
  8
M0
100
AcDbLine
 10
101.522587
 20
463.974774
 11
100.385136
 21
463.974774
  0
LINE
  5
316
100
AcDbEntity
  8
M0
100
AcDbLine
 10
127.935135
 20
464.42477
 11
127.935135
 21
462.424774
  0
LINE
  5
317
100
AcDbEntity
  8
M0
100
AcDbLine
 10
92.735135
 20
462.424774
 11
92.735135
 21
464.42477
  0
LINE
  5
318
100
AcDbEntity
  8
M0
100
AcDbLine
 10
102.546649
 20
464.874771
 11
101.522587
 21
464.874771
  0
LINE
  5
319
100
AcDbEntity
  8
M0
100
AcDbLine
 10
99.485136
 20
465.624772
 11
99.485136
 21
464.874771
  0
LINE
  5
31A
100
AcDbEntity
  8
M0
100
AcDbLine
 10
99.485136
 20
463.224773
 11
100.385136
 21
463.224773
  0
LINE
  5
31B
100
AcDbEntity
  8
M0
100
AcDbLine
 10
98.347686
 20
464.874771
 11
97.323622
 21
464.874771
  0
LINE
  5
31C
100
AcDbEntity
  8
M0
100
AcDbLine
 10
135.085135
 20
464.874771
 11
135.085135
 21
465.624772
  0
LINE
  5
31D
100
AcDbEntity
  8
M0
100
AcDbLine
 10
132.023623
 20
463.974774
 11
133.047685
 21
463.974774
  0
LINE
  5
31E
100
AcDbEntity
  8
M0
100
AcDbLine
 10
133.047685
 20
464.874771
 11
132.023623
 21
464.874771
  0
LINE
  5
31F
100
AcDbEntity
  8
M0
100
AcDbLine
 10
124.235135
 20
540.424772
 11
110.335136
 21
540.424772
  0
LINE
  5
320
100
AcDbEntity
  8
M0
100
AcDbLine
 10
119.035136
 20
501.224772
 11
119.035136
 21
508.172278
  0
LINE
  5
321
100
AcDbEntity
  8
M0
100
AcDbLine
 10
122.585135
 20
508.193726
 11
122.585135
 21
508.172278
  0
LINE
  5
322
100
AcDbEntity
  8
M0
100
AcDbLine
 10
137.246649
 20
464.874771
 11
136.222586
 21
464.874771
  0
LINE
  5
323
100
AcDbEntity
  8
M0
100
AcDbLine
 10
98.347686
 20
464.874771
 11
99.485136
 21
464.874771
  0
LINE
  5
324
100
AcDbEntity
  8
M0
100
AcDbLine
 10
100.385136
 20
463.224773
 11
100.385136
 21
463.974774
  0
LINE
  5
325
100
AcDbEntity
  8
M0
100
AcDbLine
 10
136.222586
 20
463.974774
 11
137.246649
 21
463.974774
  0
LINE
  5
326
100
AcDbEntity
  8
M0
100
AcDbLine
 10
99.485136
 20
463.974774
 11
99.485136
 21
463.224773
  0
LINE
  5
327
100
AcDbEntity
  8
M0
100
AcDbLine
 10
89.035136
 20
508.624772
 11
91.035136
 21
508.624772
  0
LINE
  5
328
100
AcDbEntity
  8
M0
100
AcDbLine
 10
111.485136
 20
501.174772
 11
111.735136
 21
500.674772
  0
LINE
  5
329
100
AcDbEntity
  8
M0
100
AcDbLine
 10
123.835136
 20
492.924772
 11
110.735136
 21
492.924772
  0
LINE
  5
32A
100
AcDbEntity
  8
M0
100
AcDbLine
 10
110.735136
 20
492.924772
 11
109.085136
 21
492.924772
  0
LINE
  5
32B
100
AcDbEntity
  8
M0
100
AcDbLine
 10
124.985136
 20
508.524772
 11
124.985136
 21
497.424772
  0
LINE
  5
32C
100
AcDbEntity
  8
M0
100
AcDbLine
 10
124.985136
 20
492.924772
 11
125.485136
 21
492.924772
  0
LINE
  5
32D
100
AcDbEntity
  8
M0
100
AcDbLine
 10
122.835136
 20
493.924773
 11
122.835136
 21
500.674772
  0
LINE
  5
32E
100
AcDbEntity
  8
M0
100
AcDbLine
 10
109.085136
 20
497.424772
 11
109.585136
 21
497.424772
  0
LINE
  5
32F
100
AcDbEntity
  8
M0
100
AcDbLine
 10
91.735135
 20
526.624773
 11
91.735135
 21
526.824773
  0
LINE
  5
330
100
AcDbEntity
  8
M0
100
AcDbLine
 10
122.835136
 20
500.674772
 11
123.085136
 21
501.174772
  0
LINE
  5
331
100
AcDbEntity
  8
M0
100
AcDbLine
 10
109.585136
 20
492.924772
 11
109.085136
 21
492.924772
  0
LINE
  5
332
100
AcDbEntity
  8
M0
100
AcDbLine
 10
111.735136
 20
500.674772
 11
111.735136
 21
493.924773
  0
LINE
  5
333
100
AcDbEntity
  8
M0
100
AcDbLine
 10
88.535135
 20
479.174772
 11
88.535135
 21
478.124771
  0
LINE
  5
334
100
AcDbEntity
  8
M0
100
AcDbLine
 10
111.735136
 20
507.174772
 11
111.485136
 21
506.674772
  0
LINE
  5
335
100
AcDbEntity
  8
M0
100
AcDbLine
 10
82.535136
 20
478.124771
 11
82.535136
 21
479.174772
  0
LINE
  5
336
100
AcDbEntity
  8
M0
100
AcDbLine
 10
129.435135
 20
549.424771
 11
129.435135
 21
540.424772
  0
LINE
  5
337
100
AcDbEntity
  8
M0
100
AcDbLine
 10
137.535136
 20
541.424774
 11
137.535136
 21
540.424772
  0
LINE
  5
338
100
AcDbEntity
  8
M0
100
AcDbLine
 10
133.588412
 20
545.939136
 11
131.820834
 21
544.171436
  0
LINE
  5
339
100
AcDbEntity
  8
M0
100
AcDbLine
 10
111.485136
 20
506.674772
 11
111.485136
 21
501.174772
  0
LINE
  5
33A
100
AcDbEntity
  8
M0
100
AcDbLine
 10
110.585136
 20
514.924772
 11
109.085136
 21
514.924772
  0
LINE
  5
33B
100
AcDbEntity
  8
M0
100
AcDbLine
 10
123.085136
 20
506.674772
 11
122.835136
 21
507.174772
  0
LINE
  5
33C
100
AcDbEntity
  8
M0
100
AcDbLine
 10
123.085136
 20
501.174772
 11
123.085136
 21
506.674772
  0
LINE
  5
33D
100
AcDbEntity
  8
M0
100
AcDbLine
 10
109.585136
 20
508.524772
 11
109.585136
 21
497.424772
  0
LINE
  5
33E
100
AcDbEntity
  8
M0
100
AcDbLine
 10
124.985136
 20
497.424772
 11
125.485136
 21
497.424772
  0
ARC
  5
33F
100
AcDbEntity
  8
M0
100
AcDbCircle
 10
99.935136
 20
464.424772
 40
2.65
100
AcDbArc
 50
170.223151
 51
189.776849
  0
ARC
  5
340
100
AcDbEntity
  8
M0
100
AcDbCircle
 10
99.935136
 20
464.424772
 40
2.65
100
AcDbArc
 50
350.223151
 51
369.776849
  0
ARC
  5
341
100
AcDbEntity
  8
M0
100
AcDbCircle
 10
134.635136
 20
464.424772
 40
2.65
100
AcDbArc
 50
9.776849
 51
170.223151
  0
ARC
  5
342
100
AcDbEntity
  8
M0
100
AcDbCircle
 10
154.735136
 20
477.574772
 40
1.0
100
AcDbArc
 50
270.0
 51
360.0
  0
ARC
  5
343
100
AcDbEntity
  8
M0
100
AcDbCircle
 10
134.635136
 20
464.424772
 40
2.65
100
AcDbArc
 50
189.776849
 51
350.223151
  0
ARC
  5
344
100
AcDbEntity
  8
M0
100
AcDbCircle
 10
90.035136
 20
530.674772
 40
0.6
100
AcDbArc
 50
90.0
 51
180.0
  0
ARC
  5
345
100
AcDbEntity
  8
M0
100
AcDbCircle
 10
92.477127
 20
493.330731
 40
3.350514
100
AcDbArc
 50
136.789285
 51
155.219178
  0
LINE
  5
346
100
AcDbEntity
  8
M0
100
AcDbLine
 10
82.285135
 20
528.674772
 11
88.785135
 21
528.674772
  0
ARC
  5
347
100
AcDbEntity
  8
M0
100
AcDbCircle
 10
90.035136
 20
484.424772
 40
0.6
100
AcDbArc
 50
180.0
 51
270.0
  0
ARC
  5
348
100
AcDbEntity
  8
M0
100
AcDbCircle
 10
144.535136
 20
484.424772
 40
0.6
100
AcDbArc
 50
270.0
 51
360.0
  0
ARC
  5
349
100
AcDbEntity
  8
M0
100
AcDbCircle
 10
80.635136
 20
484.824772
 40
1.0
100
AcDbArc
 50
270.0
 51
360.0
  0
ARC
  5
34A
100
AcDbEntity
  8
M0
100
AcDbCircle
 10
99.935136
 20
464.424772
 40
2.65
100
AcDbArc
 50
9.776849
 51
170.223151
  0
LINE
  5
34B
100
AcDbEntity
  8
M0
100
AcDbLine
 10
125.485136
 20
492.924772
 11
123.835136
 21
492.924772
  0
LINE
  5
34C
100
AcDbEntity
  8
M0
100
AcDbLine
 10
122.835136
 20
507.174772
 11
122.835136
 21
509.424772
  0
LINE
  5
34D
100
AcDbEntity
  8
M0
100
AcDbLine
 10
126.485136
 20
510.024772
 11
124.985136
 21
508.524772
  0
LINE
  5
34E
100
AcDbEntity
  8
M0
100
AcDbLine
 10
143.535135
 20
496.724772
 11
144.035136
 21
496.724772
  0
LINE
  5
34F
100
AcDbEntity
  8
M0
100
AcDbLine
 10
111.735136
 20
509.424772
 11
111.735136
 21
507.174772
  0
LINE
  5
350
100
AcDbEntity
  8
M0
100
AcDbLine
 10
126.485136
 20
513.924772
 11
126.485136
 21
493.924772
  0
ARC
  5
351
100
AcDbEntity
  8
M0
100
AcDbCircle
 10
154.735136
 20
530.274772
 40
1.0
100
AcDbArc
 50
0.0
 51
90.0
  0
ARC
  5
352
100
AcDbEntity
  8
M0
100
AcDbCircle
 10
80.635136
 20
477.574772
 40
1.0
100
AcDbArc
 50
270.0
 51
360.0
  0
ARC
  5
353
100
AcDbEntity
  8
M0
100
AcDbCircle
 10
144.535136
 20
530.674772
 40
0.6
100
AcDbArc
 50
0.0
 51
90.0
  0
ARC
  5
354
100
AcDbEntity
  8
M0
100
AcDbCircle
 10
90.035136
 20
477.174772
 40
0.6
100
AcDbArc
 50
180.0
 51
270.0
  0
ARC
  5
355
100
AcDbEntity
  8
M0
100
AcDbCircle
 10
144.535136
 20
477.174772
 40
0.6
100
AcDbArc
 50
270.0
 51
360.0
  0
LINE
  5
356
100
AcDbEntity
  8
M0
100
AcDbLine
 10
90.035136
 20
499.424772
 11
91.035136
 21
499.424772
  0
ARC
  5
357
100
AcDbEntity
  8
M0
100
AcDbCircle
 10
152.329137
 20
468.875068
 40
0.3
100
AcDbArc
 50
90.0
 51
180.0
  0
ARC
  5
358
100
AcDbEntity
  8
M0
100
AcDbCircle
 10
109.335136
 20
545.424772
 40
1.0
100
AcDbArc
 50
0.0
 51
90.0
  0
ARC
  5
359
100
AcDbEntity
  8
M0
100
AcDbCircle
 10
152.785136
 20
471.424772
 40
2.25
100
AcDbArc
 50
270.928845
 51
451.752277
  0
ARC
  5
35A
100
AcDbEntity
  8
M0
100
AcDbCircle
 10
91.735136
 20
545.424772
 40
1.0
100
AcDbArc
 50
0.0
 51
90.0
  0
ARC
  5
35B
100
AcDbEntity
  8
M0
100
AcDbCircle
 10
91.035136
 20
545.424772
 40
1.0
100
AcDbArc
 50
90.0
 51
180.0
  0
ARC
  5
35C
100
AcDbEntity
  8
M0
100
AcDbCircle
 10
125.235136
 20
545.424772
 40
1.0
100
AcDbArc
 50
90.0
 51
180.0
  0
ARC
  5
35D
100
AcDbEntity
  8
M0
100
AcDbCircle
 10
153.935136
 20
508.624772
 40
1.0
100
AcDbArc
 50
180.0
 51
270.0
  0
ARC
  5
35E
100
AcDbEntity
  8
M0
100
AcDbCircle
 10
104.435136
 20
541.124772
 40
0.6
100
AcDbArc
 50
270.0
 51
352.509835
  0
ARC
  5
35F
100
AcDbEntity
  8
M0
100
AcDbCircle
 10
154.735136
 20
508.624772
 40
1.0
100
AcDbArc
 50
270.0
 51
360.0
  0
ARC
  5
360
100
AcDbEntity
  8
M0
100
AcDbCircle
 10
79.835136
 20
523.024772
 40
1.0
100
AcDbArc
 50
90.0
 51
180.0
  0
ARC
  5
361
100
AcDbEntity
  8
M0
100
AcDbCircle
 10
134.635136
 20
464.424772
 40
2.65
100
AcDbArc
 50
170.223151
 51
189.776849
  0
ARC
  5
362
100
AcDbEntity
  8
M0
100
AcDbCircle
 10
107.635136
 20
545.424772
 40
1.0
100
AcDbArc
 50
90.0
 51
180.0
  0
LINE
  5
363
100
AcDbEntity
  8
M0
100
AcDbLine
 10
92.735135
 20
481.024772
 11
92.735135
 21
481.224772
  0
LINE
  5
364
100
AcDbEntity
  8
M0
100
AcDbLine
 10
153.935134
 20
531.274771
 11
154.735136
 21
531.274771
  0
LINE
  5
365
100
AcDbEntity
  8
M0
100
AcDbLine
 10
110.335136
 20
481.224772
 11
110.335136
 21
462.424772
  0
LINE
  5
366
100
AcDbEntity
  8
M0
100
AcDbLine
 10
89.435135
 20
494.735093
 11
89.435135
 21
477.174772
  0
LINE
  5
367
100
AcDbEntity
  8
M0
100
AcDbLine
 10
81.635136
 20
508.624772
 11
81.635136
 21
530.274773
  0
LINE
  5
368
100
AcDbEntity
  8
M0
100
AcDbLine
 10
89.435135
 20
530.674772
 11
89.435135
 21
513.113019
  0
ARC
  5
369
100
AcDbEntity
  8
M0
100
AcDbCircle
 10
126.935136
 20
545.424772
 40
1.0
100
AcDbArc
 50
0.0
 51
90.0
  0
ARC
  5
36A
100
AcDbEntity
  8
M0
100
AcDbCircle
 10
142.835136
 20
545.424772
 40
1.0
100
AcDbArc
 50
90.0
 51
180.0
  0
LINE
  5
36B
100
AcDbEntity
  8
M0
100
AcDbLine
 10
88.785136
 20
521.174774
 11
82.285137
 21
521.174767
  0
LINE
  5
36C
100
AcDbEntity
  8
M0
100
AcDbLine
 10
141.835136
 20
526.624773
 11
141.835136
 21
526.824773
  0
LINE
  5
36D
100
AcDbEntity
  8
M0
100
AcDbLine
 10
141.835136
 20
481.024772
 11
141.835136
 21
481.224772
  0
LINE
  5
36E
100
AcDbEntity
  8
M0
100
AcDbLine
 10
80.635137
 20
531.274771
 11
79.835135
 21
531.274771
  0
LINE
  5
36F
100
AcDbEntity
  8
M0
100
AcDbLine
 10
91.035136
 20
502.424772
 11
90.035136
 21
502.424772
  0
LINE
  5
370
100
AcDbEntity
  8
M0
100
AcDbLine
 10
108.085135
 20
510.024772
 11
109.585136
 21
508.524772
  0
LINE
  5
371
100
AcDbEntity
  8
M0
100
AcDbLine
 10
143.535135
 20
481.224772
 11
91.035136
 21
481.224772
  0
LINE
  5
372
100
AcDbEntity
  8
M0
100
AcDbLine
 10
122.835136
 20
496.724772
 11
111.735136
 21
496.724772
  0
LINE
  5
373
100
AcDbEntity
  8
M0
100
AcDbLine
 10
111.735136
 20
494.424773
 11
122.835136
 21
494.424773
  0
LINE
  5
374
100
AcDbEntity
  8
M0
100
AcDbLine
 10
111.735136
 20
498.224772
 11
122.835136
 21
498.224772
  0
LINE
  5
375
100
AcDbEntity
  8
M0
100
AcDbLine
 10
152.029138
 20
468.760584
 11
152.029138
 21
468.875069
  0
LINE
  5
376
100
AcDbEntity
  8
M0
100
AcDbLine
 10
91.735135
 20
481.024772
 11
91.735135
 21
481.224772
  0
LINE
  5
377
100
AcDbEntity
  8
M0
100
AcDbLine
 10
149.036623
 20
471.506592
 11
149.036623
 21
471.474771
  0
LINE
  5
378
100
AcDbEntity
  8
M0
100
AcDbLine
 10
107.135136
 20
528.324772
 11
109.835136
 21
528.324772
  0
LINE
  5
379
100
AcDbEntity
  8
M0
100
AcDbLine
 10
156.235136
 20
475.124773
 11
156.235136
 21
464.42477
  0
LINE
  5
37A
100
AcDbEntity
  8
M0
100
AcDbLine
 10
90.035136
 20
545.424772
 11
90.035136
 21
510.124772
  0
ARC
  5
37B
100
AcDbEntity
  8
M0
100
AcDbCircle
 10
153.935136
 20
499.224772
 40
1.0
100
AcDbArc
 50
90.0
 51
180.0
  0
LINE
  5
37C
100
AcDbEntity
  8
M0
100
AcDbLine
 10
112.235136
 20
509.924772
 11
112.235136
 21
513.924772
  0
ARC
  5
37D
100
AcDbEntity
  8
M0
100
AcDbCircle
 10
126.935136
 20
462.424772
 40
1.0
100
AcDbArc
 50
270.0
 51
360.0
  0
ARC
  5
37E
100
AcDbEntity
  8
M0
100
AcDbCircle
 10
80.635136
 20
508.624772
 40
1.0
100
AcDbArc
 50
270.0
 51
360.0
  0
ARC
  5
37F
100
AcDbEntity
  8
M0
100
AcDbCircle
 10
107.635136
 20
462.424772
 40
1.0
100
AcDbArc
 50
180.0
 51
270.0
  0
ARC
  5
380
100
AcDbEntity
  8
M0
100
AcDbCircle
 10
154.735136
 20
523.024772
 40
1.0
100
AcDbArc
 50
0.0
 51
90.0
  0
LINE
  5
381
100
AcDbEntity
  8
M0
100
AcDbLine
 10
90.035136
 20
505.424772
 11
90.035136
 21
505.324772
  0
LINE
  5
382
100
AcDbEntity
  8
M0
100
AcDbLine
 10
90.535135
 20
496.724772
 11
91.035136
 21
496.724772
  0
LINE
  5
383
100
AcDbEntity
  8
M0
100
AcDbLine
 10
90.035136
 20
502.524772
 11
90.035136
 21
502.424772
  0
LINE
  5
384
100
AcDbEntity
  8
M0
100
AcDbLine
 10
108.085135
 20
513.924772
 11
108.085135
 21
493.591669
  0
LINE
  5
385
100
AcDbEntity
  8
M0
100
AcDbLine
 10
123.335136
 20
514.924772
 11
125.485136
 21
514.924772
  0
LINE
  5
386
100
AcDbEntity
  8
M0
100
AcDbLine
 10
141.835136
 20
543.424774
 11
141.835136
 21
545.424771
  0
LINE
  5
387
100
AcDbEntity
  8
M0
100
AcDbLine
 10
81.135135
 20
507.624772
 11
81.135135
 21
500.224772
  0
LINE
  5
388
100
AcDbEntity
  8
M0
100
AcDbLine
 10
92.735135
 20
526.624773
 11
92.735135
 21
545.424771
  0
LINE
  5
389
100
AcDbEntity
  8
M0
100
AcDbLine
 10
145.135136
 20
494.735093
 11
145.135136
 21
477.174772
  0
LINE
  5
38A
100
AcDbEntity
  8
M0
100
AcDbLine
 10
152.935136
 20
477.574771
 11
152.935136
 21
499.224772
  0
LINE
  5
38B
100
AcDbEntity
  8
M0
100
AcDbLine
 10
81.635136
 20
477.574771
 11
81.635136
 21
499.224772
  0
LINE
  5
38C
100
AcDbEntity
  8
M0
100
AcDbLine
 10
110.835135
 20
514.924772
 11
111.235136
 21
514.924772
  0
LINE
  5
38D
100
AcDbEntity
  8
M0
100
AcDbLine
 10
92.735135
 20
464.42477
 11
92.735135
 21
465.424772
  0
LINE
  5
38E
100
AcDbEntity
  8
M0
100
AcDbLine
 10
123.335136
 20
514.924772
 11
123.735136
 21
514.924772
  0
LINE
  5
38F
100
AcDbEntity
  8
M0
100
AcDbLine
 10
153.435137
 20
507.624772
 11
153.435137
 21
500.224772
  0
LINE
  5
390
100
AcDbEntity
  8
M0
100
AcDbLine
 10
154.735136
 20
500.224772
 11
154.735136
 21
507.624772
  0
LINE
  5
391
100
AcDbEntity
  8
M0
100
AcDbLine
 10
79.835135
 20
500.224772
 11
79.835135
 21
507.624772
  0
ARC
  5
392
100
AcDbEntity
  8
M0
100
AcDbCircle
 10
82.285136
 20
521.674772
 40
0.5
100
AcDbArc
 50
180.0
 51
270.0
  0
ARC
  5
393
100
AcDbEntity
  8
M0
100
AcDbCircle
 10
82.285135
 20
528.174772
 40
0.5
100
AcDbArc
 50
90.0
 51
180.0
  0
ARC
  5
394
100
AcDbEntity
  8
M0
100
AcDbCircle
 10
145.785136
 20
521.674772
 40
0.5
100
AcDbArc
 50
180.0
 51
270.0
  0
ARC
  5
395
100
AcDbEntity
  8
M0
100
AcDbCircle
 10
79.835136
 20
484.824772
 40
1.0
100
AcDbArc
 50
180.0
 51
270.0
  0
ARC
  5
396
100
AcDbEntity
  8
M0
100
AcDbCircle
 10
142.093144
 20
493.330731
 40
3.350514
100
AcDbArc
 50
24.780822
 51
43.210715
  0
ARC
  5
397
100
AcDbEntity
  8
M0
100
AcDbCircle
 10
153.935136
 20
530.274772
 40
1.0
100
AcDbArc
 50
90.0
 51
180.0
  0
ARC
  5
398
100
AcDbEntity
  8
M0
100
AcDbCircle
 10
98.085136
 20
547.774772
 40
0.5
100
AcDbArc
 50
90.0
 51
180.0
  0
ARC
  5
399
100
AcDbEntity
  8
M0
100
AcDbCircle
 10
136.485136
 20
541.274773
 40
0.5
100
AcDbArc
 50
270.0
 51
360.0
  0
ARC
  5
39A
100
AcDbEntity
  8
M0
100
AcDbCircle
 10
145.785136
 20
528.174772
 40
0.5
100
AcDbArc
 50
90.0
 51
180.0
  0
ARC
  5
39B
100
AcDbEntity
  8
M0
100
AcDbCircle
 10
136.485135
 20
547.774773
 40
0.5
100
AcDbArc
 50
0.0
 51
90.0
  0
ARC
  5
39C
100
AcDbEntity
  8
M0
100
AcDbCircle
 10
152.285136
 20
521.674772
 40
0.5
100
AcDbArc
 50
270.0
 51
360.0
  0
ARC
  5
39D
100
AcDbEntity
  8
M0
100
AcDbCircle
 10
152.285136
 20
528.174772
 40
0.5
100
AcDbArc
 50
0.0
 51
90.0
  0
LINE
  5
39E
100
AcDbEntity
  8
M0
100
AcDbLine
 10
115.535136
 20
501.224772
 11
115.535136
 21
508.172278
  0
LINE
  5
39F
100
AcDbEntity
  8
M0
100
AcDbLine
 10
85.135135
 20
507.624772
 11
85.135135
 21
500.224772
  0
LINE
  5
3A0
100
AcDbEntity
  8
M0
100
AcDbLine
 10
122.585135
 20
508.624772
 11
122.585135
 21
500.12976
  0
LINE
  5
3A1
100
AcDbEntity
  8
M0
100
AcDbLine
 10
122.585135
 20
499.632241
 11
122.585135
 21
500.12976
  0
LINE
  5
3A2
100
AcDbEntity
  8
M0
100
AcDbLine
 10
111.985136
 20
508.624772
 11
111.985136
 21
500.12976
  0
LINE
  5
3A3
100
AcDbEntity
  8
M0
100
AcDbLine
 10
116.035136
 20
500.724772
 11
118.535136
 21
500.724772
  0
LINE
  5
3A4
100
AcDbEntity
  8
M0
100
AcDbLine
 10
145.135136
 20
513.224772
 11
152.935136
 21
513.224772
  0
LINE
  5
3A5
100
AcDbEntity
  8
M0
100
AcDbLine
 10
122.335135
 20
509.924772
 11
122.335135
 21
513.924772
  0
LINE
  5
3A6
100
AcDbEntity
  8
M0
100
AcDbLine
 10
154.735136
 20
476.574773
 11
153.935134
 21
476.574773
  0
LINE
  5
3A7
100
AcDbEntity
  8
M0
100
AcDbLine
 10
154.735136
 20
483.824773
 11
153.935134
 21
483.824773
  0
LINE
  5
3A8
100
AcDbEntity
  8
M0
100
AcDbLine
 10
149.435136
 20
507.624772
 11
149.435136
 21
500.224772
  0
LINE
  5
3A9
100
AcDbEntity
  8
M0
100
AcDbLine
 10
79.835135
 20
483.824773
 11
80.635137
 21
483.824773
  0
LINE
  5
3AA
100
AcDbEntity
  8
M0
100
AcDbLine
 10
81.635136
 20
494.624772
 11
89.435135
 21
494.624772
  0
LINE
  5
3AB
100
AcDbEntity
  8
M0
100
AcDbLine
 10
149.435136
 20
500.224772
 11
153.935134
 21
500.224772
  0
LINE
  5
3AC
100
AcDbEntity
  8
M0
100
AcDbLine
 10
141.835136
 20
542.424772
 11
141.835136
 21
543.424774
  0
LINE
  5
3AD
100
AcDbEntity
  8
M0
100
AcDbLine
 10
141.835136
 20
464.42477
 11
141.835136
 21
465.424772
  0
LINE
  5
3AE
100
AcDbEntity
  8
M0
100
AcDbLine
 10
106.635136
 20
548.924774
 11
106.635136
 21
526.624773
  0
LINE
  5
3AF
100
AcDbEntity
  8
M0
100
AcDbLine
 10
127.935135
 20
465.424772
 11
127.935135
 21
464.42477
  0
LINE
  5
3B0
100
AcDbEntity
  8
M0
100
AcDbLine
 10
89.435135
 20
513.224772
 11
81.635136
 21
513.224772
  0
LINE
  5
3B1
100
AcDbEntity
  8
M0
100
AcDbLine
 10
111.985136
 20
499.632241
 11
111.985136
 21
500.12976
  0
LINE
  5
3B2
100
AcDbEntity
  8
M0
100
AcDbLine
 10
153.935134
 20
507.624772
 11
149.435136
 21
507.624772
  0
LINE
  5
3B3
100
AcDbEntity
  8
M0
100
AcDbLine
 10
79.835135
 20
500.224772
 11
85.135135
 21
500.224772
  0
LINE
  5
3B4
100
AcDbEntity
  8
M0
100
AcDbLine
 10
145.135136
 20
530.674772
 11
145.135136
 21
513.141288
  0
LINE
  5
3B5
100
AcDbEntity
  8
M0
100
AcDbLine
 10
141.835136
 20
462.424774
 11
141.835136
 21
466.424771
  0
LINE
  5
3B6
100
AcDbEntity
  8
M0
100
AcDbLine
 10
126.43514
 20
461.424772
 11
125.235136
 21
461.424772
  0
LINE
  5
3B7
100
AcDbEntity
  8
M0
100
AcDbLine
 10
92.735135
 20
462.424774
 11
92.735135
 21
466.424771
  0
LINE
  5
3B8
100
AcDbEntity
  8
M0
100
AcDbLine
 10
110.335136
 20
526.824773
 11
106.635136
 21
526.824773
  0
LINE
  5
3B9
100
AcDbEntity
  8
M0
100
AcDbLine
 10
145.535135
 20
502.524772
 11
143.835136
 21
502.524772
  0
LINE
  5
3BA
100
AcDbEntity
  8
M0
100
AcDbLine
 10
127.935135
 20
466.424771
 11
127.935135
 21
462.424774
  0
CIRCLE
  5
3BB
100
AcDbEntity
  8
M0
100
AcDbCircle
 10
149.035137
 20
482.924771
 40
3.0
  0
CIRCLE
  5
3BC
100
AcDbEntity
  8
M0
100
AcDbCircle
 10
149.035137
 20
490.524771
 40
3.0
  0
CIRCLE
  5
3BD
100
AcDbEntity
  8
M0
100
AcDbCircle
 10
99.685136
 20
474.424741
 40
4.499996
  0
CIRCLE
  5
3BE
100
AcDbEntity
  8
M0
100
AcDbCircle
 10
134.885136
 20
474.424741
 40
4.499996
  0
CIRCLE
  5
3BF
100
AcDbEntity
  8
M0
100
AcDbCircle
 10
117.285136
 20
474.424741
 40
4.499996
  0
LINE
  5
3C0
100
AcDbEntity
  8
M0
100
AcDbLine
 10
126.935136
 20
461.424772
 11
126.43514
 21
461.424772
  0
LINE
  5
3C1
100
AcDbEntity
  8
M0
100
AcDbLine
 10
124.235135
 20
481.224772
 11
124.235135
 21
479.024772
  0
LINE
  5
3C2
100
AcDbEntity
  8
M0
100
AcDbLine
 10
127.935135
 20
481.024772
 11
124.235135
 21
481.024772
  0
LINE
  5
3C3
100
AcDbEntity
  8
M0
100
AcDbLine
 10
127.935135
 20
479.024772
 11
127.935135
 21
481.224772
  0
LINE
  5
3C4
100
AcDbEntity
  8
M0
100
AcDbLine
 10
153.935134
 20
507.624772
 11
154.735136
 21
507.624772
  0
LINE
  5
3C5
100
AcDbEntity
  8
M0
100
AcDbLine
 10
153.935134
 20
524.024772
 11
154.735136
 21
524.024772
  0
LINE
  5
3C6
100
AcDbEntity
  8
M0
100
AcDbLine
 10
81.635136
 20
486.724772
 11
89.435135
 21
486.724772
  0
LINE
  5
3C7
100
AcDbEntity
  8
M0
100
AcDbLine
 10
124.235135
 20
526.824773
 11
127.935135
 21
526.824773
  0
LINE
  5
3C8
100
AcDbEntity
  8
M0
100
AcDbLine
 10
143.835136
 20
505.324772
 11
145.535135
 21
505.324772
  0
LINE
  5
3C9
100
AcDbEntity
  8
M0
100
AcDbLine
 10
106.635136
 20
481.224772
 11
106.635136
 21
462.424774
  0
LINE
  5
3CA
100
AcDbEntity
  8
M0
100
AcDbLine
 10
143.835136
 20
502.524772
 11
143.835136
 21
505.324772
  0
LINE
  5
3CB
100
AcDbEntity
  8
M0
100
AcDbLine
 10
90.735135
 20
502.524772
 11
90.735135
 21
505.324772
  0
LINE
  5
3CC
100
AcDbEntity
  8
M0
100
AcDbLine
 10
106.635136
 20
481.024772
 11
110.335136
 21
481.024772
  0
LINE
  5
3CD
100
AcDbEntity
  8
M0
100
AcDbLine
 10
149.388416
 20
484.339134
 11
147.620838
 21
482.571433
  0
LINE
  5
3CE
100
AcDbEntity
  8
M0
100
AcDbLine
 10
150.62572
 20
481.334129
 11
147.44408
 21
484.515891
  0
LINE
  5
3CF
100
AcDbEntity
  8
M0
100
AcDbLine
 10
150.448963
 20
483.278465
 11
148.681384
 21
481.510887
  0
LINE
  5
3D0
100
AcDbEntity
  8
M0
100
AcDbLine
 10
101.566239
 20
474.891722
 11
99.218262
 21
472.54373
  0
LINE
  5
3D1
100
AcDbEntity
  8
M0
100
AcDbLine
 10
100.152039
 20
476.305937
 11
97.804063
 21
473.957945
  0
LINE
  5
3D2
100
AcDbEntity
  8
M0
100
AcDbLine
 10
97.616181
 20
476.493712
 11
101.879151
 21
472.230772
  0
ARC
  5
3D3
100
AcDbEntity
  8
M0
100
AcDbCircle
 10
138.735136
 20
549.424772
 40
1.0
100
AcDbArc
 50
90.0
 51
180.0
  0
CIRCLE
  5
3D4
100
AcDbEntity
  8
M0
100
AcDbCircle
 10
149.035137
 20
517.324774
 40
3.0
  0
ARC
  5
3D5
100
AcDbEntity
  8
M0
100
AcDbCircle
 10
138.735136
 20
549.424772
 40
1.0
100
AcDbArc
 50
0.0
 51
90.0
  0
LINE
  5
3D6
100
AcDbEntity
  8
M0
100
AcDbLine
 10
150.448963
 20
490.878465
 11
148.681384
 21
489.110887
  0
LINE
  5
3D7
100
AcDbEntity
  8
M0
100
AcDbLine
 10
149.388416
 20
491.939134
 11
147.620838
 21
490.171434
  0
LINE
  5
3D8
100
AcDbEntity
  8
M0
100
AcDbLine
 10
150.62572
 20
488.934129
 11
147.44408
 21
492.115892
  0
LINE
  5
3D9
100
AcDbEntity
  8
M0
100
AcDbLine
 10
119.166239
 20
474.891722
 11
116.818262
 21
472.54373
  0
LINE
  5
3DA
100
AcDbEntity
  8
M0
100
AcDbLine
 10
117.752039
 20
476.305937
 11
115.404063
 21
473.957945
  0
LINE
  5
3DB
100
AcDbEntity
  8
M0
100
AcDbLine
 10
115.216181
 20
476.493712
 11
119.479151
 21
472.230772
  0
LINE
  5
3DC
100
AcDbEntity
  8
M0
100
AcDbLine
 10
136.766239
 20
474.891722
 11
134.418262
 21
472.54373
  0
LINE
  5
3DD
100
AcDbEntity
  8
M0
100
AcDbLine
 10
135.352039
 20
476.305937
 11
133.004063
 21
473.957945
  0
LINE
  5
3DE
100
AcDbEntity
  8
M0
100
AcDbLine
 10
144.535135
 20
462.424772
 11
144.535135
 21
497.724772
  0
LINE
  5
3DF
100
AcDbEntity
  8
M0
100
AcDbLine
 10
110.335136
 20
526.624773
 11
110.335136
 21
545.424771
  0
LINE
  5
3E0
100
AcDbEntity
  8
M0
100
AcDbLine
 10
124.235135
 20
526.624773
 11
124.235135
 21
545.424771
  0
LINE
  5
3E1
100
AcDbEntity
  8
M0
100
AcDbLine
 10
142.835136
 20
481.024772
 11
142.835136
 21
481.224772
  0
LINE
  5
3E2
100
AcDbEntity
  8
M0
100
AcDbLine
 10
125.235136
 20
546.424773
 11
126.935136
 21
546.424773
  0
LINE
  5
3E3
100
AcDbEntity
  8
M0
100
AcDbLine
 10
109.335135
 20
546.424773
 11
107.635136
 21
546.424773
  0
LINE
  5
3E4
100
AcDbEntity
  8
M0
100
AcDbLine
 10
91.735135
 20
546.424773
 11
91.035136
 21
546.424773
  0
LINE
  5
3E5
100
AcDbEntity
  8
M0
100
AcDbLine
 10
112.235136
 20
509.924772
 11
122.335135
 21
509.924772
  0
LINE
  5
3E6
100
AcDbEntity
  8
M0
100
AcDbLine
 10
133.047685
 20
464.874771
 11
134.185135
 21
464.874771
  0
LINE
  5
3E7
100
AcDbEntity
  8
M0
100
AcDbLine
 10
134.185135
 20
463.224773
 11
135.085135
 21
463.224773
  0
LINE
  5
3E8
100
AcDbEntity
  8
M0
100
AcDbLine
 10
143.535135
 20
499.224772
 11
145.535135
 21
499.224772
  0
LINE
  5
3E9
100
AcDbEntity
  8
M0
100
AcDbLine
 10
141.835136
 20
526.624773
 11
141.835136
 21
545.424771
  0
LINE
  5
3EA
100
AcDbEntity
  8
M0
100
AcDbLine
 10
152.329139
 20
469.175067
 11
152.821611
 21
469.175067
  0
LINE
  5
3EB
100
AcDbEntity
  8
M0
100
AcDbLine
 10
91.735135
 20
526.824773
 11
92.735135
 21
526.824773
  0
LINE
  5
3EC
100
AcDbEntity
  8
M0
100
AcDbLine
 10
91.035136
 20
499.224772
 11
89.035136
 21
499.224772
  0
LINE
  5
3ED
100
AcDbEntity
  8
M0
100
AcDbLine
 10
142.835136
 20
526.824773
 11
141.835136
 21
526.824773
  0
LINE
  5
3EE
100
AcDbEntity
  8
M0
100
AcDbLine
 10
90.035136
 20
497.724772
 11
90.035136
 21
462.424772
  0
LINE
  5
3EF
100
AcDbEntity
  8
M0
100
AcDbLine
 10
152.935136
 20
494.624772
 11
145.135136
 21
494.624772
  0
LINE
  5
3F0
100
AcDbEntity
  8
M0
100
AcDbLine
 10
145.535135
 20
508.624772
 11
143.535135
 21
508.624772
  0
LINE
  5
3F1
100
AcDbEntity
  8
M0
100
AcDbLine
 10
143.335131
 20
546.424773
 11
143.535135
 21
546.424773
  0
LINE
  5
3F2
100
AcDbEntity
  8
M0
100
AcDbLine
 10
142.835136
 20
526.624773
 11
142.835136
 21
526.824773
  0
LINE
  5
3F3
100
AcDbEntity
  8
M0
100
AcDbLine
 10
140.885137
 20
466.424771
 11
141.835136
 21
466.424771
  0
LINE
  5
3F4
100
AcDbEntity
  8
M0
100
AcDbLine
 10
152.716334
 20
473.67372
 11
151.286792
 21
473.674772
  0
LINE
  5
3F5
100
AcDbEntity
  8
M0
100
AcDbLine
 10
144.535135
 20
510.124772
 11
144.535135
 21
545.424772
  0
CIRCLE
  5
3F6
100
AcDbEntity
  8
M0
100
AcDbCircle
 10
134.635136
 20
464.424772
 40
2.85
  0
CIRCLE
  5
3F7
100
AcDbEntity
  8
M0
100
AcDbCircle
 10
117.285136
 20
544.224772
 40
2.825
  0
ARC
  5
3F8
100
AcDbEntity
  8
M0
100
AcDbCircle
 10
137.035136
 20
541.424772
 40
0.5
100
AcDbArc
 50
0.0
 51
66.421822
  0
ARC
  5
3F9
100
AcDbEntity
  8
M0
100
AcDbCircle
 10
100.235136
 20
549.924772
 40
0.5
100
AcDbArc
 50
90.0
 51
180.0
  0
ARC
  5
3FA
100
AcDbEntity
  8
M0
100
AcDbCircle
 10
128.435136
 20
549.424772
 40
1.0
100
AcDbArc
 50
0.0
 51
90.0
  0
ARC
  5
3FB
100
AcDbEntity
  8
M0
100
AcDbCircle
 10
97.535136
 20
541.424772
 40
0.5
100
AcDbArc
 50
113.578178
 51
180.0
  0
LINE
  5
3FC
100
AcDbEntity
  8
M0
100
AcDbLine
 10
80.635137
 20
524.024772
 11
79.835135
 21
524.024772
  0
LINE
  5
3FD
100
AcDbEntity
  8
M0
100
AcDbLine
 10
132.816181
 20
476.493712
 11
137.079151
 21
472.230772
  0
LINE
  5
3FE
100
AcDbEntity
  8
M0
100
AcDbLine
 10
85.135135
 20
507.624772
 11
79.835135
 21
507.624772
  0
LINE
  5
3FF
100
AcDbEntity
  8
M0
100
AcDbLine
 10
154.735136
 20
500.224772
 11
153.935134
 21
500.224772
  0
LINE
  5
400
100
AcDbEntity
  8
M0
100
AcDbLine
 10
152.935136
 20
530.274772
 11
152.935136
 21
508.624772
  0
CIRCLE
  5
401
100
AcDbEntity
  8
M0
100
AcDbCircle
 10
117.285136
 20
544.224772
 40
2.85
  0
ARC
  5
402
100
AcDbEntity
  8
M0
100
AcDbCircle
 10
111.235136
 20
513.924772
 40
1.0
100
AcDbArc
 50
0.0
 51
90.0
  0
ARC
  5
403
100
AcDbEntity
  8
M0
100
AcDbCircle
 10
125.485136
 20
496.424772
 40
1.0
100
AcDbArc
 50
0.0
 51
90.0
  0
ARC
  5
404
100
AcDbEntity
  8
M0
100
AcDbCircle
 10
123.335136
 20
513.924772
 40
1.0
100
AcDbArc
 50
90.0
 51
180.0
  0
LINE
  5
405
100
AcDbEntity
  8
M0
100
AcDbLine
 10
122.835136
 20
509.424772
 11
111.735136
 21
509.424772
  0
LINE
  5
406
100
AcDbEntity
  8
M0
100
AcDbLine
 10
122.335135
 20
513.424772
 11
112.235136
 21
513.424772
  0
LINE
  5
407
100
AcDbEntity
  8
M0
100
AcDbLine
 10
142.835136
 20
546.424773
 11
143.335131
 21
546.424773
  0
ARC
  5
408
100
AcDbEntity
  8
M0
100
AcDbCircle
 10
106.135136
 20
549.424772
 40
1.0
100
AcDbArc
 50
90.0
 51
180.0
  0
ARC
  5
409
100
AcDbEntity
  8
M0
100
AcDbCircle
 10
134.335136
 20
549.924772
 40
0.5
100
AcDbArc
 50
0.0
 51
90.0
  0
ARC
  5
40A
100
AcDbEntity
  8
M0
100
AcDbCircle
 10
79.835136
 20
499.224772
 40
1.0
100
AcDbArc
 50
90.0
 51
180.0
  0
ARC
  5
40B
100
AcDbEntity
  8
M0
100
AcDbCircle
 10
154.735136
 20
499.224772
 40
1.0
100
AcDbArc
 50
0.0
 51
90.0
  0
ARC
  5
40C
100
AcDbEntity
  8
M0
100
AcDbCircle
 10
79.835136
 20
508.624772
 40
1.0
100
AcDbArc
 50
180.0
 51
270.0
  0
ARC
  5
40D
100
AcDbEntity
  8
M0
100
AcDbCircle
 10
122.835136
 20
509.924772
 40
0.5
100
AcDbArc
 50
180.0
 51
270.0
  0
LINE
  5
40E
100
AcDbEntity
  8
M0
  6
DASHED
100
AcDbLine
 10
66.335139
 20
533.624772
 11
66.335139
 21
474.224772
  0
LINE
  5
40F
100
AcDbEntity
  8
M0
  6
DASHED
100
AcDbLine
 10
66.335139
 20
533.624772
 11
78.835139
 21
533.624772
  0
LINE
  5
410
100
AcDbEntity
  8
M0
  6
DASHED
100
AcDbLine
 10
66.335139
 20
474.224772
 11
78.835139
 21
474.224772
  0
LINE
  5
411
100
AcDbEntity
  8
M0
  6
DASHED
100
AcDbLine
 10
255.135129
 20
533.624772
 11
242.635129
 21
533.624772
  0
LINE
  5
412
100
AcDbEntity
  8
M0
  6
DASHED
100
AcDbLine
 10
255.135129
 20
533.624772
 11
255.135129
 21
474.224772
  0
LINE
  5
413
100
AcDbEntity
  8
M0
  6
DASHED
100
AcDbLine
 10
255.135129
 20
474.224772
 11
242.635129
 21
474.224772
  0
CIRCLE
  5
414
100
AcDbEntity
  8
M0
100
AcDbCircle
 10
221.785133
 20
533.424772
 40
5.0
  0
CIRCLE
  5
415
100
AcDbEntity
  8
M0
100
AcDbCircle
 10
204.185133
 20
533.424772
 40
5.0
  0
CIRCLE
  5
416
100
AcDbEntity
  8
M0
100
AcDbCircle
 10
186.585133
 20
533.424772
 40
5.0
  0
CIRCLE
  5
417
100
AcDbEntity
  8
M0
100
AcDbCircle
 10
221.785133
 20
474.42471
 40
5.0
  0
CIRCLE
  5
418
100
AcDbEntity
  8
M0
100
AcDbCircle
 10
204.185133
 20
474.42471
 40
5.0
  0
CIRCLE
  5
419
100
AcDbEntity
  8
M0
100
AcDbCircle
 10
186.585133
 20
474.42471
 40
5.0
  0
CIRCLE
  5
41A
100
AcDbEntity
  8
M0
100
AcDbCircle
 10
134.885136
 20
474.42471
 40
5.0
  0
CIRCLE
  5
41B
100
AcDbEntity
  8
M0
100
AcDbCircle
 10
117.285136
 20
474.42471
 40
5.0
  0
CIRCLE
  5
41C
100
AcDbEntity
  8
M0
100
AcDbCircle
 10
99.685136
 20
474.42471
 40
5.0
  0
CIRCLE
  5
41D
100
AcDbEntity
  8
M0
100
AcDbCircle
 10
99.685136
 20
533.424772
 40
5.0
  0
CIRCLE
  5
41E
100
AcDbEntity
  8
M0
100
AcDbCircle
 10
117.285136
 20
533.424772
 40
5.0
  0
CIRCLE
  5
41F
100
AcDbEntity
  8
M0
100
AcDbCircle
 10
134.885136
 20
533.424772
 40
5.0
  0
HATCH
  5
420
100
AcDbEntity
  8
M0
 62
     7
100
AcDbHatch
 10
0.0
 20
0.0
210
0.0
220
0.0
230
1.0
  2
SOLID
 70
     1
 71
     0
 91
        1
 92
        1
 93
        4
 72
     1
 10
333.349811
 20
551.444901
 11
331.349811
 21
551.444901
 72
     1
 10
331.349811
 20
551.444901
 11
331.349811
 21
533.244901
 72
     1
 10
331.349811
 20
533.244901
 11
333.349811
 21
533.244901
 72
     1
 10
333.349811
 20
533.244901
 11
333.349811
 21
551.444901
 97
        0
 75
     0
 76
     1
 98
        1
 10
0.0
 20
0.0
  0
LINE
  5
423
100
AcDbEntity
  8
M0
100
AcDbLine
 10
340.349811
 20
496.52477
 11
340.349811
 21
492.02477
  0
LINE
  5
424
100
AcDbEntity
  8
M0
100
AcDbLine
 10
389.749813
 20
496.82477
 11
391.549811
 21
496.82477
  0
LINE
  5
425
100
AcDbEntity
  8
M0
100
AcDbLine
 10
338.849808
 20
496.52477
 11
340.349811
 21
496.52477
  0
LINE
  5
426
100
AcDbEntity
  8
M0
100
AcDbLine
 10
391.549811
 20
460.524769
 11
391.549811
 21
497.02477
  0
LINE
  5
427
100
AcDbEntity
  8
M0
100
AcDbLine
 10
339.349809
 20
514.02477
 11
342.649813
 21
514.02477
  0
LINE
  5
428
100
AcDbEntity
  8
M0
100
AcDbLine
 10
389.249812
 20
508.72477
 11
389.249812
 21
506.22477
  0
LINE
  5
429
100
AcDbEntity
  8
M0
100
AcDbLine
 10
377.04981
 20
500.32477
 11
388.749811
 21
500.32477
  0
LINE
  5
42A
100
AcDbEntity
  8
M0
100
AcDbLine
 10
338.349814
 20
492.52477
 11
338.349814
 21
513.52477
  0
LINE
  5
42B
100
AcDbEntity
  8
M0
100
AcDbLine
 10
339.349809
 20
514.02477
 11
338.849808
 21
514.02477
  0
LINE
  5
42C
100
AcDbEntity
  8
M0
100
AcDbLine
 10
338.849808
 20
492.02477
 11
342.649813
 21
492.02477
  0
ARC
  5
42D
100
AcDbEntity
  8
M0
100
AcDbCircle
 10
390.049811
 20
508.52477
 40
0.5
100
AcDbArc
 50
90.0
 51
180.0
  0
LINE
  5
42E
100
AcDbEntity
  8
M0
100
AcDbLine
 10
398.949812
 20
523.124769
 11
391.549811
 21
523.124769
  0
ARC
  5
42F
100
AcDbEntity
  8
M0
100
AcDbCircle
 10
388.749811
 20
499.82477
 40
0.5
100
AcDbArc
 50
0.0
 51
90.0
  0
ARC
  5
430
100
AcDbEntity
  8
M0
100
AcDbCircle
 10
382.94708
 20
527.37477
 40
3.0
100
AcDbArc
 50
49.635463
 51
90.0
  0
ARC
  5
431
100
AcDbEntity
  8
M0
100
AcDbCircle
 10
389.749811
 20
497.32477
 40
0.5
100
AcDbArc
 50
180.0
 51
270.0
  0
LINE
  5
432
100
AcDbEntity
  8
M0
100
AcDbLine
 10
340.349811
 20
507.62477
 11
338.849808
 21
507.62477
  0
LINE
  5
433
100
AcDbEntity
  8
M0
100
AcDbLine
 10
391.549811
 20
460.524769
 11
385.849811
 21
460.524769
  0
LINE
  5
434
100
AcDbEntity
  8
M0
100
AcDbLine
 10
390.04981
 20
509.02477
 11
391.549811
 21
509.02477
  0
LINE
  5
435
100
AcDbEntity
  8
M0
100
AcDbLine
 10
415.749811
 20
478.224769
 11
391.549811
 21
478.224769
  0
LINE
  5
436
100
AcDbEntity
  8
M0
100
AcDbLine
 10
340.349811
 20
509.12477
 11
340.349811
 21
507.62477
  0
ARC
  5
437
100
AcDbEntity
  8
M0
100
AcDbCircle
 10
377.049811
 20
500.82477
 40
0.5
100
AcDbArc
 50
180.0
 51
270.0
  0
ARC
  5
438
100
AcDbEntity
  8
M0
100
AcDbCircle
 10
343.149811
 20
495.32477
 40
0.5
100
AcDbArc
 50
90.0
 51
180.0
  0
ARC
  5
439
100
AcDbEntity
  8
M0
100
AcDbCircle
 10
343.149811
 20
510.72477
 40
0.5
100
AcDbArc
 50
180.0
 51
270.0
  0
ARC
  5
43A
100
AcDbEntity
  8
M0
100
AcDbCircle
 10
377.049811
 20
505.22477
 40
0.5
100
AcDbArc
 50
90.0
 51
180.0
  0
ARC
  5
43B
100
AcDbEntity
  8
M0
100
AcDbCircle
 10
346.349811
 20
497.82477
 40
1.0
100
AcDbArc
 50
180.0
 51
270.0
  0
ARC
  5
43C
100
AcDbEntity
  8
M0
100
AcDbCircle
 10
343.649811
 20
481.32477
 40
1.0
100
AcDbArc
 50
180.0
 51
270.0
  0
LINE
  5
43D
100
AcDbEntity
  8
M0
100
AcDbLine
 10
351.449813
 20
523.124769
 11
362.849812
 21
523.124769
  0
LINE
  5
43E
100
AcDbEntity
  8
M0
100
AcDbLine
 10
387.049812
 20
527.82477
 11
391.549811
 21
527.82477
  0
LINE
  5
43F
100
AcDbEntity
  8
M0
100
AcDbLine
 10
389.249812
 20
499.82477
 11
389.249812
 21
497.32477
  0
LINE
  5
440
100
AcDbEntity
  8
M0
100
AcDbLine
 10
351.449813
 20
499.32477
 11
351.449813
 21
506.72477
  0
LINE
  5
441
100
AcDbEntity
  8
M0
100
AcDbLine
 10
391.549811
 20
509.02477
 11
391.549811
 21
536.02477
  0
LINE
  5
442
100
AcDbEntity
  8
M0
100
AcDbLine
 10
343.649815
 20
525.72477
 11
345.349814
 21
525.72477
  0
ELLIPSE
  5
443
100
AcDbEntity
  8
M0
100
AcDbEllipse
 10
338.849811
 20
509.331876
 11
-0.5
 21
0.0
210
0.0
220
0.0
230
1.0
 40
0.414214
 41
0.0
 42
1.570796326794897
  0
LINE
  5
444
100
AcDbEntity
  8
M0
100
AcDbLine
 10
345.349814
 20
504.52477
 11
342.649813
 21
504.52477
  0
LINE
  5
445
100
AcDbEntity
  8
M0
100
AcDbLine
 10
376.549813
 20
505.22477
 11
376.549813
 21
500.82477
  0
LINE
  5
446
100
AcDbEntity
  8
M0
100
AcDbLine
 10
345.349814
 20
510.22477
 11
343.149814
 21
510.22477
  0
ARC
  5
447
100
AcDbEntity
  8
M0
100
AcDbCircle
 10
342.149811
 20
488.52477
 40
0.5
100
AcDbArc
 50
180.0
 51
270.0
  0
ARC
  5
448
100
AcDbEntity
  8
M0
100
AcDbCircle
 10
382.94708
 20
478.67477
 40
3.0
100
AcDbArc
 50
270.0
 51
310.364537
  0
ARC
  5
449
100
AcDbEntity
  8
M0
100
AcDbCircle
 10
388.749811
 20
506.22477
 40
0.5
100
AcDbArc
 50
270.0
 51
360.0
  0
ARC
  5
44A
100
AcDbEntity
  8
M0
100
AcDbCircle
 10
342.149811
 20
489.52477
 40
0.5
100
AcDbArc
 50
90.0
 51
180.0
  0
ARC
  5
44B
100
AcDbEntity
  8
M0
100
AcDbCircle
 10
376.107171
 20
463.52477
 40
3.0
100
AcDbArc
 50
270.0
 51
315.0
  0
LINE
  5
44C
100
AcDbEntity
  8
M0
100
AcDbLine
 10
342.649813
 20
507.52477
 11
345.349814
 21
507.52477
  0
LINE
  5
44D
100
AcDbEntity
  8
M0
  6
DASHED
100
AcDbLine
 10
327.749811
 20
480.624772
 11
312.649811
 21
480.624772
  0
LINE
  5
44E
100
AcDbEntity
  8
M0
  6
DASHED
100
AcDbLine
 10
327.749811
 20
527.424773
 11
312.649811
 21
527.424773
  0
LINE
  5
44F
100
AcDbEntity
  8
M0
  6
DASHED
100
AcDbLine
 10
308.649811
 20
484.624772
 11
308.649811
 21
523.424772
  0
LINE
  5
450
100
AcDbEntity
  8
M0
  6
DASHED
100
AcDbLine
 10
307.049812
 20
505.324772
 11
307.049812
 21
502.524772
  0
LINE
  5
451
100
AcDbEntity
  8
M0
  6
DASHED
100
AcDbLine
 10
307.049812
 20
505.324772
 11
308.649811
 21
505.324772
  0
LINE
  5
452
100
AcDbEntity
  8
M0
  6
DASHED
100
AcDbLine
 10
332.749811
 20
486.324778
 11
332.749811
 21
485.624772
  0
ARC
  5
453
100
AcDbEntity
  8
M0
  6
DASHED
100
AcDbCircle
 10
342.149811
 20
486.824778
 40
0.5
100
AcDbArc
 50
270.0
 51
360.0
  0
ARC
  5
454
100
AcDbEntity
  8
M0
  6
DASHED
100
AcDbCircle
 10
327.749811
 20
485.624772
 40
5.0
100
AcDbArc
 50
270.0
 51
360.0
  0
ARC
  5
455
100
AcDbEntity
  8
M0
  6
DASHED
100
AcDbCircle
 10
342.149811
 20
521.224766
 40
0.5
100
AcDbArc
 50
0.0
 51
90.0
  0
ARC
  5
456
100
AcDbEntity
  8
M0
  6
DASHED
100
AcDbCircle
 10
312.649811
 20
484.624772
 40
4.0
100
AcDbArc
 50
180.0
 51
270.0
  0
ARC
  5
457
100
AcDbEntity
  8
M0
  6
DASHED
100
AcDbCircle
 10
312.649811
 20
523.424772
 40
4.0
100
AcDbArc
 50
90.0
 51
180.0
  0
ARC
  5
458
100
AcDbEntity
  8
M0
  6
DASHED
100
AcDbCircle
 10
327.749811
 20
522.424772
 40
5.0
100
AcDbArc
 50
0.0
 51
90.0
  0
LINE
  5
459
100
AcDbEntity
  8
M0
  6
DASHED
100
AcDbLine
 10
308.649811
 20
502.524772
 11
307.049812
 21
502.524772
  0
LINE
  5
45A
100
AcDbEntity
  8
M0
  6
DASHED
100
AcDbLine
 10
342.149811
 20
521.724766
 11
332.749811
 21
521.724766
  0
LINE
  5
45B
100
AcDbEntity
  8
M0
  6
DASHED
100
AcDbLine
 10
332.749811
 20
521.724766
 11
332.749811
 21
522.424772
  0
LINE
  5
45C
100
AcDbEntity
  8
M0
  6
DASHED
100
AcDbLine
 10
340.949811
 20
523.724772
 11
341.549813
 21
521.724766
  0
LINE
  5
45D
100
AcDbEntity
  8
M0
  6
DASHED
100
AcDbLine
 10
340.549811
 20
521.724766
 11
340.549811
 21
523.724772
  0
ELLIPSE
  5
45E
100
AcDbEntity
  8
M0
100
AcDbEllipse
 10
338.849811
 20
507.831876
 11
-0.5
 21
0.0
210
0.0
220
0.0
230
1.0
 40
0.414214
 41
0.0
 42
1.570796326794897
  0
ARC
  5
45F
100
AcDbEntity
  8
M0
100
AcDbCircle
 10
390.049811
 20
497.52477
 40
0.5
100
AcDbArc
 50
180.0
 51
270.0
  0
LINE
  5
460
100
AcDbEntity
  8
M0
100
AcDbLine
 10
333.349811
 20
533.244901
 11
333.349811
 21
551.444901
  0
ARC
  5
461
100
AcDbEntity
  8
M0
100
AcDbCircle
 10
351.449811
 20
520.12477
 40
3.0
100
AcDbArc
 50
90.0
 51
180.0
  0
LINE
  5
462
100
AcDbEntity
  8
M0
100
AcDbLine
 10
390.04981
 20
497.02477
 11
391.549811
 21
497.02477
  0
LINE
  5
463
100
AcDbEntity
  8
M0
100
AcDbLine
 10
340.349811
 20
513.024769
 11
340.349811
 21
509.12477
  0
LINE
  5
464
100
AcDbEntity
  8
M0
  6
DASHED
100
AcDbLine
 10
340.549811
 20
523.724772
 11
340.949811
 21
523.724772
  0
LINE
  5
465
100
AcDbEntity
  8
M0
  6
DASHED
100
AcDbLine
 10
342.149812
 20
486.324778
 11
332.749811
 21
486.324778
  0
LINE
  5
466
100
AcDbEntity
  8
M0
100
AcDbLine
 10
398.949812
 20
487.924769
 11
391.549811
 21
487.924769
  0
LINE
  5
467
100
AcDbEntity
  8
M0
100
AcDbLine
 10
389.549813
 20
497.52477
 11
389.549813
 21
508.52477
  0
LINE
  5
468
100
AcDbEntity
  8
M0
100
AcDbLine
 10
398.949812
 20
518.12477
 11
391.549811
 21
518.12477
  0
LINE
  5
469
100
AcDbEntity
  8
M0
100
AcDbLine
 10
377.849812
 20
505.72477
 11
377.849812
 21
500.52477
  0
LINE
  5
46A
100
AcDbEntity
  8
M0
100
AcDbLine
 10
391.549811
 20
478.224769
 11
387.049812
 21
478.224769
  0
LINE
  5
46B
100
AcDbEntity
  8
M0
100
AcDbLine
 10
387.049812
 20
478.224769
 11
384.890026
 21
476.388952
  0
LINE
  5
46C
100
AcDbEntity
  8
M0
100
AcDbLine
 10
365.84981
 20
478.674769
 11
365.84981
 21
479.92477
  0
LINE
  5
46D
100
AcDbEntity
  8
M0
100
AcDbLine
 10
362.849812
 20
482.92477
 11
351.449813
 21
482.92477
  0
LINE
  5
46E
100
AcDbEntity
  8
M0
100
AcDbLine
 10
345.349814
 20
465.52477
 11
345.349814
 21
540.52477
  0
LINE
  5
46F
100
AcDbEntity
  8
M0
100
AcDbLine
 10
346.349808
 20
509.22477
 11
348.449814
 21
509.22477
  0
ARC
  5
470
100
AcDbEntity
  8
M0
100
AcDbCircle
 10
349.449811
 20
507.72477
 40
1.0
100
AcDbArc
 50
180.0
 51
270.0
  0
ARC
  5
471
100
AcDbEntity
  8
M0
100
AcDbCircle
 10
385.849811
 20
461.52477
 40
1.0
100
AcDbArc
 50
180.0
 51
270.0
  0
ARC
  5
472
100
AcDbEntity
  8
M0
100
AcDbCircle
 10
351.449811
 20
485.92477
 40
3.0
100
AcDbArc
 50
180.0
 51
270.0
  0
ARC
  5
473
100
AcDbEntity
  8
M0
100
AcDbCircle
 10
350.349811
 20
465.52477
 40
5.0
100
AcDbArc
 50
180.0
 51
270.0
  0
ARC
  5
474
100
AcDbEntity
  8
M0
100
AcDbCircle
 10
346.349811
 20
508.22477
 40
1.0
100
AcDbArc
 50
90.0
 51
180.0
  0
ARC
  5
475
100
AcDbEntity
  8
M0
100
AcDbCircle
 10
338.849811
 20
513.52477
 40
0.5
100
AcDbArc
 50
90.0
 51
180.0
  0
ARC
  5
476
100
AcDbEntity
  8
M0
100
AcDbCircle
 10
378.349811
 20
500.52477
 40
0.5
100
AcDbArc
 50
180.0
 51
203.578178
  0
ARC
  5
477
100
AcDbEntity
  8
M0
100
AcDbCircle
 10
350.349811
 20
540.52477
 40
5.0
100
AcDbArc
 50
90.0
 51
180.0
  0
ARC
  5
478
100
AcDbEntity
  8
M0
100
AcDbCircle
 10
349.449811
 20
498.32477
 40
1.0
100
AcDbArc
 50
90.0
 51
180.0
  0
ARC
  5
479
100
AcDbEntity
  8
M0
100
AcDbCircle
 10
362.849811
 20
479.92477
 40
3.0
100
AcDbArc
 50
0.0
 51
90.0
  0
ARC
  5
47A
100
AcDbEntity
  8
M0
100
AcDbCircle
 10
368.849811
 20
478.67477
 40
3.0
100
AcDbArc
 50
180.0
 51
270.0
  0
ARC
  5
47B
100
AcDbEntity
  8
M0
100
AcDbCircle
 10
380.849811
 20
500.52477
 40
0.5
100
AcDbArc
 50
336.421822
 51
360.0
  0
ARC
  5
47C
100
AcDbEntity
  8
M0
100
AcDbCircle
 10
389.249811
 20
506.02477
 40
0.5
100
AcDbArc
 50
53.130102
 51
90.0
  0
ARC
  5
47D
100
AcDbEntity
  8
M0
100
AcDbCircle
 10
375.696305
 20
542.52477
 40
3.0
100
AcDbArc
 50
32.275644
 51
90.0
  0
LINE
  5
47E
100
AcDbEntity
  8
M0
100
AcDbLine
 10
350.349809
 20
545.52477
 11
375.696304
 21
545.52477
  0
ARC
  5
47F
100
AcDbEntity
  8
M0
100
AcDbCircle
 10
389.249811
 20
499.02477
 40
0.5
100
AcDbArc
 50
270.0
 51
306.869898
  0
LINE
  5
480
100
AcDbEntity
  8
M0
100
AcDbLine
 10
383.349812
 20
466.52477
 11
378.228492
 21
461.40345
  0
LINE
  5
481
100
AcDbEntity
  8
M0
100
AcDbLine
 10
383.338499
 20
475.700414
 11
383.338499
 21
466.52477
  0
LINE
  5
482
100
AcDbEntity
  8
M0
100
AcDbLine
 10
383.349812
 20
536.02477
 11
391.549811
 21
536.02477
  0
LINE
  5
483
100
AcDbEntity
  8
M0
100
AcDbLine
 10
338.849808
 20
514.02477
 11
339.349809
 21
514.02477
  0
LINE
  5
484
100
AcDbEntity
  8
M0
100
AcDbLine
 10
391.549811
 20
466.52477
 11
383.349812
 21
466.52477
  0
LINE
  5
485
100
AcDbEntity
  8
M0
100
AcDbLine
 10
348.449814
 20
496.82477
 11
346.349808
 21
496.82477
  0
LINE
  5
486
100
AcDbEntity
  8
M0
100
AcDbLine
 10
378.232772
 20
544.126747
 11
383.349812
 21
536.02477
  0
LINE
  5
487
100
AcDbEntity
  8
M0
100
AcDbLine
 10
376.10717
 20
460.524769
 11
350.349809
 21
460.524769
  0
LINE
  5
488
100
AcDbEntity
  8
M0
100
AcDbLine
 10
383.338499
 20
536.02477
 11
383.338499
 21
530.349126
  0
LINE
  5
489
100
AcDbEntity
  8
M0
100
AcDbLine
 10
389.549813
 20
507.32477
 11
389.249812
 21
507.32477
  0
LINE
  5
48A
100
AcDbEntity
  8
M0
100
AcDbLine
 10
342.649813
 20
513.024769
 11
340.349811
 21
513.024769
  0
LINE
  5
48B
100
AcDbEntity
  8
M0
100
AcDbLine
 10
348.449814
 20
485.924769
 11
348.449814
 21
498.32477
  0
LINE
  5
48C
100
AcDbEntity
  8
M0
100
AcDbLine
 10
351.449813
 20
499.32477
 11
349.449809
 21
499.32477
  0
LINE
  5
48D
100
AcDbEntity
  8
M0
100
AcDbLine
 10
349.449809
 20
506.72477
 11
349.449809
 21
499.32477
  0
LINE
  5
48E
100
AcDbEntity
  8
M0
100
AcDbLine
 10
345.349814
 20
498.52477
 11
342.649813
 21
498.52477
  0
LINE
  5
48F
100
AcDbEntity
  8
M0
100
AcDbLine
 10
382.947079
 20
475.674771
 11
368.849813
 21
475.674771
  0
LINE
  5
490
100
AcDbEntity
  8
M0
100
AcDbLine
 10
377.04981
 20
505.72477
 11
388.749811
 21
505.72477
  0
LINE
  5
491
100
AcDbEntity
  8
M0
100
AcDbLine
 10
368.849813
 20
530.374769
 11
382.947079
 21
530.374769
  0
LINE
  5
492
100
AcDbEntity
  8
M0
100
AcDbLine
 10
389.749813
 20
509.22477
 11
391.549811
 21
509.22477
  0
LINE
  5
493
100
AcDbEntity
  8
M0
100
AcDbLine
 10
343.149814
 20
495.82477
 11
345.349814
 21
495.82477
  0
LINE
  5
494
100
AcDbEntity
  8
M0
100
AcDbLine
 10
342.649813
 20
501.52477
 11
345.349814
 21
501.52477
  0
LINE
  5
495
100
AcDbEntity
  8
M0
100
AcDbLine
 10
352.449815
 20
507.72477
 11
352.449815
 21
498.32477
  0
LINE
  5
496
100
AcDbEntity
  8
M0
100
AcDbLine
 10
341.649811
 20
488.52477
 11
341.649811
 21
489.524769
  0
LINE
  5
497
100
AcDbEntity
  8
M0
100
AcDbLine
 10
384.849812
 20
461.524771
 11
384.849812
 21
466.52477
  0
LINE
  5
498
100
AcDbEntity
  8
M0
100
AcDbLine
 10
342.649813
 20
481.324769
 11
342.649813
 21
524.72477
  0
LINE
  5
499
100
AcDbEntity
  8
M0
100
AcDbLine
 10
342.149812
 20
490.024769
 11
342.649813
 21
490.024769
  0
LINE
  5
49A
100
AcDbEntity
  8
M0
100
AcDbLine
 10
365.84981
 20
526.12477
 11
365.84981
 21
527.37477
  0
LINE
  5
49B
100
AcDbEntity
  8
M0
100
AcDbLine
 10
342.649813
 20
488.02477
 11
342.149812
 21
488.02477
  0
LINE
  5
49C
100
AcDbEntity
  8
M0
100
AcDbLine
 10
384.890026
 20
529.660588
 11
387.049812
 21
527.82477
  0
LINE
  5
49D
100
AcDbEntity
  8
M0
100
AcDbLine
 10
398.949812
 20
482.92477
 11
391.549811
 21
482.92477
  0
LINE
  5
49E
100
AcDbEntity
  8
M0
100
AcDbLine
 10
351.449813
 20
506.72477
 11
349.449809
 21
506.72477
  0
LINE
  5
49F
100
AcDbEntity
  8
M0
100
AcDbLine
 10
345.349814
 20
480.324769
 11
343.649815
 21
480.324769
  0
LINE
  5
4A0
100
AcDbEntity
  8
M0
100
AcDbLine
 10
340.349811
 20
509.12477
 11
338.849808
 21
509.12477
  0
LINE
  5
4A1
100
AcDbEntity
  8
M0
100
AcDbLine
 10
344.149808
 20
504.52477
 11
344.149808
 21
501.52477
  0
LINE
  5
4A2
100
AcDbEntity
  8
M0
100
AcDbLine
 10
344.149808
 20
510.22477
 11
344.149808
 21
507.52477
  0
LINE
  5
4A3
100
AcDbEntity
  8
M0
100
AcDbLine
 10
344.149808
 20
495.82477
 11
344.149808
 21
498.52477
  0
LINE
  5
4A4
100
AcDbEntity
  8
M0
100
AcDbLine
 10
348.449814
 20
507.72477
 11
348.449814
 21
520.12477
  0
LINE
  5
4A5
100
AcDbEntity
  8
M0
100
AcDbLine
 10
381.349812
 20
500.52477
 11
381.349812
 21
505.72477
  0
ARC
  5
4A6
100
AcDbEntity
  8
M0
100
AcDbCircle
 10
368.849811
 20
527.37477
 40
3.0
100
AcDbArc
 50
90.0
 51
180.0
  0
ARC
  5
4A7
100
AcDbEntity
  8
M0
100
AcDbCircle
 10
389.749811
 20
508.72477
 40
0.5
100
AcDbArc
 50
90.0
 51
180.0
  0
ARC
  5
4A8
100
AcDbEntity
  8
M0
100
AcDbCircle
 10
343.649811
 20
524.72477
 40
1.0
100
AcDbArc
 50
90.0
 51
180.0
  0
ARC
  5
4A9
100
AcDbEntity
  8
M0
100
AcDbCircle
 10
338.849811
 20
492.52477
 40
0.5
100
AcDbArc
 50
180.0
 51
270.0
  0
ARC
  5
4AA
100
AcDbEntity
  8
M0
100
AcDbCircle
 10
362.849811
 20
526.12477
 40
3.0
100
AcDbArc
 50
270.0
 51
360.0
  0
ARC
  5
4AB
100
AcDbEntity
  8
M0
100
AcDbCircle
 10
351.449811
 20
507.72477
 40
1.0
100
AcDbArc
 50
270.0
 51
360.0
  0
ARC
  5
4AC
100
AcDbEntity
  8
M0
100
AcDbCircle
 10
338.849811
 20
496.02477
 40
0.5
100
AcDbArc
 50
90.0
 51
180.0
  0
ARC
  5
4AD
100
AcDbEntity
  8
M0
100
AcDbCircle
 10
351.449811
 20
498.32477
 40
1.0
100
AcDbArc
 50
0.0
 51
90.0
  0
LINE
  5
4AE
100
AcDbEntity
  8
M0
  6
DIVIDE
100
AcDbLine
 10
460.84981
 20
515.524779
 11
454.34981
 21
515.524779
  0
LINE
  5
4AF
100
AcDbEntity
  8
M0
  6
DIVIDE
100
AcDbLine
 10
460.84981
 20
515.524779
 11
460.84981
 21
490.524779
  0
LINE
  5
4B0
100
AcDbEntity
  8
M0
  6
DIVIDE
100
AcDbLine
 10
455.34981
 20
520.524779
 11
455.34981
 21
516.524779
  0
LINE
  5
4B1
100
AcDbEntity
  8
M0
  6
DIVIDE
100
AcDbLine
 10
461.84981
 20
516.524779
 11
455.34981
 21
516.524779
  0
LINE
  5
4B2
100
AcDbEntity
  8
M0
  6
DIVIDE
100
AcDbLine
 10
455.34981
 20
520.524779
 11
454.34981
 21
520.524779
  0
LINE
  5
4B3
100
AcDbEntity
  8
M0
  6
DIVIDE
100
AcDbLine
 10
461.84981
 20
489.524779
 11
455.34981
 21
489.524779
  0
LINE
  5
4B4
100
AcDbEntity
  8
M0
  6
DIVIDE
100
AcDbLine
 10
460.84981
 20
490.524779
 11
454.34981
 21
490.524779
  0
LINE
  5
4B5
100
AcDbEntity
  8
M0
  6
DIVIDE
100
AcDbLine
 10
454.34981
 20
485.524779
 11
455.34981
 21
485.524779
  0
LINE
  5
4B6
100
AcDbEntity
  8
M0
  6
DIVIDE
100
AcDbLine
 10
455.34981
 20
489.524779
 11
455.34981
 21
485.524779
  0
LINE
  5
4B7
100
AcDbEntity
  8
M0
  6
DIVIDE
100
AcDbLine
 10
461.84981
 20
489.524779
 11
461.84981
 21
516.524779
  0
LINE
  5
4B8
100
AcDbEntity
  8
M0
100
AcDbLine
 10
458.549811
 20
461.77477
 11
458.849811
 21
461.77477
  0
LINE
  5
4B9
100
AcDbEntity
  8
M0
100
AcDbLine
 10
403.449811
 20
520.085325
 11
418.949811
 21
520.085325
  0
LINE
  5
4BA
100
AcDbEntity
  8
M0
100
AcDbLine
 10
403.449811
 20
520.085325
 11
403.449811
 21
517.564214
  0
LINE
  5
4BB
100
AcDbEntity
  8
M0
100
AcDbLine
 10
447.849811
 20
461.52477
 11
447.849811
 21
478.22477
  0
LINE
  5
4BC
100
AcDbEntity
  8
M0
100
AcDbLine
 10
458.049811
 20
460.52477
 11
391.549811
 21
460.52477
  0
LINE
  5
4BD
100
AcDbEntity
  8
M0
100
AcDbLine
 10
458.549811
 20
530.52477
 11
458.549811
 21
529.52477
  0
LINE
  5
4BE
100
AcDbEntity
  8
M0
100
AcDbLine
 10
458.549811
 20
537.02477
 11
458.549811
 21
536.52477
  0
LINE
  5
4BF
100
AcDbEntity
  8
M0
100
AcDbLine
 10
458.549811
 20
518.32477
 11
458.549811
 21
521.32477
  0
LINE
  5
4C0
100
AcDbEntity
  8
M0
100
AcDbLine
 10
458.549811
 20
484.72477
 11
458.549811
 21
461.02477
  0
ARC
  5
4C1
100
AcDbEntity
  8
M0
100
AcDbCircle
 10
458.049811
 20
521.32477
 40
0.5
100
AcDbArc
 50
270.0
 51
360.0
  0
ARC
  5
4C2
100
AcDbEntity
  8
M0
100
AcDbCircle
 10
453.849811
 20
516.32477
 40
0.5
100
AcDbArc
 50
0.0
 51
90.0
  0
LINE
  5
4C3
100
AcDbEntity
  8
M0
100
AcDbLine
 10
403.449811
 20
485.964214
 11
403.449811
 21
488.485325
  0
LINE
  5
4C4
100
AcDbEntity
  8
M0
100
AcDbLine
 10
454.549811
 20
485.22477
 11
454.549811
 21
485.72477
  0
LINE
  5
4C5
100
AcDbEntity
  8
M0
100
AcDbLine
 10
458.849811
 20
466.815261
 11
458.549811
 21
466.815261
  0
LINE
  5
4C6
100
AcDbEntity
  8
M0
100
AcDbLine
 10
448.849811
 20
544.52477
 11
458.049811
 21
544.52477
  0
LINE
  5
4C7
100
AcDbEntity
  8
M0
100
AcDbLine
 10
458.849811
 20
539.935278
 11
458.549811
 21
539.935278
  0
LINE
  5
4C8
100
AcDbEntity
  8
M0
100
AcDbLine
 10
458.849811
 20
544.02477
 11
458.849811
 21
531.77477
  0
LINE
  5
4C9
100
AcDbEntity
  8
M0
100
AcDbLine
 10
458.849811
 20
534.27477
 11
458.549811
 21
534.27477
  0
LINE
  5
4CA
100
AcDbEntity
  8
M0
100
AcDbLine
 10
458.849811
 20
474.27477
 11
458.549811
 21
474.27477
  0
LINE
  5
4CB
100
AcDbEntity
  8
M0
100
AcDbLine
 10
458.549811
 20
531.77477
 11
458.549811
 21
530.52477
  0
LINE
  5
4CC
100
AcDbEntity
  8
M0
100
AcDbLine
 10
458.549811
 20
537.02477
 11
458.549811
 21
535.52477
  0
LINE
  5
4CD
100
AcDbEntity
  8
M0
100
AcDbLine
 10
454.549811
 20
485.72477
 11
454.349811
 21
485.72477
  0
LINE
  5
4CE
100
AcDbEntity
  8
M0
100
AcDbLine
 10
403.449811
 20
488.485325
 11
418.949811
 21
488.485325
  0
LINE
  5
4CF
100
AcDbEntity
  8
M0
100
AcDbLine
 10
458.849811
 20
544.02477
 11
458.549811
 21
544.02477
  0
LINE
  5
4D0
100
AcDbEntity
  8
M0
100
AcDbLine
 10
418.949811
 20
517.564214
 11
403.449811
 21
517.564214
  0
LINE
  5
4D1
100
AcDbEntity
  8
M0
100
AcDbLine
 10
418.949811
 20
485.964214
 11
403.449811
 21
485.964214
  0
LINE
  5
4D2
100
AcDbEntity
  8
M0
100
AcDbLine
 10
458.849811
 20
531.77477
 11
458.549811
 21
531.77477
  0
LINE
  5
4D3
100
AcDbEntity
  8
M0
100
AcDbLine
 10
458.549811
 20
537.02477
 11
458.549811
 21
535.52477
  0
LINE
  5
4D4
100
AcDbEntity
  8
M0
100
AcDbLine
 10
419.249811
 20
520.866512
 11
419.249811
 21
520.385325
  0
LINE
  5
4D5
100
AcDbEntity
  8
M0
100
AcDbLine
 10
458.549811
 20
535.52477
 11
458.549811
 21
536.52477
  0
LINE
  5
4D6
100
AcDbEntity
  8
M0
100
AcDbLine
 10
381.049811
 20
549.52477
 11
400.435597
 21
549.52477
  0
LINE
  5
4D7
100
AcDbEntity
  8
M0
100
AcDbLine
 10
458.549811
 20
536.636271
 11
458.549811
 21
535.636271
  0
LINE
  5
4D8
100
AcDbEntity
  8
M0
100
AcDbLine
 10
380.549811
 20
540.458104
 11
380.549811
 21
548.52477
  0
LINE
  5
4D9
100
AcDbEntity
  8
M0
100
AcDbLine
 10
380.549811
 20
548.52477
 11
380.549811
 21
549.02477
  0
LINE
  5
4DA
100
AcDbEntity
  8
M0
100
AcDbLine
 10
447.607416
 20
536.0451
 11
447.371597
 21
536.027941
  0
LINE
  5
4DB
100
AcDbEntity
  8
M0
100
AcDbLine
 10
447.845593
 20
536.132587
 11
447.607416
 21
536.0451
  0
LINE
  5
4DC
100
AcDbEntity
  8
M0
100
AcDbLine
 10
448.849811
 20
479.22477
 11
458.049811
 21
479.22477
  0
ARC
  5
4DD
100
AcDbEntity
  8
M0
100
AcDbCircle
 10
400.435597
 20
548.52477
 40
1.0
100
AcDbArc
 50
45.0
 51
90.0
  0
LINE
  5
4DE
100
AcDbEntity
  8
M0
100
AcDbLine
 10
400.549811
 20
466.52477
 11
391.549811
 21
466.52477
  0
ARC
  5
4DF
100
AcDbEntity
  8
M0
100
AcDbCircle
 10
381.049811
 20
549.02477
 40
0.5
100
AcDbArc
 50
90.0
 51
180.0
  0
ARC
  5
4E0
100
AcDbEntity
  8
M0
100
AcDbCircle
 10
383.549811
 20
546.52477
 40
3.0
100
AcDbArc
 50
90.0
 51
180.0
  0
LINE
  5
4E1
100
AcDbEntity
  8
M0
100
AcDbLine
 10
391.549811
 20
527.82477
 11
447.849811
 21
527.82477
  0
LINE
  5
4E2
100
AcDbEntity
  8
M0
100
AcDbLine
 10
458.849811
 20
474.27477
 11
458.849811
 21
461.77477
  0
LINE
  5
4E3
100
AcDbEntity
  8
M0
100
AcDbLine
 10
447.849811
 20
478.22477
 11
391.549811
 21
478.22477
  0
LINE
  5
4E4
100
AcDbEntity
  8
M0
100
AcDbLine
 10
391.549811
 20
536.02477
 11
447.435597
 21
536.02477
  0
LINE
  5
4E5
100
AcDbEntity
  8
M0
100
AcDbLine
 10
419.249811
 20
485.664214
 11
419.249811
 21
485.183027
  0
LINE
  5
4E6
100
AcDbEntity
  8
M0
100
AcDbLine
 10
398.949811
 20
482.92477
 11
398.949811
 21
487.92477
  0
LINE
  5
4E7
100
AcDbEntity
  8
M0
100
AcDbLine
 10
458.549811
 20
535.52477
 11
458.549811
 21
532.52477
  0
LINE
  5
4E8
100
AcDbEntity
  8
M0
100
AcDbLine
 10
419.249811
 20
485.22477
 11
458.049811
 21
485.22477
  0
ARC
  5
4E9
100
AcDbEntity
  8
M0
100
AcDbCircle
 10
404.849811
 20
544.110556
 40
1.0
100
AcDbArc
 50
0.0
 51
45.0
  0
ARC
  5
4EA
100
AcDbEntity
  8
M0
100
AcDbCircle
 10
453.849811
 20
489.72477
 40
0.5
100
AcDbArc
 50
270.0
 51
360.0
  0
LINE
  5
4EB
100
AcDbEntity
  8
M0
100
AcDbLine
 10
447.849811
 20
527.82477
 11
447.849811
 21
543.52477
  0
LINE
  5
4EC
100
AcDbEntity
  8
M0
100
AcDbLine
 10
455.049811
 20
486.22477
 11
456.549811
 21
486.22477
  0
LINE
  5
4ED
100
AcDbEntity
  8
M0
100
AcDbLine
 10
458.549811
 20
537.02477
 11
458.549811
 21
536.636271
  0
LINE
  5
4EE
100
AcDbEntity
  8
M0
100
AcDbLine
 10
456.549811
 20
485.72477
 11
456.549811
 21
485.22477
  0
LINE
  5
4EF
100
AcDbEntity
  8
M0
100
AcDbLine
 10
458.849811
 20
541.114261
 11
458.549811
 21
541.114261
  0
LINE
  5
4F0
100
AcDbEntity
  8
M0
100
AcDbLine
 10
456.549811
 20
486.22477
 11
456.549811
 21
485.72477
  0
ELLIPSE
  5
4F1
100
AcDbEntity
  8
M0
100
AcDbEllipse
 10
458.049811
 20
479.199832
 11
-0.5
 21
0.0
210
0.0
220
0.0
230
1.0
 40
0.049876
 41
3.141592653589793
 42
4.71238898038469
  0
LINE
  5
4F2
100
AcDbEntity
  8
M0
100
AcDbLine
 10
458.549811
 20
535.636271
 11
458.549811
 21
535.52477
  0
LINE
  5
4F3
100
AcDbEntity
  8
M0
100
AcDbLine
 10
437.049811
 20
539.52477
 11
438.549811
 21
539.52477
  0
LINE
  5
4F4
100
AcDbEntity
  8
M0
100
AcDbLine
 10
458.549811
 20
483.22477
 11
458.549811
 21
484.22477
  0
LINE
  5
4F5
100
AcDbEntity
  8
M0
100
AcDbLine
 10
458.849811
 20
469.055076
 11
458.549811
 21
469.055076
  0
LINE
  5
4F6
100
AcDbEntity
  8
M0
100
AcDbLine
 10
415.749811
 20
461.52477
 11
415.749811
 21
471.52477
  0
LINE
  5
4F7
100
AcDbEntity
  8
M0
100
AcDbLine
 10
436.049811
 20
539.52477
 11
447.849811
 21
539.52477
  0
LINE
  5
4F8
100
AcDbEntity
  8
M0
100
AcDbLine
 10
454.349811
 20
518.32477
 11
454.349811
 21
520.82477
  0
LINE
  5
4F9
100
AcDbEntity
  8
M0
100
AcDbLine
 10
455.349811
 20
520.82477
 11
455.349811
 21
519.32477
  0
LINE
  5
4FA
100
AcDbEntity
  8
M0
100
AcDbLine
 10
456.049811
 20
487.72477
 11
456.489811
 21
487.22477
  0
LINE
  5
4FB
100
AcDbEntity
  8
M0
100
AcDbLine
 10
454.349811
 20
514.82477
 11
454.649811
 21
515.32477
  0
LINE
  5
4FC
100
AcDbEntity
  8
M0
100
AcDbLine
 10
458.549811
 20
463.77477
 11
458.549811
 21
462.52477
  0
LINE
  5
4FD
100
AcDbEntity
  8
M0
100
AcDbLine
 10
454.649811
 20
515.32477
 11
454.649811
 21
517.32477
  0
LINE
  5
4FE
100
AcDbEntity
  8
M0
100
AcDbLine
 10
458.549811
 20
537.02477
 11
458.549811
 21
530.52477
  0
LINE
  5
4FF
100
AcDbEntity
  8
M0
100
AcDbLine
 10
401.142704
 20
549.231876
 11
405.556918
 21
544.817663
  0
LINE
  5
500
100
AcDbEntity
  8
M0
100
AcDbLine
 10
458.549811
 20
537.02477
 11
458.549811
 21
535.52477
  0
LINE
  5
501
100
AcDbEntity
  8
M0
100
AcDbLine
 10
454.649811
 20
517.32477
 11
454.349811
 21
518.32477
  0
LINE
  5
502
100
AcDbEntity
  8
M0
100
AcDbLine
 10
458.549811
 20
464.27477
 11
458.549811
 21
463.77477
  0
LINE
  5
503
100
AcDbEntity
  8
M0
100
AcDbLine
 10
454.349811
 20
516.32477
 11
454.349811
 21
489.72477
  0
LINE
  5
504
100
AcDbEntity
  8
M0
100
AcDbLine
 10
458.849811
 20
471.994463
 11
458.465351
 21
471.994463
  0
LINE
  5
505
100
AcDbEntity
  8
M0
100
AcDbLine
 10
419.249811
 20
489.266512
 11
419.249811
 21
488.785325
  0
LINE
  5
506
100
AcDbEntity
  8
M0
100
AcDbLine
 10
419.249811
 20
517.264214
 11
419.249811
 21
516.783027
  0
LINE
  5
507
100
AcDbEntity
  8
M0
100
AcDbLine
 10
455.349811
 20
487.72477
 11
456.049811
 21
487.72477
  0
LINE
  5
508
100
AcDbEntity
  8
M0
100
AcDbLine
 10
455.349811
 20
487.22477
 11
455.349811
 21
487.72477
  0
LINE
  5
509
100
AcDbEntity
  8
M0
100
AcDbLine
 10
455.349811
 20
487.22477
 11
455.349811
 21
486.22477
  0
LINE
  5
50A
100
AcDbEntity
  8
M0
100
AcDbLine
 10
458.549811
 20
537.02477
 11
458.549811
 21
535.52477
  0
LINE
  5
50B
100
AcDbEntity
  8
M0
100
AcDbLine
 10
458.549811
 20
530.52477
 11
458.549811
 21
529.52477
  0
LINE
  5
50C
100
AcDbEntity
  8
M0
100
AcDbLine
 10
436.049811
 20
539.02477
 11
436.049811
 21
539.52477
  0
LINE
  5
50D
100
AcDbEntity
  8
M0
100
AcDbLine
 10
458.249811
 20
485.22477
 11
456.489811
 21
487.22477
  0
LINE
  5
50E
100
AcDbEntity
  8
M0
100
AcDbLine
 10
458.249811
 20
485.183027
 11
458.249811
 21
485.22477
  0
LINE
  5
50F
100
AcDbEntity
  8
M0
100
AcDbLine
 10
454.349811
 20
489.72477
 11
454.349811
 21
485.22477
  0
LINE
  5
510
100
AcDbEntity
  8
M0
100
AcDbLine
 10
458.849811
 20
464.27477
 11
458.549811
 21
464.27477
  0
LINE
  5
511
100
AcDbEntity
  8
M0
100
AcDbLine
 10
415.749811
 20
471.52477
 11
401.549811
 21
471.52477
  0
LINE
  5
512
100
AcDbEntity
  8
M0
100
AcDbLine
 10
405.849811
 20
544.110556
 11
405.849811
 21
536.02477
  0
LINE
  5
513
100
AcDbEntity
  8
M0
100
AcDbLine
 10
458.549811
 20
461.52477
 11
458.549811
 21
462.52477
  0
LINE
  5
514
100
AcDbEntity
  8
M0
100
AcDbLine
 10
458.549811
 20
537.02477
 11
458.849811
 21
537.02477
  0
ARC
  5
515
100
AcDbEntity
  8
M0
100
AcDbCircle
 10
458.049811
 20
544.02477
 40
0.5
100
AcDbArc
 50
0.0
 51
90.0
  0
ARC
  5
516
100
AcDbEntity
  8
M0
100
AcDbCircle
 10
448.849811
 20
543.52477
 40
1.0
100
AcDbArc
 50
90.0
 51
180.0
  0
LINE
  5
517
100
AcDbEntity
  8
M0
100
AcDbLine
 10
454.349811
 20
520.82477
 11
454.349811
 21
516.32477
  0
LINE
  5
518
100
AcDbEntity
  8
M0
100
AcDbLine
 10
453.849811
 20
489.22477
 11
419.249811
 21
489.22477
  0
LINE
  5
519
100
AcDbEntity
  8
M0
100
AcDbLine
 10
438.549811
 20
539.52477
 11
447.849811
 21
539.52477
  0
LINE
  5
51A
100
AcDbEntity
  8
M0
100
AcDbLine
 10
458.549811
 20
544.02477
 11
458.549811
 21
521.32477
  0
LINE
  5
51B
100
AcDbEntity
  8
M0
100
AcDbLine
 10
398.949811
 20
518.12477
 11
398.949811
 21
523.12477
  0
LINE
  5
51C
100
AcDbEntity
  8
M0
100
AcDbLine
 10
455.349811
 20
519.32477
 11
456.349811
 21
518.32477
  0
LINE
  5
51D
100
AcDbEntity
  8
M0
100
AcDbLine
 10
419.249811
 20
516.82477
 11
453.849811
 21
516.82477
  0
LINE
  5
51E
100
AcDbEntity
  8
M0
100
AcDbLine
 10
458.049811
 20
520.82477
 11
419.249811
 21
520.82477
  0
LINE
  5
51F
100
AcDbEntity
  8
M0
100
AcDbLine
 10
456.349811
 20
518.32477
 11
458.549811
 21
518.32477
  0
ARC
  5
520
100
AcDbEntity
  8
M0
100
AcDbCircle
 10
458.049811
 20
484.72477
 40
0.5
100
AcDbArc
 50
0.0
 51
90.0
  0
ARC
  5
521
100
AcDbEntity
  8
M0
100
AcDbCircle
 10
418.949811
 20
488.785325
 40
0.3
100
AcDbArc
 50
270.0
 51
360.0
  0
ARC
  5
522
100
AcDbEntity
  8
M0
100
AcDbCircle
 10
455.049811
 20
485.72477
 40
0.5
100
AcDbArc
 50
90.0
 51
180.0
  0
ARC
  5
523
100
AcDbEntity
  8
M0
100
AcDbCircle
 10
418.949811
 20
485.664214
 40
0.3
100
AcDbArc
 50
0.0
 51
90.0
  0
LINE
  5
524
100
AcDbEntity
  8
M0
100
AcDbLine
 10
401.549811
 20
471.52477
 11
401.549811
 21
467.52477
  0
LINE
  5
525
100
AcDbEntity
  8
M0
100
AcDbLine
 10
458.549811
 20
483.22477
 11
458.549811
 21
474.27477
  0
LINE
  5
526
100
AcDbEntity
  8
M0
100
AcDbLine
 10
436.049811
 20
539.02477
 11
436.049811
 21
536.02477
  0
ARC
  5
527
100
AcDbEntity
  8
M0
100
AcDbCircle
 10
418.949811
 20
517.264214
 40
0.3
100
AcDbArc
 50
0.0
 51
90.0
  0
ARC
  5
528
100
AcDbEntity
  8
M0
100
AcDbCircle
 10
448.849811
 20
461.52477
 40
1.0
100
AcDbArc
 50
180.0
 51
270.0
  0
ARC
  5
529
100
AcDbEntity
  8
M0
100
AcDbCircle
 10
418.949811
 20
520.385325
 40
0.3
100
AcDbArc
 50
270.0
 51
360.0
  0
ARC
  5
52A
100
AcDbEntity
  8
M0
100
AcDbCircle
 10
458.049811
 20
461.02477
 40
0.5
100
AcDbArc
 50
270.0
 51
360.0
  0
ARC
  5
52B
100
AcDbEntity
  8
M0
100
AcDbCircle
 10
400.549811
 20
467.52477
 40
1.0
100
AcDbArc
 50
270.0
 51
360.0
  0
LINE
  5
52C
100
AcDbEntity
  8
M0
100
AcDbLine
 10
458.549811
 20
537.02477
 11
458.549811
 21
532.52477
  0
ARC
  5
52D
100
AcDbEntity
  8
M0
100
AcDbCircle
 10
416.749811
 20
461.52477
 40
1.0
100
AcDbArc
 50
180.0
 51
270.0
  0
ARC
  5
52E
100
AcDbEntity
  8
M0
100
AcDbCircle
 10
451.204238
 20
475.898505
 40
4.084673
100
AcDbArc
 50
125.479015
 51
145.207394
  0
LINE
  5
52F
100
AcDbEntity
  8
M0
100
AcDbLine
 10
165.735134
 20
528.224773
 11
165.735134
 21
503.924772
  0
LINE
  5
530
100
AcDbEntity
  8
M0
100
AcDbLine
 10
165.735134
 20
521.324772
 11
160.735134
 21
521.324772
  0
LINE
  5
531
100
AcDbEntity
  8
M0
100
AcDbLine
 10
163.135135
 20
529.324774
 11
158.335135
 21
529.324774
  0
LINE
  5
532
100
AcDbEntity
  8
M0
100
AcDbLine
 10
155.735135
 20
521.324772
 11
160.735134
 21
521.324772
  0
LINE
  5
533
100
AcDbEntity
  8
M0
100
AcDbLine
 10
165.735134
 20
525.424773
 11
160.735134
 21
525.424773
  0
LINE
  5
534
100
AcDbEntity
  8
M0
100
AcDbLine
 10
155.735135
 20
486.524772
 11
160.735134
 21
486.524772
  0
ARC
  5
535
100
AcDbEntity
  8
M0
100
AcDbCircle
 10
165.235135
 20
528.224773
 40
0.5
100
AcDbArc
 50
23.578178
 51
90.0
  0
LINE
  5
536
100
AcDbEntity
  8
M0
100
AcDbLine
 10
163.135135
 20
478.524771
 11
158.335135
 21
478.524771
  0
ARC
  5
537
100
AcDbEntity
  8
M0
100
AcDbCircle
 10
158.335135
 20
528.724773
 40
0.6
100
AcDbArc
 50
90.0
 51
180.0
  0
ARC
  5
538
100
AcDbEntity
  8
M0
100
AcDbCircle
 10
156.235135
 20
528.224773
 40
0.5
100
AcDbArc
 50
90.0
 51
156.421822
  0
LINE
  5
539
100
AcDbEntity
  8
M0
100
AcDbLine
 10
155.735135
 20
503.924772
 11
155.735135
 21
479.624772
  0
ARC
  5
53A
100
AcDbEntity
  8
M0
100
AcDbCircle
 10
163.135135
 20
528.724773
 40
0.6
100
AcDbArc
 50
0.0
 51
90.0
  0
LINE
  5
53B
100
AcDbEntity
  8
M0
100
AcDbLine
 10
165.735134
 20
479.624772
 11
165.735134
 21
503.924772
  0
LINE
  5
53C
100
AcDbEntity
  8
M0
100
AcDbLine
 10
165.735134
 20
482.424772
 11
160.735134
 21
482.424772
  0
ARC
  5
53D
100
AcDbEntity
  8
M0
100
AcDbCircle
 10
163.135135
 20
479.124772
 40
0.6
100
AcDbArc
 50
270.0
 51
360.0
  0
LINE
  5
53E
100
AcDbEntity
  8
M0
  6
DASHDOT
100
AcDbLine
 10
160.735134
 20
533.924772
 11
160.735134
 21
474.924772
  0
ARC
  5
53F
100
AcDbEntity
  8
M0
100
AcDbCircle
 10
165.235135
 20
479.624772
 40
0.5
100
AcDbArc
 50
270.0
 51
336.421822
  0
LINE
  5
540
100
AcDbEntity
  8
M0
100
AcDbLine
 10
165.735134
 20
486.524772
 11
160.735134
 21
486.524772
  0
LINE
  5
541
100
AcDbEntity
  8
M0
100
AcDbLine
 10
155.735135
 20
525.424773
 11
160.735134
 21
525.424773
  0
ARC
  5
542
100
AcDbEntity
  8
M0
100
AcDbCircle
 10
156.235135
 20
479.624772
 40
0.5
100
AcDbArc
 50
203.578178
 51
270.0
  0
LINE
  5
543
100
AcDbEntity
  8
M0
100
AcDbLine
 10
155.735135
 20
503.924772
 11
155.735135
 21
528.224773
  0
LINE
  5
544
100
AcDbEntity
  8
M0
100
AcDbLine
 10
156.235135
 20
479.124774
 11
165.235135
 21
479.124774
  0
ARC
  5
545
100
AcDbEntity
  8
M0
100
AcDbCircle
 10
158.335135
 20
479.124772
 40
0.6
100
AcDbArc
 50
180.0
 51
270.0
  0
LINE
  5
546
100
AcDbEntity
  8
M0
100
AcDbLine
 10
156.235135
 20
528.724771
 11
165.235135
 21
528.724771
  0
LINE
  5
547
100
AcDbEntity
  8
M0
100
AcDbLine
 10
155.735135
 20
482.424772
 11
160.735134
 21
482.424772
  0
ARC
  5
548
100
AcDbEntity
  8
M0
100
AcDbCircle
 10
177.935133
 20
462.424772
 40
1.0
100
AcDbArc
 50
180.0
 51
270.0
  0
ARC
  5
549
100
AcDbEntity
  8
M0
100
AcDbCircle
 10
204.185133
 20
544.224772
 40
2.65
100
AcDbArc
 50
350.223151
 51
369.776849
  0
ARC
  5
54A
100
AcDbEntity
  8
M0
100
AcDbCircle
 10
240.835133
 20
523.024772
 40
1.0
100
AcDbArc
 50
90.0
 51
180.0
  0
ARC
  5
54B
100
AcDbEntity
  8
M0
100
AcDbCircle
 10
178.635133
 20
462.424772
 40
1.0
100
AcDbArc
 50
270.0
 51
360.0
  0
ARC
  5
54C
100
AcDbEntity
  8
M0
100
AcDbCircle
 10
229.735133
 20
462.424772
 40
1.0
100
AcDbArc
 50
180.0
 51
270.0
  0
LINE
  5
54D
100
AcDbEntity
  8
M0
100
AcDbLine
 10
186.435133
 20
549.424771
 11
186.435133
 21
549.924772
  0
ARC
  5
54E
100
AcDbEntity
  8
M0
100
AcDbCircle
 10
204.185133
 20
544.224772
 40
2.65
100
AcDbArc
 50
189.776849
 51
350.223151
  0
ARC
  5
54F
100
AcDbEntity
  8
M0
100
AcDbCircle
 10
204.185133
 20
544.224772
 40
2.65
100
AcDbArc
 50
170.223151
 51
189.776849
  0
ARC
  5
550
100
AcDbEntity
  8
M0
100
AcDbCircle
 10
221.535133
 20
464.424772
 40
2.65
100
AcDbArc
 50
350.223151
 51
369.776849
  0
ARC
  5
551
100
AcDbEntity
  8
M0
100
AcDbCircle
 10
204.185133
 20
544.224772
 40
2.65
100
AcDbArc
 50
9.776849
 51
170.223151
  0
ARC
  5
552
100
AcDbEntity
  8
M0
100
AcDbCircle
 10
217.035133
 20
541.124772
 40
0.6
100
AcDbArc
 50
187.490122
 51
324.314617
  0
ARC
  5
553
100
AcDbEntity
  8
M0
100
AcDbCircle
 10
219.735133
 20
539.924772
 40
1.0
100
AcDbArc
 50
121.788346
 51
150.0
  0
LINE
  5
554
100
AcDbEntity
  8
M0
100
AcDbLine
 10
210.685133
 20
490.924772
 11
212.685134
 21
490.924772
  0
LINE
  5
555
100
AcDbEntity
  8
M0
100
AcDbLine
 10
198.185133
 20
489.424773
 11
198.185133
 21
490.424772
  0
LINE
  5
556
100
AcDbEntity
  8
M0
100
AcDbLine
 10
195.185134
 20
490.424772
 11
195.185134
 21
489.424773
  0
LINE
  5
557
100
AcDbEntity
  8
M0
100
AcDbLine
 10
195.685133
 20
488.924773
 11
197.685133
 21
488.924773
  0
LINE
  5
558
100
AcDbEntity
  8
M0
100
AcDbLine
 10
212.685134
 20
488.924773
 11
210.685133
 21
488.924773
  0
LINE
  5
559
100
AcDbEntity
  8
M0
100
AcDbLine
 10
207.185133
 20
516.124772
 11
207.185133
 21
517.724772
  0
LINE
  5
55A
100
AcDbEntity
  8
M0
100
AcDbLine
 10
221.935134
 20
549.424771
 11
221.935134
 21
549.924772
  0
LINE
  5
55B
100
AcDbEntity
  8
M0
100
AcDbLine
 10
183.735134
 20
541.924771
 11
184.235133
 21
541.924771
  0
LINE
  5
55C
100
AcDbEntity
  8
M0
100
AcDbLine
 10
213.185133
 20
490.424772
 11
213.185133
 21
489.424773
  0
LINE
  5
55D
100
AcDbEntity
  8
M0
100
AcDbLine
 10
177.935134
 20
526.624773
 11
230.435132
 21
526.624773
  0
LINE
  5
55E
100
AcDbEntity
  8
M0
100
AcDbLine
 10
209.085133
 20
514.124773
 11
209.085133
 21
513.624773
  0
LINE
  5
55F
100
AcDbEntity
  8
M0
100
AcDbLine
 10
168.685132
 20
487.274772
 11
168.685132
 21
493.774772
  0
LINE
  5
560
100
AcDbEntity
  8
M0
100
AcDbLine
 10
203.735133
 20
543.774773
 11
203.735133
 21
543.024771
  0
LINE
  5
561
100
AcDbEntity
  8
M0
100
AcDbLine
 10
205.772584
 20
543.774773
 11
204.635133
 21
543.774773
  0
CIRCLE
  5
562
100
AcDbEntity
  8
M0
100
AcDbCircle
 10
221.535133
 20
464.424772
 40
2.825
  0
ARC
  5
563
100
AcDbEntity
  8
M0
100
AcDbCircle
 10
199.385133
 20
499.224772
 40
0.5
100
AcDbArc
 50
180.0
 51
270.0
  0
ARC
  5
564
100
AcDbEntity
  8
M0
100
AcDbCircle
 10
199.385133
 20
508.624772
 40
0.5
100
AcDbArc
 50
90.0
 51
180.0
  0
ARC
  5
565
100
AcDbEntity
  8
M0
100
AcDbCircle
 10
205.435133
 20
501.224772
 40
0.5
100
AcDbArc
 50
270.0
 51
360.0
  0
LINE
  5
566
100
AcDbEntity
  8
M0
100
AcDbLine
 10
223.635133
 20
548.924774
 11
216.335133
 21
548.924774
  0
LINE
  5
567
100
AcDbEntity
  8
M0
100
AcDbLine
 10
203.735133
 20
545.424771
 11
203.735133
 21
544.674773
  0
LINE
  5
568
100
AcDbEntity
  8
M0
100
AcDbLine
 10
203.735133
 20
543.774773
 11
202.597683
 21
543.774773
  0
LINE
  5
569
100
AcDbEntity
  8
M0
100
AcDbLine
 10
184.735134
 20
548.924774
 11
184.235133
 21
548.424773
  0
LINE
  5
56A
100
AcDbEntity
  8
M0
100
AcDbLine
 10
198.135133
 20
514.924772
 11
195.985133
 21
514.924772
  0
LINE
  5
56B
100
AcDbEntity
  8
M0
100
AcDbLine
 10
184.235133
 20
548.424773
 11
184.235133
 21
540.424772
  0
ARC
  5
56C
100
AcDbEntity
  8
M0
100
AcDbCircle
 10
208.985133
 20
508.624772
 40
0.5
100
AcDbArc
 50
0.0
 51
90.0
  0
ARC
  5
56D
100
AcDbEntity
  8
M0
100
AcDbCircle
 10
204.185132
 20
544.174772
 40
4.25
100
AcDbArc
 50
241.927521
 51
298.072495
  0
ARC
  5
56E
100
AcDbEntity
  8
M0
100
AcDbCircle
 10
204.185132
 20
544.174772
 40
4.25
100
AcDbArc
 50
241.927521
 51
270.0
  0
ARC
  5
56F
100
AcDbEntity
  8
M0
100
AcDbCircle
 10
191.335133
 20
541.124772
 40
0.6
100
AcDbArc
 50
215.685335
 51
270.0
  0
ARC
  5
570
100
AcDbEntity
  8
M0
100
AcDbCircle
 10
221.785133
 20
463.674772
 40
4.25
100
AcDbArc
 50
61.927513
 51
118.072487
  0
ARC
  5
571
100
AcDbEntity
  8
M0
100
AcDbCircle
 10
219.735133
 20
539.924772
 40
1.0
100
AcDbArc
 50
30.0
 51
58.211672
  0
ARC
  5
572
100
AcDbEntity
  8
M0
100
AcDbCircle
 10
204.185133
 20
463.674772
 40
4.25
100
AcDbArc
 50
61.927513
 51
118.072487
  0
ARC
  5
573
100
AcDbEntity
  8
M0
100
AcDbCircle
 10
221.785132
 20
544.174772
 40
4.25
100
AcDbArc
 50
241.927521
 51
298.072495
  0
ARC
  5
574
100
AcDbEntity
  8
M0
100
AcDbCircle
 10
186.585133
 20
463.674772
 40
4.25
100
AcDbArc
 50
61.927513
 51
118.072487
  0
ARC
  5
575
100
AcDbEntity
  8
M0
100
AcDbCircle
 10
208.985133
 20
499.224772
 40
0.5
100
AcDbArc
 50
270.0
 51
360.0
  0
ARC
  5
576
100
AcDbEntity
  8
M0
100
AcDbCircle
 10
221.785132
 20
544.174772
 40
4.25
100
AcDbArc
 50
241.927521
 51
270.0
  0
ARC
  5
577
100
AcDbEntity
  8
M0
100
AcDbCircle
 10
239.185134
 20
479.674773
 40
0.5
100
AcDbArc
 50
270.0
 51
360.0
  0
ARC
  5
578
100
AcDbEntity
  8
M0
100
AcDbCircle
 10
239.185133
 20
486.174773
 40
0.5
100
AcDbArc
 50
0.0
 51
90.0
  0
ARC
  5
579
100
AcDbEntity
  8
M0
100
AcDbCircle
 10
232.685133
 20
514.074772
 40
0.5
100
AcDbArc
 50
180.0
 51
270.0
  0
ARC
  5
57A
100
AcDbEntity
  8
M0
100
AcDbCircle
 10
232.685133
 20
486.174772
 40
0.5
100
AcDbArc
 50
90.0
 51
180.0
  0
ARC
  5
57B
100
AcDbEntity
  8
M0
100
AcDbCircle
 10
239.185133
 20
514.074772
 40
0.5
100
AcDbArc
 50
270.0
 51
360.0
  0
ARC
  5
57C
100
AcDbEntity
  8
M0
100
AcDbCircle
 10
239.185133
 20
520.574772
 40
0.5
100
AcDbArc
 50
0.0
 51
90.0
  0
ARC
  5
57D
100
AcDbEntity
  8
M0
100
AcDbCircle
 10
210.085133
 20
514.124772
 40
1.0
100
AcDbArc
 50
90.0
 51
180.0
  0
ARC
  5
57E
100
AcDbEntity
  8
M0
100
AcDbCircle
 10
230.935133
 20
511.624772
 40
0.5
100
AcDbArc
 50
270.0
 51
360.0
  0
ARC
  5
57F
100
AcDbEntity
  8
M0
100
AcDbCircle
 10
186.585132
 20
544.174772
 40
4.25
100
AcDbArc
 50
241.927521
 51
270.0
  0
ARC
  5
580
100
AcDbEntity
  8
M0
100
AcDbCircle
 10
186.585132
 20
544.174772
 40
4.25
100
AcDbArc
 50
241.927521
 51
298.072495
  0
ARC
  5
581
100
AcDbEntity
  8
M0
100
AcDbCircle
 10
198.285133
 20
514.124772
 40
1.0
100
AcDbArc
 50
0.0
 51
90.0
  0
ARC
  5
582
100
AcDbEntity
  8
M0
100
AcDbCircle
 10
177.935133
 20
525.624772
 40
1.0
100
AcDbArc
 50
90.0
 51
180.0
  0
ARC
  5
583
100
AcDbEntity
  8
M0
100
AcDbCircle
 10
169.185133
 20
493.774772
 40
0.5
100
AcDbArc
 50
90.0
 51
180.0
  0
ARC
  5
584
100
AcDbEntity
  8
M0
100
AcDbCircle
 10
175.685133
 20
487.274772
 40
0.5
100
AcDbArc
 50
270.0
 51
360.0
  0
ARC
  5
585
100
AcDbEntity
  8
M0
100
AcDbCircle
 10
169.185133
 20
520.574772
 40
0.5
100
AcDbArc
 50
90.0
 51
180.0
  0
ARC
  5
586
100
AcDbEntity
  8
M0
100
AcDbCircle
 10
169.185134
 20
514.074772
 40
0.5
100
AcDbArc
 50
180.0
 51
270.0
  0
ARC
  5
587
100
AcDbEntity
  8
M0
100
AcDbCircle
 10
169.185134
 20
514.074772
 40
0.5
100
AcDbArc
 50
180.0
 51
270.0
  0
ARC
  5
588
100
AcDbEntity
  8
M0
100
AcDbCircle
 10
175.685134
 20
514.074773
 40
0.5
100
AcDbArc
 50
270.0
 51
360.0
  0
ARC
  5
589
100
AcDbEntity
  8
M0
100
AcDbCircle
 10
169.185133
 20
487.274772
 40
0.5
100
AcDbArc
 50
180.0
 51
270.0
  0
ARC
  5
58A
100
AcDbEntity
  8
M0
100
AcDbCircle
 10
232.685133
 20
520.574772
 40
0.5
100
AcDbArc
 50
90.0
 51
180.0
  0
ARC
  5
58B
100
AcDbEntity
  8
M0
100
AcDbCircle
 10
199.385133
 20
508.193726
 40
0.5
100
AcDbArc
 50
90.0
 51
180.0
  0
ARC
  5
58C
100
AcDbEntity
  8
M0
100
AcDbCircle
 10
175.685133
 20
520.574773
 40
0.5
100
AcDbArc
 50
0.0
 51
90.0
  0
ARC
  5
58D
100
AcDbEntity
  8
M0
100
AcDbCircle
 10
208.985133
 20
508.193726
 40
0.5
100
AcDbArc
 50
0.0
 51
90.0
  0
ARC
  5
58E
100
AcDbEntity
  8
M0
100
AcDbCircle
 10
175.685133
 20
493.774772
 40
0.5
100
AcDbArc
 50
0.0
 51
90.0
  0
LINE
  5
58F
100
AcDbEntity
  8
M0
100
AcDbLine
 10
212.585133
 20
515.124772
 11
210.085134
 21
515.124772
  0
LINE
  5
590
100
AcDbEntity
  8
M0
100
AcDbLine
 10
213.585133
 20
493.724772
 11
213.585133
 21
514.124773
  0
LINE
  5
591
100
AcDbEntity
  8
M0
100
AcDbLine
 10
175.685133
 20
486.774773
 11
169.185133
 21
486.774773
  0
LINE
  5
592
100
AcDbEntity
  8
M0
100
AcDbLine
 10
239.185133
 20
513.574773
 11
232.685133
 21
513.574773
  0
LINE
  5
593
100
AcDbEntity
  8
M0
100
AcDbLine
 10
232.685133
 20
521.074772
 11
239.185133
 21
521.074772
  0
LINE
  5
594
100
AcDbEntity
  8
M0
100
AcDbLine
 10
239.685134
 20
520.574772
 11
239.685134
 21
514.074773
  0
LINE
  5
595
100
AcDbEntity
  8
M0
100
AcDbLine
 10
207.185133
 20
517.724772
 11
201.185133
 21
517.724772
  0
ARC
  5
596
100
AcDbEntity
  8
M0
100
AcDbCircle
 10
202.935133
 20
501.224772
 40
0.5
100
AcDbArc
 50
180.0
 51
270.0
  0
LINE
  5
597
100
AcDbEntity
  8
M0
100
AcDbLine
 10
201.185133
 20
516.124772
 11
201.185133
 21
517.724772
  0
LINE
  5
598
100
AcDbEntity
  8
M0
100
AcDbLine
 10
194.785133
 20
493.724772
 11
194.785133
 21
514.124773
  0
LINE
  5
599
100
AcDbEntity
  8
M0
100
AcDbLine
 10
201.185133
 20
516.124772
 11
207.185133
 21
516.124772
  0
LINE
  5
59A
100
AcDbEntity
  8
M0
100
AcDbLine
 10
195.785134
 20
492.724773
 11
212.585133
 21
492.724773
  0
LINE
  5
59B
100
AcDbEntity
  8
M0
100
AcDbLine
 10
169.185133
 20
494.274772
 11
175.685133
 21
494.274772
  0
LINE
  5
59C
100
AcDbEntity
  8
M0
100
AcDbLine
 10
239.185133
 20
486.774773
 11
232.685134
 21
486.774773
  0
LINE
  5
59D
100
AcDbEntity
  8
M0
100
AcDbLine
 10
239.685134
 20
487.274774
 11
239.685134
 21
493.774773
  0
LINE
  5
59E
100
AcDbEntity
  8
M0
100
AcDbLine
 10
175.685133
 20
479.174772
 11
169.185133
 21
479.174772
  0
LINE
  5
59F
100
AcDbEntity
  8
M0
100
AcDbLine
 10
232.685133
 20
494.274772
 11
239.185133
 21
494.274772
  0
ARC
  5
5A0
100
AcDbEntity
  8
M0
100
AcDbCircle
 10
177.435133
 20
511.624772
 40
0.5
100
AcDbArc
 50
180.0
 51
270.0
  0
LINE
  5
5A1
100
AcDbEntity
  8
M0
100
AcDbLine
 10
232.185134
 20
514.074772
 11
232.185134
 21
520.574773
  0
LINE
  5
5A2
100
AcDbEntity
  8
M0
  6
DASHDOT
100
AcDbLine
 10
204.185133
 20
456.424772
 11
204.185133
 21
555.424773
  0
LINE
  5
5A3
100
AcDbEntity
  8
M0
100
AcDbLine
 10
169.185133
 20
521.074772
 11
175.685133
 21
521.074772
  0
LINE
  5
5A4
100
AcDbEntity
  8
M0
100
AcDbLine
 10
175.685133
 20
513.574773
 11
169.185134
 21
513.574773
  0
LINE
  5
5A5
100
AcDbEntity
  8
M0
100
AcDbLine
 10
223.385134
 20
540.77477
 11
216.885134
 21
540.77477
  0
LINE
  5
5A6
100
AcDbEntity
  8
M0
100
AcDbLine
 10
167.535135
 20
483.824773
 11
167.435133
 21
483.824773
  0
LINE
  5
5A7
100
AcDbEntity
  8
M0
100
AcDbLine
 10
168.685132
 20
528.174771
 11
168.685132
 21
521.674772
  0
LINE
  5
5A8
100
AcDbEntity
  8
M0
100
AcDbLine
 10
223.885133
 20
541.274771
 11
223.885133
 21
547.774773
  0
LINE
  5
5A9
100
AcDbEntity
  8
M0
100
AcDbLine
 10
176.185134
 20
528.174773
 11
176.185134
 21
521.674773
  0
LINE
  5
5AA
100
AcDbEntity
  8
M0
100
AcDbLine
 10
216.885133
 20
548.274774
 11
223.385132
 21
548.274774
  0
LINE
  5
5AB
100
AcDbEntity
  8
M0
100
AcDbLine
 10
228.735134
 20
462.424774
 11
228.735134
 21
464.42477
  0
LINE
  5
5AC
100
AcDbEntity
  8
M0
100
AcDbLine
 10
216.385134
 20
541.274771
 11
216.385131
 21
547.774772
  0
LINE
  5
5AD
100
AcDbEntity
  8
M0
100
AcDbLine
 10
193.535134
 20
464.42477
 11
193.535134
 21
462.424774
  0
LINE
  5
5AE
100
AcDbEntity
  8
M0
100
AcDbLine
 10
240.935133
 20
524.024772
 11
240.835132
 21
524.024772
  0
LINE
  5
5AF
100
AcDbEntity
  8
M0
100
AcDbLine
 10
240.835132
 20
483.824773
 11
240.935133
 21
483.824773
  0
LINE
  5
5B0
100
AcDbEntity
  8
M0
100
AcDbLine
 10
167.435133
 20
524.024772
 11
167.535135
 21
524.024772
  0
ARC
  5
5B1
100
AcDbEntity
  8
M0
100
AcDbCircle
 10
239.185134
 20
487.274773
 40
0.5
100
AcDbArc
 50
270.0
 51
360.0
  0
ARC
  5
5B2
100
AcDbEntity
  8
M0
100
AcDbCircle
 10
239.185134
 20
487.274773
 40
0.5
100
AcDbArc
 50
270.0
 51
360.0
  0
ARC
  5
5B3
100
AcDbEntity
  8
M0
100
AcDbCircle
 10
176.285133
 20
464.924772
 40
0.5
100
AcDbArc
 50
180.0
 51
270.0
  0
ARC
  5
5B4
100
AcDbEntity
  8
M0
100
AcDbCircle
 10
175.735133
 20
543.424772
 40
2.0
100
AcDbArc
 50
53.130102
 51
90.0
  0
ARC
  5
5B5
100
AcDbEntity
  8
M0
100
AcDbCircle
 10
232.635133
 20
543.424772
 40
2.0
100
AcDbArc
 50
90.0
 51
126.869898
  0
ARC
  5
5B6
100
AcDbEntity
  8
M0
100
AcDbCircle
 10
169.185133
 20
479.674772
 40
0.5
100
AcDbArc
 50
180.0
 51
270.0
  0
CIRCLE
  5
5B7
100
AcDbEntity
  8
M0
100
AcDbCircle
 10
186.835133
 20
464.424772
 40
2.85
  0
CIRCLE
  5
5B8
100
AcDbEntity
  8
M0
100
AcDbCircle
 10
186.835133
 20
464.424772
 40
2.825
  0
ARC
  5
5B9
100
AcDbEntity
  8
M0
100
AcDbCircle
 10
169.185133
 20
520.574772
 40
0.5
100
AcDbArc
 50
90.0
 51
180.0
  0
ARC
  5
5BA
100
AcDbEntity
  8
M0
100
AcDbCircle
 10
232.685133
 20
493.774772
 40
0.5
100
AcDbArc
 50
90.0
 51
180.0
  0
ARC
  5
5BB
100
AcDbEntity
  8
M0
100
AcDbCircle
 10
232.685134
 20
487.274772
 40
0.5
100
AcDbArc
 50
180.0
 51
270.0
  0
ARC
  5
5BC
100
AcDbEntity
  8
M0
100
AcDbCircle
 10
239.185133
 20
493.774773
 40
0.5
100
AcDbArc
 50
0.0
 51
90.0
  0
LINE
  5
5BD
100
AcDbEntity
  8
M0
100
AcDbLine
 10
168.685132
 20
520.574771
 11
168.685132
 21
514.074772
  0
ARC
  5
5BE
100
AcDbEntity
  8
M0
100
AcDbCircle
 10
240.835133
 20
477.574772
 40
1.0
100
AcDbArc
 50
180.0
 51
270.0
  0
LINE
  5
5BF
100
AcDbEntity
  8
M0
100
AcDbLine
 10
239.685134
 20
486.174773
 11
239.685134
 21
479.674773
  0
LINE
  5
5C0
100
AcDbEntity
  8
M0
100
AcDbLine
 10
232.685133
 20
486.674773
 11
239.185133
 21
486.674773
  0
LINE
  5
5C1
100
AcDbEntity
  8
M0
100
AcDbLine
 10
232.185134
 20
479.674772
 11
232.185134
 21
486.174772
  0
LINE
  5
5C2
100
AcDbEntity
  8
M0
100
AcDbLine
 10
239.185134
 20
479.174772
 11
232.685133
 21
479.174772
  0
ARC
  5
5C3
100
AcDbEntity
  8
M0
100
AcDbCircle
 10
181.232001
 20
515.774029
 40
5.573176
100
AcDbArc
 50
208.520126
 51
219.557059
  0
ARC
  5
5C4
100
AcDbEntity
  8
M0
100
AcDbCircle
 10
227.138266
 20
515.774029
 40
5.573176
100
AcDbArc
 50
320.442941
 51
331.479874
  0
ARC
  5
5C5
100
AcDbEntity
  8
M0
100
AcDbCircle
 10
176.935133
 20
523.424772
 40
0.6
100
AcDbArc
 50
90.0
 51
180.0
  0
ARC
  5
5C6
100
AcDbEntity
  8
M0
100
AcDbCircle
 10
166.735133
 20
530.274772
 40
1.0
100
AcDbArc
 50
90.0
 51
180.0
  0
ARC
  5
5C7
100
AcDbEntity
  8
M0
100
AcDbCircle
 10
231.435133
 20
523.424772
 40
0.6
100
AcDbArc
 50
0.0
 51
90.0
  0
ARC
  5
5C8
100
AcDbEntity
  8
M0
100
AcDbCircle
 10
167.535133
 20
530.274772
 40
1.0
100
AcDbArc
 50
0.0
 51
90.0
  0
LINE
  5
5C9
100
AcDbEntity
  8
M0
100
AcDbLine
 10
191.985134
 20
547.774772
 11
191.985134
 21
541.274771
  0
LINE
  5
5CA
100
AcDbEntity
  8
M0
100
AcDbLine
 10
176.185132
 20
486.174772
 11
176.185132
 21
479.674772
  0
LINE
  5
5CB
100
AcDbEntity
  8
M0
100
AcDbLine
 10
232.685133
 20
528.674772
 11
239.185133
 21
528.674772
  0
LINE
  5
5CC
100
AcDbEntity
  8
M0
100
AcDbLine
 10
239.185133
 20
521.174772
 11
232.685133
 21
521.174772
  0
LINE
  5
5CD
100
AcDbEntity
  8
M0
100
AcDbLine
 10
232.185134
 20
521.674773
 11
232.185134
 21
528.174772
  0
LINE
  5
5CE
100
AcDbEntity
  8
M0
100
AcDbLine
 10
184.985133
 20
548.274771
 11
191.485133
 21
548.274771
  0
LINE
  5
5CF
100
AcDbEntity
  8
M0
100
AcDbLine
 10
169.185133
 20
486.674773
 11
175.685133
 21
486.674773
  0
LINE
  5
5D0
100
AcDbEntity
  8
M0
100
AcDbLine
 10
232.185134
 20
487.274772
 11
232.185134
 21
493.774772
  0
LINE
  5
5D1
100
AcDbEntity
  8
M0
100
AcDbLine
 10
184.485133
 20
541.274771
 11
184.485133
 21
547.774772
  0
LINE
  5
5D2
100
AcDbEntity
  8
M0
100
AcDbLine
 10
239.685134
 20
528.174773
 11
239.685134
 21
521.674772
  0
LINE
  5
5D3
100
AcDbEntity
  8
M0
100
AcDbLine
 10
191.485133
 20
540.774774
 11
184.985133
 21
540.774774
  0
LINE
  5
5D4
100
AcDbEntity
  8
M0
100
AcDbLine
 10
202.597683
 20
544.674773
 11
201.57362
 21
544.674773
  0
LINE
  5
5D5
100
AcDbEntity
  8
M0
100
AcDbLine
 10
221.085133
 20
463.974774
 11
221.085133
 21
463.224773
  0
LINE
  5
5D6
100
AcDbEntity
  8
M0
100
AcDbLine
 10
221.085133
 20
465.624772
 11
221.085133
 21
464.874771
  0
LINE
  5
5D7
100
AcDbEntity
  8
M0
100
AcDbLine
 10
201.57362
 20
543.774773
 11
202.597683
 21
543.774773
  0
LINE
  5
5D8
100
AcDbEntity
  8
M0
100
AcDbLine
 10
221.985133
 20
463.224773
 11
221.985133
 21
463.974774
  0
LINE
  5
5D9
100
AcDbEntity
  8
M0
100
AcDbLine
 10
221.985133
 20
465.624772
 11
221.085133
 21
465.624772
  0
LINE
  5
5DA
100
AcDbEntity
  8
M0
100
AcDbLine
 10
208.985134
 20
498.724772
 11
209.735133
 21
498.724772
  0
LINE
  5
5DB
100
AcDbEntity
  8
M0
100
AcDbLine
 10
179.635133
 20
467.424773
 11
184.585133
 21
467.424773
  0
LINE
  5
5DC
100
AcDbEntity
  8
M0
100
AcDbLine
 10
224.135134
 20
548.424773
 11
223.635133
 21
548.924774
  0
LINE
  5
5DD
100
AcDbEntity
  8
M0
100
AcDbLine
 10
232.035133
 20
486.724772
 11
239.835133
 21
486.724772
  0
LINE
  5
5DE
100
AcDbEntity
  8
M0
100
AcDbLine
 10
224.135134
 20
540.424772
 11
224.135134
 21
548.424773
  0
LINE
  5
5DF
100
AcDbEntity
  8
M0
100
AcDbLine
 10
221.985133
 20
464.874771
 11
223.122583
 21
464.874771
  0
LINE
  5
5E0
100
AcDbEntity
  8
M0
100
AcDbLine
 10
192.035133
 20
548.924774
 11
183.735134
 21
548.924774
  0
LINE
  5
5E1
100
AcDbEntity
  8
M0
100
AcDbLine
 10
204.635133
 20
545.424771
 11
203.735133
 21
545.424771
  0
LINE
  5
5E2
100
AcDbEntity
  8
M0
100
AcDbLine
 10
203.735133
 20
543.024771
 11
204.635133
 21
543.024771
  0
LINE
  5
5E3
100
AcDbEntity
  8
M0
100
AcDbLine
 10
204.635133
 20
544.674773
 11
205.772584
 21
544.674773
  0
LINE
  5
5E4
100
AcDbEntity
  8
M0
100
AcDbLine
 10
202.597683
 20
544.674773
 11
203.735133
 21
544.674773
  0
LINE
  5
5E5
100
AcDbEntity
  8
M0
100
AcDbLine
 10
176.185132
 20
493.774772
 11
176.185132
 21
487.274772
  0
LINE
  5
5E6
100
AcDbEntity
  8
M0
100
AcDbLine
 10
205.772584
 20
543.774773
 11
206.796646
 21
543.774773
  0
LINE
  5
5E7
100
AcDbEntity
  8
M0
100
AcDbLine
 10
206.796646
 20
544.674773
 11
205.772584
 21
544.674773
  0
LINE
  5
5E8
100
AcDbEntity
  8
M0
100
AcDbLine
 10
223.122583
 20
463.974774
 11
221.985133
 21
463.974774
  0
LINE
  5
5E9
100
AcDbEntity
  8
M0
100
AcDbLine
 10
221.085133
 20
463.974774
 11
219.947682
 21
463.974774
  0
LINE
  5
5EA
100
AcDbEntity
  8
M0
100
AcDbLine
 10
204.635133
 20
544.674773
 11
204.635133
 21
545.424771
  0
LINE
  5
5EB
100
AcDbEntity
  8
M0
100
AcDbLine
 10
204.635133
 20
543.024771
 11
204.635133
 21
543.774773
  0
ARC
  5
5EC
100
AcDbEntity
  8
M0
100
AcDbCircle
 10
239.185133
 20
486.174773
 40
0.5
100
AcDbArc
 50
0.0
 51
90.0
  0
ARC
  5
5ED
100
AcDbEntity
  8
M0
100
AcDbCircle
 10
232.685134
 20
479.674772
 40
0.5
100
AcDbArc
 50
180.0
 51
270.0
  0
ARC
  5
5EE
100
AcDbEntity
  8
M0
100
AcDbCircle
 10
230.435133
 20
545.424772
 40
1.0
100
AcDbArc
 50
0.0
 51
90.0
  0
ARC
  5
5EF
100
AcDbEntity
  8
M0
100
AcDbCircle
 10
239.185134
 20
479.674773
 40
0.5
100
AcDbArc
 50
270.0
 51
360.0
  0
ARC
  5
5F0
100
AcDbEntity
  8
M0
100
AcDbCircle
 10
175.685133
 20
486.174772
 40
0.5
100
AcDbArc
 50
0.0
 51
90.0
  0
ARC
  5
5F1
100
AcDbEntity
  8
M0
100
AcDbCircle
 10
186.835133
 20
464.424772
 40
2.65
100
AcDbArc
 50
189.776849
 51
350.223151
  0
ARC
  5
5F2
100
AcDbEntity
  8
M0
100
AcDbCircle
 10
175.685133
 20
479.674772
 40
0.5
100
AcDbArc
 50
270.0
 51
360.0
  0
LINE
  5
5F3
100
AcDbEntity
  8
M0
100
AcDbLine
 10
168.685132
 20
479.674772
 11
168.685132
 21
486.174772
  0
ARC
  5
5F4
100
AcDbEntity
  8
M0
100
AcDbCircle
 10
184.985133
 20
541.274772
 40
0.5
100
AcDbArc
 50
180.0
 51
270.0
  0
ARC
  5
5F5
100
AcDbEntity
  8
M0
100
AcDbCircle
 10
169.185133
 20
486.174772
 40
0.5
100
AcDbArc
 50
90.0
 51
180.0
  0
ARC
  5
5F6
100
AcDbEntity
  8
M0
100
AcDbCircle
 10
191.485133
 20
541.274772
 40
0.5
100
AcDbArc
 50
270.0
 51
360.0
  0
ARC
  5
5F7
100
AcDbEntity
  8
M0
100
AcDbCircle
 10
191.485133
 20
547.774772
 40
0.5
100
AcDbArc
 50
0.0
 51
90.0
  0
ARC
  5
5F8
100
AcDbEntity
  8
M0
100
AcDbCircle
 10
175.685133
 20
528.174773
 40
0.5
100
AcDbArc
 50
0.0
 51
90.0
  0
ARC
  5
5F9
100
AcDbEntity
  8
M0
100
AcDbCircle
 10
175.685134
 20
521.674773
 40
0.5
100
AcDbArc
 50
270.0
 51
360.0
  0
LINE
  5
5FA
100
AcDbEntity
  8
M0
100
AcDbLine
 10
228.735134
 20
540.424772
 11
223.785134
 21
540.424772
  0
LINE
  5
5FB
100
AcDbEntity
  8
M0
100
AcDbLine
 10
197.235133
 20
467.424773
 11
202.185133
 21
467.424773
  0
LINE
  5
5FC
100
AcDbEntity
  8
M0
100
AcDbLine
 10
214.835133
 20
467.424773
 11
219.785133
 21
467.424773
  0
LINE
  5
5FD
100
AcDbEntity
  8
M0
100
AcDbLine
 10
200.035133
 20
498.224772
 11
200.035133
 21
498.724772
  0
ARC
  5
5FE
100
AcDbEntity
  8
M0
100
AcDbCircle
 10
169.185134
 20
521.674772
 40
0.5
100
AcDbArc
 50
180.0
 51
270.0
  0
ARC
  5
5FF
100
AcDbEntity
  8
M0
100
AcDbCircle
 10
216.885133
 20
547.774772
 40
0.5
100
AcDbArc
 50
90.0
 51
180.0
  0
ARC
  5
600
100
AcDbEntity
  8
M0
100
AcDbCircle
 10
216.885134
 20
541.274772
 40
0.5
100
AcDbArc
 50
180.0
 51
270.0
  0
ARC
  5
601
100
AcDbEntity
  8
M0
100
AcDbCircle
 10
169.185133
 20
528.174772
 40
0.5
100
AcDbArc
 50
90.0
 51
180.0
  0
ARC
  5
602
100
AcDbEntity
  8
M0
100
AcDbCircle
 10
223.385134
 20
541.274773
 40
0.5
100
AcDbArc
 50
270.0
 51
360.0
  0
ARC
  5
603
100
AcDbEntity
  8
M0
100
AcDbCircle
 10
223.385133
 20
547.774773
 40
0.5
100
AcDbArc
 50
0.0
 51
90.0
  0
LINE
  5
604
100
AcDbEntity
  8
M0
100
AcDbLine
 10
169.435134
 20
528.724773
 11
168.535133
 21
528.724773
  0
LINE
  5
605
100
AcDbEntity
  8
M0
100
AcDbLine
 10
193.735133
 20
546.024773
 11
193.735133
 21
548.224773
  0
LINE
  5
606
100
AcDbEntity
  8
M0
100
AcDbLine
 10
238.935133
 20
528.724773
 11
239.835133
 21
528.724773
  0
LINE
  5
607
100
AcDbEntity
  8
M0
100
AcDbLine
 10
202.185133
 20
467.424773
 11
206.185133
 21
467.424773
  0
LINE
  5
608
100
AcDbEntity
  8
M0
100
AcDbLine
 10
219.785132
 20
540.424772
 11
226.235134
 21
540.424772
  0
LINE
  5
609
100
AcDbEntity
  8
M0
100
AcDbLine
 10
232.035133
 20
528.724773
 11
232.935134
 21
528.724773
  0
ARC
  5
60A
100
AcDbEntity
  8
M0
100
AcDbCircle
 10
175.935133
 20
498.724772
 40
1.0
100
AcDbArc
 50
180.0
 51
270.0
  0
ARC
  5
60B
100
AcDbEntity
  8
M0
100
AcDbCircle
 10
172.734643
 20
536.374772
 40
0.3
100
AcDbArc
 50
90.0
 51
178.876481
  0
ARC
  5
60C
100
AcDbEntity
  8
M0
100
AcDbCircle
 10
194.035133
 20
528.824772
 40
0.5
100
AcDbArc
 50
180.0
 51
270.0
  0
ARC
  5
60D
100
AcDbEntity
  8
M0
100
AcDbCircle
 10
221.535133
 20
464.424772
 40
3.5
100
AcDbArc
 50
121.002719
 51
180.0
  0
ARC
  5
60E
100
AcDbEntity
  8
M0
100
AcDbCircle
 10
211.635133
 20
479.024772
 40
0.5
100
AcDbArc
 50
90.0
 51
180.0
  0
LINE
  5
60F
100
AcDbEntity
  8
M0
100
AcDbLine
 10
240.935133
 20
531.274771
 11
240.835132
 21
531.274771
  0
LINE
  5
610
100
AcDbEntity
  8
M0
100
AcDbLine
 10
193.085134
 20
462.424774
 11
193.085134
 21
467.424773
  0
LINE
  5
611
100
AcDbEntity
  8
M0
100
AcDbLine
 10
180.585132
 20
462.424774
 11
180.585132
 21
467.424773
  0
LINE
  5
612
100
AcDbEntity
  8
M0
100
AcDbLine
 10
215.285133
 20
462.424774
 11
215.285133
 21
467.424773
  0
LINE
  5
613
100
AcDbEntity
  8
M0
100
AcDbLine
 10
194.235133
 20
548.724771
 11
214.135133
 21
548.724771
  0
LINE
  5
614
100
AcDbEntity
  8
M0
100
AcDbLine
 10
167.435133
 20
476.574773
 11
167.535135
 21
476.574773
  0
LINE
  5
615
100
AcDbEntity
  8
M0
100
AcDbLine
 10
227.785134
 20
467.424773
 11
227.785134
 21
462.424774
  0
LINE
  5
616
100
AcDbEntity
  8
M0
100
AcDbLine
 10
218.035133
 20
464.42477
 11
218.035133
 21
462.424774
  0
LINE
  5
617
100
AcDbEntity
  8
M0
100
AcDbLine
 10
183.335132
 20
464.42477
 11
183.335132
 21
462.424774
  0
LINE
  5
618
100
AcDbEntity
  8
M0
100
AcDbLine
 10
183.735134
 20
540.424772
 11
183.735134
 21
549.424772
  0
LINE
  5
619
100
AcDbEntity
  8
M0
100
AcDbLine
 10
240.135133
 20
461.424772
 11
216.285133
 21
461.424772
  0
LINE
  5
61A
100
AcDbEntity
  8
M0
100
AcDbLine
 10
167.435133
 20
531.274771
 11
167.535135
 21
531.274771
  0
LINE
  5
61B
100
AcDbEntity
  8
M0
100
AcDbLine
 10
214.635133
 20
548.224773
 11
214.635133
 21
546.024773
  0
ARC
  5
61C
100
AcDbEntity
  8
M0
100
AcDbCircle
 10
168.235133
 20
542.424772
 40
3.0
100
AcDbArc
 50
90.0
 51
180.0
  0
ARC
  5
61D
100
AcDbEntity
  8
M0
100
AcDbCircle
 10
239.635133
 20
542.424772
 40
3.0
100
AcDbArc
 50
0.0
 51
90.0
  0
ARC
  5
61E
100
AcDbEntity
  8
M0
100
AcDbCircle
 10
185.935133
 20
549.424772
 40
0.5
100
AcDbArc
 50
270.0
 51
360.0
  0
ARC
  5
61F
100
AcDbEntity
  8
M0
100
AcDbCircle
 10
176.285133
 20
463.424772
 40
0.5
100
AcDbArc
 50
180.0
 51
270.0
  0
ARC
  5
620
100
AcDbEntity
  8
M0
100
AcDbCircle
 10
222.435133
 20
549.924772
 40
0.5
100
AcDbArc
 50
90.0
 51
180.0
  0
ARC
  5
621
100
AcDbEntity
  8
M0
100
AcDbCircle
 10
222.435133
 20
549.424772
 40
0.5
100
AcDbArc
 50
180.0
 51
270.0
  0
ARC
  5
622
100
AcDbEntity
  8
M0
100
AcDbCircle
 10
226.035133
 20
462.424772
 40
1.0
100
AcDbArc
 50
180.0
 51
270.0
  0
ARC
  5
623
100
AcDbEntity
  8
M0
100
AcDbCircle
 10
192.085133
 20
462.424772
 40
1.0
100
AcDbArc
 50
270.0
 51
360.0
  0
ARC
  5
624
100
AcDbEntity
  8
M0
100
AcDbCircle
 10
181.585133
 20
462.424772
 40
1.0
100
AcDbArc
 50
180.0
 51
270.0
  0
ARC
  5
625
100
AcDbEntity
  8
M0
100
AcDbCircle
 10
217.035133
 20
462.424772
 40
1.0
100
AcDbArc
 50
270.0
 51
360.0
  0
ARC
  5
626
100
AcDbEntity
  8
M0
100
AcDbCircle
 10
182.735133
 20
549.424772
 40
1.0
100
AcDbArc
 50
90.0
 51
180.0
  0
ARC
  5
627
100
AcDbEntity
  8
M0
100
AcDbCircle
 10
182.335133
 20
462.424772
 40
1.0
100
AcDbArc
 50
270.0
 51
360.0
  0
ARC
  5
628
100
AcDbEntity
  8
M0
100
AcDbCircle
 10
236.685133
 20
468.924772
 40
2.25
100
AcDbArc
 50
270.0
 51
355.815286
  0
ARC
  5
629
100
AcDbEntity
  8
M0
100
AcDbCircle
 10
212.135133
 20
462.424772
 40
1.0
100
AcDbArc
 50
180.0
 51
270.0
  0
ARC
  5
62A
100
AcDbEntity
  8
M0
100
AcDbCircle
 10
169.135624
 20
538.974772
 40
0.3
100
AcDbArc
 50
270.0
 51
358.876481
  0
ARC
  5
62B
100
AcDbEntity
  8
M0
100
AcDbCircle
 10
171.685133
 20
538.924772
 40
2.25
100
AcDbArc
 50
90.0
 51
178.876481
  0
ARC
  5
62C
100
AcDbEntity
  8
M0
100
AcDbCircle
 10
174.185133
 20
538.924772
 40
2.25
100
AcDbArc
 50
270.0
 51
450.0
  0
ARC
  5
62D
100
AcDbEntity
  8
M0
100
AcDbCircle
 10
185.935133
 20
549.924772
 40
0.5
100
AcDbArc
 50
0.0
 51
90.0
  0
ARC
  5
62E
100
AcDbEntity
  8
M0
100
AcDbCircle
 10
214.335133
 20
479.024772
 40
0.5
100
AcDbArc
 50
0.0
 51
90.0
  0
ARC
  5
62F
100
AcDbEntity
  8
M0
100
AcDbCircle
 10
170.185133
 20
536.424772
 40
2.25
100
AcDbArc
 50
272.401074
 51
358.876481
  0
ARC
  5
630
100
AcDbEntity
  8
M0
100
AcDbCircle
 10
234.185133
 20
468.924772
 40
2.25
100
AcDbArc
 50
90.0
 51
270.0
  0
ARC
  5
631
100
AcDbEntity
  8
M0
100
AcDbCircle
 10
194.035133
 20
479.024772
 40
0.5
100
AcDbArc
 50
90.0
 51
180.0
  0
ARC
  5
632
100
AcDbEntity
  8
M0
100
AcDbCircle
 10
196.735133
 20
479.024772
 40
0.5
100
AcDbArc
 50
0.0
 51
90.0
  0
LINE
  5
633
100
AcDbEntity
  8
M0
100
AcDbLine
 10
232.635132
 20
545.424771
 11
239.635134
 21
545.424771
  0
LINE
  5
634
100
AcDbEntity
  8
M0
100
AcDbLine
 10
242.635132
 20
480.124772
 11
243.135133
 21
475.124773
  0
LINE
  5
635
100
AcDbEntity
  8
M0
100
AcDbLine
 10
176.935134
 20
464.42477
 11
176.285134
 21
464.42477
  0
LINE
  5
636
100
AcDbEntity
  8
M0
100
AcDbLine
 10
169.135624
 20
538.674772
 11
168.685132
 21
538.674772
  0
LINE
  5
637
100
AcDbEntity
  8
M0
100
AcDbLine
 10
174.185134
 20
541.174773
 11
171.685134
 21
541.174773
  0
LINE
  5
638
100
AcDbEntity
  8
M0
100
AcDbLine
 10
168.685132
 20
534.174772
 11
170.279396
 21
534.176748
  0
LINE
  5
639
100
AcDbEntity
  8
M0
100
AcDbLine
 10
175.785133
 20
464.924771
 11
175.785133
 21
465.424772
  0
LINE
  5
63A
100
AcDbEntity
  8
M0
100
AcDbLine
 10
183.735134
 20
544.924773
 11
184.235133
 21
544.924773
  0
LINE
  5
63B
100
AcDbEntity
  8
M0
100
AcDbLine
 10
176.935134
 20
465.424772
 11
175.785133
 21
465.424772
  0
LINE
  5
63C
100
AcDbEntity
  8
M0
100
AcDbLine
 10
224.635133
 20
546.024773
 11
224.135134
 21
546.024773
  0
LINE
  5
63D
100
AcDbEntity
  8
M0
100
AcDbLine
 10
183.735134
 20
547.224771
 11
184.235133
 21
547.224771
  0
LINE
  5
63E
100
AcDbEntity
  8
M0
100
AcDbLine
 10
184.235133
 20
546.024773
 11
183.735134
 21
546.024773
  0
ARC
  5
63F
100
AcDbEntity
  8
M0
100
AcDbCircle
 10
216.285133
 20
462.424772
 40
1.0
100
AcDbArc
 50
180.0
 51
270.0
  0
ARC
  5
640
100
AcDbEntity
  8
M0
100
AcDbCircle
 10
226.785133
 20
462.424772
 40
1.0
100
AcDbArc
 50
270.0
 51
360.0
  0
ARC
  5
641
100
AcDbEntity
  8
M0
100
AcDbCircle
 10
221.535133
 20
464.424772
 40
3.5
100
AcDbArc
 50
0.0
 51
58.997281
  0
ARC
  5
642
100
AcDbEntity
  8
M0
100
AcDbCircle
 10
214.135133
 20
548.224772
 40
0.5
100
AcDbArc
 50
0.0
 51
90.0
  0
ARC
  5
643
100
AcDbEntity
  8
M0
100
AcDbCircle
 10
186.835133
 20
464.424772
 40
3.5
100
AcDbArc
 50
91.94738
 51
121.002719
  0
ARC
  5
644
100
AcDbEntity
  8
M0
100
AcDbCircle
 10
186.835133
 20
464.424772
 40
3.5
100
AcDbArc
 50
121.002719
 51
180.0
  0
CIRCLE
  5
645
100
AcDbEntity
  8
M0
100
AcDbCircle
 10
204.185133
 20
544.224772
 40
3.1
  0
LINE
  5
646
100
AcDbEntity
  8
M0
100
AcDbLine
 10
172.734642
 20
536.674772
 11
174.185134
 21
536.674772
  0
ARC
  5
647
100
AcDbEntity
  8
M0
100
AcDbCircle
 10
221.535133
 20
464.424772
 40
3.5
100
AcDbArc
 50
58.997281
 51
88.05262
  0
ARC
  5
648
100
AcDbEntity
  8
M0
100
AcDbCircle
 10
166.735133
 20
477.574772
 40
1.0
100
AcDbArc
 50
180.0
 51
270.0
  0
ARC
  5
649
100
AcDbEntity
  8
M0
100
AcDbCircle
 10
194.235133
 20
548.224772
 40
0.5
100
AcDbArc
 50
90.0
 51
180.0
  0
ARC
  5
64A
100
AcDbEntity
  8
M0
100
AcDbCircle
 10
186.835133
 20
464.424772
 40
3.5
100
AcDbArc
 50
0.0
 51
58.997281
  0
LINE
  5
64B
100
AcDbEntity
  8
M0
100
AcDbLine
 10
211.135133
 20
462.424774
 11
211.135133
 21
466.424771
  0
LINE
  5
64C
100
AcDbEntity
  8
M0
100
AcDbLine
 10
211.135133
 20
466.424771
 11
211.135133
 21
479.024772
  0
LINE
  5
64D
100
AcDbEntity
  8
M0
100
AcDbLine
 10
212.135134
 20
479.524773
 11
213.835134
 21
479.524773
  0
LINE
  5
64E
100
AcDbEntity
  8
M0
100
AcDbLine
 10
225.035134
 20
462.424774
 11
225.035134
 21
464.42477
  0
LINE
  5
64F
100
AcDbEntity
  8
M0
100
AcDbLine
 10
192.085133
 20
461.424772
 11
168.735133
 21
461.424772
  0
LINE
  5
650
100
AcDbEntity
  8
M0
100
AcDbLine
 10
190.335134
 20
464.42477
 11
190.335134
 21
462.424774
  0
LINE
  5
651
100
AcDbEntity
  8
M0
100
AcDbLine
 10
165.735134
 20
530.274772
 11
165.735134
 21
464.424772
  0
ARC
  5
652
100
AcDbEntity
  8
M0
100
AcDbCircle
 10
168.685133
 20
536.424772
 40
2.25
100
AcDbArc
 50
90.0
 51
270.0
  0
LINE
  5
653
100
AcDbEntity
  8
M0
100
AcDbLine
 10
166.735133
 20
476.574773
 11
167.535135
 21
476.574773
  0
LINE
  5
654
100
AcDbEntity
  8
M0
100
AcDbLine
 10
223.337909
 20
467.424773
 11
223.785134
 21
467.424773
  0
LINE
  5
655
100
AcDbEntity
  8
M0
100
AcDbLine
 10
181.735133
 20
540.424772
 11
181.735133
 21
549.424771
  0
LINE
  5
656
100
AcDbEntity
  8
M0
100
AcDbLine
 10
185.032358
 20
467.424773
 11
184.585133
 21
467.424773
  0
LINE
  5
657
100
AcDbEntity
  8
M0
100
AcDbLine
 10
242.635132
 20
542.424772
 11
242.635132
 21
477.574772
  0
LINE
  5
658
100
AcDbEntity
  8
M0
100
AcDbLine
 10
168.235132
 20
545.424771
 11
175.735134
 21
545.424771
  0
LINE
  5
659
100
AcDbEntity
  8
M0
100
AcDbLine
 10
176.935134
 20
472.424772
 11
175.785133
 21
472.424772
  0
LINE
  5
65A
100
AcDbEntity
  8
M0
100
AcDbLine
 10
226.635133
 20
541.924771
 11
228.735134
 21
541.924771
  0
LINE
  5
65B
100
AcDbEntity
  8
M0
100
AcDbLine
 10
179.635133
 20
541.924771
 11
181.735133
 21
541.924771
  0
LINE
  5
65C
100
AcDbEntity
  8
M0
100
AcDbLine
 10
224.635133
 20
544.924773
 11
224.135134
 21
544.924773
  0
LINE
  5
65D
100
AcDbEntity
  8
M0
100
AcDbLine
 10
194.535133
 20
461.424772
 11
195.035129
 21
461.424772
  0
LINE
  5
65E
100
AcDbEntity
  8
M0
100
AcDbLine
 10
195.035129
 20
461.424772
 11
196.235133
 21
461.424772
  0
LINE
  5
65F
100
AcDbEntity
  8
M0
100
AcDbLine
 10
165.235133
 20
532.724772
 11
165.235133
 21
542.424772
  0
LINE
  5
660
100
AcDbEntity
  8
M0
100
AcDbLine
 10
175.785133
 20
466.424771
 11
176.935134
 21
466.424771
  0
LINE
  5
661
100
AcDbEntity
  8
M0
100
AcDbLine
 10
235.636623
 20
471.174773
 11
234.185133
 21
471.174773
  0
LINE
  5
662
100
AcDbEntity
  8
M0
100
AcDbLine
 10
231.435133
 20
508.624772
 11
231.435133
 21
505.324772
  0
LINE
  5
663
100
AcDbEntity
  8
M0
100
AcDbLine
 10
231.435133
 20
505.424772
 11
230.435132
 21
505.424772
  0
LINE
  5
664
100
AcDbEntity
  8
M0
100
AcDbLine
 10
230.935133
 20
511.124772
 11
230.435132
 21
511.124772
  0
LINE
  5
665
100
AcDbEntity
  8
M0
100
AcDbLine
 10
224.135134
 20
547.224771
 11
224.635133
 21
547.224771
  0
LINE
  5
666
100
AcDbEntity
  8
M0
100
AcDbLine
 10
197.685133
 20
490.924772
 11
195.685133
 21
490.924772
  0
LINE
  5
667
100
AcDbEntity
  8
M0
100
AcDbLine
 10
195.785134
 20
515.124772
 11
198.285133
 21
515.124772
  0
LINE
  5
668
100
AcDbEntity
  8
M0
100
AcDbLine
 10
230.435132
 20
508.424772
 11
231.435133
 21
508.424772
  0
LINE
  5
669
100
AcDbEntity
  8
M0
100
AcDbLine
 10
209.085133
 20
513.624773
 11
199.285133
 21
513.624773
  0
LINE
  5
66A
100
AcDbEntity
  8
M0
100
AcDbLine
 10
176.935134
 20
505.424772
 11
177.935134
 21
505.424772
  0
LINE
  5
66B
100
AcDbEntity
  8
M0
100
AcDbLine
 10
230.435132
 20
505.424772
 11
230.435132
 21
502.424772
  0
LINE
  5
66C
100
AcDbEntity
  8
M0
100
AcDbLine
 10
177.935134
 20
511.124772
 11
177.435133
 21
511.124772
  0
LINE
  5
66D
100
AcDbEntity
  8
M0
100
AcDbLine
 10
176.935134
 20
508.624772
 11
176.935134
 21
505.424772
  0
ARC
  5
66E
100
AcDbEntity
  8
M0
100
AcDbCircle
 10
214.335133
 20
528.824772
 40
0.5
100
AcDbArc
 50
270.0
 51
360.0
  0
ARC
  5
66F
100
AcDbEntity
  8
M0
100
AcDbCircle
 10
211.635133
 20
528.824772
 40
0.5
100
AcDbArc
 50
180.0
 51
270.0
  0
ARC
  5
670
100
AcDbEntity
  8
M0
100
AcDbCircle
 10
196.735133
 20
528.824772
 40
0.5
100
AcDbArc
 50
270.0
 51
360.0
  0
ARC
  5
671
100
AcDbEntity
  8
M0
100
AcDbCircle
 10
232.435133
 20
509.124772
 40
1.0
100
AcDbArc
 50
0.0
 51
90.0
  0
ARC
  5
672
100
AcDbEntity
  8
M0
100
AcDbCircle
 10
232.435133
 20
498.724772
 40
1.0
100
AcDbArc
 50
270.0
 51
360.0
  0
ARC
  5
673
100
AcDbEntity
  8
M0
100
AcDbCircle
 10
196.235133
 20
462.424772
 40
1.0
100
AcDbArc
 50
270.0
 51
360.0
  0
LINE
  5
674
100
AcDbEntity
  8
M0
100
AcDbLine
 10
224.635133
 20
548.924774
 11
223.635133
 21
548.924774
  0
LINE
  5
675
100
AcDbEntity
  8
M0
100
AcDbLine
 10
210.185133
 20
489.424773
 11
210.185133
 21
490.424772
  0
LINE
  5
676
100
AcDbEntity
  8
M0
100
AcDbLine
 10
224.635133
 20
541.924771
 11
224.135134
 21
541.924771
  0
CIRCLE
  5
677
100
AcDbEntity
  8
M0
100
AcDbCircle
 10
239.185133
 20
540.924772
 40
2.25
  0
CIRCLE
  5
678
100
AcDbEntity
  8
M0
100
AcDbCircle
 10
169.185133
 20
465.924772
 40
2.25
  0
ARC
  5
679
100
AcDbEntity
  8
M0
100
AcDbCircle
 10
175.935133
 20
509.124772
 40
1.0
100
AcDbArc
 50
90.0
 51
180.0
  0
LINE
  5
67A
100
AcDbEntity
  8
M0
100
AcDbLine
 10
214.335133
 20
528.324772
 11
211.635133
 21
528.324772
  0
LINE
  5
67B
100
AcDbEntity
  8
M0
100
AcDbLine
 10
176.935134
 20
510.124772
 11
175.935134
 21
510.124772
  0
LINE
  5
67C
100
AcDbEntity
  8
M0
100
AcDbLine
 10
234.185133
 20
466.674771
 11
236.685132
 21
466.674771
  0
LINE
  5
67D
100
AcDbEntity
  8
M0
100
AcDbLine
 10
201.935133
 20
508.693726
 11
199.385133
 21
508.693726
  0
LINE
  5
67E
100
AcDbEntity
  8
M0
100
AcDbLine
 10
193.535134
 20
540.424772
 11
179.635133
 21
540.424772
  0
LINE
  5
67F
100
AcDbEntity
  8
M0
100
AcDbLine
 10
208.985133
 20
508.693726
 11
206.435133
 21
508.693726
  0
LINE
  5
680
100
AcDbEntity
  8
M0
100
AcDbLine
 10
168.535133
 20
479.124772
 11
169.435134
 21
479.124772
  0
ARC
  5
681
100
AcDbEntity
  8
M0
100
AcDbCircle
 10
239.185133
 20
493.774773
 40
0.5
100
AcDbArc
 50
0.0
 51
90.0
  0
LINE
  5
682
100
AcDbEntity
  8
M0
100
AcDbLine
 10
196.235133
 20
479.524773
 11
194.535133
 21
479.524773
  0
LINE
  5
683
100
AcDbEntity
  8
M0
100
AcDbLine
 10
196.735133
 20
479.524773
 11
196.235133
 21
479.524773
  0
LINE
  5
684
100
AcDbEntity
  8
M0
100
AcDbLine
 10
194.535133
 20
479.524773
 11
194.035133
 21
479.524773
  0
LINE
  5
685
100
AcDbEntity
  8
M0
100
AcDbLine
 10
231.435133
 20
510.124772
 11
232.435133
 21
510.124772
  0
LINE
  5
686
100
AcDbEntity
  8
M0
100
AcDbLine
 10
199.285133
 20
514.124773
 11
199.285133
 21
513.624773
  0
LINE
  5
687
100
AcDbEntity
  8
M0
100
AcDbLine
 10
230.435132
 20
502.424772
 11
231.435133
 21
502.424772
  0
LINE
  5
688
100
AcDbEntity
  8
M0
100
AcDbLine
 10
177.935134
 20
505.424772
 11
177.935134
 21
502.424772
  0
LINE
  5
689
100
AcDbEntity
  8
M0
100
AcDbLine
 10
199.285133
 20
514.124773
 11
209.085133
 21
514.124773
  0
LINE
  5
68A
100
AcDbEntity
  8
M0
100
AcDbLine
 10
231.435133
 20
502.524772
 11
231.435133
 21
499.224772
  0
LINE
  5
68B
100
AcDbEntity
  8
M0
100
AcDbLine
 10
177.935134
 20
499.424772
 11
177.935134
 21
496.724772
  0
LINE
  5
68C
100
AcDbEntity
  8
M0
100
AcDbLine
 10
177.935134
 20
508.424772
 11
176.935134
 21
508.424772
  0
LINE
  5
68D
100
AcDbEntity
  8
M0
100
AcDbLine
 10
230.435132
 20
511.124772
 11
230.435132
 21
508.424772
  0
LINE
  5
68E
100
AcDbEntity
  8
M0
100
AcDbLine
 10
230.435132
 20
499.424772
 11
230.435132
 21
496.724772
  0
LINE
  5
68F
100
AcDbEntity
  8
M0
100
AcDbLine
 10
176.935134
 20
502.424772
 11
176.935134
 21
499.224772
  0
LINE
  5
690
100
AcDbEntity
  8
M0
100
AcDbLine
 10
231.435133
 20
499.424772
 11
230.435132
 21
499.424772
  0
LINE
  5
691
100
AcDbEntity
  8
M0
100
AcDbLine
 10
175.935134
 20
502.524772
 11
177.635133
 21
502.524772
  0
LINE
  5
692
100
AcDbEntity
  8
M0
100
AcDbLine
 10
179.635133
 20
481.024772
 11
178.635133
 21
481.024772
  0
LINE
  5
693
100
AcDbEntity
  8
M0
100
AcDbLine
 10
174.935134
 20
509.124772
 11
174.935134
 21
498.724772
  0
LINE
  5
694
100
AcDbEntity
  8
M0
100
AcDbLine
 10
179.635133
 20
466.424771
 11
179.635133
 21
481.024772
  0
LINE
  5
695
100
AcDbEntity
  8
M0
100
AcDbLine
 10
233.435133
 20
509.124772
 11
233.435133
 21
498.724772
  0
LINE
  5
696
100
AcDbEntity
  8
M0
100
AcDbLine
 10
175.935134
 20
497.724772
 11
176.935134
 21
497.724772
  0
LINE
  5
697
100
AcDbEntity
  8
M0
100
AcDbLine
 10
240.935133
 20
476.574773
 11
240.835132
 21
476.574773
  0
LINE
  5
698
100
AcDbEntity
  8
M0
100
AcDbLine
 10
165.735134
 20
527.724773
 11
165.235133
 21
532.724772
  0
LINE
  5
699
100
AcDbEntity
  8
M0
100
AcDbLine
 10
232.935134
 20
479.124772
 11
232.035133
 21
479.124772
  0
LINE
  5
69A
100
AcDbEntity
  8
M0
100
AcDbLine
 10
177.635133
 20
505.324772
 11
175.935134
 21
505.324772
  0
LINE
  5
69B
100
AcDbEntity
  8
M0
100
AcDbLine
 10
239.835133
 20
479.124772
 11
238.935133
 21
479.124772
  0
LINE
  5
69C
100
AcDbEntity
  8
M0
100
AcDbLine
 10
176.935134
 20
502.524772
 11
176.935134
 21
502.424772
  0
LINE
  5
69D
100
AcDbEntity
  8
M0
100
AcDbLine
 10
214.835133
 20
479.024772
 11
214.835133
 21
466.424771
  0
LINE
  5
69E
100
AcDbEntity
  8
M0
100
AcDbLine
 10
213.835134
 20
479.524773
 11
214.335134
 21
479.524773
  0
LINE
  5
69F
100
AcDbEntity
  8
M0
100
AcDbLine
 10
228.735134
 20
466.424771
 11
228.735134
 21
481.024772
  0
ARC
  5
6A0
100
AcDbEntity
  8
M0
100
AcDbCircle
 10
191.335133
 20
462.424772
 40
1.0
100
AcDbArc
 50
180.0
 51
270.0
  0
ARC
  5
6A1
100
AcDbEntity
  8
M0
100
AcDbCircle
 10
182.735133
 20
549.424772
 40
1.0
100
AcDbArc
 50
0.0
 51
90.0
  0
LINE
  5
6A2
100
AcDbEntity
  8
M0
100
AcDbLine
 10
175.785133
 20
472.424772
 11
175.785133
 21
466.424771
  0
LINE
  5
6A3
100
AcDbEntity
  8
M0
100
AcDbLine
 10
211.635133
 20
479.524773
 11
212.135134
 21
479.524773
  0
LINE
  5
6A4
100
AcDbEntity
  8
M0
100
AcDbLine
 10
176.935134
 20
505.324772
 11
176.935134
 21
505.424772
  0
LINE
  5
6A5
100
AcDbEntity
  8
M0
100
AcDbLine
 10
232.435133
 20
497.724772
 11
231.435133
 21
497.724772
  0
LINE
  5
6A6
100
AcDbEntity
  8
M0
100
AcDbLine
 10
175.935134
 20
508.624772
 11
175.935134
 21
499.224772
  0
LINE
  5
6A7
100
AcDbEntity
  8
M0
100
AcDbLine
 10
232.435133
 20
508.624772
 11
232.435133
 21
499.224772
  0
LINE
  5
6A8
100
AcDbEntity
  8
M0
100
AcDbLine
 10
228.735134
 20
481.024772
 11
229.735134
 21
481.024772
  0
ARC
  5
6A9
100
AcDbEntity
  8
M0
100
AcDbCircle
 10
195.785133
 20
493.724772
 40
1.0
100
AcDbArc
 50
180.0
 51
270.0
  0
ARC
  5
6AA
100
AcDbEntity
  8
M0
100
AcDbCircle
 10
230.435133
 20
525.624772
 40
1.0
100
AcDbArc
 50
0.0
 51
90.0
  0
ARC
  5
6AB
100
AcDbEntity
  8
M0
100
AcDbCircle
 10
197.685133
 20
489.424772
 40
0.5
100
AcDbArc
 50
270.0
 51
360.0
  0
ARC
  5
6AC
100
AcDbEntity
  8
M0
100
AcDbCircle
 10
212.685133
 20
489.424772
 40
0.5
100
AcDbArc
 50
270.0
 51
360.0
  0
ARC
  5
6AD
100
AcDbEntity
  8
M0
100
AcDbCircle
 10
212.685133
 20
490.424772
 40
0.5
100
AcDbArc
 50
0.0
 51
90.0
  0
ARC
  5
6AE
100
AcDbEntity
  8
M0
100
AcDbCircle
 10
197.685133
 20
490.424772
 40
0.5
100
AcDbArc
 50
0.0
 51
90.0
  0
ARC
  5
6AF
100
AcDbEntity
  8
M0
100
AcDbCircle
 10
230.435133
 20
462.424772
 40
1.0
100
AcDbArc
 50
270.0
 51
360.0
  0
LINE
  5
6B0
100
AcDbEntity
  8
M0
100
AcDbLine
 10
177.935134
 20
511.124772
 11
177.935134
 21
508.424772
  0
ARC
  5
6B1
100
AcDbEntity
  8
M0
100
AcDbCircle
 10
201.935133
 20
508.193726
 40
0.5
100
AcDbArc
 50
0.0
 51
90.0
  0
ARC
  5
6B2
100
AcDbEntity
  8
M0
100
AcDbCircle
 10
195.785133
 20
514.124772
 40
1.0
100
AcDbArc
 50
90.0
 51
180.0
  0
ARC
  5
6B3
100
AcDbEntity
  8
M0
100
AcDbCircle
 10
206.435133
 20
508.193726
 40
0.5
100
AcDbArc
 50
90.0
 51
180.0
  0
ARC
  5
6B4
100
AcDbEntity
  8
M0
100
AcDbCircle
 10
212.585133
 20
514.124772
 40
1.0
100
AcDbArc
 50
0.0
 51
90.0
  0
LINE
  5
6B5
100
AcDbEntity
  8
M0
100
AcDbLine
 10
175.785133
 20
463.424772
 11
175.785133
 21
464.924771
  0
LINE
  5
6B6
100
AcDbEntity
  8
M0
100
AcDbLine
 10
176.335133
 20
528.724773
 11
175.435133
 21
528.724773
  0
LINE
  5
6B7
100
AcDbEntity
  8
M0
100
AcDbLine
 10
176.935134
 20
462.924771
 11
176.285134
 21
462.924771
  0
LINE
  5
6B8
100
AcDbEntity
  8
M0
100
AcDbLine
 10
228.735134
 20
464.42477
 11
227.785134
 21
464.42477
  0
LINE
  5
6B9
100
AcDbEntity
  8
M0
100
AcDbLine
 10
228.735134
 20
465.424772
 11
227.785134
 21
465.424772
  0
LINE
  5
6BA
100
AcDbEntity
  8
M0
100
AcDbLine
 10
228.735134
 20
462.924771
 11
227.785134
 21
462.924771
  0
ARC
  5
6BB
100
AcDbEntity
  8
M0
100
AcDbCircle
 10
210.685133
 20
490.424772
 40
0.5
100
AcDbArc
 50
90.0
 51
180.0
  0
ARC
  5
6BC
100
AcDbEntity
  8
M0
100
AcDbCircle
 10
195.685133
 20
489.424772
 40
0.5
100
AcDbArc
 50
180.0
 51
270.0
  0
ARC
  5
6BD
100
AcDbEntity
  8
M0
100
AcDbCircle
 10
210.685133
 20
489.424772
 40
0.5
100
AcDbArc
 50
180.0
 51
270.0
  0
ARC
  5
6BE
100
AcDbEntity
  8
M0
100
AcDbCircle
 10
195.685133
 20
490.424772
 40
0.5
100
AcDbArc
 50
90.0
 51
180.0
  0
ARC
  5
6BF
100
AcDbEntity
  8
M0
100
AcDbCircle
 10
212.585133
 20
493.724772
 40
1.0
100
AcDbArc
 50
270.0
 51
360.0
  0
LINE
  5
6C0
100
AcDbEntity
  8
M0
100
AcDbLine
 10
175.435133
 20
479.124772
 11
176.335133
 21
479.124772
  0
ARC
  5
6C1
100
AcDbEntity
  8
M0
100
AcDbCircle
 10
195.985133
 20
513.924772
 40
1.0
100
AcDbArc
 50
90.0
 51
180.0
  0
ARC
  5
6C2
100
AcDbEntity
  8
M0
100
AcDbCircle
 10
198.635133
 20
509.924772
 40
0.5
100
AcDbArc
 50
270.0
 51
360.0
  0
ARC
  5
6C3
100
AcDbEntity
  8
M0
100
AcDbCircle
 10
177.935133
 20
482.224772
 40
1.0
100
AcDbArc
 50
180.0
 51
270.0
  0
ARC
  5
6C4
100
AcDbEntity
  8
M0
100
AcDbCircle
 10
230.935133
 20
496.224772
 40
0.5
100
AcDbArc
 50
0.0
 51
90.0
  0
ARC
  5
6C5
100
AcDbEntity
  8
M0
100
AcDbCircle
 10
195.985133
 20
496.424772
 40
1.0
100
AcDbArc
 50
90.0
 51
180.0
  0
LINE
  5
6C6
100
AcDbEntity
  8
M0
  6
DASHDOT
100
AcDbLine
 10
186.085133
 20
474.424772
 11
187.085133
 21
474.424772
  0
ARC
  5
6C7
100
AcDbEntity
  8
M0
100
AcDbCircle
 10
230.435133
 20
482.224772
 40
1.0
100
AcDbArc
 50
270.0
 51
360.0
  0
ARC
  5
6C8
100
AcDbEntity
  8
M0
100
AcDbCircle
 10
210.735133
 20
493.924772
 40
1.0
100
AcDbArc
 50
180.0
 51
270.0
  0
ARC
  5
6C9
100
AcDbEntity
  8
M0
100
AcDbCircle
 10
212.385133
 20
493.924772
 40
1.0
100
AcDbArc
 50
270.0
 51
360.0
  0
ARC
  5
6CA
100
AcDbEntity
  8
M0
100
AcDbCircle
 10
177.435133
 20
496.224772
 40
0.5
100
AcDbArc
 50
90.0
 51
180.0
  0
ARC
  5
6CB
100
AcDbEntity
  8
M0
100
AcDbCircle
 10
195.985133
 20
493.924772
 40
1.0
100
AcDbArc
 50
180.0
 51
270.0
  0
ARC
  5
6CC
100
AcDbEntity
  8
M0
100
AcDbCircle
 10
212.385133
 20
513.924772
 40
1.0
100
AcDbArc
 50
0.0
 51
90.0
  0
LINE
  5
6CD
100
AcDbEntity
  8
M0
  6
DASHDOT
100
AcDbLine
 10
204.185133
 20
533.924772
 11
204.185133
 21
532.924772
  0
LINE
  5
6CE
100
AcDbEntity
  8
M0
  6
DASHDOT
100
AcDbLine
 10
203.685133
 20
533.424772
 11
204.685133
 21
533.424772
  0
LINE
  5
6CF
100
AcDbEntity
  8
M0
  6
DASHDOT
100
AcDbLine
 10
221.785133
 20
533.924772
 11
221.785133
 21
532.924772
  0
LINE
  5
6D0
100
AcDbEntity
  8
M0
  6
DASHDOT
100
AcDbLine
 10
221.285133
 20
533.424772
 11
222.285133
 21
533.424772
  0
LINE
  5
6D1
100
AcDbEntity
  8
M0
  6
DASHDOT
100
AcDbLine
 10
186.585133
 20
533.924772
 11
186.585133
 21
532.924772
  0
LINE
  5
6D2
100
AcDbEntity
  8
M0
  6
DASHDOT
100
AcDbLine
 10
186.085133
 20
533.424772
 11
187.085133
 21
533.424772
  0
LINE
  5
6D3
100
AcDbEntity
  8
M0
  6
DASHDOT
100
AcDbLine
 10
221.285133
 20
474.424772
 11
222.285133
 21
474.424772
  0
LINE
  5
6D4
100
AcDbEntity
  8
M0
  6
DASHDOT
100
AcDbLine
 10
186.585133
 20
473.924772
 11
186.585133
 21
474.924772
  0
LINE
  5
6D5
100
AcDbEntity
  8
M0
  6
DASHDOT
100
AcDbLine
 10
221.785133
 20
473.924772
 11
221.785133
 21
474.924772
  0
LINE
  5
6D6
100
AcDbEntity
  8
M0
  6
DASHDOT
100
AcDbLine
 10
204.185133
 20
473.924772
 11
204.185133
 21
474.924772
  0
LINE
  5
6D7
100
AcDbEntity
  8
M0
  6
DASHDOT
100
AcDbLine
 10
203.685133
 20
474.424772
 11
204.685133
 21
474.424772
  0
LINE
  5
6D8
100
AcDbEntity
  8
M0
100
AcDbLine
 10
176.185133
 20
520.574773
 11
176.185133
 21
514.074773
  0
LINE
  5
6D9
100
AcDbEntity
  8
M0
100
AcDbLine
 10
214.835133
 20
526.624773
 11
214.835133
 21
548.924774
  0
LINE
  5
6DA
100
AcDbEntity
  8
M0
100
AcDbLine
 10
221.735134
 20
549.924772
 11
221.735134
 21
548.924774
  0
LINE
  5
6DB
100
AcDbEntity
  8
M0
100
AcDbLine
 10
183.935133
 20
540.424772
 11
183.935133
 21
541.424774
  0
LINE
  5
6DC
100
AcDbEntity
  8
M0
100
AcDbLine
 10
186.635132
 20
548.924774
 11
186.635132
 21
549.924772
  0
LINE
  5
6DD
100
AcDbEntity
  8
M0
100
AcDbLine
 10
192.035133
 20
540.424772
 11
192.035133
 21
549.424771
  0
LINE
  5
6DE
100
AcDbEntity
  8
M0
100
AcDbLine
 10
169.435134
 20
529.724773
 11
175.435133
 21
529.724773
  0
LINE
  5
6DF
100
AcDbEntity
  8
M0
100
AcDbLine
 10
239.835133
 20
521.124773
 11
232.035133
 21
521.124773
  0
LINE
  5
6E0
100
AcDbEntity
  8
M0
100
AcDbLine
 10
182.735133
 20
550.424773
 11
225.635133
 21
550.424773
  0
LINE
  5
6E1
100
AcDbEntity
  8
M0
100
AcDbLine
 10
214.835133
 20
548.924774
 11
193.535134
 21
548.924774
  0
LINE
  5
6E2
100
AcDbEntity
  8
M0
100
AcDbLine
 10
175.435133
 20
478.124771
 11
169.435134
 21
478.124771
  0
LINE
  5
6E3
100
AcDbEntity
  8
M0
100
AcDbLine
 10
176.335133
 20
521.124773
 11
168.535133
 21
521.124773
  0
LINE
  5
6E4
100
AcDbEntity
  8
M0
100
AcDbLine
 10
210.885133
 20
514.924772
 11
212.385133
 21
514.924772
  0
ARC
  5
6E5
100
AcDbEntity
  8
M0
100
AcDbCircle
 10
238.185133
 20
471.424772
 40
2.25
100
AcDbArc
 50
89.957854
 51
177.916058
  0
ARC
  5
6E6
100
AcDbEntity
  8
M0
100
AcDbCircle
 10
240.135133
 20
464.424772
 40
3.0
100
AcDbArc
 50
270.0
 51
360.0
  0
ARC
  5
6E7
100
AcDbEntity
  8
M0
100
AcDbCircle
 10
168.735133
 20
464.424772
 40
3.0
100
AcDbArc
 50
180.0
 51
270.0
  0
ARC
  5
6E8
100
AcDbEntity
  8
M0
100
AcDbCircle
 10
235.636621
 20
471.474772
 40
0.3
100
AcDbArc
 50
270.0
 51
360.0
  0
ARC
  5
6E9
100
AcDbEntity
  8
M0
100
AcDbCircle
 10
167.535133
 20
523.024772
 40
1.0
100
AcDbArc
 50
0.0
 51
90.0
  0
ARC
  5
6EA
100
AcDbEntity
  8
M0
100
AcDbCircle
 10
197.635133
 20
493.924772
 40
1.0
100
AcDbArc
 50
270.0
 51
360.0
  0
LINE
  5
6EB
100
AcDbEntity
  8
M0
100
AcDbLine
 10
169.435134
 20
528.674772
 11
169.435134
 21
529.724773
  0
LINE
  5
6EC
100
AcDbEntity
  8
M0
100
AcDbLine
 10
175.435133
 20
529.724773
 11
175.435133
 21
528.674772
  0
LINE
  5
6ED
100
AcDbEntity
  8
M0
100
AcDbLine
 10
232.935134
 20
529.724773
 11
238.935133
 21
529.724773
  0
LINE
  5
6EE
100
AcDbEntity
  8
M0
100
AcDbLine
 10
168.687639
 20
528.224772
 11
168.535133
 21
528.224772
  0
LINE
  5
6EF
100
AcDbEntity
  8
M0
100
AcDbLine
 10
238.935133
 20
529.724773
 11
238.935133
 21
528.674772
  0
LINE
  5
6F0
100
AcDbEntity
  8
M0
100
AcDbLine
 10
174.025716
 20
488.934129
 11
170.844075
 21
492.115892
  0
LINE
  5
6F1
100
AcDbEntity
  8
M0
100
AcDbLine
 10
172.788411
 20
491.939134
 11
171.020833
 21
490.171434
  0
LINE
  5
6F2
100
AcDbEntity
  8
M0
100
AcDbLine
 10
237.34896
 20
525.278465
 11
235.581382
 21
523.510887
  0
LINE
  5
6F3
100
AcDbEntity
  8
M0
100
AcDbLine
 10
236.288413
 20
526.339134
 11
234.520835
 21
524.571434
  0
LINE
  5
6F4
100
AcDbEntity
  8
M0
100
AcDbLine
 10
237.525718
 20
523.334129
 11
234.344077
 21
526.515892
  0
LINE
  5
6F5
100
AcDbEntity
  8
M0
100
AcDbLine
 10
237.525718
 20
515.734129
 11
234.344077
 21
518.915892
  0
LINE
  5
6F6
100
AcDbEntity
  8
M0
100
AcDbLine
 10
174.025716
 20
515.734129
 11
170.844075
 21
518.915892
  0
LINE
  5
6F7
100
AcDbEntity
  8
M0
100
AcDbLine
 10
173.848958
 20
517.678465
 11
172.08138
 21
515.910887
  0
LINE
  5
6F8
100
AcDbEntity
  8
M0
100
AcDbLine
 10
172.788411
 20
484.339134
 11
171.020833
 21
482.571433
  0
LINE
  5
6F9
100
AcDbEntity
  8
M0
100
AcDbLine
 10
174.025716
 20
481.334129
 11
170.844075
 21
484.515891
  0
LINE
  5
6FA
100
AcDbEntity
  8
M0
100
AcDbLine
 10
173.848958
 20
483.278465
 11
172.08138
 21
481.510887
  0
LINE
  5
6FB
100
AcDbEntity
  8
M0
100
AcDbLine
 10
173.848958
 20
490.878465
 11
172.08138
 21
489.110887
  0
CIRCLE
  5
6FC
100
AcDbEntity
  8
M0
100
AcDbCircle
 10
172.435132
 20
524.924774
 40
3.0
  0
CIRCLE
  5
6FD
100
AcDbEntity
  8
M0
100
AcDbCircle
 10
220.13513
 20
544.524776
 40
3.0
  0
CIRCLE
  5
6FE
100
AcDbEntity
  8
M0
100
AcDbCircle
 10
172.435132
 20
517.324774
 40
3.0
  0
CIRCLE
  5
6FF
100
AcDbEntity
  8
M0
100
AcDbCircle
 10
172.435132
 20
482.924771
 40
3.0
  0
CIRCLE
  5
700
100
AcDbEntity
  8
M0
100
AcDbCircle
 10
172.435132
 20
490.524771
 40
3.0
  0
CIRCLE
  5
701
100
AcDbEntity
  8
M0
100
AcDbCircle
 10
235.935134
 20
524.924774
 40
3.0
  0
LINE
  5
702
100
AcDbEntity
  8
M0
100
AcDbLine
 10
237.34896
 20
517.678465
 11
235.581382
 21
515.910887
  0
LINE
  5
703
100
AcDbEntity
  8
M0
100
AcDbLine
 10
236.288413
 20
518.739134
 11
234.520835
 21
516.971434
  0
CIRCLE
  5
704
100
AcDbEntity
  8
M0
100
AcDbCircle
 10
186.585133
 20
533.424803
 40
4.499996
  0
CIRCLE
  5
705
100
AcDbEntity
  8
M0
100
AcDbCircle
 10
221.785133
 20
533.424803
 40
4.499996
  0
CIRCLE
  5
706
100
AcDbEntity
  8
M0
100
AcDbCircle
 10
204.185133
 20
533.424803
 40
4.499996
  0
CIRCLE
  5
707
100
AcDbEntity
  8
M0
100
AcDbCircle
 10
188.235133
 20
544.524772
 40
3.0
  0
LINE
  5
708
100
AcDbEntity
  8
M0
100
AcDbLine
 10
206.066237
 20
533.891722
 11
203.71826
 21
531.54373
  0
LINE
  5
709
100
AcDbEntity
  8
M0
100
AcDbLine
 10
204.652037
 20
535.305937
 11
202.30406
 21
532.957945
  0
LINE
  5
70A
100
AcDbEntity
  8
M0
100
AcDbLine
 10
202.116179
 20
535.493712
 11
206.379149
 21
531.230772
  0
LINE
  5
70B
100
AcDbEntity
  8
M0
100
AcDbLine
 10
223.666237
 20
533.891722
 11
221.31826
 21
531.54373
  0
LINE
  5
70C
100
AcDbEntity
  8
M0
100
AcDbLine
 10
222.252037
 20
535.305937
 11
219.90406
 21
532.957945
  0
LINE
  5
70D
100
AcDbEntity
  8
M0
100
AcDbLine
 10
219.716179
 20
535.493712
 11
223.979149
 21
531.230772
  0
LINE
  5
70E
100
AcDbEntity
  8
M0
100
AcDbLine
 10
224.635133
 20
540.424772
 11
224.635133
 21
549.424772
  0
LINE
  5
70F
100
AcDbEntity
  8
M0
100
AcDbLine
 10
232.935134
 20
528.674772
 11
232.935134
 21
529.724773
  0
LINE
  5
710
100
AcDbEntity
  8
M0
100
AcDbLine
 10
226.635133
 20
540.424772
 11
226.635133
 21
549.424771
  0
LINE
  5
711
100
AcDbEntity
  8
M0
100
AcDbLine
 10
188.466237
 20
533.891722
 11
186.11826
 21
531.54373
  0
LINE
  5
712
100
AcDbEntity
  8
M0
100
AcDbLine
 10
187.052037
 20
535.305937
 11
184.70406
 21
532.957945
  0
LINE
  5
713
100
AcDbEntity
  8
M0
100
AcDbLine
 10
184.516179
 20
535.493712
 11
188.779149
 21
531.230772
  0
LINE
  5
714
100
AcDbEntity
  8
M0
100
AcDbLine
 10
221.725714
 20
542.934131
 11
218.544074
 21
546.115894
  0
LINE
  5
715
100
AcDbEntity
  8
M0
100
AcDbLine
 10
221.548956
 20
544.878467
 11
219.781378
 21
543.110889
  0
LINE
  5
716
100
AcDbEntity
  8
M0
100
AcDbLine
 10
172.788411
 20
526.339134
 11
171.020833
 21
524.571434
  0
LINE
  5
717
100
AcDbEntity
  8
M0
100
AcDbLine
 10
174.025716
 20
523.334129
 11
170.844075
 21
526.515892
  0
LINE
  5
718
100
AcDbEntity
  8
M0
100
AcDbLine
 10
173.848958
 20
525.278465
 11
172.08138
 21
523.510887
  0
LINE
  5
719
100
AcDbEntity
  8
M0
100
AcDbLine
 10
172.788411
 20
518.739134
 11
171.020833
 21
516.971434
  0
LINE
  5
71A
100
AcDbEntity
  8
M0
100
AcDbLine
 10
189.648959
 20
544.878463
 11
187.881381
 21
543.110885
  0
LINE
  5
71B
100
AcDbEntity
  8
M0
100
AcDbLine
 10
188.588412
 20
545.939132
 11
186.820834
 21
544.171432
  0
LINE
  5
71C
100
AcDbEntity
  8
M0
100
AcDbLine
 10
189.825717
 20
542.934127
 11
186.644076
 21
546.11589
  0
LINE
  5
71D
100
AcDbEntity
  8
M0
  6
DASHDOT
100
AcDbLine
 10
172.435133
 20
524.424772
 11
172.435133
 21
525.424772
  0
LINE
  5
71E
100
AcDbEntity
  8
M0
  6
DASHDOT
100
AcDbLine
 10
171.935133
 20
524.924772
 11
172.935133
 21
524.924772
  0
LINE
  5
71F
100
AcDbEntity
  8
M0
100
AcDbLine
 10
232.935134
 20
478.124771
 11
232.935134
 21
479.174772
  0
LINE
  5
720
100
AcDbEntity
  8
M0
100
AcDbLine
 10
198.885133
 20
499.632241
 11
198.885133
 21
499.224772
  0
LINE
  5
721
100
AcDbEntity
  8
M0
100
AcDbLine
 10
199.385133
 20
498.724772
 11
198.635133
 21
498.724772
  0
LINE
  5
722
100
AcDbEntity
  8
M0
100
AcDbLine
 10
208.335133
 20
509.124772
 11
208.335133
 21
509.424772
  0
LINE
  5
723
100
AcDbEntity
  8
M0
100
AcDbLine
 10
209.485133
 20
499.632241
 11
209.485133
 21
499.224772
  0
LINE
  5
724
100
AcDbEntity
  8
M0
100
AcDbLine
 10
198.635133
 20
509.124772
 11
209.735133
 21
509.124772
  0
LINE
  5
725
100
AcDbEntity
  8
M0
100
AcDbLine
 10
238.935133
 20
479.174772
 11
238.935133
 21
478.124771
  0
LINE
  5
726
100
AcDbEntity
  8
M0
100
AcDbLine
 10
238.935133
 20
478.124771
 11
232.935134
 21
478.124771
  0
LINE
  5
727
100
AcDbEntity
  8
M0
100
AcDbLine
 10
232.035133
 20
479.624773
 11
232.187639
 21
479.624773
  0
LINE
  5
728
100
AcDbEntity
  8
M0
100
AcDbLine
 10
205.935133
 20
508.172278
 11
205.935133
 21
508.193726
  0
LINE
  5
729
100
AcDbEntity
  8
M0
100
AcDbLine
 10
202.435133
 20
508.172278
 11
202.435133
 21
508.193726
  0
LINE
  5
72A
100
AcDbEntity
  8
M0
100
AcDbLine
 10
198.885133
 20
508.193726
 11
198.885133
 21
508.172278
  0
LINE
  5
72B
100
AcDbEntity
  8
M0
100
AcDbLine
 10
223.785134
 20
467.424773
 11
228.735134
 21
467.424773
  0
LINE
  5
72C
100
AcDbEntity
  8
M0
100
AcDbLine
 10
219.785133
 20
540.424772
 11
214.835133
 21
540.424772
  0
LINE
  5
72D
100
AcDbEntity
  8
M0
100
AcDbLine
 10
206.185133
 20
467.424773
 11
211.135133
 21
467.424773
  0
ARC
  5
72E
100
AcDbEntity
  8
M0
100
AcDbCircle
 10
241.635133
 20
484.824772
 40
1.0
100
AcDbArc
 50
270.0
 51
360.0
  0
ARC
  5
72F
100
AcDbEntity
  8
M0
100
AcDbCircle
 10
167.535133
 20
499.224772
 40
1.0
100
AcDbArc
 50
0.0
 51
90.0
  0
ARC
  5
730
100
AcDbEntity
  8
M0
100
AcDbCircle
 10
240.835133
 20
484.824772
 40
1.0
100
AcDbArc
 50
180.0
 51
270.0
  0
LINE
  5
731
100
AcDbEntity
  8
M0
100
AcDbLine
 10
214.835133
 20
537.124772
 11
214.835133
 21
539.924771
  0
LINE
  5
732
100
AcDbEntity
  8
M0
100
AcDbLine
 10
199.385133
 20
498.724772
 11
208.985134
 21
498.724772
  0
LINE
  5
733
100
AcDbEntity
  8
M0
100
AcDbLine
 10
200.035133
 20
509.124772
 11
200.035133
 21
509.424772
  0
LINE
  5
734
100
AcDbEntity
  8
M0
100
AcDbLine
 10
188.585134
 20
467.424773
 11
193.535134
 21
467.424773
  0
LINE
  5
735
100
AcDbEntity
  8
M0
100
AcDbLine
 10
187.285134
 20
465.624772
 11
186.385134
 21
465.624772
  0
LINE
  5
736
100
AcDbEntity
  8
M0
100
AcDbLine
 10
208.335133
 20
498.224772
 11
208.335133
 21
498.724772
  0
LINE
  5
737
100
AcDbEntity
  8
M0
100
AcDbLine
 10
187.285134
 20
464.874771
 11
188.422584
 21
464.874771
  0
LINE
  5
738
100
AcDbEntity
  8
M0
100
AcDbLine
 10
186.385134
 20
463.974774
 11
185.247683
 21
463.974774
  0
LINE
  5
739
100
AcDbEntity
  8
M0
100
AcDbLine
 10
187.285134
 20
464.874771
 11
187.285134
 21
465.624772
  0
LINE
  5
73A
100
AcDbEntity
  8
M0
100
AcDbLine
 10
184.22362
 20
463.974774
 11
185.247683
 21
463.974774
  0
LINE
  5
73B
100
AcDbEntity
  8
M0
100
AcDbLine
 10
188.422584
 20
463.974774
 11
189.446646
 21
463.974774
  0
LINE
  5
73C
100
AcDbEntity
  8
M0
100
AcDbLine
 10
188.422584
 20
463.974774
 11
187.285134
 21
463.974774
  0
LINE
  5
73D
100
AcDbEntity
  8
M0
100
AcDbLine
 10
214.835133
 20
464.42477
 11
214.835133
 21
462.424774
  0
LINE
  5
73E
100
AcDbEntity
  8
M0
100
AcDbLine
 10
179.635133
 20
462.424774
 11
179.635133
 21
464.42477
  0
LINE
  5
73F
100
AcDbEntity
  8
M0
100
AcDbLine
 10
189.446646
 20
464.874771
 11
188.422584
 21
464.874771
  0
LINE
  5
740
100
AcDbEntity
  8
M0
100
AcDbLine
 10
186.385134
 20
465.624772
 11
186.385134
 21
464.874771
  0
LINE
  5
741
100
AcDbEntity
  8
M0
100
AcDbLine
 10
186.385134
 20
463.224773
 11
187.285134
 21
463.224773
  0
LINE
  5
742
100
AcDbEntity
  8
M0
100
AcDbLine
 10
185.247683
 20
464.874771
 11
184.22362
 21
464.874771
  0
LINE
  5
743
100
AcDbEntity
  8
M0
100
AcDbLine
 10
221.985133
 20
464.874771
 11
221.985133
 21
465.624772
  0
LINE
  5
744
100
AcDbEntity
  8
M0
100
AcDbLine
 10
218.92362
 20
463.974774
 11
219.947682
 21
463.974774
  0
LINE
  5
745
100
AcDbEntity
  8
M0
100
AcDbLine
 10
219.947682
 20
464.874771
 11
218.92362
 21
464.874771
  0
LINE
  5
746
100
AcDbEntity
  8
M0
100
AcDbLine
 10
211.135133
 20
540.424772
 11
197.235133
 21
540.424772
  0
LINE
  5
747
100
AcDbEntity
  8
M0
100
AcDbLine
 10
205.935133
 20
501.224772
 11
205.935133
 21
508.172278
  0
LINE
  5
748
100
AcDbEntity
  8
M0
100
AcDbLine
 10
209.485133
 20
508.193726
 11
209.485133
 21
508.172278
  0
LINE
  5
749
100
AcDbEntity
  8
M0
100
AcDbLine
 10
224.146647
 20
464.874771
 11
223.122583
 21
464.874771
  0
LINE
  5
74A
100
AcDbEntity
  8
M0
100
AcDbLine
 10
185.247683
 20
464.874771
 11
186.385134
 21
464.874771
  0
LINE
  5
74B
100
AcDbEntity
  8
M0
100
AcDbLine
 10
187.285134
 20
463.224773
 11
187.285134
 21
463.974774
  0
LINE
  5
74C
100
AcDbEntity
  8
M0
100
AcDbLine
 10
223.122583
 20
463.974774
 11
224.146647
 21
463.974774
  0
LINE
  5
74D
100
AcDbEntity
  8
M0
100
AcDbLine
 10
186.385134
 20
463.974774
 11
186.385134
 21
463.224773
  0
LINE
  5
74E
100
AcDbEntity
  8
M0
100
AcDbLine
 10
175.935134
 20
508.624772
 11
177.935134
 21
508.624772
  0
LINE
  5
74F
100
AcDbEntity
  8
M0
100
AcDbLine
 10
198.385133
 20
501.174772
 11
198.635133
 21
500.674772
  0
LINE
  5
750
100
AcDbEntity
  8
M0
100
AcDbLine
 10
210.735133
 20
492.924772
 11
197.635133
 21
492.924772
  0
LINE
  5
751
100
AcDbEntity
  8
M0
100
AcDbLine
 10
197.635133
 20
492.924772
 11
195.985133
 21
492.924772
  0
LINE
  5
752
100
AcDbEntity
  8
M0
100
AcDbLine
 10
211.885133
 20
508.524772
 11
211.885133
 21
497.424772
  0
LINE
  5
753
100
AcDbEntity
  8
M0
100
AcDbLine
 10
211.885133
 20
492.924772
 11
212.385133
 21
492.924772
  0
LINE
  5
754
100
AcDbEntity
  8
M0
100
AcDbLine
 10
209.735133
 20
493.924773
 11
209.735133
 21
500.674772
  0
LINE
  5
755
100
AcDbEntity
  8
M0
100
AcDbLine
 10
195.985133
 20
497.424772
 11
196.485133
 21
497.424772
  0
LINE
  5
756
100
AcDbEntity
  8
M0
100
AcDbLine
 10
178.635133
 20
526.624773
 11
178.635133
 21
526.824773
  0
LINE
  5
757
100
AcDbEntity
  8
M0
100
AcDbLine
 10
209.735133
 20
500.674772
 11
209.985133
 21
501.174772
  0
LINE
  5
758
100
AcDbEntity
  8
M0
100
AcDbLine
 10
196.485133
 20
492.924772
 11
195.985133
 21
492.924772
  0
LINE
  5
759
100
AcDbEntity
  8
M0
100
AcDbLine
 10
198.635133
 20
500.674772
 11
198.635133
 21
493.924773
  0
LINE
  5
75A
100
AcDbEntity
  8
M0
100
AcDbLine
 10
175.435133
 20
479.174772
 11
175.435133
 21
478.124771
  0
LINE
  5
75B
100
AcDbEntity
  8
M0
100
AcDbLine
 10
198.635133
 20
507.174772
 11
198.385133
 21
506.674772
  0
LINE
  5
75C
100
AcDbEntity
  8
M0
100
AcDbLine
 10
169.435134
 20
478.124771
 11
169.435134
 21
479.174772
  0
LINE
  5
75D
100
AcDbEntity
  8
M0
100
AcDbLine
 10
216.335133
 20
549.424771
 11
216.335133
 21
540.424772
  0
LINE
  5
75E
100
AcDbEntity
  8
M0
100
AcDbLine
 10
224.435133
 20
541.424774
 11
224.435133
 21
540.424772
  0
LINE
  5
75F
100
AcDbEntity
  8
M0
100
AcDbLine
 10
220.488409
 20
545.939136
 11
218.720831
 21
544.171436
  0
LINE
  5
760
100
AcDbEntity
  8
M0
100
AcDbLine
 10
198.385133
 20
506.674772
 11
198.385133
 21
501.174772
  0
LINE
  5
761
100
AcDbEntity
  8
M0
100
AcDbLine
 10
197.485134
 20
514.924772
 11
195.985133
 21
514.924772
  0
LINE
  5
762
100
AcDbEntity
  8
M0
100
AcDbLine
 10
209.985133
 20
506.674772
 11
209.735133
 21
507.174772
  0
LINE
  5
763
100
AcDbEntity
  8
M0
100
AcDbLine
 10
209.985133
 20
501.174772
 11
209.985133
 21
506.674772
  0
LINE
  5
764
100
AcDbEntity
  8
M0
100
AcDbLine
 10
196.485133
 20
508.524772
 11
196.485133
 21
497.424772
  0
LINE
  5
765
100
AcDbEntity
  8
M0
100
AcDbLine
 10
211.885133
 20
497.424772
 11
212.385133
 21
497.424772
  0
ARC
  5
766
100
AcDbEntity
  8
M0
100
AcDbCircle
 10
186.835133
 20
464.424772
 40
2.65
100
AcDbArc
 50
170.223151
 51
189.776849
  0
ARC
  5
767
100
AcDbEntity
  8
M0
100
AcDbCircle
 10
186.835133
 20
464.424772
 40
2.65
100
AcDbArc
 50
350.223151
 51
369.776849
  0
ARC
  5
768
100
AcDbEntity
  8
M0
100
AcDbCircle
 10
221.535133
 20
464.424772
 40
2.65
100
AcDbArc
 50
9.776849
 51
170.223151
  0
ARC
  5
769
100
AcDbEntity
  8
M0
100
AcDbCircle
 10
241.635133
 20
477.574772
 40
1.0
100
AcDbArc
 50
270.0
 51
360.0
  0
ARC
  5
76A
100
AcDbEntity
  8
M0
100
AcDbCircle
 10
221.535133
 20
464.424772
 40
2.65
100
AcDbArc
 50
189.776849
 51
350.223151
  0
ARC
  5
76B
100
AcDbEntity
  8
M0
100
AcDbCircle
 10
176.935133
 20
530.674772
 40
0.6
100
AcDbArc
 50
90.0
 51
180.0
  0
ARC
  5
76C
100
AcDbEntity
  8
M0
100
AcDbCircle
 10
179.377125
 20
493.330731
 40
3.350514
100
AcDbArc
 50
136.789285
 51
155.219178
  0
LINE
  5
76D
100
AcDbEntity
  8
M0
100
AcDbLine
 10
169.185133
 20
528.674772
 11
175.685133
 21
528.674772
  0
ARC
  5
76E
100
AcDbEntity
  8
M0
100
AcDbCircle
 10
176.935133
 20
484.424772
 40
0.6
100
AcDbArc
 50
180.0
 51
270.0
  0
ARC
  5
76F
100
AcDbEntity
  8
M0
100
AcDbCircle
 10
231.435133
 20
484.424772
 40
0.6
100
AcDbArc
 50
270.0
 51
360.0
  0
ARC
  5
770
100
AcDbEntity
  8
M0
100
AcDbCircle
 10
167.535133
 20
484.824772
 40
1.0
100
AcDbArc
 50
270.0
 51
360.0
  0
ARC
  5
771
100
AcDbEntity
  8
M0
100
AcDbCircle
 10
186.835133
 20
464.424772
 40
2.65
100
AcDbArc
 50
9.776849
 51
170.223151
  0
LINE
  5
772
100
AcDbEntity
  8
M0
100
AcDbLine
 10
212.385133
 20
492.924772
 11
210.735133
 21
492.924772
  0
LINE
  5
773
100
AcDbEntity
  8
M0
100
AcDbLine
 10
209.735133
 20
507.174772
 11
209.735133
 21
509.424772
  0
LINE
  5
774
100
AcDbEntity
  8
M0
100
AcDbLine
 10
213.385133
 20
510.024772
 11
211.885133
 21
508.524772
  0
LINE
  5
775
100
AcDbEntity
  8
M0
100
AcDbLine
 10
230.435132
 20
496.724772
 11
230.935133
 21
496.724772
  0
LINE
  5
776
100
AcDbEntity
  8
M0
100
AcDbLine
 10
198.635133
 20
509.424772
 11
198.635133
 21
507.174772
  0
LINE
  5
777
100
AcDbEntity
  8
M0
100
AcDbLine
 10
213.385133
 20
513.924772
 11
213.385133
 21
493.924772
  0
ARC
  5
778
100
AcDbEntity
  8
M0
100
AcDbCircle
 10
241.635133
 20
530.274772
 40
1.0
100
AcDbArc
 50
0.0
 51
90.0
  0
ARC
  5
779
100
AcDbEntity
  8
M0
100
AcDbCircle
 10
167.535133
 20
477.574772
 40
1.0
100
AcDbArc
 50
270.0
 51
360.0
  0
ARC
  5
77A
100
AcDbEntity
  8
M0
100
AcDbCircle
 10
231.435133
 20
530.674772
 40
0.6
100
AcDbArc
 50
0.0
 51
90.0
  0
ARC
  5
77B
100
AcDbEntity
  8
M0
100
AcDbCircle
 10
176.935133
 20
477.174772
 40
0.6
100
AcDbArc
 50
180.0
 51
270.0
  0
ARC
  5
77C
100
AcDbEntity
  8
M0
100
AcDbCircle
 10
231.435133
 20
477.174772
 40
0.6
100
AcDbArc
 50
270.0
 51
360.0
  0
LINE
  5
77D
100
AcDbEntity
  8
M0
100
AcDbLine
 10
176.935134
 20
499.424772
 11
177.935134
 21
499.424772
  0
ARC
  5
77E
100
AcDbEntity
  8
M0
100
AcDbCircle
 10
239.229135
 20
468.875068
 40
0.3
100
AcDbArc
 50
90.0
 51
180.0
  0
ARC
  5
77F
100
AcDbEntity
  8
M0
100
AcDbCircle
 10
196.235133
 20
545.424772
 40
1.0
100
AcDbArc
 50
0.0
 51
90.0
  0
ARC
  5
780
100
AcDbEntity
  8
M0
100
AcDbCircle
 10
239.685133
 20
471.424772
 40
2.25
100
AcDbArc
 50
270.928845
 51
451.752277
  0
ARC
  5
781
100
AcDbEntity
  8
M0
100
AcDbCircle
 10
178.635133
 20
545.424772
 40
1.0
100
AcDbArc
 50
0.0
 51
90.0
  0
ARC
  5
782
100
AcDbEntity
  8
M0
100
AcDbCircle
 10
177.935133
 20
545.424772
 40
1.0
100
AcDbArc
 50
90.0
 51
180.0
  0
ARC
  5
783
100
AcDbEntity
  8
M0
100
AcDbCircle
 10
212.135133
 20
545.424772
 40
1.0
100
AcDbArc
 50
90.0
 51
180.0
  0
ARC
  5
784
100
AcDbEntity
  8
M0
100
AcDbCircle
 10
240.835133
 20
508.624772
 40
1.0
100
AcDbArc
 50
180.0
 51
270.0
  0
ARC
  5
785
100
AcDbEntity
  8
M0
100
AcDbCircle
 10
191.335133
 20
541.124772
 40
0.6
100
AcDbArc
 50
270.0
 51
352.509835
  0
ARC
  5
786
100
AcDbEntity
  8
M0
100
AcDbCircle
 10
241.635133
 20
508.624772
 40
1.0
100
AcDbArc
 50
270.0
 51
360.0
  0
ARC
  5
787
100
AcDbEntity
  8
M0
100
AcDbCircle
 10
166.735133
 20
523.024772
 40
1.0
100
AcDbArc
 50
90.0
 51
180.0
  0
ARC
  5
788
100
AcDbEntity
  8
M0
100
AcDbCircle
 10
221.535133
 20
464.424772
 40
2.65
100
AcDbArc
 50
170.223151
 51
189.776849
  0
ARC
  5
789
100
AcDbEntity
  8
M0
100
AcDbCircle
 10
194.535133
 20
545.424772
 40
1.0
100
AcDbArc
 50
90.0
 51
180.0
  0
LINE
  5
78A
100
AcDbEntity
  8
M0
100
AcDbLine
 10
179.635133
 20
481.024772
 11
179.635133
 21
481.224772
  0
LINE
  5
78B
100
AcDbEntity
  8
M0
100
AcDbLine
 10
240.835132
 20
531.274771
 11
241.635134
 21
531.274771
  0
LINE
  5
78C
100
AcDbEntity
  8
M0
100
AcDbLine
 10
197.235133
 20
481.224772
 11
197.235133
 21
462.424772
  0
LINE
  5
78D
100
AcDbEntity
  8
M0
100
AcDbLine
 10
176.335133
 20
494.735093
 11
176.335133
 21
477.174772
  0
LINE
  5
78E
100
AcDbEntity
  8
M0
100
AcDbLine
 10
168.535133
 20
508.624772
 11
168.535133
 21
530.274773
  0
LINE
  5
78F
100
AcDbEntity
  8
M0
100
AcDbLine
 10
176.335133
 20
530.674772
 11
176.335133
 21
513.113019
  0
ARC
  5
790
100
AcDbEntity
  8
M0
100
AcDbCircle
 10
213.835133
 20
545.424772
 40
1.0
100
AcDbArc
 50
0.0
 51
90.0
  0
ARC
  5
791
100
AcDbEntity
  8
M0
100
AcDbCircle
 10
229.735133
 20
545.424772
 40
1.0
100
AcDbArc
 50
90.0
 51
180.0
  0
LINE
  5
792
100
AcDbEntity
  8
M0
100
AcDbLine
 10
175.685133
 20
521.174774
 11
169.185134
 21
521.174767
  0
LINE
  5
793
100
AcDbEntity
  8
M0
100
AcDbLine
 10
228.735134
 20
526.624773
 11
228.735134
 21
526.824773
  0
LINE
  5
794
100
AcDbEntity
  8
M0
100
AcDbLine
 10
228.735134
 20
481.024772
 11
228.735134
 21
481.224772
  0
LINE
  5
795
100
AcDbEntity
  8
M0
100
AcDbLine
 10
167.535135
 20
531.274771
 11
166.735133
 21
531.274771
  0
LINE
  5
796
100
AcDbEntity
  8
M0
100
AcDbLine
 10
177.935134
 20
502.424772
 11
176.935134
 21
502.424772
  0
LINE
  5
797
100
AcDbEntity
  8
M0
100
AcDbLine
 10
194.985133
 20
510.024772
 11
196.485133
 21
508.524772
  0
LINE
  5
798
100
AcDbEntity
  8
M0
100
AcDbLine
 10
230.435132
 20
481.224772
 11
177.935134
 21
481.224772
  0
LINE
  5
799
100
AcDbEntity
  8
M0
100
AcDbLine
 10
209.735133
 20
496.724772
 11
198.635133
 21
496.724772
  0
LINE
  5
79A
100
AcDbEntity
  8
M0
100
AcDbLine
 10
198.635133
 20
494.424773
 11
209.735133
 21
494.424773
  0
LINE
  5
79B
100
AcDbEntity
  8
M0
100
AcDbLine
 10
198.635133
 20
498.224772
 11
209.735133
 21
498.224772
  0
LINE
  5
79C
100
AcDbEntity
  8
M0
100
AcDbLine
 10
238.929135
 20
468.760584
 11
238.929135
 21
468.875069
  0
LINE
  5
79D
100
AcDbEntity
  8
M0
100
AcDbLine
 10
178.635133
 20
481.024772
 11
178.635133
 21
481.224772
  0
LINE
  5
79E
100
AcDbEntity
  8
M0
100
AcDbLine
 10
235.936621
 20
471.506592
 11
235.936621
 21
471.474771
  0
LINE
  5
79F
100
AcDbEntity
  8
M0
100
AcDbLine
 10
194.035133
 20
528.324772
 11
196.735133
 21
528.324772
  0
LINE
  5
7A0
100
AcDbEntity
  8
M0
100
AcDbLine
 10
243.135133
 20
475.124773
 11
243.135133
 21
464.42477
  0
LINE
  5
7A1
100
AcDbEntity
  8
M0
100
AcDbLine
 10
176.935134
 20
545.424772
 11
176.935134
 21
510.124772
  0
ARC
  5
7A2
100
AcDbEntity
  8
M0
100
AcDbCircle
 10
240.835133
 20
499.224772
 40
1.0
100
AcDbArc
 50
90.0
 51
180.0
  0
LINE
  5
7A3
100
AcDbEntity
  8
M0
100
AcDbLine
 10
199.135133
 20
509.924772
 11
199.135133
 21
513.924772
  0
ARC
  5
7A4
100
AcDbEntity
  8
M0
100
AcDbCircle
 10
213.835133
 20
462.424772
 40
1.0
100
AcDbArc
 50
270.0
 51
360.0
  0
ARC
  5
7A5
100
AcDbEntity
  8
M0
100
AcDbCircle
 10
167.535133
 20
508.624772
 40
1.0
100
AcDbArc
 50
270.0
 51
360.0
  0
ARC
  5
7A6
100
AcDbEntity
  8
M0
100
AcDbCircle
 10
194.535133
 20
462.424772
 40
1.0
100
AcDbArc
 50
180.0
 51
270.0
  0
ARC
  5
7A7
100
AcDbEntity
  8
M0
100
AcDbCircle
 10
241.635133
 20
523.024772
 40
1.0
100
AcDbArc
 50
0.0
 51
90.0
  0
LINE
  5
7A8
100
AcDbEntity
  8
M0
100
AcDbLine
 10
176.935134
 20
505.424772
 11
176.935134
 21
505.324772
  0
LINE
  5
7A9
100
AcDbEntity
  8
M0
100
AcDbLine
 10
177.435133
 20
496.724772
 11
177.935134
 21
496.724772
  0
LINE
  5
7AA
100
AcDbEntity
  8
M0
100
AcDbLine
 10
176.935134
 20
502.524772
 11
176.935134
 21
502.424772
  0
LINE
  5
7AB
100
AcDbEntity
  8
M0
100
AcDbLine
 10
194.985133
 20
513.924772
 11
194.985133
 21
493.591669
  0
LINE
  5
7AC
100
AcDbEntity
  8
M0
100
AcDbLine
 10
210.235133
 20
514.924772
 11
212.385133
 21
514.924772
  0
LINE
  5
7AD
100
AcDbEntity
  8
M0
100
AcDbLine
 10
228.735134
 20
543.424774
 11
228.735134
 21
545.424771
  0
LINE
  5
7AE
100
AcDbEntity
  8
M0
100
AcDbLine
 10
168.035132
 20
507.624772
 11
168.035132
 21
500.224772
  0
LINE
  5
7AF
100
AcDbEntity
  8
M0
100
AcDbLine
 10
179.635133
 20
526.624773
 11
179.635133
 21
545.424771
  0
LINE
  5
7B0
100
AcDbEntity
  8
M0
100
AcDbLine
 10
232.035133
 20
494.735093
 11
232.035133
 21
477.174772
  0
LINE
  5
7B1
100
AcDbEntity
  8
M0
100
AcDbLine
 10
239.835133
 20
477.574771
 11
239.835133
 21
499.224772
  0
LINE
  5
7B2
100
AcDbEntity
  8
M0
100
AcDbLine
 10
168.535133
 20
477.574771
 11
168.535133
 21
499.224772
  0
LINE
  5
7B3
100
AcDbEntity
  8
M0
100
AcDbLine
 10
197.735133
 20
514.924772
 11
198.135133
 21
514.924772
  0
LINE
  5
7B4
100
AcDbEntity
  8
M0
100
AcDbLine
 10
179.635133
 20
464.42477
 11
179.635133
 21
465.424772
  0
LINE
  5
7B5
100
AcDbEntity
  8
M0
100
AcDbLine
 10
210.235133
 20
514.924772
 11
210.635134
 21
514.924772
  0
LINE
  5
7B6
100
AcDbEntity
  8
M0
100
AcDbLine
 10
240.335134
 20
507.624772
 11
240.335134
 21
500.224772
  0
LINE
  5
7B7
100
AcDbEntity
  8
M0
100
AcDbLine
 10
241.635134
 20
500.224772
 11
241.635134
 21
507.624772
  0
LINE
  5
7B8
100
AcDbEntity
  8
M0
100
AcDbLine
 10
166.735133
 20
500.224772
 11
166.735133
 21
507.624772
  0
ARC
  5
7B9
100
AcDbEntity
  8
M0
100
AcDbCircle
 10
169.185134
 20
521.674772
 40
0.5
100
AcDbArc
 50
180.0
 51
270.0
  0
ARC
  5
7BA
100
AcDbEntity
  8
M0
100
AcDbCircle
 10
169.185133
 20
528.174772
 40
0.5
100
AcDbArc
 50
90.0
 51
180.0
  0
ARC
  5
7BB
100
AcDbEntity
  8
M0
100
AcDbCircle
 10
232.685133
 20
521.674772
 40
0.5
100
AcDbArc
 50
180.0
 51
270.0
  0
ARC
  5
7BC
100
AcDbEntity
  8
M0
100
AcDbCircle
 10
166.735133
 20
484.824772
 40
1.0
100
AcDbArc
 50
180.0
 51
270.0
  0
ARC
  5
7BD
100
AcDbEntity
  8
M0
100
AcDbCircle
 10
228.993142
 20
493.330731
 40
3.350514
100
AcDbArc
 50
24.780822
 51
43.210715
  0
ARC
  5
7BE
100
AcDbEntity
  8
M0
100
AcDbCircle
 10
240.835133
 20
530.274772
 40
1.0
100
AcDbArc
 50
90.0
 51
180.0
  0
ARC
  5
7BF
100
AcDbEntity
  8
M0
100
AcDbCircle
 10
184.985133
 20
547.774772
 40
0.5
100
AcDbArc
 50
90.0
 51
180.0
  0
ARC
  5
7C0
100
AcDbEntity
  8
M0
100
AcDbCircle
 10
223.385134
 20
541.274773
 40
0.5
100
AcDbArc
 50
270.0
 51
360.0
  0
ARC
  5
7C1
100
AcDbEntity
  8
M0
100
AcDbCircle
 10
232.685133
 20
528.174772
 40
0.5
100
AcDbArc
 50
90.0
 51
180.0
  0
ARC
  5
7C2
100
AcDbEntity
  8
M0
100
AcDbCircle
 10
223.385133
 20
547.774773
 40
0.5
100
AcDbArc
 50
0.0
 51
90.0
  0
ARC
  5
7C3
100
AcDbEntity
  8
M0
100
AcDbCircle
 10
239.185133
 20
521.674772
 40
0.5
100
AcDbArc
 50
270.0
 51
360.0
  0
ARC
  5
7C4
100
AcDbEntity
  8
M0
100
AcDbCircle
 10
239.185133
 20
528.174772
 40
0.5
100
AcDbArc
 50
0.0
 51
90.0
  0
LINE
  5
7C5
100
AcDbEntity
  8
M0
100
AcDbLine
 10
202.435133
 20
501.224772
 11
202.435133
 21
508.172278
  0
LINE
  5
7C6
100
AcDbEntity
  8
M0
100
AcDbLine
 10
172.035133
 20
507.624772
 11
172.035133
 21
500.224772
  0
LINE
  5
7C7
100
AcDbEntity
  8
M0
100
AcDbLine
 10
209.485133
 20
508.624772
 11
209.485133
 21
500.12976
  0
LINE
  5
7C8
100
AcDbEntity
  8
M0
100
AcDbLine
 10
209.485133
 20
499.632241
 11
209.485133
 21
500.12976
  0
LINE
  5
7C9
100
AcDbEntity
  8
M0
100
AcDbLine
 10
198.885133
 20
508.624772
 11
198.885133
 21
500.12976
  0
LINE
  5
7CA
100
AcDbEntity
  8
M0
100
AcDbLine
 10
202.935133
 20
500.724772
 11
205.435133
 21
500.724772
  0
LINE
  5
7CB
100
AcDbEntity
  8
M0
100
AcDbLine
 10
232.035133
 20
513.224772
 11
239.835133
 21
513.224772
  0
LINE
  5
7CC
100
AcDbEntity
  8
M0
100
AcDbLine
 10
209.235133
 20
509.924772
 11
209.235133
 21
513.924772
  0
LINE
  5
7CD
100
AcDbEntity
  8
M0
100
AcDbLine
 10
241.635134
 20
476.574773
 11
240.835132
 21
476.574773
  0
LINE
  5
7CE
100
AcDbEntity
  8
M0
100
AcDbLine
 10
241.635134
 20
483.824773
 11
240.835132
 21
483.824773
  0
LINE
  5
7CF
100
AcDbEntity
  8
M0
100
AcDbLine
 10
236.335134
 20
507.624772
 11
236.335134
 21
500.224772
  0
LINE
  5
7D0
100
AcDbEntity
  8
M0
100
AcDbLine
 10
166.735133
 20
483.824773
 11
167.535135
 21
483.824773
  0
LINE
  5
7D1
100
AcDbEntity
  8
M0
100
AcDbLine
 10
168.535133
 20
494.624772
 11
176.335133
 21
494.624772
  0
LINE
  5
7D2
100
AcDbEntity
  8
M0
100
AcDbLine
 10
236.335134
 20
500.224772
 11
240.835132
 21
500.224772
  0
LINE
  5
7D3
100
AcDbEntity
  8
M0
100
AcDbLine
 10
228.735134
 20
542.424772
 11
228.735134
 21
543.424774
  0
LINE
  5
7D4
100
AcDbEntity
  8
M0
100
AcDbLine
 10
228.735134
 20
464.42477
 11
228.735134
 21
465.424772
  0
LINE
  5
7D5
100
AcDbEntity
  8
M0
100
AcDbLine
 10
193.535134
 20
548.924774
 11
193.535134
 21
526.624773
  0
LINE
  5
7D6
100
AcDbEntity
  8
M0
100
AcDbLine
 10
214.835133
 20
465.424772
 11
214.835133
 21
464.42477
  0
LINE
  5
7D7
100
AcDbEntity
  8
M0
100
AcDbLine
 10
176.335133
 20
513.224772
 11
168.535133
 21
513.224772
  0
LINE
  5
7D8
100
AcDbEntity
  8
M0
100
AcDbLine
 10
198.885133
 20
499.632241
 11
198.885133
 21
500.12976
  0
LINE
  5
7D9
100
AcDbEntity
  8
M0
100
AcDbLine
 10
240.835132
 20
507.624772
 11
236.335134
 21
507.624772
  0
LINE
  5
7DA
100
AcDbEntity
  8
M0
100
AcDbLine
 10
166.735133
 20
500.224772
 11
172.035133
 21
500.224772
  0
LINE
  5
7DB
100
AcDbEntity
  8
M0
100
AcDbLine
 10
232.035133
 20
530.674772
 11
232.035133
 21
513.141288
  0
LINE
  5
7DC
100
AcDbEntity
  8
M0
100
AcDbLine
 10
228.735134
 20
462.424774
 11
228.735134
 21
466.424771
  0
LINE
  5
7DD
100
AcDbEntity
  8
M0
100
AcDbLine
 10
213.335137
 20
461.424772
 11
212.135134
 21
461.424772
  0
LINE
  5
7DE
100
AcDbEntity
  8
M0
100
AcDbLine
 10
179.635133
 20
462.424774
 11
179.635133
 21
466.424771
  0
LINE
  5
7DF
100
AcDbEntity
  8
M0
100
AcDbLine
 10
197.235133
 20
526.824773
 11
193.535134
 21
526.824773
  0
LINE
  5
7E0
100
AcDbEntity
  8
M0
100
AcDbLine
 10
232.435133
 20
502.524772
 11
230.735134
 21
502.524772
  0
LINE
  5
7E1
100
AcDbEntity
  8
M0
100
AcDbLine
 10
214.835133
 20
466.424771
 11
214.835133
 21
462.424774
  0
CIRCLE
  5
7E2
100
AcDbEntity
  8
M0
100
AcDbCircle
 10
235.935134
 20
482.924771
 40
3.0
  0
CIRCLE
  5
7E3
100
AcDbEntity
  8
M0
100
AcDbCircle
 10
235.935134
 20
490.524771
 40
3.0
  0
CIRCLE
  5
7E4
100
AcDbEntity
  8
M0
100
AcDbCircle
 10
186.585133
 20
474.424741
 40
4.499996
  0
CIRCLE
  5
7E5
100
AcDbEntity
  8
M0
100
AcDbCircle
 10
221.785133
 20
474.424741
 40
4.499996
  0
CIRCLE
  5
7E6
100
AcDbEntity
  8
M0
100
AcDbCircle
 10
204.185133
 20
474.424741
 40
4.499996
  0
LINE
  5
7E7
100
AcDbEntity
  8
M0
100
AcDbLine
 10
213.835134
 20
461.424772
 11
213.335137
 21
461.424772
  0
LINE
  5
7E8
100
AcDbEntity
  8
M0
100
AcDbLine
 10
211.135133
 20
481.224772
 11
211.135133
 21
479.024772
  0
LINE
  5
7E9
100
AcDbEntity
  8
M0
100
AcDbLine
 10
214.835133
 20
481.024772
 11
211.135133
 21
481.024772
  0
LINE
  5
7EA
100
AcDbEntity
  8
M0
100
AcDbLine
 10
214.835133
 20
479.024772
 11
214.835133
 21
481.224772
  0
LINE
  5
7EB
100
AcDbEntity
  8
M0
100
AcDbLine
 10
240.835132
 20
507.624772
 11
241.635134
 21
507.624772
  0
LINE
  5
7EC
100
AcDbEntity
  8
M0
100
AcDbLine
 10
240.835132
 20
524.024772
 11
241.635134
 21
524.024772
  0
LINE
  5
7ED
100
AcDbEntity
  8
M0
100
AcDbLine
 10
168.535133
 20
486.724772
 11
176.335133
 21
486.724772
  0
LINE
  5
7EE
100
AcDbEntity
  8
M0
100
AcDbLine
 10
211.135133
 20
526.824773
 11
214.835133
 21
526.824773
  0
LINE
  5
7EF
100
AcDbEntity
  8
M0
100
AcDbLine
 10
230.735134
 20
505.324772
 11
232.435133
 21
505.324772
  0
LINE
  5
7F0
100
AcDbEntity
  8
M0
100
AcDbLine
 10
193.535134
 20
481.224772
 11
193.535134
 21
462.424774
  0
LINE
  5
7F1
100
AcDbEntity
  8
M0
100
AcDbLine
 10
230.735134
 20
502.524772
 11
230.735134
 21
505.324772
  0
LINE
  5
7F2
100
AcDbEntity
  8
M0
100
AcDbLine
 10
177.635133
 20
502.524772
 11
177.635133
 21
505.324772
  0
LINE
  5
7F3
100
AcDbEntity
  8
M0
100
AcDbLine
 10
193.535134
 20
481.024772
 11
197.235133
 21
481.024772
  0
LINE
  5
7F4
100
AcDbEntity
  8
M0
100
AcDbLine
 10
236.288413
 20
484.339134
 11
234.520835
 21
482.571433
  0
LINE
  5
7F5
100
AcDbEntity
  8
M0
100
AcDbLine
 10
237.525718
 20
481.334129
 11
234.344077
 21
484.515891
  0
LINE
  5
7F6
100
AcDbEntity
  8
M0
100
AcDbLine
 10
237.34896
 20
483.278465
 11
235.581382
 21
481.510887
  0
LINE
  5
7F7
100
AcDbEntity
  8
M0
100
AcDbLine
 10
188.466237
 20
474.891722
 11
186.11826
 21
472.54373
  0
LINE
  5
7F8
100
AcDbEntity
  8
M0
100
AcDbLine
 10
187.052037
 20
476.305937
 11
184.70406
 21
473.957945
  0
LINE
  5
7F9
100
AcDbEntity
  8
M0
100
AcDbLine
 10
184.516179
 20
476.493712
 11
188.779149
 21
472.230772
  0
ARC
  5
7FA
100
AcDbEntity
  8
M0
100
AcDbCircle
 10
225.635133
 20
549.424772
 40
1.0
100
AcDbArc
 50
90.0
 51
180.0
  0
CIRCLE
  5
7FB
100
AcDbEntity
  8
M0
100
AcDbCircle
 10
235.935134
 20
517.324774
 40
3.0
  0
ARC
  5
7FC
100
AcDbEntity
  8
M0
100
AcDbCircle
 10
225.635133
 20
549.424772
 40
1.0
100
AcDbArc
 50
0.0
 51
90.0
  0
LINE
  5
7FD
100
AcDbEntity
  8
M0
100
AcDbLine
 10
237.34896
 20
490.878465
 11
235.581382
 21
489.110887
  0
LINE
  5
7FE
100
AcDbEntity
  8
M0
100
AcDbLine
 10
236.288413
 20
491.939134
 11
234.520835
 21
490.171434
  0
LINE
  5
7FF
100
AcDbEntity
  8
M0
100
AcDbLine
 10
237.525718
 20
488.934129
 11
234.344077
 21
492.115892
  0
LINE
  5
800
100
AcDbEntity
  8
M0
100
AcDbLine
 10
206.066237
 20
474.891722
 11
203.71826
 21
472.54373
  0
LINE
  5
801
100
AcDbEntity
  8
M0
100
AcDbLine
 10
204.652037
 20
476.305937
 11
202.30406
 21
473.957945
  0
LINE
  5
802
100
AcDbEntity
  8
M0
100
AcDbLine
 10
202.116179
 20
476.493712
 11
206.379149
 21
472.230772
  0
LINE
  5
803
100
AcDbEntity
  8
M0
100
AcDbLine
 10
223.666237
 20
474.891722
 11
221.31826
 21
472.54373
  0
LINE
  5
804
100
AcDbEntity
  8
M0
100
AcDbLine
 10
222.252037
 20
476.305937
 11
219.90406
 21
473.957945
  0
LINE
  5
805
100
AcDbEntity
  8
M0
100
AcDbLine
 10
231.435133
 20
462.424772
 11
231.435133
 21
497.724772
  0
LINE
  5
806
100
AcDbEntity
  8
M0
100
AcDbLine
 10
197.235133
 20
526.624773
 11
197.235133
 21
545.424771
  0
LINE
  5
807
100
AcDbEntity
  8
M0
100
AcDbLine
 10
211.135133
 20
526.624773
 11
211.135133
 21
545.424771
  0
LINE
  5
808
100
AcDbEntity
  8
M0
100
AcDbLine
 10
229.735134
 20
481.024772
 11
229.735134
 21
481.224772
  0
LINE
  5
809
100
AcDbEntity
  8
M0
100
AcDbLine
 10
212.135134
 20
546.424773
 11
213.835133
 21
546.424773
  0
LINE
  5
80A
100
AcDbEntity
  8
M0
100
AcDbLine
 10
196.235133
 20
546.424773
 11
194.535133
 21
546.424773
  0
LINE
  5
80B
100
AcDbEntity
  8
M0
100
AcDbLine
 10
178.635133
 20
546.424773
 11
177.935133
 21
546.424773
  0
LINE
  5
80C
100
AcDbEntity
  8
M0
100
AcDbLine
 10
199.135133
 20
509.924772
 11
209.235133
 21
509.924772
  0
LINE
  5
80D
100
AcDbEntity
  8
M0
100
AcDbLine
 10
219.947682
 20
464.874771
 11
221.085133
 21
464.874771
  0
LINE
  5
80E
100
AcDbEntity
  8
M0
100
AcDbLine
 10
221.085133
 20
463.224773
 11
221.985133
 21
463.224773
  0
LINE
  5
80F
100
AcDbEntity
  8
M0
100
AcDbLine
 10
230.435132
 20
499.224772
 11
232.435133
 21
499.224772
  0
LINE
  5
810
100
AcDbEntity
  8
M0
100
AcDbLine
 10
228.735134
 20
526.624773
 11
228.735134
 21
545.424771
  0
LINE
  5
811
100
AcDbEntity
  8
M0
100
AcDbLine
 10
239.229137
 20
469.175067
 11
239.721609
 21
469.175067
  0
LINE
  5
812
100
AcDbEntity
  8
M0
100
AcDbLine
 10
178.635133
 20
526.824773
 11
179.635133
 21
526.824773
  0
LINE
  5
813
100
AcDbEntity
  8
M0
100
AcDbLine
 10
177.935134
 20
499.224772
 11
175.935134
 21
499.224772
  0
LINE
  5
814
100
AcDbEntity
  8
M0
100
AcDbLine
 10
229.735134
 20
526.824773
 11
228.735134
 21
526.824773
  0
LINE
  5
815
100
AcDbEntity
  8
M0
100
AcDbLine
 10
176.935134
 20
497.724772
 11
176.935134
 21
462.424772
  0
LINE
  5
816
100
AcDbEntity
  8
M0
100
AcDbLine
 10
239.835133
 20
494.624772
 11
232.035133
 21
494.624772
  0
LINE
  5
817
100
AcDbEntity
  8
M0
100
AcDbLine
 10
232.435133
 20
508.624772
 11
230.435132
 21
508.624772
  0
LINE
  5
818
100
AcDbEntity
  8
M0
100
AcDbLine
 10
230.235129
 20
546.424773
 11
230.435132
 21
546.424773
  0
LINE
  5
819
100
AcDbEntity
  8
M0
100
AcDbLine
 10
229.735134
 20
526.624773
 11
229.735134
 21
526.824773
  0
LINE
  5
81A
100
AcDbEntity
  8
M0
100
AcDbLine
 10
227.785134
 20
466.424771
 11
228.735134
 21
466.424771
  0
LINE
  5
81B
100
AcDbEntity
  8
M0
100
AcDbLine
 10
239.616332
 20
473.67372
 11
238.186789
 21
473.674772
  0
LINE
  5
81C
100
AcDbEntity
  8
M0
100
AcDbLine
 10
231.435133
 20
510.124772
 11
231.435133
 21
545.424772
  0
CIRCLE
  5
81D
100
AcDbEntity
  8
M0
100
AcDbCircle
 10
221.535133
 20
464.424772
 40
2.85
  0
CIRCLE
  5
81E
100
AcDbEntity
  8
M0
100
AcDbCircle
 10
204.185133
 20
544.224772
 40
2.825
  0
ARC
  5
81F
100
AcDbEntity
  8
M0
100
AcDbCircle
 10
223.935133
 20
541.424772
 40
0.5
100
AcDbArc
 50
0.0
 51
66.421822
  0
ARC
  5
820
100
AcDbEntity
  8
M0
100
AcDbCircle
 10
187.135133
 20
549.924772
 40
0.5
100
AcDbArc
 50
90.0
 51
180.0
  0
ARC
  5
821
100
AcDbEntity
  8
M0
100
AcDbCircle
 10
215.335133
 20
549.424772
 40
1.0
100
AcDbArc
 50
0.0
 51
90.0
  0
ARC
  5
822
100
AcDbEntity
  8
M0
100
AcDbCircle
 10
184.435133
 20
541.424772
 40
0.5
100
AcDbArc
 50
113.578178
 51
180.0
  0
LINE
  5
823
100
AcDbEntity
  8
M0
100
AcDbLine
 10
167.535135
 20
524.024772
 11
166.735133
 21
524.024772
  0
LINE
  5
824
100
AcDbEntity
  8
M0
100
AcDbLine
 10
219.716179
 20
476.493712
 11
223.979149
 21
472.230772
  0
LINE
  5
825
100
AcDbEntity
  8
M0
100
AcDbLine
 10
172.035133
 20
507.624772
 11
166.735133
 21
507.624772
  0
LINE
  5
826
100
AcDbEntity
  8
M0
100
AcDbLine
 10
241.635134
 20
500.224772
 11
240.835132
 21
500.224772
  0
LINE
  5
827
100
AcDbEntity
  8
M0
100
AcDbLine
 10
239.835133
 20
530.274772
 11
239.835133
 21
508.624772
  0
CIRCLE
  5
828
100
AcDbEntity
  8
M0
100
AcDbCircle
 10
204.185133
 20
544.224772
 40
2.85
  0
ARC
  5
829
100
AcDbEntity
  8
M0
100
AcDbCircle
 10
198.135133
 20
513.924772
 40
1.0
100
AcDbArc
 50
0.0
 51
90.0
  0
ARC
  5
82A
100
AcDbEntity
  8
M0
100
AcDbCircle
 10
212.385133
 20
496.424772
 40
1.0
100
AcDbArc
 50
0.0
 51
90.0
  0
ARC
  5
82B
100
AcDbEntity
  8
M0
100
AcDbCircle
 10
210.235133
 20
513.924772
 40
1.0
100
AcDbArc
 50
90.0
 51
180.0
  0
LINE
  5
82C
100
AcDbEntity
  8
M0
100
AcDbLine
 10
209.735133
 20
509.424772
 11
198.635133
 21
509.424772
  0
LINE
  5
82D
100
AcDbEntity
  8
M0
100
AcDbLine
 10
209.235133
 20
513.424772
 11
199.135133
 21
513.424772
  0
LINE
  5
82E
100
AcDbEntity
  8
M0
100
AcDbLine
 10
229.735134
 20
546.424773
 11
230.235129
 21
546.424773
  0
ARC
  5
82F
100
AcDbEntity
  8
M0
100
AcDbCircle
 10
193.035133
 20
549.424772
 40
1.0
100
AcDbArc
 50
90.0
 51
180.0
  0
ARC
  5
830
100
AcDbEntity
  8
M0
100
AcDbCircle
 10
221.235133
 20
549.924772
 40
0.5
100
AcDbArc
 50
0.0
 51
90.0
  0
ARC
  5
831
100
AcDbEntity
  8
M0
100
AcDbCircle
 10
166.735133
 20
499.224772
 40
1.0
100
AcDbArc
 50
90.0
 51
180.0
  0
ARC
  5
832
100
AcDbEntity
  8
M0
100
AcDbCircle
 10
241.635133
 20
499.224772
 40
1.0
100
AcDbArc
 50
0.0
 51
90.0
  0
ARC
  5
833
100
AcDbEntity
  8
M0
100
AcDbCircle
 10
166.735133
 20
508.624772
 40
1.0
100
AcDbArc
 50
180.0
 51
270.0
  0
ARC
  5
834
100
AcDbEntity
  8
M0
100
AcDbCircle
 10
209.735133
 20
509.924772
 40
0.5
100
AcDbArc
 50
180.0
 51
270.0
  0
LINE
  5
835
100
AcDbEntity
  8
M0
  6
DIVIDE
 62
     7
100
AcDbLine
 10
94.835136
 20
343.946882
 11
78.335136
 21
343.946882
  0
LINE
  5
836
100
AcDbEntity
  8
M0
  6
DIVIDE
 62
     7
100
AcDbLine
 10
78.335136
 20
343.946882
 11
78.335136
 21
258.946882
  0
LINE
  5
837
100
AcDbEntity
  8
M0
  6
DIVIDE
 62
     7
100
AcDbLine
 10
94.835136
 20
343.946882
 11
94.835136
 21
347.946883
  0
LINE
  5
838
100
AcDbEntity
  8
M0
  6
DIVIDE
 62
     7
100
AcDbLine
 10
139.735136
 20
343.946882
 11
139.735136
 21
347.946883
  0
LINE
  5
839
100
AcDbEntity
  8
M0
  6
DIVIDE
 62
     7
100
AcDbLine
 10
139.735136
 20
343.946882
 11
156.235136
 21
343.946882
  0
LINE
  5
83A
100
AcDbEntity
  8
M0
  6
DIVIDE
 62
     7
100
AcDbLine
 10
94.835136
 20
347.946883
 11
139.735136
 21
347.946883
  0
LINE
  5
83B
100
AcDbEntity
  8
M0
  6
DIVIDE
 62
     7
100
AcDbLine
 10
156.235136
 20
258.946882
 11
156.235136
 21
276.046883
  0
LINE
  5
83C
100
AcDbEntity
  8
M0
  6
DIVIDE
 62
     7
100
AcDbLine
 10
156.235136
 20
258.946882
 11
78.335136
 21
258.946883
  0
LINE
  5
83D
100
AcDbEntity
  8
M0
  6
DIVIDE
 62
     7
100
AcDbLine
 10
156.235136
 20
326.846883
 11
156.235136
 21
343.946882
  0
LINE
  5
83E
100
AcDbEntity
  8
M0
  6
DIVIDE
 62
     7
100
AcDbLine
 10
181.735133
 20
343.946882
 11
165.235133
 21
343.946882
  0
LINE
  5
83F
100
AcDbEntity
  8
M0
  6
DIVIDE
 62
     7
100
AcDbLine
 10
165.235133
 20
343.946882
 11
165.235133
 21
326.846883
  0
LINE
  5
840
100
AcDbEntity
  8
M0
  6
DIVIDE
 62
     7
100
AcDbLine
 10
181.735133
 20
343.946882
 11
181.735133
 21
347.946883
  0
LINE
  5
841
100
AcDbEntity
  8
M0
  6
DIVIDE
 62
     7
100
AcDbLine
 10
226.635133
 20
343.946882
 11
226.635133
 21
347.946883
  0
LINE
  5
842
100
AcDbEntity
  8
M0
  6
DIVIDE
 62
     7
100
AcDbLine
 10
226.635133
 20
343.946882
 11
243.135133
 21
343.946882
  0
LINE
  5
843
100
AcDbEntity
  8
M0
  6
DIVIDE
 62
     7
100
AcDbLine
 10
181.735133
 20
347.946883
 11
226.635133
 21
347.946883
  0
LINE
  5
844
100
AcDbEntity
  8
M0
  6
DIVIDE
 62
     7
100
AcDbLine
 10
243.135133
 20
258.946882
 11
243.135133
 21
343.946882
  0
LINE
  5
845
100
AcDbEntity
  8
M0
  6
DIVIDE
 62
     7
100
AcDbLine
 10
243.135133
 20
258.946882
 11
165.235133
 21
258.946883
  0
LINE
  5
846
100
AcDbEntity
  8
M0
  6
DIVIDE
 62
     7
100
AcDbLine
 10
165.235133
 20
276.046883
 11
165.235133
 21
258.946882
  0
CIRCLE
  5
847
100
AcDbEntity
  8
M0
  6
DIVIDE
 62
     7
100
AcDbCircle
 10
81.785136
 20
333.946882
 40
1.7
  0
CIRCLE
  5
848
100
AcDbEntity
  8
M0
  6
DIVIDE
 62
     7
100
AcDbCircle
 10
152.785136
 20
268.946882
 40
1.7
  0
CIRCLE
  5
849
100
AcDbEntity
  8
M0
  6
DIVIDE
 62
     7
100
AcDbCircle
 10
81.785136
 20
333.946882
 40
2.0
  0
CIRCLE
  5
84A
100
AcDbEntity
  8
M0
  6
DIVIDE
 62
     7
100
AcDbCircle
 10
152.785136
 20
268.946882
 40
2.0
  0
CIRCLE
  5
84B
100
AcDbEntity
  8
M0
  6
DIVIDE
 62
     7
100
AcDbCircle
 10
239.685133
 20
268.946882
 40
2.0
  0
CIRCLE
  5
84C
100
AcDbEntity
  8
M0
  6
DIVIDE
 62
     7
100
AcDbCircle
 10
239.685133
 20
268.946882
 40
1.7
  0
CIRCLE
  5
84D
100
AcDbEntity
  8
M0
  6
DIVIDE
 62
     7
100
AcDbCircle
 10
168.685133
 20
333.946882
 40
2.0
  0
CIRCLE
  5
84E
100
AcDbEntity
  8
M0
  6
DIVIDE
 62
     7
100
AcDbCircle
 10
168.685133
 20
333.946882
 40
1.7
  0
LINE
  5
84F
100
AcDbEntity
  8
M0
  6
DIVIDE
 62
     7
100
AcDbLine
 10
156.235136
 20
276.046883
 11
165.235133
 21
276.046883
  0
LINE
  5
850
100
AcDbEntity
  8
M0
  6
DASHDOT
 62
     7
100
AcDbLine
 10
85.88254
 20
333.946882
 11
77.687731
 21
333.946882
  0
LINE
  5
851
100
AcDbEntity
  8
M0
  6
DASHDOT
 62
     7
100
AcDbLine
 10
172.782538
 20
333.946882
 11
164.587729
 21
333.946882
  0
LINE
  5
852
100
AcDbEntity
  8
M0
  6
DASHDOT
 62
     7
100
AcDbLine
 10
81.785128
 20
338.044279
 11
81.785143
 21
329.84947
  0
LINE
  5
853
100
AcDbEntity
  8
M0
  6
DASHDOT
 62
     7
100
AcDbLine
 10
156.88254
 20
268.946882
 11
148.687731
 21
268.946882
  0
LINE
  5
854
100
AcDbEntity
  8
M0
  6
DASHDOT
 62
     7
100
AcDbLine
 10
243.782538
 20
268.946882
 11
235.587729
 21
268.946882
  0
LINE
  5
855
100
AcDbEntity
  8
M0
  6
DIVIDE
 62
     7
100
AcDbLine
 10
156.235136
 20
326.846883
 11
165.235133
 21
326.846883
  0
LINE
  5
856
100
AcDbEntity
  8
M0
  6
DASHDOT
 62
     7
100
AcDbLine
 10
168.685126
 20
338.044279
 11
168.685141
 21
329.84947
  0
LINE
  5
857
100
AcDbEntity
  8
M0
  6
DASHDOT
 62
     7
100
AcDbLine
 10
239.685126
 20
273.044279
 11
239.685141
 21
264.84947
  0
LINE
  5
858
100
AcDbEntity
  8
M0
  6
DASHDOT
 62
     7
100
AcDbLine
 10
152.785128
 20
273.044279
 11
152.785143
 21
264.84947
  0
LINE
  5
859
100
AcDbEntity
  8
M1
 62
     2
100
AcDbLine
 10
25.0
 20
25.0
 11
25.0
 21
712.499989
  0
LINE
  5
85A
100
AcDbEntity
  8
M1
 62
     2
100
AcDbLine
 10
25.0
 20
712.499989
 11
499.999993
 21
712.499989
  0
LINE
  5
85B
100
AcDbEntity
  8
M1
 62
     2
100
AcDbLine
 10
499.999993
 20
712.499989
 11
499.999993
 21
25.0
  0
LINE
  5
85C
100
AcDbEntity
  8
M1
 62
     2
100
AcDbLine
 10
499.999993
 20
25.0
 11
25.0
 21
25.0
  0
LINE
  5
85D
100
AcDbEntity
  8
M1
 62
     2
100
AcDbLine
 10
499.999993
 20
49.999999
 11
249.999996
 21
49.999999
  0
LINE
  5
85E
100
AcDbEntity
  8
M1
 62
     2
100
AcDbLine
 10
499.999993
 20
74.999999
 11
249.999996
 21
74.999999
  0
LINE
  5
85F
100
AcDbEntity
  8
M1
 62
     2
100
AcDbLine
 10
499.999993
 20
99.999999
 11
249.999996
 21
99.999999
  0
LINE
  5
860
100
AcDbEntity
  8
M1
 62
     2
100
AcDbLine
 10
249.999996
 20
25.0
 11
249.999996
 21
99.999999
  0
TEXT
  5
861
100
AcDbEntity
  8
M1
 62
     2
100
AcDbText
 10
256.249996
 20
31.25
 40
12.5
  1
適　用；
  7
STANDARD
100
AcDbText
  0
TEXT
  5
862
100
AcDbEntity
  8
M1
 62
     2
100
AcDbText
 10
256.249996
 20
81.249999
 40
12.5
  1
登録名：
  7
STANDARD
100
AcDbText
  0
TEXT
  5
863
100
AcDbEntity
  8
M1
 62
     2
100
AcDbText
 10
316.249995
 20
81.249999
 40
12.5
  1
ＤＭＨＳ３５ＲＧＲ００
 41
0.5
  7
STANDARD
100
AcDbText
  0
TEXT
  5
864
100
AcDbEntity
  8
M1
 62
     2
100
AcDbText
 10
256.249996
 20
56.249999
 40
12.5
  1
形　式；
  7
STANDARD
100
AcDbText
  0
TEXT
  5
865
100
AcDbEntity
  8
M1
 62
     2
100
AcDbText
 10
316.249995
 20
56.249999
 40
12.5
  1
ＨＳ３５－ＲＧ
 41
0.5
  7
STANDARD
100
AcDbText
  0
LINE
  5
866
100
AcDbEntity
  8
DN0
100
AcDbLine
 10
137.336571
 20
223.400898
 11
177.911561
 21
223.400898
  0
TEXT
  5
867
100
AcDbEntity
  8
DN0
100
AcDbText
 10
138.457404
 20
224.400898
 40
10.0
  1
せん孔図
 41
0.833333
  7
STANDARD
100
AcDbText
  0
ENDSEC
  0
SECTION
  2
OBJECTS
  0
DICTIONARY
  5
C
100
AcDbDictionary
  3
ACAD_GROUP
350
D
  3
ACAD_MLINESTYLE
350
E
  3
ACDBVARIABLEDICTIONARY
350
421
  0
DICTIONARY
  5
D
102
{ACAD_REACTORS
330
C
102
}
100
AcDbDictionary
  0
DICTIONARY
  5
E
102
{ACAD_REACTORS
330
C
102
}
100
AcDbDictionary
  3
STANDARD
350
13
  0
DICTIONARY
  5
421
102
{ACAD_REACTORS
330
C
102
}
100
AcDbDictionary
  3
SORTENTS
350
422
  0
MLINESTYLE
  5
13
102
{ACAD_REACTORS
330
E
102
}
100
AcDbMlineStyle
  2
STANDARD
 70
     0
  3

 62
     0
 51
90.0
 52
90.0
 71
     2
 49
0.5
 62
   256
  6
BYLAYER
 49
-0.5
 62
   256
  6
BYLAYER
  0
DICTIONARYVAR
  5
422
102
{ACAD_REACTORS
330
421
102
}
100
DictionaryVariables
280
     0
  1
96
  0
ENDSEC
  0
EOF
