  0
SECTION
  2
HEADER
  9
$ACADVER
  1
AC1014
  9
$INSBASE
 10
0.000000
 20
0.000000
 30
0.0
  9
$VIEWCTR
 10
7.531722
 20
4.5
  9
$VIEWSIZE
 40
9.0
  9
$SNAPMODE
 70
     0
  9
$SNAPUNIT
 10
1.0
 20
1.0
  9
$SNAPBASE
 10
0.0
 20
0.0
  9
$SNAPANG
 50
0.0
  9
$SNAPSTYLE
 70
     0
  9
$SNAPISOPAIR
 70
     0
  9
$GRIDMODE
 70
     0
  9
$GRIDUNIT
 10
0.0
 20
0.0
  9
$ORTHOMODE
 70
     0
  9
$REGENMODE
 70
     1
  9
$FILLMODE
 70
     1
  9
$QTEXTMODE
 70
     0
  9
$DRAGMODE
 70
     2
  9
$LTSCALE
  40
     1.000000
  9
$OSMODE
 70
     0
  9
$ATTMODE
 70
     1
  9
$TEXTSIZE
 40
0.2
  9
$TRACEWID
 40
0.05
  9
$TEXTSTYLE
  7
STANDARD
  9
$CELTYPE
  6
BYLAYER
  9
$CECOLOR
 62
   256
  9
$DIMSCALE
 40
1.0
  9
$DIMASZ
 40
0.18
  9
$DIMEXO
 40
0.0625
  9
$DIMDLI
 40
0.38
  9
$DIMRND
 40
0.0
  9
$DIMDLE
 40
0.0
  9
$DIMEXE
 40
0.18
  9
$DIMTP
 40
0.0
  9
$DIMTM
 40
0.0
  9
$DIMTXT
 40
0.18
  9
$DIMCEN
 40
0.09
  9
$DIMTSZ
 40
0.0
  9
$DIMTOL
 70
     0
  9
$DIMLIM
 70
     0
  9
$DIMTIH
 70
     1
  9
$DIMTOH
 70
     1
  9
$DIMSE1
 70
     0
  9
$DIMSE2
 70
     0
  9
$DIMTAD
 70
     0
  9
$DIMZIN
 70
     0
  9
$DIMBLK
  1

  9
$LUNITS
 70
     2
  9
$LUPREC
 70
     4
  9
$AXISMODE
 70
     0
  9
$AXISUNIT
 10
0.0
 20
0.0
  9
$SKETCHINC
 40
0.1
  9
$FILLETRAD
 40
0.0
  9
$AUNITS
 70
     0
  9
$AUPREC
 70
     0
  9
$MENU
  1
ACAD
  9
$ELEVATION
 40
0.0
  9
$THICKNESS
 40
0.0
  9
$VIEWDIR
 10
0.0
 20
0.0
 30
1.0
  9
$LIMCHECK
 70
     0
  9
$BLIPMODE
 70
     1
  9
$CHAMFERA
 40
0.0
  9
$CHAMFERB
 40
0.0
  9
$FASTZOOM
 70
     1
  9
$SKPOLY
 70
     0
  9
$TDCREATE
 40
0000000.0000000000
  9
$TDUPDATE
 40
0000000.0000000000
  9
$TDINDWG
 40
0.0000000000
  9
$TDUSRTIMER
 40
0.0000000000
  9
$USRTIMER
 70
     1
  9
$ANGBASE
 50
0.0
  9
$ANGDIR
 70
     0
  9
$PDMODE
 70
     0
  9
$PDSIZE
 40
0.0
  9
$PLINEWID
 40
0.0
  9
$COORDS
 70
     0
  9
$USERI1
 70
     0
  9
$USERI2
 70
     0
  9
$USERI3
 70
     0
  9
$USERI4
 70
     0
  9
$USERI5
 70
     0
  9
$USERR1
 40
0.0
  9
$USERR2
 40
0.0
  9
$USERR3
 40
0.0
  9
$USERR4
 40
0.0
  9
$USERR5
 40
0.0
  9
$CLAYER
  8
M0
  9
$EXTMIN
 10
20.0
 20
20.0
  9
$EXTMAX
 10
400.0
 20
570.0
  9
$LIMMIN
 10
0.0
 20
0.0
  9
$LIMMAX
 10
210.0
 20
297.0
  9
$HANDSEED
  5
8D2
  0
ENDSEC
  0
SECTION
  2
CLASSES
  0
CLASS
  1
DICTIONARYVAR
  2
AcDbDictionaryVar
  3
"AutoCAD"
 90
        0
280
     0
281
     0
  0
CLASS
  1
HATCH
  2
AcDbHatch
  3
"ACAD_SEDONA"
 90
        0
280
     0
281
     1
  0
ENDSEC
  0
SECTION
  2
TABLES
  0
TABLE
  2
VPORT
  5
8
100
AcDbSymbolTable
 70
     2
  0
VPORT
  5
14
100
AcDbSymbolTableRecord
100
AcDbViewportTableRecord
  2
*ACTIVE
 70
     0
 10
0.0
 20
0.0
 11
1.0
 21
1.0
 12
484.0
 22
297.0
 13
0.0
 23
0.0
 14
1.0
 24
1.0
 15
0.0
 25
0.0
 16
0.0
 26
0.0
 36
1.0
 17
0.0
 27
0.0
 37
0.0
 40
594.0
 41
2.0
 42
50.0
 43
0.0
 44
0.0
 50
0.0
 51
0.0
 71
     0
 72
   100
 73
     1
 74
     1
 75
     0
 76
     0
 77
     0
 78
     0
  0
ENDTAB
  0
TABLE
  2
LTYPE
  5
5
100
AcDbSymbolTable
 70
     5
  0
LTYPE
  5
15
100
AcDbSymbolTableRecord
100
AcDbLinetypeTableRecord
  2
BYBLOCK
 70
     0
  3

 72
    65
 73
     0
 40
0.0
  0
LTYPE
  5
16
100
AcDbSymbolTableRecord
100
AcDbLinetypeTableRecord
  2
BYLAYER
 70
     0
  3

 72
    65
 73
     0
 40
0.0
  0
LTYPE
  5
17
100
AcDbSymbolTableRecord
100
AcDbLinetypeTableRecord
  2
CONTINUOUS
 70
    64
  3
Solid line
 72
    65
 73
     0
 40
0.0
  0
LTYPE
  5
18
100
AcDbSymbolTableRecord
100
AcDbLinetypeTableRecord
  2
DASHED
 70
    64
  3
__ __ __ __ __ __ __ __ __ __ __ __ __ __ __ __
 72
    65
 73
     2
 40
0.75
 49
0.5
 74
     0
 49
-0.25
 74
     0
  0
LTYPE
  5
19
100
AcDbSymbolTableRecord
100
AcDbLinetypeTableRecord
  2
DASHDOT
 70
    64
  3
__ . __ . __ . __ . __ . __ . __ . __ . __ . __
 72
    65
 73
     4
 40
1.0
 49
0.5
 74
     0
 49
-0.25
 74
     0
 49
0.0
 74
     0
 49
-0.25
 74
     0
  0
LTYPE
  5
1A
100
AcDbSymbolTableRecord
100
AcDbLinetypeTableRecord
  2
DIVIDE
 70
    64
  3
____ . . ____ . . ____ . . ____ . . ____ . . __
 72
    65
 73
     6
 40
1.25
 49
0.5
 74
     0
 49
-0.25
 74
     0
 49
0.0
 74
     0
 49
-0.25
 74
     0
 49
0.0
 74
     0
 49
-0.25
 74
     0
  0
LTYPE
  5
1B
100
AcDbSymbolTableRecord
100
AcDbLinetypeTableRecord
  2
DOT
 70
    64
  3
. . . . . . . . . . . . . . . . . . . . . . . .
 72
    65
 73
     2
 40
0.25
 49
0.0
 74
     0
 49
-0.25
 74
     0
  0
ENDTAB
  0
TABLE
  2
LAYER
  5
2
100
AcDbSymbolTable
 70
   102
  0
LAYER
  5
F
100
AcDbSymbolTableRecord
100
AcDbLayerTableRecord
  2
0
 70
     0
 62
     7
  6
CONTINUOUS
  0
LAYER
  5
1C
100
AcDbSymbolTableRecord
100
AcDbLayerTableRecord
  2
DEFPOINTS
 70
     0
 62
     7
  6
CONTINUOUS
  0
LAYER
  5
1D
100
AcDbSymbolTableRecord
100
AcDbLayerTableRecord
  2
M0
 70
     0
 62
     3
  6
CONTINUOUS
  0
LAYER
  5
1E
100
AcDbSymbolTableRecord
100
AcDbLayerTableRecord
  2
M1
 70
     0
 62
     3
  6
CONTINUOUS
  0
LAYER
  5
1F
100
AcDbSymbolTableRecord
100
AcDbLayerTableRecord
  2
DD0
 70
     0
 62
     4
  6
CONTINUOUS
  0
LAYER
  5
20
100
AcDbSymbolTableRecord
100
AcDbLayerTableRecord
  2
DN0
 70
     0
 62
     2
  6
CONTINUOUS
  0
ENDTAB
  0
TABLE
  2
STYLE
  5
3
100
AcDbSymbolTable
 70
     2
  0
STYLE
  5
10
100
AcDbSymbolTableRecord
100
AcDbTextStyleTableRecord
  2
STANDARD
 70
     0
 40
0.0
 41
1.0
 50
0.0
 71
     0
 42
0.2
  3
txt
  4
BIGFONT
  0
ENDTAB
  0
TABLE
  2
VIEW
  5
6
100
AcDbSymbolTable
 70
     0
  0
ENDTAB
  0
TABLE
  2
UCS
  5
7
100
AcDbSymbolTable
 70
     0
  0
ENDTAB
  0
TABLE
  2
APPID
  5
9
100
AcDbSymbolTable
 70
     1
  0
APPID
  5
11
100
AcDbSymbolTableRecord
100
AcDbRegAppTableRecord
  2
ACAD
 70
     0
  0
ENDTAB
  0
TABLE
  2
DIMSTYLE
  5
A
100
AcDbSymbolTable
 70
     2
  0
DIMSTYLE
105
27
100
AcDbSymbolTableRecord
100
AcDbDimStyleTableRecord
  2
STANDARD
 70
     0
  3

  4

  5

  6
_OPEN
  7
_OPEN
 40
1.0
 41
6.0
 42
1.0
 43
8.0
 44
1.0
 45
0.0
 46
0.0
 47
0.0
 48
0.0
140
6.3
141
0.09
142
0.0
143
0.03937
144
1.0
145
0.0
146
1.0
147
0.6
 71
     0
 72
     0
 73
     1
 74
     1
 75
     0
 76
     0
 77
     3
 78
     8
170
     0
171
     2
172
     0
173
     1
174
     0
175
     0
176
     0
177
     0
178
     0
270
     2
271
     2
272
     4
273
     2
274
     2
340
10
275
     0
280
     0
281
     0
282
     0
283
     1
284
     0
285
     0
286
     0
287
     3
288
     0
  0
DIMSTYLE
105
28
100
AcDbSymbolTableRecord
100
AcDbDimStyleTableRecord
  2
LEADSTYL
 70
     0
  3

  4

  5

  6
_OPEN
  7
_OPEN
 40
1.0
 41
6.0
 42
0.0625
 43
0.38
 44
0.18
 45
0.0
 46
0.0
 47
0.0
 48
0.0
140
6.3
141
0.09
142
0.0
143
25.4
144
1.0
145
0.0
146
1.0
147
0.6
 71
     0
 72
     0
 73
     1
 74
     1
 75
     0
 76
     0
 77
     0
 78
     0
170
     0
171
     2
172
     0
173
     1
174
     0
175
     0
176
     0
177
     0
178
     0
270
     2
271
     4
272
     4
273
     2
274
     2
340
10
275
     0
280
     0
281
     0
282
     0
283
     1
284
     0
285
     0
286
     0
287
     3
288
     0
  0
ENDTAB
  0
TABLE
  2
BLOCK_RECORD
  5
1
100
AcDbSymbolTable
 70
    24
  0
BLOCK_RECORD
  5
21
100
AcDbSymbolTableRecord
100
AcDbBlockTableRecord
  2
*MODEL_SPACE
  0
BLOCK_RECORD
  5
24
100
AcDbSymbolTableRecord
100
AcDbBlockTableRecord
  2
*PAPER_SPACE
  0
BLOCK_RECORD
  5
29
100
AcDbSymbolTableRecord
100
AcDbBlockTableRecord
  2
_NONE
  0
BLOCK_RECORD
  5
2D
100
AcDbSymbolTableRecord
100
AcDbBlockTableRecord
  2
_OPEN
  0
BLOCK_RECORD
  5
33
100
AcDbSymbolTableRecord
100
AcDbBlockTableRecord
  2
_CLOSED
  0
BLOCK_RECORD
  5
3A
100
AcDbSymbolTableRecord
100
AcDbBlockTableRecord
  2
_ORIGIN
  0
BLOCK_RECORD
  5
3F
100
AcDbSymbolTableRecord
100
AcDbBlockTableRecord
  2
_DOT
  0
BLOCK_RECORD
  5
47
100
AcDbSymbolTableRecord
100
AcDbBlockTableRecord
  2
_OBLIQUE
  0
BLOCK_RECORD
  5
4B
100
AcDbSymbolTableRecord
100
AcDbBlockTableRecord
  2
DIMS0
  0
BLOCK_RECORD
  5
57
100
AcDbSymbolTableRecord
100
AcDbBlockTableRecord
  2
DIMS1
  0
BLOCK_RECORD
  5
63
100
AcDbSymbolTableRecord
100
AcDbBlockTableRecord
  2
DIMS2
  0
BLOCK_RECORD
  5
6F
100
AcDbSymbolTableRecord
100
AcDbBlockTableRecord
  2
DIMS3
  0
BLOCK_RECORD
  5
7B
100
AcDbSymbolTableRecord
100
AcDbBlockTableRecord
  2
DIMS4
  0
BLOCK_RECORD
  5
88
100
AcDbSymbolTableRecord
100
AcDbBlockTableRecord
  2
DIMS5
  0
BLOCK_RECORD
  5
93
100
AcDbSymbolTableRecord
100
AcDbBlockTableRecord
  2
DIMS6
  0
BLOCK_RECORD
  5
9F
100
AcDbSymbolTableRecord
100
AcDbBlockTableRecord
  2
DIMS7
  0
BLOCK_RECORD
  5
AB
100
AcDbSymbolTableRecord
100
AcDbBlockTableRecord
  2
DIMS8
  0
BLOCK_RECORD
  5
B7
100
AcDbSymbolTableRecord
100
AcDbBlockTableRecord
  2
DIMS9
  0
BLOCK_RECORD
  5
C3
100
AcDbSymbolTableRecord
100
AcDbBlockTableRecord
  2
DIMS10
  0
BLOCK_RECORD
  5
CF
100
AcDbSymbolTableRecord
100
AcDbBlockTableRecord
  2
DIMS11
  0
BLOCK_RECORD
  5
DB
100
AcDbSymbolTableRecord
100
AcDbBlockTableRecord
  2
DIMS12
  0
BLOCK_RECORD
  5
E7
100
AcDbSymbolTableRecord
100
AcDbBlockTableRecord
  2
DIMS13
  0
BLOCK_RECORD
  5
F3
100
AcDbSymbolTableRecord
100
AcDbBlockTableRecord
  2
DIMS14
  0
BLOCK_RECORD
  5
FF
100
AcDbSymbolTableRecord
100
AcDbBlockTableRecord
  2
DIMS15
  0
BLOCK_RECORD
  5
107
100
AcDbSymbolTableRecord
100
AcDbBlockTableRecord
  2
DIMS16
  0
BLOCK_RECORD
  5
113
100
AcDbSymbolTableRecord
100
AcDbBlockTableRecord
  2
DIMS17
  0
ENDTAB
  0
ENDSEC
  0
SECTION
  2
BLOCKS
  0
BLOCK
  5
22
100
AcDbEntity
  8
0
100
AcDbBlockBegin
  2
*MODEL_SPACE
 70
     0
 10
0.0
 20
0.0
 30
0.0
  3
*MODEL_SPACE
  1

  0
ENDBLK
  5
23
100
AcDbEntity
  8
0
100
AcDbBlockEnd
  0
BLOCK
  5
25
100
AcDbEntity
 67
     1
  8
0
100
AcDbBlockBegin
  2
*PAPER_SPACE
 70
     0
 10
0.0
 20
0.0
 30
0.0
  3
*PAPER_SPACE
  1

  0
ENDBLK
  5
26
100
AcDbEntity
 67
     1
  8
0
100
AcDbBlockEnd
  0
BLOCK
  5
2A
100
AcDbEntity
  8
0
100
AcDbBlockBegin
  2
_NONE
 70
     0
 10
0.0
 20
0.0
  0
CIRCLE
  5
2B
100
AcDbEntity
  8
0
 62
     0
100
AcDbCircle
 10
0.0
 20
0.0
 40
0.25
  0
ENDBLK
  5
2C
100
AcDbEntity
  8
0
100
AcDbBlockEnd
  0
BLOCK
  5
2E
100
AcDbEntity
  8
0
100
AcDbBlockBegin
  2
_OPEN
 70
     0
 10
0.0
 20
0.0
  0
LINE
  5
2F
100
AcDbEntity
  8
0
 62
     0
100
AcDbLine
 10
-0.965926
 20
0.258819
 11
0.0
 21
0.0
  0
LINE
  5
30
100
AcDbEntity
  8
0
 62
     0
100
AcDbLine
 10
0.0
 20
0.0
 11
-0.965926
 21
-0.258819
  0
LINE
  5
31
100
AcDbEntity
  8
0
 62
     0
100
AcDbLine
 10
0.0
 20
0.0
 11
-1.0
 21
0.0
  0
ENDBLK
  5
32
100
AcDbEntity
  8
0
100
AcDbBlockEnd
  0
BLOCK
  5
34
100
AcDbEntity
  8
0
100
AcDbBlockBegin
  2
_CLOSED
 70
     0
 10
0.0
 20
0.0
  0
LINE
  5
35
100
AcDbEntity
  8
0
 62
     0
100
AcDbLine
 10
-0.965926
 20
0.258819
 11
0.0
 21
0.0
  0
LINE
  5
36
100
AcDbEntity
  8
0
 62
     0
100
AcDbLine
 10
0.0
 20
0.0
 11
-0.965926
 21
-0.258819
  0
LINE
  5
37
100
AcDbEntity
  8
0
 62
     0
100
AcDbLine
 10
-0.965926
 20
0.258819
 11
-0.965926
 21
-0.258819
  0
LINE
  5
38
100
AcDbEntity
  8
0
 62
     0
100
AcDbLine
 10
0.0
 20
0.0
 11
-1.0
 21
0.0
  0
ENDBLK
  5
39
100
AcDbEntity
  8
0
100
AcDbBlockEnd
  0
BLOCK
  5
3B
100
AcDbEntity
  8
0
100
AcDbBlockBegin
  2
_ORIGIN
 70
     0
 10
0.0
 20
0.0
  0
CIRCLE
  5
3C
100
AcDbEntity
  8
0
 62
     0
100
AcDbCircle
 10
0.0
 20
0.0
 40
0.5
  0
LINE
  5
3D
100
AcDbEntity
  8
0
 62
     0
100
AcDbLine
 10
0.0
 20
0.0
 11
-1.0
 21
0.0
  0
ENDBLK
  5
3E
100
AcDbEntity
  8
0
100
AcDbBlockEnd
  0
BLOCK
  5
40
100
AcDbEntity
  8
0
100
AcDbBlockBegin
  2
_DOT
 70
     0
 10
0.0
 20
0.0
  0
POLYLINE
  5
41
100
AcDbEntity
  8
0
 62
     0
100
AcDb2dPolyline
 66
     1
 70
     1
 40
0.5
 41
0.5
  0
VERTEX
  5
42
100
AcDbEntity
  8
0
 62
     0
100
AcDbVertex
100
AcDb2dVertex
 10
-0.25
 20
0.0
 42
1.0
  0
VERTEX
  5
43
100
AcDbEntity
  8
0
 62
     0
100
AcDbVertex
100
AcDb2dVertex
 10
0.25
 20
0.0
 42
1.0
  0
SEQEND
  5
44
100
AcDbEntity
  8
0
 62
     0
  0
LINE
  5
45
100
AcDbEntity
  8
0
 62
     0
100
AcDbLine
 10
-0.5
 20
0.0
 11
-1.0
 21
0.0
  0
ENDBLK
  5
46
100
AcDbEntity
  8
0
100
AcDbBlockEnd
  0
BLOCK
  5
48
100
AcDbEntity
  8
0
100
AcDbBlockBegin
  2
_OBLIQUE
 70
     0
 10
0.0
 20
0.0
  0
LINE
  5
49
100
AcDbEntity
  8
0
 62
     0
100
AcDbLine
 10
-0.353553
 20
-0.353553
 11
0.353553
 21
0.353553
  0
ENDBLK
  5
4A
100
AcDbEntity
  8
0
100
AcDbBlockEnd
  0
BLOCK
  5
4C
100
AcDbEntity
  8
DD0
100
AcDbBlockBegin
  2
DIMS0
 70
     0
 10
0.0
 20
0.0
  0
LINE
  5
4D
100
AcDbEntity
  8
DD0
100
AcDbLine
 10
78.781464
 20
453.939819
 11
78.781464
 21
465.612335
  0
LINE
  5
4E
100
AcDbEntity
  8
DD0
100
AcDbLine
 10
151.581451
 20
453.939819
 11
151.581451
 21
465.612335
  0
LINE
  5
4F
100
AcDbEntity
  8
DD0
100
AcDbLine
 10
84.577019
 20
465.16525
 11
78.781464
 21
463.612335
  0
LINE
  5
50
100
AcDbEntity
  8
DD0
100
AcDbLine
 10
78.781464
 20
463.612335
 11
84.577019
 21
462.059421
  0
LINE
  5
51
100
AcDbEntity
  8
DD0
100
AcDbLine
 10
145.785896
 20
462.059421
 11
151.581451
 21
463.612335
  0
LINE
  5
52
100
AcDbEntity
  8
DD0
100
AcDbLine
 10
151.581451
 20
463.612335
 11
145.785896
 21
465.16525
  0
LINE
  5
53
100
AcDbEntity
  8
DD0
100
AcDbLine
 10
78.781464
 20
463.612335
 11
151.581451
 21
463.612335
  0
TEXT
  5
54
100
AcDbEntity
  8
DD0
100
AcDbText
 10
111.524794
 20
464.812347
 40
5.0
  1
７３
 41
0.666667
  7
STANDARD
100
AcDbText
  0
ENDBLK
  5
55
100
AcDbEntity
  8
DD0
100
AcDbBlockEnd
  0
BLOCK
  5
58
100
AcDbEntity
  8
DD0
100
AcDbBlockBegin
  2
DIMS1
 70
     0
 10
0.0
 20
0.0
  0
LINE
  5
59
100
AcDbEntity
  8
DD0
100
AcDbLine
 10
78.781464
 20
361.439819
 11
78.781464
 21
342.405365
  0
LINE
  5
5A
100
AcDbEntity
  8
DD0
100
AcDbLine
 10
65.781464
 20
377.739838
 11
65.781464
 21
342.405365
  0
LINE
  5
5B
100
AcDbEntity
  8
DD0
100
AcDbLine
 10
84.577019
 20
345.958279
 11
78.781464
 21
344.405365
  0
LINE
  5
5C
100
AcDbEntity
  8
DD0
100
AcDbLine
 10
78.781464
 20
344.405365
 11
84.577019
 21
342.852451
  0
LINE
  5
5D
100
AcDbEntity
  8
DD0
100
AcDbLine
 10
59.985909
 20
342.852451
 11
65.781464
 21
344.405365
  0
LINE
  5
5E
100
AcDbEntity
  8
DD0
100
AcDbLine
 10
65.781464
 20
344.405365
 11
59.985909
 21
345.958279
  0
LINE
  5
5F
100
AcDbEntity
  8
DD0
100
AcDbLine
 10
85.381464
 20
344.405365
 11
59.181464
 21
344.405365
  0
TEXT
  5
60
100
AcDbEntity
  8
DD0
100
AcDbText
 10
68.6248
 20
345.605377
 40
5.0
  1
１３
 41
0.666667
  7
STANDARD
100
AcDbText
  0
ENDBLK
  5
61
100
AcDbEntity
  8
DD0
100
AcDbBlockEnd
  0
BLOCK
  5
64
100
AcDbEntity
  8
DD0
100
AcDbBlockBegin
  2
DIMS2
 70
     0
 10
0.0
 20
0.0
  0
LINE
  5
65
100
AcDbEntity
  8
DD0
100
AcDbLine
 10
47.381462
 20
436.439819
 11
47.381462
 21
478.288971
  0
LINE
  5
66
100
AcDbEntity
  8
DD0
100
AcDbLine
 10
182.981461
 20
436.439819
 11
182.981461
 21
478.288971
  0
LINE
  5
67
100
AcDbEntity
  8
DD0
100
AcDbLine
 10
53.177017
 20
477.841885
 11
47.381462
 21
476.288971
  0
LINE
  5
68
100
AcDbEntity
  8
DD0
100
AcDbLine
 10
47.381462
 20
476.288971
 11
53.177017
 21
474.736057
  0
LINE
  5
69
100
AcDbEntity
  8
DD0
100
AcDbLine
 10
177.185906
 20
474.736057
 11
182.981461
 21
476.288971
  0
LINE
  5
6A
100
AcDbEntity
  8
DD0
100
AcDbLine
 10
182.981461
 20
476.288971
 11
177.185906
 21
477.841885
  0
LINE
  5
6B
100
AcDbEntity
  8
DD0
100
AcDbLine
 10
47.381462
 20
476.288971
 11
182.981461
 21
476.288971
  0
TEXT
  5
6C
100
AcDbEntity
  8
DD0
100
AcDbText
 10
105.524794
 20
477.488983
 40
5.0
  1
１３５．５
 41
0.666667
  7
STANDARD
100
AcDbText
  0
ENDBLK
  5
6D
100
AcDbEntity
  8
DD0
100
AcDbBlockEnd
  0
BLOCK
  5
70
100
AcDbEntity
  8
DD0
100
AcDbBlockBegin
  2
DIMS3
 70
     0
 10
0.0
 20
0.0
  0
LINE
  5
71
100
AcDbEntity
  8
DD0
100
AcDbLine
 10
169.699188
 20
448.439819
 11
208.172668
 21
448.439819
  0
LINE
  5
72
100
AcDbEntity
  8
DD0
100
AcDbLine
 10
179.981461
 20
368.439819
 11
208.172668
 21
368.439819
  0
LINE
  5
73
100
AcDbEntity
  8
DD0
100
AcDbLine
 10
207.725583
 20
442.644264
 11
206.172668
 21
448.439819
  0
LINE
  5
74
100
AcDbEntity
  8
DD0
100
AcDbLine
 10
206.172668
 20
448.439819
 11
204.619754
 21
442.644264
  0
LINE
  5
75
100
AcDbEntity
  8
DD0
100
AcDbLine
 10
204.619754
 20
374.235374
 11
206.172668
 21
368.439819
  0
LINE
  5
76
100
AcDbEntity
  8
DD0
100
AcDbLine
 10
206.172668
 20
368.439819
 11
207.725583
 21
374.235374
  0
LINE
  5
77
100
AcDbEntity
  8
DD0
100
AcDbLine
 10
206.172668
 20
448.439819
 11
206.172668
 21
368.439819
  0
TEXT
  5
78
100
AcDbEntity
  8
DD0
100
AcDbText
 10
204.972672
 20
404.783141
 40
5.0
  1
８０
 50
90.000003
 41
0.666667
  7
STANDARD
100
AcDbText
  0
ENDBLK
  5
79
100
AcDbEntity
  8
DD0
100
AcDbBlockEnd
  0
BLOCK
  5
7C
100
AcDbEntity
  8
DD0
100
AcDbBlockBegin
  2
DIMS4
 70
     0
 10
0.0
 20
0.0
  0
LINE
  5
7D
100
AcDbEntity
  8
DD0
100
AcDbLine
 10
195.481461
 20
435.639832
 11
195.481461
 21
495.150024
  0
LINE
  5
7E
100
AcDbEntity
  8
DD0
100
AcDbLine
 10
34.881466
 20
435.639832
 11
34.881466
 21
495.150024
  0
LINE
  5
7F
100
AcDbEntity
  8
DD0
100
AcDbLine
 10
189.685906
 20
491.59711
 11
195.481461
 21
493.150024
  0
LINE
  5
80
100
AcDbEntity
  8
DD0
100
AcDbLine
 10
195.481461
 20
493.150024
 11
189.685906
 21
494.702939
  0
LINE
  5
81
100
AcDbEntity
  8
DD0
100
AcDbLine
 10
40.677021
 20
494.702939
 11
34.881466
 21
493.150024
  0
LINE
  5
82
100
AcDbEntity
  8
DD0
100
AcDbLine
 10
34.881466
 20
493.150024
 11
40.677021
 21
491.59711
  0
LINE
  5
83
100
AcDbEntity
  8
DD0
100
AcDbLine
 10
195.481461
 20
493.150024
 11
34.881466
 21
493.150024
  0
TEXT
  5
84
100
AcDbEntity
  8
DD0
100
AcDbText
 10
105.524802
 20
494.350037
 40
5.0
  1
１６０．５
 41
0.666667
  7
STANDARD
100
AcDbText
  0
TEXT
  5
85
100
AcDbEntity
  8
DD0
100
AcDbText
 10
73.524802
 20
486.550049
 40
5.0
  1
（補助接点サイドオンユニットを付けた場合）
 41
0.666667
  7
STANDARD
100
AcDbText
  0
ENDBLK
  5
86
100
AcDbEntity
  8
DD0
100
AcDbBlockEnd
  0
BLOCK
  5
89
100
AcDbEntity
  8
DD0
100
AcDbBlockBegin
  2
DIMS5
 70
     0
 10
0.0
 20
0.0
  0
LINE
  5
8A
100
AcDbEntity
  8
DD0
100
AcDbLine
 10
263.533203
 20
416.539825
 11
263.533203
 21
478.288971
  0
LINE
  5
8B
100
AcDbEntity
  8
DD0
100
AcDbLine
 10
371.137642
 20
474.736057
 11
376.933197
 21
476.288971
  0
LINE
  5
8C
100
AcDbEntity
  8
DD0
100
AcDbLine
 10
376.933197
 20
476.288971
 11
371.137642
 21
477.841885
  0
LINE
  5
8D
100
AcDbEntity
  8
DD0
100
AcDbLine
 10
269.328758
 20
477.841885
 11
263.533203
 21
476.288971
  0
LINE
  5
8E
100
AcDbEntity
  8
DD0
100
AcDbLine
 10
263.533203
 20
476.288971
 11
269.328758
 21
474.736057
  0
LINE
  5
8F
100
AcDbEntity
  8
DD0
100
AcDbLine
 10
376.933197
 20
476.288971
 11
263.533203
 21
476.288971
  0
TEXT
  5
90
100
AcDbEntity
  8
DD0
100
AcDbText
 10
314.576536
 20
477.488983
 40
5.0
  1
１１４
 41
0.666667
  7
STANDARD
100
AcDbText
  0
ENDBLK
  5
91
100
AcDbEntity
  8
DD0
100
AcDbBlockEnd
  0
BLOCK
  5
94
100
AcDbEntity
  8
DD0
100
AcDbBlockBegin
  2
DIMS6
 70
     0
 10
0.0
 20
0.0
  0
LINE
  5
95
100
AcDbEntity
  8
DD0
100
AcDbLine
 10
376.933197
 20
438.789825
 11
376.933197
 21
494.65506
  0
LINE
  5
96
100
AcDbEntity
  8
DD0
100
AcDbLine
 10
232.2332
 20
407.339844
 11
232.2332
 21
494.65506
  0
LINE
  5
97
100
AcDbEntity
  8
DD0
100
AcDbLine
 10
371.137642
 20
491.102146
 11
376.933197
 21
492.65506
  0
LINE
  5
98
100
AcDbEntity
  8
DD0
100
AcDbLine
 10
376.933197
 20
492.65506
 11
371.137642
 21
494.207974
  0
LINE
  5
99
100
AcDbEntity
  8
DD0
100
AcDbLine
 10
238.028755
 20
494.207974
 11
232.2332
 21
492.65506
  0
LINE
  5
9A
100
AcDbEntity
  8
DD0
100
AcDbLine
 10
232.2332
 20
492.65506
 11
238.028755
 21
491.102146
  0
LINE
  5
9B
100
AcDbEntity
  8
DD0
100
AcDbLine
 10
376.933197
 20
492.65506
 11
232.2332
 21
492.65506
  0
TEXT
  5
9C
100
AcDbEntity
  8
DD0
100
AcDbText
 10
256.926512
 20
493.855072
 40
5.0
  1
１４５（補助接点ヘッドオンユニットを付けた場合）
 41
0.666667
  7
STANDARD
100
AcDbText
  0
ENDBLK
  5
9D
100
AcDbEntity
  8
DD0
100
AcDbBlockEnd
  0
BLOCK
  5
A0
100
AcDbEntity
  8
DD0
100
AcDbBlockBegin
  2
DIMS7
 70
     0
 10
0.0
 20
0.0
  0
LINE
  5
A1
100
AcDbEntity
  8
DD0
100
AcDbLine
 10
263.533203
 20
416.539825
 11
263.533203
 21
478.288971
  0
LINE
  5
A2
100
AcDbEntity
  8
DD0
100
AcDbLine
 10
258.533203
 20
453.459961
 11
258.533203
 21
478.288971
  0
LINE
  5
A3
100
AcDbEntity
  8
DD0
100
AcDbLine
 10
269.328758
 20
477.841885
 11
263.533203
 21
476.288971
  0
LINE
  5
A4
100
AcDbEntity
  8
DD0
100
AcDbLine
 10
263.533203
 20
476.288971
 11
269.328758
 21
474.736057
  0
LINE
  5
A5
100
AcDbEntity
  8
DD0
100
AcDbLine
 10
252.737648
 20
474.736057
 11
258.533203
 21
476.288971
  0
LINE
  5
A6
100
AcDbEntity
  8
DD0
100
AcDbLine
 10
258.533203
 20
476.288971
 11
252.737648
 21
477.841885
  0
LINE
  5
A7
100
AcDbEntity
  8
DD0
100
AcDbLine
 10
270.133203
 20
476.288971
 11
245.933203
 21
476.288971
  0
TEXT
  5
A8
100
AcDbEntity
  8
DD0
100
AcDbText
 10
247.696532
 20
477.488983
 40
5.0
  1
５
 41
0.666667
  7
STANDARD
100
AcDbText
  0
ENDBLK
  5
A9
100
AcDbEntity
  8
DD0
100
AcDbBlockEnd
  0
BLOCK
  5
AC
100
AcDbEntity
  8
DD0
100
AcDbBlockBegin
  2
DIMS8
 70
     0
 10
0.0
 20
0.0
  0
LINE
  5
AD
100
AcDbEntity
  8
DD0
100
AcDbLine
 10
365.933197
 20
366.539825
 11
365.933197
 21
342.405365
  0
LINE
  5
AE
100
AcDbEntity
  8
DD0
100
AcDbLine
 10
376.933197
 20
367.289825
 11
376.933197
 21
342.405365
  0
LINE
  5
AF
100
AcDbEntity
  8
DD0
100
AcDbLine
 10
360.137642
 20
342.852451
 11
365.933197
 21
344.405365
  0
LINE
  5
B0
100
AcDbEntity
  8
DD0
100
AcDbLine
 10
365.933197
 20
344.405365
 11
360.137642
 21
345.958279
  0
LINE
  5
B1
100
AcDbEntity
  8
DD0
100
AcDbLine
 10
382.728752
 20
345.958279
 11
376.933197
 21
344.405365
  0
LINE
  5
B2
100
AcDbEntity
  8
DD0
100
AcDbLine
 10
376.933197
 20
344.405365
 11
382.728752
 21
342.852451
  0
LINE
  5
B3
100
AcDbEntity
  8
DD0
100
AcDbLine
 10
359.333197
 20
344.405365
 11
383.533197
 21
344.405365
  0
TEXT
  5
B4
100
AcDbEntity
  8
DD0
100
AcDbText
 10
365.648212
 20
345.605377
 40
6.3
  1
１１
 41
0.833333
  7
STANDARD
100
AcDbText
  0
ENDBLK
  5
B5
100
AcDbEntity
  8
DD0
100
AcDbBlockEnd
  0
BLOCK
  5
B8
100
AcDbEntity
  8
DD0
100
AcDbBlockBegin
  2
DIMS9
 70
     0
 10
0.0
 20
0.0
  0
LINE
  5
B9
100
AcDbEntity
  8
DD0
100
AcDbLine
 10
170.551453
 20
267.957886
 11
202.31868
 21
267.957886
  0
LINE
  5
BA
100
AcDbEntity
  8
DD0
100
AcDbLine
 10
57.878864
 20
253.45787
 11
202.31868
 21
253.45787
  0
LINE
  5
BB
100
AcDbEntity
  8
DD0
100
AcDbLine
 10
198.765765
 20
273.753441
 11
200.31868
 21
267.957886
  0
LINE
  5
BC
100
AcDbEntity
  8
DD0
100
AcDbLine
 10
200.31868
 20
267.957886
 11
201.871594
 21
273.753441
  0
LINE
  5
BD
100
AcDbEntity
  8
DD0
100
AcDbLine
 10
201.871594
 20
247.662316
 11
200.31868
 21
253.45787
  0
LINE
  5
BE
100
AcDbEntity
  8
DD0
100
AcDbLine
 10
200.31868
 20
253.45787
 11
198.765765
 21
247.662316
  0
LINE
  5
BF
100
AcDbEntity
  8
DD0
100
AcDbLine
 10
200.31868
 20
288.655731
 11
200.31868
 21
246.857871
  0
TEXT
  5
C0
100
AcDbEntity
  8
DD0
100
AcDbText
 10
199.118683
 20
270.999052
 40
5.0
  1
１４．５
 50
90.000003
 41
0.666667
  7
STANDARD
100
AcDbText
  0
ENDBLK
  5
C1
100
AcDbEntity
  8
DD0
100
AcDbBlockEnd
  0
BLOCK
  5
C4
100
AcDbEntity
  8
DD0
100
AcDbBlockBegin
  2
DIMS10
 70
     0
 10
0.0
 20
0.0
  0
LINE
  5
C5
100
AcDbEntity
  8
DD0
100
AcDbLine
 10
57.878864
 20
253.45787
 11
202.31868
 21
253.45787
  0
LINE
  5
C6
100
AcDbEntity
  8
DD0
100
AcDbLine
 10
111.878868
 20
194.45787
 11
202.31868
 21
194.45787
  0
LINE
  5
C7
100
AcDbEntity
  8
DD0
100
AcDbLine
 10
201.871594
 20
247.662316
 11
200.31868
 21
253.45787
  0
LINE
  5
C8
100
AcDbEntity
  8
DD0
100
AcDbLine
 10
200.31868
 20
253.45787
 11
198.765765
 21
247.662316
  0
LINE
  5
C9
100
AcDbEntity
  8
DD0
100
AcDbLine
 10
198.765765
 20
200.253425
 11
200.31868
 21
194.45787
  0
LINE
  5
CA
100
AcDbEntity
  8
DD0
100
AcDbLine
 10
200.31868
 20
194.45787
 11
201.871594
 21
200.253425
  0
LINE
  5
CB
100
AcDbEntity
  8
DD0
100
AcDbLine
 10
200.31868
 20
253.45787
 11
200.31868
 21
194.45787
  0
TEXT
  5
CC
100
AcDbEntity
  8
DD0
100
AcDbText
 10
199.118683
 20
220.301207
 40
5.0
  1
５９
 50
90.000003
 41
0.666667
  7
STANDARD
100
AcDbText
  0
ENDBLK
  5
CD
100
AcDbEntity
  8
DD0
100
AcDbBlockEnd
  0
BLOCK
  5
D0
100
AcDbEntity
  8
DD0
100
AcDbBlockBegin
  2
DIMS11
 70
     0
 10
0.0
 20
0.0
  0
LINE
  5
D1
100
AcDbEntity
  8
DD0
100
AcDbLine
 10
51.781452
 20
259.555267
 11
51.781452
 21
281.723206
  0
LINE
  5
D2
100
AcDbEntity
  8
DD0
100
AcDbLine
 10
105.781456
 20
200.555267
 11
105.781456
 21
281.723206
  0
LINE
  5
D3
100
AcDbEntity
  8
DD0
100
AcDbLine
 10
57.577007
 20
281.27612
 11
51.781452
 21
279.723206
  0
LINE
  5
D4
100
AcDbEntity
  8
DD0
100
AcDbLine
 10
51.781452
 20
279.723206
 11
57.577007
 21
278.170291
  0
LINE
  5
D5
100
AcDbEntity
  8
DD0
100
AcDbLine
 10
99.985901
 20
278.170291
 11
105.781456
 21
279.723206
  0
LINE
  5
D6
100
AcDbEntity
  8
DD0
100
AcDbLine
 10
105.781456
 20
279.723206
 11
99.985901
 21
281.27612
  0
LINE
  5
D7
100
AcDbEntity
  8
DD0
100
AcDbLine
 10
51.781452
 20
279.723206
 11
105.781456
 21
279.723206
  0
TEXT
  5
D8
100
AcDbEntity
  8
DD0
100
AcDbText
 10
75.124792
 20
280.923218
 40
5.0
  1
５４
 41
0.666667
  7
STANDARD
100
AcDbText
  0
ENDBLK
  5
D9
100
AcDbEntity
  8
DD0
100
AcDbBlockEnd
  0
BLOCK
  5
DC
100
AcDbEntity
  8
DD0
100
AcDbBlockBegin
  2
DIMS12
 70
     0
 10
0.0
 20
0.0
  0
LINE
  5
DD
100
AcDbEntity
  8
DD0
100
AcDbLine
 10
51.781452
 20
259.555267
 11
51.781452
 21
281.723206
  0
LINE
  5
DE
100
AcDbEntity
  8
DD0
100
AcDbLine
 10
47.381466
 20
260.957886
 11
47.381466
 21
281.723206
  0
LINE
  5
DF
100
AcDbEntity
  8
DD0
100
AcDbLine
 10
57.577007
 20
281.27612
 11
51.781452
 21
279.723206
  0
LINE
  5
E0
100
AcDbEntity
  8
DD0
100
AcDbLine
 10
51.781452
 20
279.723206
 11
57.577007
 21
278.170291
  0
LINE
  5
E1
100
AcDbEntity
  8
DD0
100
AcDbLine
 10
41.585911
 20
278.170291
 11
47.381466
 21
279.723206
  0
LINE
  5
E2
100
AcDbEntity
  8
DD0
100
AcDbLine
 10
47.381466
 20
279.723206
 11
41.585911
 21
281.27612
  0
LINE
  5
E3
100
AcDbEntity
  8
DD0
100
AcDbLine
 10
58.381452
 20
279.723206
 11
29.111671
 21
279.723206
  0
TEXT
  5
E4
100
AcDbEntity
  8
DD0
100
AcDbText
 10
31.455004
 20
280.923218
 40
5.0
  1
４．５
 41
0.666667
  7
STANDARD
100
AcDbText
  0
ENDBLK
  5
E5
100
AcDbEntity
  8
DD0
100
AcDbBlockEnd
  0
BLOCK
  5
E8
100
AcDbEntity
  8
DD0
100
AcDbBlockBegin
  2
DIMS13
 70
     0
 10
0.0
 20
0.0
  0
LINE
  5
E9
100
AcDbEntity
  8
DD0
100
AcDbLine
 10
105.781456
 20
200.555267
 11
105.781456
 21
281.723206
  0
LINE
  5
EA
100
AcDbEntity
  8
DD0
100
AcDbLine
 10
124.581451
 20
259.555267
 11
124.581451
 21
281.723206
  0
LINE
  5
EB
100
AcDbEntity
  8
DD0
100
AcDbLine
 10
111.577011
 20
281.27612
 11
105.781456
 21
279.723206
  0
LINE
  5
EC
100
AcDbEntity
  8
DD0
100
AcDbLine
 10
105.781456
 20
279.723206
 11
111.577011
 21
278.170291
  0
LINE
  5
ED
100
AcDbEntity
  8
DD0
100
AcDbLine
 10
118.785896
 20
278.170291
 11
124.581451
 21
279.723206
  0
LINE
  5
EE
100
AcDbEntity
  8
DD0
100
AcDbLine
 10
124.581451
 20
279.723206
 11
118.785896
 21
281.27612
  0
LINE
  5
EF
100
AcDbEntity
  8
DD0
100
AcDbLine
 10
105.781456
 20
279.723206
 11
124.581451
 21
279.723206
  0
TEXT
  5
F0
100
AcDbEntity
  8
DD0
100
AcDbText
 10
111.524794
 20
280.923218
 40
5.0
  1
１９
 41
0.666667
  7
STANDARD
100
AcDbText
  0
ENDBLK
  5
F1
100
AcDbEntity
  8
DD0
100
AcDbBlockEnd
  0
BLOCK
  5
F4
100
AcDbEntity
  8
DD0
100
AcDbBlockBegin
  2
DIMS14
 70
     0
 10
0.0
 20
0.0
  0
LINE
  5
F5
100
AcDbEntity
  8
DD0
100
AcDbLine
 10
124.581451
 20
259.555267
 11
124.581451
 21
281.723175
  0
LINE
  5
F6
100
AcDbEntity
  8
DD0
100
AcDbLine
 10
178.581451
 20
200.555267
 11
178.581451
 21
281.723175
  0
LINE
  5
F7
100
AcDbEntity
  8
DD0
100
AcDbLine
 10
130.377006
 20
281.276089
 11
124.581451
 21
279.723175
  0
LINE
  5
F8
100
AcDbEntity
  8
DD0
100
AcDbLine
 10
124.581451
 20
279.723175
 11
130.377006
 21
278.170261
  0
LINE
  5
F9
100
AcDbEntity
  8
DD0
100
AcDbLine
 10
172.785896
 20
278.170261
 11
178.581451
 21
279.723175
  0
LINE
  5
FA
100
AcDbEntity
  8
DD0
100
AcDbLine
 10
178.581451
 20
279.723175
 11
172.785896
 21
281.276089
  0
LINE
  5
FB
100
AcDbEntity
  8
DD0
100
AcDbLine
 10
124.581451
 20
279.723175
 11
178.581451
 21
279.723175
  0
TEXT
  5
FC
100
AcDbEntity
  8
DD0
100
AcDbText
 10
147.924788
 20
280.923187
 40
5.0
  1
５４
 41
0.666667
  7
STANDARD
100
AcDbText
  0
ENDBLK
  5
FD
100
AcDbEntity
  8
DD0
100
AcDbBlockEnd
  0
BLOCK
  5
100
100
AcDbEntity
  8
DD0
100
AcDbBlockBegin
  2
DIMS15
 70
     0
 10
0.0
 20
0.0
  0
TEXT
  5
101
100
AcDbEntity
  8
DD0
100
AcDbText
 10
175.589018
 20
174.412643
 40
5.0
  1
４－Ｍ４ねじ穴
 41
0.666667
  7
STANDARD
100
AcDbText
  0
LINE
  5
102
100
AcDbEntity
  8
DD0
100
AcDbLine
 10
183.707566
 20
188.320956
 11
179.943954
 21
192.993774
  0
LINE
  5
103
100
AcDbEntity
  8
DD0
100
AcDbLine
 10
179.943954
 20
192.993774
 11
180.866928
 21
187.065189
  0
LINE
  5
104
100
AcDbEntity
  8
DD0
100
AcDbLine
 10
179.943954
 20
192.993774
 11
185.543396
 21
180.327423
  0
ENDBLK
  5
105
100
AcDbEntity
  8
DD0
100
AcDbBlockEnd
  0
BLOCK
  5
108
100
AcDbEntity
  8
DD0
100
AcDbBlockBegin
  2
DIMS16
 70
     0
 10
0.0
 20
0.0
  0
LINE
  5
109
100
AcDbEntity
  8
DD0
100
AcDbLine
 10
60.663731
 20
448.439819
 11
27.647892
 21
448.439819
  0
LINE
  5
10A
100
AcDbEntity
  8
DD0
100
AcDbLine
 10
63.78146
 20
427.639832
 11
27.647892
 21
427.639832
  0
LINE
  5
10B
100
AcDbEntity
  8
DD0
100
AcDbLine
 10
31.200806
 20
442.644264
 11
29.647892
 21
448.439819
  0
LINE
  5
10C
100
AcDbEntity
  8
DD0
100
AcDbLine
 10
29.647892
 20
448.439819
 11
28.094978
 21
442.644264
  0
LINE
  5
10D
100
AcDbEntity
  8
DD0
100
AcDbLine
 10
28.094978
 20
433.435386
 11
29.647892
 21
427.639832
  0
LINE
  5
10E
100
AcDbEntity
  8
DD0
100
AcDbLine
 10
29.647892
 20
427.639832
 11
31.200806
 21
433.435386
  0
LINE
  5
10F
100
AcDbEntity
  8
DD0
100
AcDbLine
 10
29.647892
 20
448.439819
 11
29.647892
 21
427.639832
  0
TEXT
  5
110
100
AcDbEntity
  8
DD0
100
AcDbText
 10
28.447891
 20
434.383147
 40
5.0
  1
２１
 50
90.000003
 41
0.666667
  7
STANDARD
100
AcDbText
  0
ENDBLK
  5
111
100
AcDbEntity
  8
DD0
100
AcDbBlockEnd
  0
BLOCK
  5
114
100
AcDbEntity
  8
DD0
100
AcDbBlockBegin
  2
DIMS17
 70
     0
 10
0.0
 20
0.0
  0
LINE
  5
115
100
AcDbEntity
  8
DD0
100
AcDbLine
 10
63.78146
 20
427.639832
 11
27.647894
 21
427.639832
  0
LINE
  5
116
100
AcDbEntity
  8
DD0
100
AcDbLine
 10
63.78146
 20
380.239838
 11
27.647894
 21
380.239838
  0
LINE
  5
117
100
AcDbEntity
  8
DD0
100
AcDbLine
 10
31.200808
 20
421.844277
 11
29.647894
 21
427.639832
  0
LINE
  5
118
100
AcDbEntity
  8
DD0
100
AcDbLine
 10
29.647894
 20
427.639832
 11
28.09498
 21
421.844277
  0
LINE
  5
119
100
AcDbEntity
  8
DD0
100
AcDbLine
 10
28.09498
 20
386.035393
 11
29.647894
 21
380.239838
  0
LINE
  5
11A
100
AcDbEntity
  8
DD0
100
AcDbLine
 10
29.647894
 20
380.239838
 11
31.200808
 21
386.035393
  0
LINE
  5
11B
100
AcDbEntity
  8
DD0
100
AcDbLine
 10
29.647894
 20
427.639832
 11
29.647894
 21
380.239838
  0
TEXT
  5
11C
100
AcDbEntity
  8
DD0
100
AcDbText
 10
28.447893
 20
396.283141
 40
5.0
  1
４７．５
 50
90.000003
 41
0.666667
  7
STANDARD
100
AcDbText
  0
ENDBLK
  5
11D
100
AcDbEntity
  8
DD0
100
AcDbBlockEnd
  0
ENDSEC
  0
SECTION
  2
ENTITIES
  0
INSERT
  5
56
100
AcDbEntity
  8
DD0
100
AcDbBlockReference
  2
DIMS0
 10
0.0
 20
0.0
  0
INSERT
  5
62
100
AcDbEntity
  8
DD0
100
AcDbBlockReference
  2
DIMS1
 10
0.0
 20
0.0
  0
INSERT
  5
6E
100
AcDbEntity
  8
DD0
100
AcDbBlockReference
  2
DIMS2
 10
0.0
 20
0.0
  0
INSERT
  5
7A
100
AcDbEntity
  8
DD0
100
AcDbBlockReference
  2
DIMS3
 10
0.0
 20
0.0
  0
INSERT
  5
87
100
AcDbEntity
  8
DD0
100
AcDbBlockReference
  2
DIMS4
 10
0.0
 20
0.0
  0
INSERT
  5
92
100
AcDbEntity
  8
DD0
100
AcDbBlockReference
  2
DIMS5
 10
0.0
 20
0.0
  0
INSERT
  5
9E
100
AcDbEntity
  8
DD0
100
AcDbBlockReference
  2
DIMS6
 10
0.0
 20
0.0
  0
INSERT
  5
AA
100
AcDbEntity
  8
DD0
100
AcDbBlockReference
  2
DIMS7
 10
0.0
 20
0.0
  0
INSERT
  5
B6
100
AcDbEntity
  8
DD0
100
AcDbBlockReference
  2
DIMS8
 10
0.0
 20
0.0
  0
INSERT
  5
C2
100
AcDbEntity
  8
DD0
100
AcDbBlockReference
  2
DIMS9
 10
0.0
 20
0.0
  0
INSERT
  5
CE
100
AcDbEntity
  8
DD0
100
AcDbBlockReference
  2
DIMS10
 10
0.0
 20
0.0
  0
INSERT
  5
DA
100
AcDbEntity
  8
DD0
100
AcDbBlockReference
  2
DIMS11
 10
0.0
 20
0.0
  0
INSERT
  5
E6
100
AcDbEntity
  8
DD0
100
AcDbBlockReference
  2
DIMS12
 10
0.0
 20
0.0
  0
INSERT
  5
F2
100
AcDbEntity
  8
DD0
100
AcDbBlockReference
  2
DIMS13
 10
0.0
 20
0.0
  0
INSERT
  5
FE
100
AcDbEntity
  8
DD0
100
AcDbBlockReference
  2
DIMS14
 10
0.0
 20
0.0
  0
INSERT
  5
106
100
AcDbEntity
  8
DD0
100
AcDbBlockReference
  2
DIMS15
 10
0.0
 20
0.0
  0
INSERT
  5
112
100
AcDbEntity
  8
DD0
100
AcDbBlockReference
  2
DIMS16
 10
0.0
 20
0.0
  0
INSERT
  5
11E
100
AcDbEntity
  8
DD0
100
AcDbBlockReference
  2
DIMS17
 10
0.0
 20
0.0
  0
CIRCLE
  5
11F
100
AcDbEntity
  8
M0
100
AcDbCircle
 10
164.581458
 20
371.439831
 40
2.75
  0
LINE
  5
120
100
AcDbEntity
  8
M0
100
AcDbLine
 10
164.281458
 20
370.039831
 11
164.281458
 21
370.436191
  0
LINE
  5
121
100
AcDbEntity
  8
M0
100
AcDbLine
 10
164.881458
 20
370.039831
 11
164.881458
 21
370.436191
  0
LINE
  5
122
100
AcDbEntity
  8
M0
100
AcDbLine
 10
164.281458
 20
372.839831
 11
164.281458
 21
372.44347
  0
LINE
  5
123
100
AcDbEntity
  8
M0
100
AcDbLine
 10
164.881458
 20
372.839831
 11
164.881458
 21
372.44347
  0
ARC
  5
124
100
AcDbEntity
  8
M0
100
AcDbCircle
 10
163.556458
 20
370.414831
 40
0.725
100
AcDbArc
 50
0.0
 51
90.0
  0
ARC
  5
125
100
AcDbEntity
  8
M0
100
AcDbCircle
 10
163.556458
 20
372.464831
 40
0.725
100
AcDbArc
 50
-90.0
 51
0.0
  0
ARC
  5
126
100
AcDbEntity
  8
M0
100
AcDbCircle
 10
165.606458
 20
372.464831
 40
0.725
100
AcDbArc
 50
180.0
 51
270.0
  0
ARC
  5
127
100
AcDbEntity
  8
M0
100
AcDbCircle
 10
165.606458
 20
370.414831
 40
0.725
100
AcDbArc
 50
90.0
 51
180.0
  0
LINE
  5
128
100
AcDbEntity
  8
M0
100
AcDbLine
 10
165.606458
 20
371.139831
 11
166.006458
 21
371.139831
  0
LINE
  5
129
100
AcDbEntity
  8
M0
100
AcDbLine
 10
165.606458
 20
371.739831
 11
166.006458
 21
371.739831
  0
LINE
  5
12A
100
AcDbEntity
  8
M0
100
AcDbLine
 10
164.281458
 20
372.839831
 11
164.881458
 21
372.839831
  0
LINE
  5
12B
100
AcDbEntity
  8
M0
100
AcDbLine
 10
164.281458
 20
370.039831
 11
164.881458
 21
370.039831
  0
LINE
  5
12C
100
AcDbEntity
  8
M0
100
AcDbLine
 10
163.181458
 20
371.739831
 11
163.556458
 21
371.739831
  0
LINE
  5
12D
100
AcDbEntity
  8
M0
100
AcDbLine
 10
163.181458
 20
371.739831
 11
163.181458
 21
371.139831
  0
LINE
  5
12E
100
AcDbEntity
  8
M0
100
AcDbLine
 10
163.181458
 20
371.139831
 11
163.556458
 21
371.139831
  0
LINE
  5
12F
100
AcDbEntity
  8
M0
100
AcDbLine
 10
166.006458
 20
371.739831
 11
166.006458
 21
371.139831
  0
LINE
  5
130
100
AcDbEntity
  8
M0
  6
DASHDOT
100
AcDbLine
 10
78.781461
 20
451.939832
 11
78.781461
 21
363.43983
  0
LINE
  5
131
100
AcDbEntity
  8
M0
  6
DASHDOT
100
AcDbLine
 10
32.881464
 20
403.939831
 11
115.181458
 21
403.939831
  0
ARC
  5
132
100
AcDbEntity
  8
M0
100
AcDbCircle
 10
86.431461
 20
439.289831
 40
0.5
100
AcDbArc
 50
268.473851
 51
270.0
  0
ARC
  5
133
100
AcDbEntity
  8
M0
100
AcDbCircle
 10
51.781461
 20
433.939831
 40
2.25
100
AcDbArc
 50
0.0
 51
180.0
  0
ARC
  5
134
100
AcDbEntity
  8
M0
100
AcDbCircle
 10
51.781461
 20
431.939831
 40
2.25
100
AcDbArc
 50
180.0
 51
360.0
  0
ARC
  5
135
100
AcDbEntity
  8
M0
100
AcDbCircle
 10
52.381461
 20
373.439831
 40
5.0
100
AcDbArc
 50
180.0
 51
270.0
  0
ARC
  5
136
100
AcDbEntity
  8
M0
100
AcDbCircle
 10
52.381461
 20
434.439831
 40
5.0
100
AcDbArc
 50
90.0
 51
180.0
  0
LINE
  5
137
100
AcDbEntity
  8
M0
100
AcDbLine
 10
87.681461
 20
391.739831
 11
69.881462
 21
391.739831
  0
LINE
  5
138
100
AcDbEntity
  8
M0
100
AcDbLine
 10
69.381462
 20
392.239831
 11
69.381462
 21
415.639831
  0
LINE
  5
139
100
AcDbEntity
  8
M0
100
AcDbLine
 10
98.481461
 20
421.339831
 11
59.081461
 21
421.339831
  0
LINE
  5
13A
100
AcDbEntity
  8
M0
100
AcDbLine
 10
100.281462
 20
406.439831
 11
98.481461
 21
406.439831
  0
LINE
  5
13B
100
AcDbEntity
  8
M0
100
AcDbLine
 10
73.481463
 20
416.13983
 11
69.881462
 21
416.13983
  0
ARC
  5
13C
100
AcDbEntity
  8
M0
100
AcDbCircle
 10
56.581461
 20
371.939831
 40
0.5
100
AcDbArc
 50
180.0
 51
270.0
  0
ARC
  5
13D
100
AcDbEntity
  8
M0
100
AcDbCircle
 10
100.981461
 20
372.939831
 40
0.5
100
AcDbArc
 50
0.0
 51
90.0
  0
ARC
  5
13E
100
AcDbEntity
  8
M0
100
AcDbCircle
 10
57.581461
 20
372.939831
 40
0.5
100
AcDbArc
 50
0.0
 51
90.0
  0
ARC
  5
13F
100
AcDbEntity
  8
M0
100
AcDbCircle
 10
56.581461
 20
372.939831
 40
0.5
100
AcDbArc
 50
90.0
 51
180.0
  0
CIRCLE
  5
140
100
AcDbEntity
  8
M0
100
AcDbCircle
 10
51.281461
 20
373.939831
 40
2.25
  0
CIRCLE
  5
141
100
AcDbEntity
  8
M0
100
AcDbCircle
 10
106.281461
 20
433.939831
 40
2.25
  0
ARC
  5
142
100
AcDbEntity
  8
M0
100
AcDbCircle
 10
100.981461
 20
371.939831
 40
0.5
100
AcDbArc
 50
270.0
 51
360.0
  0
ARC
  5
143
100
AcDbEntity
  8
M0
100
AcDbCircle
 10
99.981461
 20
372.939831
 40
0.5
100
AcDbArc
 50
90.0
 51
180.0
  0
ARC
  5
144
100
AcDbEntity
  8
M0
100
AcDbCircle
 10
98.781461
 20
438.439831
 40
1.0
100
AcDbArc
 50
90.0
 51
98.626927
  0
ARC
  5
145
100
AcDbEntity
  8
M0
100
AcDbCircle
 10
105.781461
 20
373.939831
 40
2.25
100
AcDbArc
 50
180.0
 51
360.0
  0
ARC
  5
146
100
AcDbEntity
  8
M0
100
AcDbCircle
 10
58.781461
 20
438.439831
 40
1.0
100
AcDbArc
 50
81.373073
 51
90.0
  0
ARC
  5
147
100
AcDbEntity
  8
M0
100
AcDbCircle
 10
105.181461
 20
434.439831
 40
5.0
100
AcDbArc
 50
0.0
 51
90.0
  0
ARC
  5
148
100
AcDbEntity
  8
M0
100
AcDbCircle
 10
57.581461
 20
371.939831
 40
0.5
100
AcDbArc
 50
270.0
 51
360.0
  0
ARC
  5
149
100
AcDbEntity
  8
M0
100
AcDbCircle
 10
105.781461
 20
375.939831
 40
2.25
100
AcDbArc
 50
0.0
 51
180.0
  0
ARC
  5
14A
100
AcDbEntity
  8
M0
100
AcDbCircle
 10
105.181461
 20
373.439831
 40
5.0
100
AcDbArc
 50
270.0
 51
360.0
  0
LINE
  5
14B
100
AcDbEntity
  8
M0
100
AcDbLine
 10
58.350692
 20
407.439831
 11
58.350692
 21
406.439831
  0
LINE
  5
14C
100
AcDbEntity
  8
M0
100
AcDbLine
 10
58.081461
 20
407.439831
 11
57.481462
 21
407.439831
  0
LINE
  5
14D
100
AcDbEntity
  8
M0
100
AcDbLine
 10
58.350692
 20
400.439831
 11
58.350692
 21
401.439831
  0
LINE
  5
14E
100
AcDbEntity
  8
M0
100
AcDbLine
 10
58.081461
 20
400.439831
 11
57.481462
 21
400.439831
  0
LINE
  5
14F
100
AcDbEntity
  8
M0
100
AcDbLine
 10
99.212229
 20
400.439831
 11
99.212229
 21
401.439831
  0
LINE
  5
150
100
AcDbEntity
  8
M0
100
AcDbLine
 10
99.48146
 20
400.439831
 11
100.081462
 21
400.439831
  0
LINE
  5
151
100
AcDbEntity
  8
M0
100
AcDbLine
 10
99.212229
 20
407.439831
 11
99.212229
 21
406.439831
  0
LINE
  5
152
100
AcDbEntity
  8
M0
100
AcDbLine
 10
99.48146
 20
407.439831
 11
100.081462
 21
407.439831
  0
LINE
  5
153
100
AcDbEntity
  8
M0
100
AcDbLine
 10
93.98146
 20
438.439832
 11
93.98146
 21
447.839833
  0
LINE
  5
154
100
AcDbEntity
  8
M0
100
AcDbLine
 10
95.570922
 20
445.457822
 11
95.78146
 21
438.439832
  0
LINE
  5
155
100
AcDbEntity
  8
M0
100
AcDbLine
 10
94.899192
 20
448.439831
 11
94.581462
 21
448.439831
  0
LINE
  5
156
100
AcDbEntity
  8
M0
100
AcDbLine
 10
83.781462
 20
370.939831
 11
83.781462
 21
371.439832
  0
LINE
  5
157
100
AcDbEntity
  8
M0
100
AcDbLine
 10
83.781462
 20
368.43983
 11
73.78146
 21
368.43983
  0
LINE
  5
158
100
AcDbEntity
  8
M0
100
AcDbLine
 10
73.78146
 20
371.439832
 11
73.78146
 21
370.939831
  0
LINE
  5
159
100
AcDbEntity
  8
M0
100
AcDbLine
 10
57.281461
 20
401.439831
 11
57.281461
 21
406.439831
  0
LINE
  5
15A
100
AcDbEntity
  8
M0
100
AcDbLine
 10
58.081461
 20
400.439831
 11
59.081461
 21
400.439831
  0
LINE
  5
15B
100
AcDbEntity
  8
M0
100
AcDbLine
 10
58.081461
 20
369.439831
 11
58.081461
 21
400.439831
  0
LINE
  5
15C
100
AcDbEntity
  8
M0
100
AcDbLine
 10
58.081461
 20
407.439831
 11
59.081461
 21
407.439831
  0
LINE
  5
15D
100
AcDbEntity
  8
M0
100
AcDbLine
 10
56.781461
 20
405.439831
 11
57.281461
 21
405.439831
  0
LINE
  5
15E
100
AcDbEntity
  8
M0
100
AcDbLine
 10
56.781461
 20
402.439831
 11
56.781461
 21
405.439831
  0
LINE
  5
15F
100
AcDbEntity
  8
M0
100
AcDbLine
 10
74.281461
 20
370.43983
 11
83.281461
 21
370.43983
  0
LINE
  5
160
100
AcDbEntity
  8
M0
100
AcDbLine
 10
57.281461
 20
402.439831
 11
56.781461
 21
402.439831
  0
LINE
  5
161
100
AcDbEntity
  8
M0
100
AcDbLine
 10
100.781463
 20
402.439831
 11
100.781463
 21
405.439831
  0
LINE
  5
162
100
AcDbEntity
  8
M0
100
AcDbLine
 10
58.281461
 20
406.439831
 11
57.281461
 21
406.439831
  0
LINE
  5
163
100
AcDbEntity
  8
M0
100
AcDbLine
 10
100.781463
 20
405.439831
 11
100.281462
 21
405.439831
  0
ARC
  5
164
100
AcDbEntity
  8
M0
100
AcDbCircle
 10
57.281461
 20
400.639831
 40
0.5
100
AcDbArc
 50
293.578178
 51
336.421822
  0
ARC
  5
165
100
AcDbEntity
  8
M0
100
AcDbCircle
 10
100.281461
 20
400.639831
 40
0.5
100
AcDbArc
 50
203.578178
 51
246.421822
  0
LINE
  5
166
100
AcDbEntity
  8
M0
100
AcDbLine
 10
56.581462
 20
371.439832
 11
57.581462
 21
371.439832
  0
LINE
  5
167
100
AcDbEntity
  8
M0
100
AcDbLine
 10
57.581462
 20
373.439832
 11
56.581462
 21
373.439832
  0
LINE
  5
168
100
AcDbEntity
  8
M0
100
AcDbLine
 10
100.981463
 20
373.439832
 11
99.981461
 21
373.439832
  0
LINE
  5
169
100
AcDbEntity
  8
M0
100
AcDbLine
 10
56.081461
 20
372.939831
 11
56.081461
 21
371.939829
  0
ARC
  5
16A
100
AcDbEntity
  8
M0
100
AcDbCircle
 10
72.881461
 20
447.939831
 40
0.5
100
AcDbArc
 50
0.0
 51
90.0
  0
ARC
  5
16B
100
AcDbEntity
  8
M0
100
AcDbCircle
 10
84.681461
 20
447.939831
 40
0.5
100
AcDbArc
 50
90.0
 51
180.0
  0
ARC
  5
16C
100
AcDbEntity
  8
M0
100
AcDbCircle
 10
72.881461
 20
447.439831
 40
1.0
100
AcDbArc
 50
90.0
 51
180.0
  0
LINE
  5
16D
100
AcDbEntity
  8
M0
100
AcDbLine
 10
76.281462
 20
408.417298
 11
76.281462
 21
408.239831
  0
LINE
  5
16E
100
AcDbEntity
  8
M0
100
AcDbLine
 10
81.281461
 20
398.939831
 11
81.281461
 21
399.039831
  0
ARC
  5
16F
100
AcDbEntity
  8
M0
100
AcDbCircle
 10
84.681461
 20
447.439831
 40
1.0
100
AcDbArc
 50
0.0
 51
90.0
  0
LINE
  5
170
100
AcDbEntity
  8
M0
100
AcDbLine
 10
81.281461
 20
408.417298
 11
81.281461
 21
408.239831
  0
ARC
  5
171
100
AcDbEntity
  8
M0
100
AcDbCircle
 10
73.981461
 20
407.739831
 40
0.5
100
AcDbArc
 50
90.0
 51
180.0
  0
ARC
  5
172
100
AcDbEntity
  8
M0
100
AcDbCircle
 10
76.531461
 20
407.739831
 40
0.5
100
AcDbArc
 50
0.0
 51
90.0
  0
LINE
  5
173
100
AcDbEntity
  8
M0
100
AcDbLine
 10
101.48146
 20
371.939829
 11
101.48146
 21
372.939831
  0
ARC
  5
174
100
AcDbEntity
  8
M0
100
AcDbCircle
 10
73.981461
 20
399.539831
 40
0.5
100
AcDbArc
 50
180.0
 51
270.0
  0
ARC
  5
175
100
AcDbEntity
  8
M0
100
AcDbCircle
 10
83.581461
 20
407.739831
 40
0.5
100
AcDbArc
 50
0.0
 51
90.0
  0
ARC
  5
176
100
AcDbEntity
  8
M0
100
AcDbCircle
 10
81.031461
 20
407.739831
 40
0.5
100
AcDbArc
 50
90.0
 51
180.0
  0
ARC
  5
177
100
AcDbEntity
  8
M0
100
AcDbCircle
 10
83.581461
 20
399.539831
 40
0.5
100
AcDbArc
 50
270.0
 51
360.0
  0
LINE
  5
178
100
AcDbEntity
  8
M0
100
AcDbLine
 10
86.481463
 20
438.439832
 11
95.78146
 21
438.439832
  0
LINE
  5
179
100
AcDbEntity
  8
M0
100
AcDbLine
 10
95.78146
 20
436.939831
 11
86.481463
 21
436.939831
  0
LINE
  5
17A
100
AcDbEntity
  8
M0
100
AcDbLine
 10
95.78146
 20
438.439832
 11
95.78146
 21
436.939831
  0
LINE
  5
17B
100
AcDbEntity
  8
M0
100
AcDbLine
 10
71.881462
 20
446.939832
 11
63.581461
 21
446.939832
  0
LINE
  5
17C
100
AcDbEntity
  8
M0
100
AcDbLine
 10
93.98146
 20
446.939832
 11
85.681461
 21
446.939832
  0
LINE
  5
17D
100
AcDbEntity
  8
M0
100
AcDbLine
 10
85.681461
 20
447.439829
 11
85.681461
 21
439.419626
  0
LINE
  5
17E
100
AcDbEntity
  8
M0
100
AcDbLine
 10
100.281462
 20
402.439831
 11
100.781463
 21
402.439831
  0
LINE
  5
17F
100
AcDbEntity
  8
M0
100
AcDbLine
 10
84.181461
 20
438.87572
 11
84.181461
 21
447.439829
  0
LINE
  5
180
100
AcDbEntity
  8
M0
100
AcDbLine
 10
71.081463
 20
436.939831
 11
61.781462
 21
436.939831
  0
LINE
  5
181
100
AcDbEntity
  8
M0
100
AcDbLine
 10
95.78146
 20
436.939831
 11
95.78146
 21
434.93983
  0
LINE
  5
182
100
AcDbEntity
  8
M0
100
AcDbLine
 10
61.781462
 20
438.439832
 11
71.081463
 21
438.439832
  0
LINE
  5
183
100
AcDbEntity
  8
M0
100
AcDbLine
 10
105.181463
 20
368.43983
 11
98.081461
 21
368.43983
  0
LINE
  5
184
100
AcDbEntity
  8
M0
100
AcDbLine
 10
56.081461
 20
374.439831
 11
58.081461
 21
374.439831
  0
LINE
  5
185
100
AcDbEntity
  8
M0
100
AcDbLine
 10
56.081461
 20
378.239832
 11
56.081461
 21
374.439831
  0
LINE
  5
186
100
AcDbEntity
  8
M0
100
AcDbLine
 10
101.48146
 20
374.439831
 11
101.48146
 21
378.239832
  0
LINE
  5
187
100
AcDbEntity
  8
M0
100
AcDbLine
 10
99.48146
 20
374.439831
 11
101.48146
 21
374.439831
  0
LINE
  5
188
100
AcDbEntity
  8
M0
100
AcDbLine
 10
103.531465
 20
375.93983
 11
103.531465
 21
373.93983
  0
LINE
  5
189
100
AcDbEntity
  8
M0
100
AcDbLine
 10
108.031459
 20
373.93983
 11
108.031459
 21
375.93983
  0
LINE
  5
18A
100
AcDbEntity
  8
M0
100
AcDbLine
 10
47.381462
 20
373.439832
 11
47.381462
 21
434.439831
  0
LINE
  5
18B
100
AcDbEntity
  8
M0
100
AcDbLine
 10
61.781462
 20
438.439832
 11
61.781462
 21
434.93983
  0
LINE
  5
18C
100
AcDbEntity
  8
M0
100
AcDbLine
 10
54.031461
 20
433.93983
 11
54.031461
 21
431.939832
  0
LINE
  5
18D
100
AcDbEntity
  8
M0
100
AcDbLine
 10
49.531462
 20
431.939832
 11
49.531462
 21
433.93983
  0
ARC
  5
18E
100
AcDbEntity
  8
M0
100
AcDbCircle
 10
98.481461
 20
420.339831
 40
1.0
100
AcDbArc
 50
0.0
 51
90.0
  0
ARC
  5
18F
100
AcDbEntity
  8
M0
100
AcDbCircle
 10
98.481461
 20
387.539831
 40
1.0
100
AcDbArc
 50
270.0
 51
360.0
  0
LINE
  5
190
100
AcDbEntity
  8
M0
100
AcDbLine
 10
98.481461
 20
400.439831
 11
98.481461
 21
401.439831
  0
LINE
  5
191
100
AcDbEntity
  8
M0
100
AcDbLine
 10
100.281462
 20
401.439831
 11
98.481461
 21
401.439831
  0
LINE
  5
192
100
AcDbEntity
  8
M0
100
AcDbLine
 10
79.981461
 20
416.13983
 11
77.581461
 21
416.13983
  0
LINE
  5
193
100
AcDbEntity
  8
M0
100
AcDbLine
 10
77.581461
 20
417.739831
 11
77.581461
 21
416.13983
  0
LINE
  5
194
100
AcDbEntity
  8
M0
100
AcDbLine
 10
58.281461
 20
406.439831
 11
59.081461
 21
406.439831
  0
LINE
  5
195
100
AcDbEntity
  8
M0
100
AcDbLine
 10
57.281461
 20
401.439831
 11
59.081461
 21
401.439831
  0
LINE
  5
196
100
AcDbEntity
  8
M0
100
AcDbLine
 10
98.481461
 20
407.439831
 11
98.481461
 21
406.439831
  0
LINE
  5
197
100
AcDbEntity
  8
M0
100
AcDbLine
 10
59.081461
 20
407.439831
 11
59.081461
 21
406.439831
  0
LINE
  5
198
100
AcDbEntity
  8
M0
100
AcDbLine
 10
83.081461
 20
415.139831
 11
74.481461
 21
415.139831
  0
LINE
  5
199
100
AcDbEntity
  8
M0
100
AcDbLine
 10
79.981461
 20
417.739831
 11
77.581461
 21
417.739831
  0
LINE
  5
19A
100
AcDbEntity
  8
M0
100
AcDbLine
 10
79.981461
 20
417.739831
 11
79.981461
 21
416.13983
  0
LINE
  5
19B
100
AcDbEntity
  8
M0
100
AcDbLine
 10
84.08146
 20
416.13983
 11
87.681461
 21
416.13983
  0
LINE
  5
19C
100
AcDbEntity
  8
M0
100
AcDbLine
 10
88.181462
 20
392.239831
 11
88.181462
 21
415.639831
  0
LINE
  5
19D
100
AcDbEntity
  8
M0
100
AcDbLine
 10
100.081462
 20
379.239832
 11
100.981463
 21
379.239832
  0
LINE
  5
19E
100
AcDbEntity
  8
M0
100
AcDbLine
 10
106.981464
 20
379.239832
 11
107.881464
 21
379.239832
  0
LINE
  5
19F
100
AcDbEntity
  8
M0
100
AcDbLine
 10
56.581462
 20
428.639832
 11
57.481462
 21
428.639832
  0
LINE
  5
1A0
100
AcDbEntity
  8
M0
100
AcDbLine
 10
100.981463
 20
428.639832
 11
100.081462
 21
428.639832
  0
LINE
  5
1A1
100
AcDbEntity
  8
M0
100
AcDbLine
 10
108.98146
 20
376.239831
 11
108.881459
 21
376.239831
  0
LINE
  5
1A2
100
AcDbEntity
  8
M0
100
AcDbLine
 10
107.881464
 20
428.639832
 11
106.981464
 21
428.639832
  0
LINE
  5
1A3
100
AcDbEntity
  8
M0
100
AcDbLine
 10
108.98146
 20
431.63983
 11
108.881459
 21
431.63983
  0
LINE
  5
1A4
100
AcDbEntity
  8
M0
100
AcDbLine
 10
49.681461
 20
428.639832
 11
50.581462
 21
428.639832
  0
ARC
  5
1A5
100
AcDbEntity
  8
M0
100
AcDbCircle
 10
61.781461
 20
369.439831
 40
1.0
100
AcDbArc
 50
180.0
 51
270.0
  0
LINE
  5
1A6
100
AcDbEntity
  8
M0
100
AcDbLine
 10
61.781461
 20
368.43983
 11
69.781461
 21
368.43983
  0
LINE
  5
1A7
100
AcDbEntity
  8
M0
100
AcDbLine
 10
48.581461
 20
376.239831
 11
48.681461
 21
376.239831
  0
LINE
  5
1A8
100
AcDbEntity
  8
M0
100
AcDbLine
 10
57.481462
 20
379.239832
 11
56.581462
 21
379.239832
  0
LINE
  5
1A9
100
AcDbEntity
  8
M0
100
AcDbLine
 10
50.581462
 20
379.239832
 11
49.681461
 21
379.239832
  0
ARC
  5
1AA
100
AcDbEntity
  8
M0
100
AcDbCircle
 10
84.081461
 20
415.639831
 40
0.5
100
AcDbArc
 50
90.0
 51
180.0
  0
ARC
  5
1AB
100
AcDbEntity
  8
M0
100
AcDbCircle
 10
87.681461
 20
415.639831
 40
0.5
100
AcDbArc
 50
0.0
 51
90.0
  0
ARC
  5
1AC
100
AcDbEntity
  8
M0
100
AcDbCircle
 10
74.481461
 20
415.639831
 40
0.5
100
AcDbArc
 50
180.0
 51
270.0
  0
ARC
  5
1AD
100
AcDbEntity
  8
M0
100
AcDbCircle
 10
83.081461
 20
415.639831
 40
0.5
100
AcDbArc
 50
270.0
 51
360.0
  0
LINE
  5
1AE
100
AcDbEntity
  8
M0
100
AcDbLine
 10
48.581461
 20
431.63983
 11
48.681461
 21
431.63983
  0
ARC
  5
1AF
100
AcDbEntity
  8
M0
100
AcDbCircle
 10
59.081461
 20
420.339831
 40
1.0
100
AcDbArc
 50
90.0
 51
180.0
  0
ARC
  5
1B0
100
AcDbEntity
  8
M0
100
AcDbCircle
 10
59.081461
 20
387.539831
 40
1.0
100
AcDbArc
 50
180.0
 51
270.0
  0
ARC
  5
1B1
100
AcDbEntity
  8
M0
100
AcDbCircle
 10
83.281461
 20
370.939831
 40
0.5
100
AcDbArc
 50
270.0
 51
360.0
  0
ARC
  5
1B2
100
AcDbEntity
  8
M0
100
AcDbCircle
 10
83.781461
 20
370.439831
 40
2.0
100
AcDbArc
 50
270.0
 51
292.57935
  0
ARC
  5
1B3
100
AcDbEntity
  8
M0
100
AcDbCircle
 10
69.881461
 20
415.639831
 40
0.5
100
AcDbArc
 50
90.0
 51
180.0
  0
ARC
  5
1B4
100
AcDbEntity
  8
M0
100
AcDbCircle
 10
73.481461
 20
415.639831
 40
0.5
100
AcDbArc
 50
0.0
 51
90.0
  0
ARC
  5
1B5
100
AcDbEntity
  8
M0
100
AcDbCircle
 10
87.681461
 20
392.239831
 40
0.5
100
AcDbArc
 50
270.0
 51
360.0
  0
ARC
  5
1B6
100
AcDbEntity
  8
M0
100
AcDbCircle
 10
69.881461
 20
392.239831
 40
0.5
100
AcDbArc
 50
180.0
 51
270.0
  0
ARC
  5
1B7
100
AcDbEntity
  8
M0
100
AcDbCircle
 10
62.663731
 20
447.839831
 40
0.6
100
AcDbArc
 50
90.0
 51
178.281642
  0
ARC
  5
1B8
100
AcDbEntity
  8
M0
100
AcDbCircle
 10
62.981461
 20
447.839831
 40
0.6
100
AcDbArc
 50
0.0
 51
90.0
  0
ARC
  5
1B9
100
AcDbEntity
  8
M0
100
AcDbCircle
 10
99.981461
 20
371.939831
 40
0.5
100
AcDbArc
 50
180.0
 51
270.0
  0
ARC
  5
1BA
100
AcDbEntity
  8
M0
100
AcDbCircle
 10
73.781461
 20
370.439831
 40
2.0
100
AcDbArc
 50
247.42065
 51
270.0
  0
ARC
  5
1BB
100
AcDbEntity
  8
M0
100
AcDbCircle
 10
74.281461
 20
370.939831
 40
0.5
100
AcDbArc
 50
180.0
 51
270.0
  0
ARC
  5
1BC
100
AcDbEntity
  8
M0
100
AcDbCircle
 10
94.581461
 20
447.839831
 40
0.6
100
AcDbArc
 50
90.0
 51
180.0
  0
LINE
  5
1BD
100
AcDbEntity
  8
M0
100
AcDbLine
 10
63.581461
 20
447.839833
 11
63.581461
 21
438.439832
  0
LINE
  5
1BE
100
AcDbEntity
  8
M0
100
AcDbLine
 10
61.781462
 20
438.439832
 11
61.992001
 21
445.457822
  0
LINE
  5
1BF
100
AcDbEntity
  8
M0
100
AcDbLine
 10
62.663732
 20
448.439831
 11
62.981462
 21
448.439831
  0
ARC
  5
1C0
100
AcDbEntity
  8
M0
100
AcDbCircle
 10
94.899192
 20
447.839831
 40
0.6
100
AcDbArc
 50
1.718358
 51
90.0
  0
LINE
  5
1C1
100
AcDbEntity
  8
M0
100
AcDbLine
 10
99.981461
 20
371.439832
 11
100.981463
 21
371.439832
  0
LINE
  5
1C2
100
AcDbEntity
  8
M0
100
AcDbLine
 10
99.48146
 20
407.439831
 11
98.481461
 21
407.439831
  0
LINE
  5
1C3
100
AcDbEntity
  8
M0
100
AcDbLine
 10
100.281462
 20
401.439831
 11
100.281462
 21
406.439831
  0
LINE
  5
1C4
100
AcDbEntity
  8
M0
100
AcDbLine
 10
98.481461
 20
386.53983
 11
59.081461
 21
386.53983
  0
LINE
  5
1C5
100
AcDbEntity
  8
M0
100
AcDbLine
 10
99.48146
 20
400.439831
 11
98.481461
 21
400.439831
  0
LINE
  5
1C6
100
AcDbEntity
  8
M0
100
AcDbLine
 10
99.48146
 20
369.439831
 11
99.48146
 21
400.439831
  0
LINE
  5
1C7
100
AcDbEntity
  8
M0
100
AcDbLine
 10
59.081461
 20
400.439831
 11
59.081461
 21
401.439831
  0
LINE
  5
1C8
100
AcDbEntity
  8
M0
100
AcDbLine
 10
84.181461
 20
447.439829
 11
84.181461
 21
447.93983
  0
LINE
  5
1C9
100
AcDbEntity
  8
M0
100
AcDbLine
 10
73.381461
 20
446.939832
 11
74.481461
 21
446.939832
  0
LINE
  5
1CA
100
AcDbEntity
  8
M0
100
AcDbLine
 10
84.08146
 20
399.539831
 11
84.08146
 21
407.739831
  0
LINE
  5
1CB
100
AcDbEntity
  8
M0
100
AcDbLine
 10
83.081461
 20
446.939832
 11
84.181461
 21
446.939832
  0
LINE
  5
1CC
100
AcDbEntity
  8
M0
100
AcDbLine
 10
73.381461
 20
447.439829
 11
73.381461
 21
438.87572
  0
LINE
  5
1CD
100
AcDbEntity
  8
M0
100
AcDbLine
 10
71.881462
 20
439.419626
 11
71.881462
 21
447.439829
  0
LINE
  5
1CE
100
AcDbEntity
  8
M0
100
AcDbLine
 10
73.381461
 20
447.93983
 11
73.381461
 21
447.439829
  0
LINE
  5
1CF
100
AcDbEntity
  8
M0
100
AcDbLine
 10
82.58146
 20
408.539831
 11
82.58146
 21
408.239831
  0
LINE
  5
1D0
100
AcDbEntity
  8
M0
100
AcDbLine
 10
84.08146
 20
407.739831
 11
84.08146
 21
408.539831
  0
LINE
  5
1D1
100
AcDbEntity
  8
M0
100
AcDbLine
 10
74.981462
 20
408.539831
 11
74.981462
 21
408.239831
  0
LINE
  5
1D2
100
AcDbEntity
  8
M0
100
AcDbLine
 10
82.58146
 20
399.039831
 11
82.58146
 21
398.939831
  0
LINE
  5
1D3
100
AcDbEntity
  8
M0
100
AcDbLine
 10
73.481463
 20
402.139831
 11
72.981462
 21
402.139831
  0
LINE
  5
1D4
100
AcDbEntity
  8
M0
100
AcDbLine
 10
84.08146
 20
402.139831
 11
84.581461
 21
402.139831
  0
LINE
  5
1D5
100
AcDbEntity
  8
M0
100
AcDbLine
 10
84.08146
 20
398.939831
 11
84.08146
 21
399.539831
  0
LINE
  5
1D6
100
AcDbEntity
  8
M0
100
AcDbLine
 10
72.981462
 20
405.139831
 11
73.481463
 21
405.139831
  0
LINE
  5
1D7
100
AcDbEntity
  8
M0
100
AcDbLine
 10
76.281462
 20
408.417298
 11
76.281462
 21
408.539831
  0
LINE
  5
1D8
100
AcDbEntity
  8
M0
100
AcDbLine
 10
57.481462
 20
400.139831
 11
58.081461
 21
400.139831
  0
LINE
  5
1D9
100
AcDbEntity
  8
M0
100
AcDbLine
 10
76.281462
 20
398.939831
 11
76.281462
 21
399.039831
  0
LINE
  5
1DA
100
AcDbEntity
  8
M0
100
AcDbLine
 10
81.281461
 20
408.417298
 11
81.281461
 21
408.539831
  0
LINE
  5
1DB
100
AcDbEntity
  8
M0
100
AcDbLine
 10
73.481463
 20
398.939831
 11
73.481463
 21
399.539831
  0
LINE
  5
1DC
100
AcDbEntity
  8
M0
100
AcDbLine
 10
74.981462
 20
399.039831
 11
74.981462
 21
398.939831
  0
LINE
  5
1DD
100
AcDbEntity
  8
M0
100
AcDbLine
 10
100.081462
 20
400.139831
 11
99.48146
 21
400.139831
  0
LINE
  5
1DE
100
AcDbEntity
  8
M0
100
AcDbLine
 10
80.531463
 20
407.739831
 11
80.531463
 21
400.539831
  0
LINE
  5
1DF
100
AcDbEntity
  8
M0
100
AcDbLine
 10
77.03146
 20
407.739831
 11
77.03146
 21
400.539831
  0
LINE
  5
1E0
100
AcDbEntity
  8
M0
100
AcDbLine
 10
73.98146
 20
408.239831
 11
76.531462
 21
408.239831
  0
LINE
  5
1E1
100
AcDbEntity
  8
M0
100
AcDbLine
 10
83.581462
 20
399.039831
 11
73.98146
 21
399.039831
  0
LINE
  5
1E2
100
AcDbEntity
  8
M0
100
AcDbLine
 10
83.581462
 20
408.239831
 11
81.03146
 21
408.239831
  0
LINE
  5
1E3
100
AcDbEntity
  8
M0
100
AcDbLine
 10
77.03146
 20
400.539831
 11
80.531463
 21
400.539831
  0
LINE
  5
1E4
100
AcDbEntity
  8
M0
100
AcDbLine
 10
69.381462
 20
408.239831
 11
69.581462
 21
408.239831
  0
LINE
  5
1E5
100
AcDbEntity
  8
M0
100
AcDbLine
 10
69.581462
 20
399.039831
 11
69.381462
 21
399.039831
  0
LINE
  5
1E6
100
AcDbEntity
  8
M0
100
AcDbLine
 10
73.481463
 20
407.739831
 11
73.481463
 21
408.539831
  0
LINE
  5
1E7
100
AcDbEntity
  8
M0
100
AcDbLine
 10
84.581461
 20
405.139831
 11
84.08146
 21
405.139831
  0
LINE
  5
1E8
100
AcDbEntity
  8
M0
100
AcDbLine
 10
74.781463
 20
408.239831
 11
82.78146
 21
408.239831
  0
LINE
  5
1E9
100
AcDbEntity
  8
M0
100
AcDbLine
 10
73.481463
 20
399.539831
 11
73.481463
 21
407.739831
  0
LINE
  5
1EA
100
AcDbEntity
  8
M0
100
AcDbLine
 10
88.181462
 20
408.239831
 11
87.981462
 21
408.239831
  0
LINE
  5
1EB
100
AcDbEntity
  8
M0
100
AcDbLine
 10
87.981462
 20
399.039831
 11
88.181462
 21
399.039831
  0
LINE
  5
1EC
100
AcDbEntity
  8
M0
100
AcDbLine
 10
109.181464
 20
424.03983
 11
108.881459
 21
424.03983
  0
ARC
  5
1ED
100
AcDbEntity
  8
M0
100
AcDbCircle
 10
72.081461
 20
438.439831
 40
1.0
100
AcDbArc
 50
90.0
 51
180.0
  0
LINE
  5
1EE
100
AcDbEntity
  8
M0
100
AcDbLine
 10
108.881459
 20
400.239831
 11
109.181464
 21
400.239831
  0
LINE
  5
1EF
100
AcDbEntity
  8
M0
100
AcDbLine
 10
109.181464
 20
407.639831
 11
108.881459
 21
407.639831
  0
ARC
  5
1F0
100
AcDbEntity
  8
M0
100
AcDbCircle
 10
85.081461
 20
438.439831
 40
1.0
100
AcDbArc
 50
90.0
 51
180.0
  0
ARC
  5
1F1
100
AcDbEntity
  8
M0
100
AcDbCircle
 10
85.081461
 20
369.439831
 40
1.0
100
AcDbArc
 50
180.0
 51
270.0
  0
ARC
  5
1F2
100
AcDbEntity
  8
M0
100
AcDbCircle
 10
72.481461
 20
438.439831
 40
1.0
100
AcDbArc
 50
0.0
 51
90.0
  0
ARC
  5
1F3
100
AcDbEntity
  8
M0
100
AcDbCircle
 10
72.481461
 20
369.439831
 40
1.0
100
AcDbArc
 50
270.0
 51
360.0
  0
LINE
  5
1F4
100
AcDbEntity
  8
M0
100
AcDbLine
 10
87.981462
 20
396.43983
 11
87.981462
 21
410.039831
  0
LINE
  5
1F5
100
AcDbEntity
  8
M0
100
AcDbLine
 10
86.98146
 20
415.939831
 11
85.481461
 21
415.939831
  0
LINE
  5
1F6
100
AcDbEntity
  8
M0
100
AcDbLine
 10
86.98146
 20
391.939831
 11
86.481463
 21
391.939831
  0
LINE
  5
1F7
100
AcDbEntity
  8
M0
100
AcDbLine
 10
108.881459
 20
383.839831
 11
109.181464
 21
383.839831
  0
LINE
  5
1F8
100
AcDbEntity
  8
M0
100
AcDbLine
 10
107.881464
 20
430.639831
 11
107.881464
 21
408.639831
  0
LINE
  5
1F9
100
AcDbEntity
  8
M0
100
AcDbLine
 10
72.481461
 20
368.43983
 11
72.081462
 21
368.43983
  0
LINE
  5
1FA
100
AcDbEntity
  8
M0
100
AcDbLine
 10
72.081462
 20
385.039831
 11
72.481461
 21
385.039831
  0
LINE
  5
1FB
100
AcDbEntity
  8
M0
100
AcDbLine
 10
72.481461
 20
385.039831
 11
73.481463
 21
385.039831
  0
ARC
  5
1FC
100
AcDbEntity
  8
M0
100
AcDbCircle
 10
85.481461
 20
438.439831
 40
1.0
100
AcDbArc
 50
0.0
 51
90.0
  0
ARC
  5
1FD
100
AcDbEntity
  8
M0
100
AcDbCircle
 10
98.081461
 20
438.439831
 40
1.0
100
AcDbArc
 50
90.0
 51
180.0
  0
LINE
  5
1FE
100
AcDbEntity
  8
M0
100
AcDbLine
 10
107.881464
 20
399.239831
 11
107.881464
 21
377.239831
  0
ARC
  5
1FF
100
AcDbEntity
  8
M0
100
AcDbCircle
 10
85.481461
 20
369.439831
 40
1.0
100
AcDbArc
 50
270.0
 51
360.0
  0
ARC
  5
200
100
AcDbEntity
  8
M0
100
AcDbCircle
 10
98.481461
 20
369.439831
 40
1.0
100
AcDbArc
 50
270.0
 51
360.0
  0
LINE
  5
201
100
AcDbEntity
  8
M0
100
AcDbLine
 10
72.081462
 20
439.439832
 11
72.481461
 21
439.439832
  0
ARC
  5
202
100
AcDbEntity
  8
M0
100
AcDbCircle
 10
98.081461
 20
369.439831
 40
1.0
100
AcDbArc
 50
180.0
 51
270.0
  0
ARC
  5
203
100
AcDbEntity
  8
M0
100
AcDbCircle
 10
98.481461
 20
438.439831
 40
1.0
100
AcDbArc
 50
0.0
 51
90.0
  0
LINE
  5
204
100
AcDbEntity
  8
M0
100
AcDbLine
 10
109.181464
 20
407.639831
 11
109.181464
 21
400.239831
  0
LINE
  5
205
100
AcDbEntity
  8
M0
100
AcDbLine
 10
101.48146
 20
399.939831
 11
101.48146
 21
407.939831
  0
LINE
  5
206
100
AcDbEntity
  8
M0
100
AcDbLine
 10
99.48146
 20
399.939831
 11
101.48146
 21
399.939831
  0
LINE
  5
207
100
AcDbEntity
  8
M0
100
AcDbLine
 10
48.381462
 20
400.239831
 11
48.681461
 21
400.239831
  0
LINE
  5
208
100
AcDbEntity
  8
M0
100
AcDbLine
 10
48.381462
 20
424.03983
 11
48.681461
 21
424.03983
  0
LINE
  5
209
100
AcDbEntity
  8
M0
100
AcDbLine
 10
107.881464
 20
407.639831
 11
107.881464
 21
400.239831
  0
LINE
  5
20A
100
AcDbEntity
  8
M0
100
AcDbLine
 10
107.881464
 20
400.239831
 11
104.881458
 21
400.239831
  0
LINE
  5
20B
100
AcDbEntity
  8
M0
100
AcDbLine
 10
48.381462
 20
407.639831
 11
48.381462
 21
400.239831
  0
LINE
  5
20C
100
AcDbEntity
  8
M0
100
AcDbLine
 10
104.881458
 20
407.639831
 11
107.881464
 21
407.639831
  0
LINE
  5
20D
100
AcDbEntity
  8
M0
100
AcDbLine
 10
98.581463
 20
407.439831
 11
98.581463
 21
406.439831
  0
LINE
  5
20E
100
AcDbEntity
  8
M0
100
AcDbLine
 10
99.48146
 20
407.939831
 11
101.48146
 21
407.939831
  0
LINE
  5
20F
100
AcDbEntity
  8
M0
100
AcDbLine
 10
104.881458
 20
400.239831
 11
104.881458
 21
407.639831
  0
LINE
  5
210
100
AcDbEntity
  8
M0
100
AcDbLine
 10
70.581462
 20
415.939831
 11
72.081462
 21
415.939831
  0
LINE
  5
211
100
AcDbEntity
  8
M0
100
AcDbLine
 10
69.581462
 20
396.43983
 11
69.581462
 21
410.039831
  0
LINE
  5
212
100
AcDbEntity
  8
M0
100
AcDbLine
 10
70.581462
 20
391.939831
 11
71.081463
 21
391.939831
  0
LINE
  5
213
100
AcDbEntity
  8
M0
100
AcDbLine
 10
73.73146
 20
414.939831
 11
83.831463
 21
414.939831
  0
LINE
  5
214
100
AcDbEntity
  8
M0
100
AcDbLine
 10
84.33146
 20
408.539831
 11
73.231462
 21
408.539831
  0
LINE
  5
215
100
AcDbEntity
  8
M0
100
AcDbLine
 10
73.73146
 20
410.039831
 11
83.831463
 21
410.039831
  0
LINE
  5
216
100
AcDbEntity
  8
M0
100
AcDbLine
 10
83.831463
 20
413.439831
 11
73.73146
 21
413.439831
  0
LINE
  5
217
100
AcDbEntity
  8
M0
100
AcDbLine
 10
48.681461
 20
407.639831
 11
48.381462
 21
407.639831
  0
LINE
  5
218
100
AcDbEntity
  8
M0
100
AcDbLine
 10
98.581463
 20
401.439831
 11
98.581463
 21
400.439831
  0
LINE
  5
219
100
AcDbEntity
  8
M0
100
AcDbLine
 10
48.681461
 20
383.839831
 11
48.381462
 21
383.839831
  0
LINE
  5
21A
100
AcDbEntity
  8
M0
100
AcDbLine
 10
49.681461
 20
430.639831
 11
49.681461
 21
408.639831
  0
LINE
  5
21B
100
AcDbEntity
  8
M0
100
AcDbLine
 10
100.081462
 20
400.939831
 11
100.081462
 21
399.939831
  0
LINE
  5
21C
100
AcDbEntity
  8
M0
100
AcDbLine
 10
100.081462
 20
407.939831
 11
100.081462
 21
406.939831
  0
LINE
  5
21D
100
AcDbEntity
  8
M0
100
AcDbLine
 10
49.681461
 20
413.239831
 11
58.081461
 21
413.239831
  0
LINE
  5
21E
100
AcDbEntity
  8
M0
100
AcDbLine
 10
100.081462
 20
400.939831
 11
100.38146
 21
400.939831
  0
LINE
  5
21F
100
AcDbEntity
  8
M0
100
AcDbLine
 10
100.38146
 20
406.939831
 11
100.38146
 21
405.439831
  0
LINE
  5
220
100
AcDbEntity
  8
M0
100
AcDbLine
 10
99.48146
 20
394.639831
 11
107.881464
 21
394.639831
  0
LINE
  5
221
100
AcDbEntity
  8
M0
100
AcDbLine
 10
100.38146
 20
406.939831
 11
100.081462
 21
406.939831
  0
LINE
  5
222
100
AcDbEntity
  8
M0
100
AcDbLine
 10
100.38146
 20
402.439831
 11
100.38146
 21
400.939831
  0
LINE
  5
223
100
AcDbEntity
  8
M0
100
AcDbLine
 10
57.181461
 20
402.439831
 11
57.181461
 21
400.939831
  0
LINE
  5
224
100
AcDbEntity
  8
M0
100
AcDbLine
 10
57.181461
 20
406.939831
 11
57.181461
 21
405.439831
  0
LINE
  5
225
100
AcDbEntity
  8
M0
100
AcDbLine
 10
57.481462
 20
400.939831
 11
57.181461
 21
400.939831
  0
LINE
  5
226
100
AcDbEntity
  8
M0
100
AcDbLine
 10
57.481462
 20
400.939831
 11
57.481462
 21
399.939831
  0
LINE
  5
227
100
AcDbEntity
  8
M0
100
AcDbLine
 10
58.081461
 20
394.639831
 11
49.681461
 21
394.639831
  0
LINE
  5
228
100
AcDbEntity
  8
M0
100
AcDbLine
 10
57.181461
 20
406.939831
 11
57.481462
 21
406.939831
  0
ARC
  5
229
100
AcDbEntity
  8
M0
100
AcDbCircle
 10
59.481461
 20
438.439831
 40
1.0
100
AcDbArc
 50
0.0
 51
90.0
  0
ARC
  5
22A
100
AcDbEntity
  8
M0
100
AcDbCircle
 10
72.081461
 20
369.439831
 40
1.0
100
AcDbArc
 50
180.0
 51
270.0
  0
ARC
  5
22B
100
AcDbEntity
  8
M0
100
AcDbCircle
 10
59.081461
 20
438.439831
 40
1.0
100
AcDbArc
 50
90.0
 51
180.0
  0
ARC
  5
22C
100
AcDbEntity
  8
M0
100
AcDbCircle
 10
59.481461
 20
369.439831
 40
1.0
100
AcDbArc
 50
270.0
 51
360.0
  0
LINE
  5
22D
100
AcDbEntity
  8
M0
100
AcDbLine
 10
59.481461
 20
368.43983
 11
59.281461
 21
368.43983
  0
LINE
  5
22E
100
AcDbEntity
  8
M0
100
AcDbLine
 10
59.281461
 20
439.439832
 11
59.481461
 21
439.439832
  0
LINE
  5
22F
100
AcDbEntity
  8
M0
100
AcDbLine
 10
88.181462
 20
409.239831
 11
87.981462
 21
409.239831
  0
ARC
  5
230
100
AcDbEntity
  8
M0
100
AcDbCircle
 10
58.081461
 20
384.439831
 40
0.6
100
AcDbArc
 50
180.0
 51
270.0
  0
LINE
  5
231
100
AcDbEntity
  8
M0
100
AcDbLine
 10
57.481462
 20
407.939831
 11
57.481462
 21
406.939831
  0
LINE
  5
232
100
AcDbEntity
  8
M0
100
AcDbLine
 10
107.881464
 20
413.239831
 11
99.48146
 21
413.239831
  0
ARC
  5
233
100
AcDbEntity
  8
M0
100
AcDbCircle
 10
99.481461
 20
384.439831
 40
0.6
100
AcDbArc
 50
270.0
 51
360.0
  0
ARC
  5
234
100
AcDbEntity
  8
M0
100
AcDbCircle
 10
59.081461
 20
369.439831
 40
1.0
100
AcDbArc
 50
180.0
 51
270.0
  0
ARC
  5
235
100
AcDbEntity
  8
M0
100
AcDbCircle
 10
58.081461
 20
423.439831
 40
0.6
100
AcDbArc
 50
90.0
 51
180.0
  0
ARC
  5
236
100
AcDbEntity
  8
M0
100
AcDbCircle
 10
99.481461
 20
423.439831
 40
0.6
100
AcDbArc
 50
0.0
 51
90.0
  0
LINE
  5
237
100
AcDbEntity
  8
M0
100
AcDbLine
 10
86.481463
 20
422.839831
 11
84.08146
 21
422.839831
  0
LINE
  5
238
100
AcDbEntity
  8
M0
100
AcDbLine
 10
86.481463
 20
385.039831
 11
85.481461
 21
385.039831
  0
LINE
  5
239
100
AcDbEntity
  8
M0
100
AcDbLine
 10
85.081462
 20
368.43983
 11
85.481461
 21
368.43983
  0
LINE
  5
23A
100
AcDbEntity
  8
M0
100
AcDbLine
 10
85.081462
 20
385.039831
 11
84.08146
 21
385.039831
  0
LINE
  5
23B
100
AcDbEntity
  8
M0
100
AcDbLine
 10
85.481461
 20
385.039831
 11
85.081462
 21
385.039831
  0
LINE
  5
23C
100
AcDbEntity
  8
M0
100
AcDbLine
 10
105.181461
 20
439.439832
 11
98.081462
 21
439.439832
  0
LINE
  5
23D
100
AcDbEntity
  8
M0
100
AcDbLine
 10
99.48146
 20
407.439831
 11
99.48146
 21
438.439832
  0
LINE
  5
23E
100
AcDbEntity
  8
M0
100
AcDbLine
 10
85.481461
 20
439.439832
 11
85.081462
 21
439.439832
  0
LINE
  5
23F
100
AcDbEntity
  8
M0
100
AcDbLine
 10
97.08146
 20
386.53983
 11
97.08146
 21
369.439832
  0
ARC
  5
240
100
AcDbEntity
  8
M0
100
AcDbCircle
 10
72.731461
 20
392.439831
 40
0.5
100
AcDbArc
 50
270.0
 51
360.0
  0
ARC
  5
241
100
AcDbEntity
  8
M0
100
AcDbCircle
 10
84.831461
 20
392.439831
 40
0.5
100
AcDbArc
 50
180.0
 51
270.0
  0
ARC
  5
242
100
AcDbEntity
  8
M0
100
AcDbCircle
 10
72.731461
 20
414.939831
 40
1.0
100
AcDbArc
 50
0.0
 51
90.0
  0
ARC
  5
243
100
AcDbEntity
  8
M0
100
AcDbCircle
 10
73.231461
 20
409.039831
 40
0.5
100
AcDbArc
 50
270.0
 51
360.0
  0
ARC
  5
244
100
AcDbEntity
  8
M0
100
AcDbCircle
 10
86.981461
 20
392.939831
 40
1.0
100
AcDbArc
 50
270.0
 51
360.0
  0
ARC
  5
245
100
AcDbEntity
  8
M0
100
AcDbCircle
 10
86.981461
 20
396.439831
 40
1.0
100
AcDbArc
 50
0.0
 51
90.0
  0
ARC
  5
246
100
AcDbEntity
  8
M0
100
AcDbCircle
 10
84.831461
 20
414.939831
 40
1.0
100
AcDbArc
 50
90.0
 51
180.0
  0
ARC
  5
247
100
AcDbEntity
  8
M0
100
AcDbCircle
 10
84.331461
 20
409.039831
 40
0.5
100
AcDbArc
 50
180.0
 51
270.0
  0
ARC
  5
248
100
AcDbEntity
  8
M0
100
AcDbCircle
 10
109.181461
 20
408.639831
 40
1.0
100
AcDbArc
 50
270.0
 51
360.0
  0
ARC
  5
249
100
AcDbEntity
  8
M0
100
AcDbCircle
 10
109.181461
 20
423.039831
 40
1.0
100
AcDbArc
 50
0.0
 51
90.0
  0
ARC
  5
24A
100
AcDbEntity
  8
M0
100
AcDbCircle
 10
70.581461
 20
414.939831
 40
1.0
100
AcDbArc
 50
90.0
 51
180.0
  0
ARC
  5
24B
100
AcDbEntity
  8
M0
100
AcDbCircle
 10
70.581461
 20
392.939831
 40
1.0
100
AcDbArc
 50
180.0
 51
270.0
  0
ARC
  5
24C
100
AcDbEntity
  8
M0
100
AcDbCircle
 10
109.181461
 20
384.839831
 40
1.0
100
AcDbArc
 50
270.0
 51
360.0
  0
LINE
  5
24D
100
AcDbEntity
  8
M0
100
AcDbLine
 10
84.33146
 20
397.439831
 11
73.231462
 21
397.439831
  0
LINE
  5
24E
100
AcDbEntity
  8
M0
100
AcDbLine
 10
73.231462
 20
393.439831
 11
84.33146
 21
393.439831
  0
LINE
  5
24F
100
AcDbEntity
  8
M0
100
AcDbLine
 10
73.231462
 20
398.939831
 11
84.33146
 21
398.939831
  0
LINE
  5
250
100
AcDbEntity
  8
M0
100
AcDbLine
 10
69.581462
 20
410.039831
 11
69.581462
 21
414.939831
  0
LINE
  5
251
100
AcDbEntity
  8
M0
100
AcDbLine
 10
71.081463
 20
408.539831
 11
69.581462
 21
410.039831
  0
LINE
  5
252
100
AcDbEntity
  8
M0
100
AcDbLine
 10
69.581462
 20
392.939831
 11
69.581462
 21
396.43983
  0
ARC
  5
253
100
AcDbEntity
  8
M0
100
AcDbCircle
 10
61.681461
 20
387.239831
 40
1.0
100
AcDbArc
 50
270.0
 51
315.572996
  0
ARC
  5
254
100
AcDbEntity
  8
M0
100
AcDbCircle
 10
69.881461
 20
387.239831
 40
1.0
100
AcDbArc
 50
224.427004
 51
270.0
  0
ARC
  5
255
100
AcDbEntity
  8
M0
100
AcDbCircle
 10
70.581461
 20
396.439831
 40
1.0
100
AcDbArc
 50
90.0
 51
180.0
  0
ARC
  5
256
100
AcDbEntity
  8
M0
100
AcDbCircle
 10
86.981461
 20
414.939831
 40
1.0
100
AcDbArc
 50
0.0
 51
90.0
  0
LINE
  5
257
100
AcDbEntity
  8
M0
100
AcDbLine
 10
110.181458
 20
434.439831
 11
110.181458
 21
373.439831
  0
ARC
  5
258
100
AcDbEntity
  8
M0
100
AcDbCircle
 10
95.881461
 20
420.639831
 40
1.0
100
AcDbArc
 50
90.0
 51
135.572996
  0
LINE
  5
259
100
AcDbEntity
  8
M0
100
AcDbLine
 10
82.881462
 20
421.63983
 11
84.08146
 21
421.63983
  0
LINE
  5
25A
100
AcDbEntity
  8
M0
100
AcDbLine
 10
95.881462
 20
386.239831
 11
97.08146
 21
386.239831
  0
LINE
  5
25B
100
AcDbEntity
  8
M0
100
AcDbLine
 10
87.681461
 20
386.239831
 11
86.481463
 21
386.239831
  0
LINE
  5
25C
100
AcDbEntity
  8
M0
100
AcDbLine
 10
107.881464
 20
421.039831
 11
100.081462
 21
421.039831
  0
LINE
  5
25D
100
AcDbEntity
  8
M0
100
AcDbLine
 10
74.681461
 20
421.63983
 11
73.481463
 21
421.63983
  0
LINE
  5
25E
100
AcDbEntity
  8
M0
100
AcDbLine
 10
86.481463
 20
374.939832
 11
97.08146
 21
374.939832
  0
LINE
  5
25F
100
AcDbEntity
  8
M0
100
AcDbLine
 10
84.08146
 20
432.939832
 11
73.481463
 21
432.939832
  0
ARC
  5
260
100
AcDbEntity
  8
M0
100
AcDbCircle
 10
48.681461
 20
423.039831
 40
1.0
100
AcDbArc
 50
0.0
 51
90.0
  0
ARC
  5
261
100
AcDbEntity
  8
M0
100
AcDbCircle
 10
48.681461
 20
399.239831
 40
1.0
100
AcDbArc
 50
0.0
 51
90.0
  0
ARC
  5
262
100
AcDbEntity
  8
M0
100
AcDbCircle
 10
48.381461
 20
408.639831
 40
1.0
100
AcDbArc
 50
180.0
 51
270.0
  0
ARC
  5
263
100
AcDbEntity
  8
M0
100
AcDbCircle
 10
48.381461
 20
423.039831
 40
1.0
100
AcDbArc
 50
90.0
 51
180.0
  0
ARC
  5
264
100
AcDbEntity
  8
M0
100
AcDbCircle
 10
108.881461
 20
384.839831
 40
1.0
100
AcDbArc
 50
180.0
 51
270.0
  0
ARC
  5
265
100
AcDbEntity
  8
M0
100
AcDbCircle
 10
108.881461
 20
408.639831
 40
1.0
100
AcDbArc
 50
180.0
 51
270.0
  0
ARC
  5
266
100
AcDbEntity
  8
M0
100
AcDbCircle
 10
48.681461
 20
384.839831
 40
1.0
100
AcDbArc
 50
270.0
 51
360.0
  0
ARC
  5
267
100
AcDbEntity
  8
M0
100
AcDbCircle
 10
48.681461
 20
408.639831
 40
1.0
100
AcDbArc
 50
270.0
 51
360.0
  0
ARC
  5
268
100
AcDbEntity
  8
M0
100
AcDbCircle
 10
48.381461
 20
399.239831
 40
1.0
100
AcDbArc
 50
90.0
 51
180.0
  0
ARC
  5
269
100
AcDbEntity
  8
M0
100
AcDbCircle
 10
48.381461
 20
384.839831
 40
1.0
100
AcDbArc
 50
180.0
 51
270.0
  0
LINE
  5
26A
100
AcDbEntity
  8
M0
100
AcDbLine
 10
95.881462
 20
421.63983
 11
97.08146
 21
421.63983
  0
LINE
  5
26B
100
AcDbEntity
  8
M0
100
AcDbLine
 10
49.681461
 20
407.639831
 11
49.681461
 21
400.239831
  0
LINE
  5
26C
100
AcDbEntity
  8
M0
100
AcDbLine
 10
58.981461
 20
401.439831
 11
58.981461
 21
400.439831
  0
LINE
  5
26D
100
AcDbEntity
  8
M0
100
AcDbLine
 10
52.681462
 20
400.239831
 11
52.681462
 21
407.639831
  0
LINE
  5
26E
100
AcDbEntity
  8
M0
100
AcDbLine
 10
49.681461
 20
400.239831
 11
52.681462
 21
400.239831
  0
LINE
  5
26F
100
AcDbEntity
  8
M0
100
AcDbLine
 10
56.081461
 20
399.939831
 11
56.081461
 21
407.939831
  0
LINE
  5
270
100
AcDbEntity
  8
M0
100
AcDbLine
 10
58.081461
 20
407.939831
 11
56.081461
 21
407.939831
  0
LINE
  5
271
100
AcDbEntity
  8
M0
100
AcDbLine
 10
58.981461
 20
407.439831
 11
58.981461
 21
406.439831
  0
LINE
  5
272
100
AcDbEntity
  8
M0
100
AcDbLine
 10
58.081461
 20
399.939831
 11
56.081461
 21
399.939831
  0
ARC
  5
273
100
AcDbEntity
  8
M0
100
AcDbCircle
 10
108.881461
 20
423.039831
 40
1.0
100
AcDbArc
 50
90.0
 51
180.0
  0
ARC
  5
274
100
AcDbEntity
  8
M0
100
AcDbCircle
 10
109.181461
 20
399.239831
 40
1.0
100
AcDbArc
 50
0.0
 51
90.0
  0
LINE
  5
275
100
AcDbEntity
  8
M0
100
AcDbLine
 10
97.08146
 20
432.939832
 11
86.481463
 21
432.939832
  0
ARC
  5
276
100
AcDbEntity
  8
M0
100
AcDbCircle
 10
108.881461
 20
399.239831
 40
1.0
100
AcDbArc
 50
90.0
 51
180.0
  0
LINE
  5
277
100
AcDbEntity
  8
M0
100
AcDbLine
 10
69.381462
 20
409.239831
 11
69.581462
 21
409.239831
  0
LINE
  5
278
100
AcDbEntity
  8
M0
100
AcDbLine
 10
52.681462
 20
407.639831
 11
49.681461
 21
407.639831
  0
LINE
  5
279
100
AcDbEntity
  8
M0
100
AcDbLine
 10
88.181462
 20
398.63983
 11
87.981462
 21
398.63983
  0
LINE
  5
27A
100
AcDbEntity
  8
M0
100
AcDbLine
 10
69.381462
 20
398.63983
 11
69.581462
 21
398.63983
  0
LINE
  5
27B
100
AcDbEntity
  8
M0
100
AcDbLine
 10
73.73146
 20
414.939831
 11
73.73146
 21
409.039831
  0
LINE
  5
27C
100
AcDbEntity
  8
M0
100
AcDbLine
 10
83.831463
 20
414.939831
 11
83.831463
 21
409.039831
  0
LINE
  5
27D
100
AcDbEntity
  8
M0
100
AcDbLine
 10
73.231462
 20
400.689831
 11
73.231462
 21
392.439831
  0
LINE
  5
27E
100
AcDbEntity
  8
M0
100
AcDbLine
 10
72.981462
 20
401.189831
 11
73.231462
 21
400.689831
  0
LINE
  5
27F
100
AcDbEntity
  8
M0
100
AcDbLine
 10
84.581461
 20
401.189831
 11
84.33146
 21
400.689831
  0
LINE
  5
280
100
AcDbEntity
  8
M0
100
AcDbLine
 10
84.581461
 20
406.689831
 11
84.581461
 21
401.189831
  0
LINE
  5
281
100
AcDbEntity
  8
M0
100
AcDbLine
 10
84.33146
 20
408.539831
 11
84.33146
 21
407.189831
  0
LINE
  5
282
100
AcDbEntity
  8
M0
100
AcDbLine
 10
84.33146
 20
400.689831
 11
84.33146
 21
392.439831
  0
LINE
  5
283
100
AcDbEntity
  8
M0
100
AcDbLine
 10
70.581462
 20
397.439831
 11
71.081463
 21
397.439831
  0
LINE
  5
284
100
AcDbEntity
  8
M0
100
AcDbLine
 10
72.981462
 20
406.689831
 11
72.981462
 21
401.189831
  0
LINE
  5
285
100
AcDbEntity
  8
M0
100
AcDbLine
 10
71.081463
 20
397.439831
 11
71.081463
 21
408.539831
  0
LINE
  5
286
100
AcDbEntity
  8
M0
100
AcDbLine
 10
73.231462
 20
407.189831
 11
72.981462
 21
406.689831
  0
LINE
  5
287
100
AcDbEntity
  8
M0
100
AcDbLine
 10
73.231462
 20
408.539831
 11
73.231462
 21
407.189831
  0
LINE
  5
288
100
AcDbEntity
  8
M0
100
AcDbLine
 10
60.481461
 20
374.939832
 11
71.081463
 21
374.939832
  0
LINE
  5
289
100
AcDbEntity
  8
M0
100
AcDbLine
 10
69.881462
 20
386.239831
 11
71.081463
 21
386.239831
  0
LINE
  5
28A
100
AcDbEntity
  8
M0
100
AcDbLine
 10
87.981462
 20
392.939831
 11
87.981462
 21
396.43983
  0
LINE
  5
28B
100
AcDbEntity
  8
M0
100
AcDbLine
 10
61.681461
 20
386.239831
 11
60.481461
 21
386.239831
  0
LINE
  5
28C
100
AcDbEntity
  8
M0
100
AcDbLine
 10
86.98146
 20
397.439831
 11
86.481463
 21
397.439831
  0
LINE
  5
28D
100
AcDbEntity
  8
M0
100
AcDbLine
 10
86.481463
 20
397.439831
 11
86.481463
 21
408.539831
  0
LINE
  5
28E
100
AcDbEntity
  8
M0
100
AcDbLine
 10
70.581462
 20
415.939831
 11
72.731461
 21
415.939831
  0
LINE
  5
28F
100
AcDbEntity
  8
M0
100
AcDbLine
 10
84.33146
 20
407.189831
 11
84.581461
 21
406.689831
  0
LINE
  5
290
100
AcDbEntity
  8
M0
100
AcDbLine
 10
87.981462
 20
410.039831
 11
87.981462
 21
414.939831
  0
LINE
  5
291
100
AcDbEntity
  8
M0
100
AcDbLine
 10
86.481463
 20
408.539831
 11
87.981462
 21
410.039831
  0
LINE
  5
292
100
AcDbEntity
  8
M0
100
AcDbLine
 10
70.581461
 20
391.939831
 11
86.98146
 21
391.939831
  0
LINE
  5
293
100
AcDbEntity
  8
M0
100
AcDbLine
 10
86.98146
 20
415.939831
 11
84.831461
 21
415.939831
  0
ELLIPSE
  5
294
100
AcDbEntity
  8
M0
100
AcDbEllipse
 10
74.481461
 20
438.856498
 11
1.0
 21
0.0
210
0.0
220
0.0
230
1.0
 40
0.416667
 41
3.141592653589793
 42
4.71238898038469
  0
ELLIPSE
  5
295
100
AcDbEntity
  8
M0
100
AcDbEllipse
 10
83.081461
 20
438.856498
 11
1.0
 21
0.0
210
0.0
220
0.0
230
1.0
 40
0.416667
 41
4.71238898038469
 42
6.283185307179586
  0
LINE
  5
296
100
AcDbEntity
  8
M0
100
AcDbLine
 10
83.081461
 20
438.439832
 11
74.481461
 21
438.439832
  0
LINE
  5
297
100
AcDbEntity
  8
M0
100
AcDbLine
 10
74.481461
 20
446.939832
 11
83.081461
 21
446.939832
  0
LINE
  5
298
100
AcDbEntity
  8
M0
100
AcDbLine
 10
60.481461
 20
434.93983
 11
71.081463
 21
434.93983
  0
LINE
  5
299
100
AcDbEntity
  8
M0
100
AcDbLine
 10
73.481463
 20
434.93983
 11
84.08146
 21
434.93983
  0
LINE
  5
29A
100
AcDbEntity
  8
M0
100
AcDbLine
 10
73.481463
 20
445.939831
 11
73.481463
 21
421.339831
  0
LINE
  5
29B
100
AcDbEntity
  8
M0
100
AcDbLine
 10
84.08146
 20
436.939831
 11
73.481463
 21
436.939831
  0
LINE
  5
29C
100
AcDbEntity
  8
M0
100
AcDbLine
 10
88.531461
 20
368.939831
 11
88.531461
 21
369.439832
  0
LINE
  5
29D
100
AcDbEntity
  8
M0
100
AcDbLine
 10
95.031463
 20
371.439832
 11
95.031463
 21
369.439832
  0
LINE
  5
29E
100
AcDbEntity
  8
M0
100
AcDbLine
 10
87.781463
 20
368.43983
 11
95.781461
 21
368.43983
  0
LINE
  5
29F
100
AcDbEntity
  8
M0
100
AcDbLine
 10
88.531461
 20
369.439832
 11
88.531461
 21
371.439832
  0
LINE
  5
2A0
100
AcDbEntity
  8
M0
100
AcDbLine
 10
96.781462
 20
369.439832
 11
96.781462
 21
372.939831
  0
LINE
  5
2A1
100
AcDbEntity
  8
M0
100
AcDbLine
 10
96.781462
 20
372.939831
 11
97.08146
 21
372.939831
  0
LINE
  5
2A2
100
AcDbEntity
  8
M0
100
AcDbLine
 10
48.681461
 20
376.239831
 11
48.381462
 21
376.239831
  0
LINE
  5
2A3
100
AcDbEntity
  8
M0
100
AcDbLine
 10
60.781462
 20
372.939831
 11
60.481461
 21
372.939831
  0
LINE
  5
2A4
100
AcDbEntity
  8
M0
100
AcDbLine
 10
95.78146
 20
374.939832
 11
95.78146
 21
373.93983
  0
LINE
  5
2A5
100
AcDbEntity
  8
M0
100
AcDbLine
 10
48.381462
 20
431.63983
 11
48.681461
 21
431.63983
  0
LINE
  5
2A6
100
AcDbEntity
  8
M0
100
AcDbLine
 10
69.781462
 20
372.43983
 11
69.781462
 21
374.939832
  0
LINE
  5
2A7
100
AcDbEntity
  8
M0
100
AcDbLine
 10
71.081463
 20
371.439832
 11
70.781462
 21
371.439832
  0
LINE
  5
2A8
100
AcDbEntity
  8
M0
100
AcDbLine
 10
95.031463
 20
369.439832
 11
95.031463
 21
368.939831
  0
LINE
  5
2A9
100
AcDbEntity
  8
M0
100
AcDbLine
 10
97.08146
 20
434.93983
 11
86.481463
 21
434.93983
  0
LINE
  5
2AA
100
AcDbEntity
  8
M0
100
AcDbLine
 10
87.781463
 20
372.43983
 11
87.781463
 21
374.939832
  0
LINE
  5
2AB
100
AcDbEntity
  8
M0
100
AcDbLine
 10
61.781462
 20
374.939832
 11
61.781462
 21
373.93983
  0
LINE
  5
2AC
100
AcDbEntity
  8
M0
100
AcDbLine
 10
84.08146
 20
371.439832
 11
73.481463
 21
371.439832
  0
LINE
  5
2AD
100
AcDbEntity
  8
M0
100
AcDbLine
 10
86.781461
 20
371.439832
 11
86.481463
 21
371.439832
  0
ARC
  5
2AE
100
AcDbEntity
  8
M0
100
AcDbCircle
 10
95.531461
 20
368.939831
 40
0.5
100
AcDbArc
 50
180.0
 51
270.0
  0
ARC
  5
2AF
100
AcDbEntity
  8
M0
100
AcDbCircle
 10
88.031461
 20
368.939831
 40
0.5
100
AcDbArc
 50
270.0
 51
360.0
  0
ARC
  5
2B0
100
AcDbEntity
  8
M0
100
AcDbCircle
 10
91.781461
 20
371.439831
 40
3.25
100
AcDbArc
 50
0.0
 51
180.0
  0
ARC
  5
2B1
100
AcDbEntity
  8
M0
100
AcDbCircle
 10
74.481461
 20
445.939831
 40
1.0
100
AcDbArc
 50
90.0
 51
180.0
  0
ARC
  5
2B2
100
AcDbEntity
  8
M0
100
AcDbCircle
 10
83.081461
 20
445.939831
 40
1.0
100
AcDbArc
 50
0.0
 51
90.0
  0
ARC
  5
2B3
100
AcDbEntity
  8
M0
100
AcDbCircle
 10
95.781461
 20
369.439831
 40
1.0
100
AcDbArc
 50
270.0
 51
360.0
  0
ARC
  5
2B4
100
AcDbEntity
  8
M0
100
AcDbCircle
 10
62.031461
 20
368.939831
 40
0.5
100
AcDbArc
 50
270.0
 51
360.0
  0
ARC
  5
2B5
100
AcDbEntity
  8
M0
100
AcDbCircle
 10
69.781461
 20
369.439831
 40
1.0
100
AcDbArc
 50
270.0
 51
360.0
  0
ARC
  5
2B6
100
AcDbEntity
  8
M0
100
AcDbCircle
 10
87.781461
 20
369.439831
 40
1.0
100
AcDbArc
 50
180.0
 51
270.0
  0
ARC
  5
2B7
100
AcDbEntity
  8
M0
100
AcDbCircle
 10
65.781461
 20
371.439831
 40
3.25
100
AcDbArc
 50
0.0
 51
180.0
  0
LINE
  5
2B8
100
AcDbEntity
  8
M0
100
AcDbLine
 10
62.531462
 20
371.439831
 11
62.531462
 21
368.939831
  0
LINE
  5
2B9
100
AcDbEntity
  8
M0
100
AcDbLine
 10
70.781462
 20
371.439832
 11
70.781462
 21
369.439832
  0
LINE
  5
2BA
100
AcDbEntity
  8
M0
100
AcDbLine
 10
86.781461
 20
371.439832
 11
86.781461
 21
369.439832
  0
LINE
  5
2BB
100
AcDbEntity
  8
M0
100
AcDbLine
 10
69.031462
 20
368.939831
 11
69.031462
 21
371.439831
  0
ARC
  5
2BC
100
AcDbEntity
  8
M0
100
AcDbCircle
 10
86.781461
 20
372.439831
 40
1.0
100
AcDbArc
 50
270.0
 51
360.0
  0
ARC
  5
2BD
100
AcDbEntity
  8
M0
100
AcDbCircle
 10
60.781461
 20
373.939831
 40
1.0
100
AcDbArc
 50
270.0
 51
360.0
  0
ARC
  5
2BE
100
AcDbEntity
  8
M0
100
AcDbCircle
 10
69.531461
 20
368.939831
 40
0.5
100
AcDbArc
 50
180.0
 51
270.0
  0
ARC
  5
2BF
100
AcDbEntity
  8
M0
100
AcDbCircle
 10
70.781461
 20
372.439831
 40
1.0
100
AcDbArc
 50
180.0
 51
270.0
  0
LINE
  5
2C0
100
AcDbEntity
  8
M0
100
AcDbLine
 10
60.781462
 20
369.439832
 11
60.781462
 21
372.939831
  0
ARC
  5
2C1
100
AcDbEntity
  8
M0
100
AcDbCircle
 10
96.781461
 20
373.939831
 40
1.0
100
AcDbArc
 50
180.0
 51
270.0
  0
ARC
  5
2C2
100
AcDbEntity
  8
M0
100
AcDbCircle
 10
48.381461
 20
430.639831
 40
1.0
100
AcDbArc
 50
90.0
 51
180.0
  0
LINE
  5
2C3
100
AcDbEntity
  8
M0
100
AcDbLine
 10
59.481461
 20
368.43983
 11
52.381461
 21
368.43983
  0
LINE
  5
2C4
100
AcDbEntity
  8
M0
100
AcDbLine
 10
52.381461
 20
439.439832
 11
59.481461
 21
439.439832
  0
LINE
  5
2C5
100
AcDbEntity
  8
M0
100
AcDbLine
 10
58.081461
 20
438.439831
 11
58.081461
 21
407.439831
  0
LINE
  5
2C6
100
AcDbEntity
  8
M0
100
AcDbLine
 10
100.081462
 20
376.839831
 11
100.081462
 21
394.639831
  0
LINE
  5
2C7
100
AcDbEntity
  8
M0
100
AcDbLine
 10
100.081462
 20
413.239831
 11
100.081462
 21
431.039831
  0
ARC
  5
2C8
100
AcDbEntity
  8
M0
100
AcDbCircle
 10
48.381461
 20
377.239831
 40
1.0
100
AcDbArc
 50
180.0
 51
270.0
  0
ARC
  5
2C9
100
AcDbEntity
  8
M0
100
AcDbCircle
 10
48.681461
 20
377.239831
 40
1.0
100
AcDbArc
 50
270.0
 51
360.0
  0
LINE
  5
2CA
100
AcDbEntity
  8
M0
100
AcDbLine
 10
71.081463
 20
422.839831
 11
73.481463
 21
422.839831
  0
ARC
  5
2CB
100
AcDbEntity
  8
M0
100
AcDbCircle
 10
58.081461
 20
376.839831
 40
0.6
100
AcDbArc
 50
180.0
 51
270.0
  0
ARC
  5
2CC
100
AcDbEntity
  8
M0
100
AcDbCircle
 10
99.481461
 20
431.039831
 40
0.6
100
AcDbArc
 50
0.0
 51
90.0
  0
ARC
  5
2CD
100
AcDbEntity
  8
M0
100
AcDbCircle
 10
48.681461
 20
430.639831
 40
1.0
100
AcDbArc
 50
0.0
 51
90.0
  0
ARC
  5
2CE
100
AcDbEntity
  8
M0
100
AcDbCircle
 10
58.081461
 20
431.039831
 40
0.6
100
AcDbArc
 50
90.0
 51
180.0
  0
LINE
  5
2CF
100
AcDbEntity
  8
M0
100
AcDbLine
 10
60.481461
 20
386.53983
 11
60.481461
 21
369.439832
  0
LINE
  5
2D0
100
AcDbEntity
  8
M0
100
AcDbLine
 10
71.081463
 20
369.439832
 11
71.081463
 21
386.53983
  0
LINE
  5
2D1
100
AcDbEntity
  8
M0
100
AcDbLine
 10
71.081463
 20
385.039831
 11
72.081462
 21
385.039831
  0
LINE
  5
2D2
100
AcDbEntity
  8
M0
100
AcDbLine
 10
98.281462
 20
439.439832
 11
98.081462
 21
439.439832
  0
LINE
  5
2D3
100
AcDbEntity
  8
M0
100
AcDbLine
 10
97.08146
 20
438.439832
 11
97.08146
 21
421.339831
  0
LINE
  5
2D4
100
AcDbEntity
  8
M0
100
AcDbLine
 10
73.481463
 20
369.439831
 11
73.481463
 21
386.53983
  0
LINE
  5
2D5
100
AcDbEntity
  8
M0
100
AcDbLine
 10
71.081463
 20
438.439831
 11
71.081463
 21
421.339831
  0
LINE
  5
2D6
100
AcDbEntity
  8
M0
100
AcDbLine
 10
86.481463
 20
386.53983
 11
86.481463
 21
369.439831
  0
LINE
  5
2D7
100
AcDbEntity
  8
M0
100
AcDbLine
 10
84.08146
 20
369.439831
 11
84.08146
 21
386.53983
  0
LINE
  5
2D8
100
AcDbEntity
  8
M0
100
AcDbLine
 10
86.481463
 20
438.439831
 11
86.481463
 21
421.339831
  0
LINE
  5
2D9
100
AcDbEntity
  8
M0
100
AcDbLine
 10
84.08146
 20
421.339831
 11
84.08146
 21
445.939831
  0
LINE
  5
2DA
100
AcDbEntity
  8
M0
100
AcDbLine
 10
84.08146
 20
371.439832
 11
84.08146
 21
372.43983
  0
LINE
  5
2DB
100
AcDbEntity
  8
M0
100
AcDbLine
 10
84.08146
 20
436.439831
 11
84.08146
 21
435.439831
  0
LINE
  5
2DC
100
AcDbEntity
  8
M0
100
AcDbLine
 10
108.881459
 20
376.239831
 11
109.181464
 21
376.239831
  0
LINE
  5
2DD
100
AcDbEntity
  8
M0
100
AcDbLine
 10
109.181464
 20
431.63983
 11
108.881459
 21
431.63983
  0
LINE
  5
2DE
100
AcDbEntity
  8
M0
100
AcDbLine
 10
108.98146
 20
424.03983
 11
108.881459
 21
424.03983
  0
LINE
  5
2DF
100
AcDbEntity
  8
M0
100
AcDbLine
 10
60.481461
 20
438.439832
 11
60.481461
 21
421.339831
  0
LINE
  5
2E0
100
AcDbEntity
  8
M0
100
AcDbLine
 10
48.581461
 20
424.03983
 11
48.681461
 21
424.03983
  0
LINE
  5
2E1
100
AcDbEntity
  8
M0
100
AcDbLine
 10
108.98146
 20
383.839831
 11
108.881459
 21
383.839831
  0
LINE
  5
2E2
100
AcDbEntity
  8
M0
100
AcDbLine
 10
48.581461
 20
383.839831
 11
48.681461
 21
383.839831
  0
ARC
  5
2E3
100
AcDbEntity
  8
M0
100
AcDbCircle
 10
108.881461
 20
377.239831
 40
1.0
100
AcDbArc
 50
180.0
 51
270.0
  0
ARC
  5
2E4
100
AcDbEntity
  8
M0
100
AcDbCircle
 10
108.881461
 20
430.639831
 40
1.0
100
AcDbArc
 50
90.0
 51
180.0
  0
ARC
  5
2E5
100
AcDbEntity
  8
M0
100
AcDbCircle
 10
99.481461
 20
376.839831
 40
0.6
100
AcDbArc
 50
270.0
 51
360.0
  0
ARC
  5
2E6
100
AcDbEntity
  8
M0
100
AcDbCircle
 10
109.181461
 20
430.639831
 40
1.0
100
AcDbArc
 50
0.0
 51
90.0
  0
LINE
  5
2E7
100
AcDbEntity
  8
M0
100
AcDbLine
 10
57.481462
 20
376.83983
 11
57.481462
 21
394.639831
  0
LINE
  5
2E8
100
AcDbEntity
  8
M0
100
AcDbLine
 10
57.481462
 20
413.239831
 11
57.481462
 21
431.039831
  0
ARC
  5
2E9
100
AcDbEntity
  8
M0
100
AcDbCircle
 10
109.181461
 20
377.239831
 40
1.0
100
AcDbArc
 50
270.0
 51
360.0
  0
LINE
  5
2EA
100
AcDbEntity
  8
M0
100
AcDbLine
 10
49.681461
 20
399.239831
 11
49.681461
 21
377.239831
  0
LINE
  5
2EB
100
AcDbEntity
  8
M0
100
AcDbLine
 10
100.981463
 20
378.239832
 11
100.981463
 21
379.239832
  0
LINE
  5
2EC
100
AcDbEntity
  8
M0
100
AcDbLine
 10
106.981464
 20
378.239832
 11
100.981463
 21
378.239832
  0
LINE
  5
2ED
100
AcDbEntity
  8
M0
100
AcDbLine
 10
106.981464
 20
379.239832
 11
106.981464
 21
378.239832
  0
LINE
  5
2EE
100
AcDbEntity
  8
M0
100
AcDbLine
 10
57.481462
 20
421.039831
 11
49.681461
 21
421.039831
  0
LINE
  5
2EF
100
AcDbEntity
  8
M0
100
AcDbLine
 10
100.981463
 20
429.639832
 11
106.981464
 21
429.639832
  0
LINE
  5
2F0
100
AcDbEntity
  8
M0
100
AcDbLine
 10
100.981463
 20
428.639832
 11
100.981463
 21
429.639832
  0
LINE
  5
2F1
100
AcDbEntity
  8
M0
100
AcDbLine
 10
106.981464
 20
429.639832
 11
106.981464
 21
428.639832
  0
LINE
  5
2F2
100
AcDbEntity
  8
M0
100
AcDbLine
 10
49.681461
 20
386.83983
 11
57.481462
 21
386.83983
  0
LINE
  5
2F3
100
AcDbEntity
  8
M0
100
AcDbLine
 10
100.081462
 20
386.83983
 11
107.881464
 21
386.83983
  0
LINE
  5
2F4
100
AcDbEntity
  8
M0
100
AcDbLine
 10
61.681461
 20
421.63983
 11
60.481461
 21
421.63983
  0
LINE
  5
2F5
100
AcDbEntity
  8
M0
100
AcDbLine
 10
69.881462
 20
421.63983
 11
71.081463
 21
421.63983
  0
LINE
  5
2F6
100
AcDbEntity
  8
M0
100
AcDbLine
 10
71.081463
 20
432.939832
 11
60.481461
 21
432.939832
  0
ARC
  5
2F7
100
AcDbEntity
  8
M0
100
AcDbCircle
 10
74.681461
 20
420.639831
 40
1.0
100
AcDbArc
 50
44.427004
 51
90.0
  0
LINE
  5
2F8
100
AcDbEntity
  8
M0
100
AcDbLine
 10
87.681461
 20
421.63983
 11
86.481463
 21
421.63983
  0
ARC
  5
2F9
100
AcDbEntity
  8
M0
100
AcDbCircle
 10
95.881461
 20
387.239831
 40
1.0
100
AcDbArc
 50
224.427004
 51
270.0
  0
ARC
  5
2FA
100
AcDbEntity
  8
M0
100
AcDbCircle
 10
82.881461
 20
420.639831
 40
1.0
100
AcDbArc
 50
90.0
 51
135.572996
  0
LINE
  5
2FB
100
AcDbEntity
  8
M0
100
AcDbLine
 10
82.881462
 20
386.239831
 11
84.08146
 21
386.239831
  0
LINE
  5
2FC
100
AcDbEntity
  8
M0
100
AcDbLine
 10
74.681461
 20
386.239831
 11
73.481463
 21
386.239831
  0
LINE
  5
2FD
100
AcDbEntity
  8
M0
100
AcDbLine
 10
73.481463
 20
374.939832
 11
84.08146
 21
374.939832
  0
LINE
  5
2FE
100
AcDbEntity
  8
M0
100
AcDbLine
 10
50.581462
 20
429.639832
 11
56.581462
 21
429.639832
  0
LINE
  5
2FF
100
AcDbEntity
  8
M0
100
AcDbLine
 10
50.581462
 20
428.639832
 11
50.581462
 21
429.639832
  0
LINE
  5
300
100
AcDbEntity
  8
M0
100
AcDbLine
 10
56.581462
 20
429.639832
 11
56.581462
 21
428.639832
  0
ARC
  5
301
100
AcDbEntity
  8
M0
100
AcDbCircle
 10
87.681461
 20
420.639831
 40
1.0
100
AcDbArc
 50
44.427004
 51
90.0
  0
ARC
  5
302
100
AcDbEntity
  8
M0
100
AcDbCircle
 10
69.881461
 20
420.639831
 40
1.0
100
AcDbArc
 50
90.0
 51
135.572996
  0
ARC
  5
303
100
AcDbEntity
  8
M0
100
AcDbCircle
 10
82.881461
 20
387.239831
 40
1.0
100
AcDbArc
 50
224.427004
 51
270.0
  0
ARC
  5
304
100
AcDbEntity
  8
M0
100
AcDbCircle
 10
87.681461
 20
387.239831
 40
1.0
100
AcDbArc
 50
270.0
 51
315.572996
  0
ARC
  5
305
100
AcDbEntity
  8
M0
100
AcDbCircle
 10
61.681461
 20
420.639831
 40
1.0
100
AcDbArc
 50
44.427004
 51
90.0
  0
ARC
  5
306
100
AcDbEntity
  8
M0
100
AcDbCircle
 10
74.681461
 20
387.239831
 40
1.0
100
AcDbArc
 50
270.0
 51
315.572996
  0
LINE
  5
307
100
AcDbEntity
  8
M0
100
AcDbLine
 10
56.581462
 20
378.239832
 11
50.581462
 21
378.239832
  0
LINE
  5
308
100
AcDbEntity
  8
M0
100
AcDbLine
 10
56.581462
 20
379.239832
 11
56.581462
 21
378.239832
  0
LINE
  5
309
100
AcDbEntity
  8
M0
100
AcDbLine
 10
50.581462
 20
378.239832
 11
50.581462
 21
379.239832
  0
LINE
  5
30A
100
AcDbEntity
  8
M0
100
AcDbLine
 10
95.498923
 20
447.857822
 11
95.500015
 21
447.821363
  0
LINE
  5
30B
100
AcDbEntity
  8
M0
100
AcDbLine
 10
95.500015
 20
447.821363
 11
95.503263
 21
447.713083
  0
LINE
  5
30C
100
AcDbEntity
  8
M0
100
AcDbLine
 10
95.503263
 20
447.713083
 11
95.508568
 21
447.536285
  0
LINE
  5
30D
100
AcDbEntity
  8
M0
100
AcDbLine
 10
95.508568
 20
447.536285
 11
95.515765
 21
447.296331
  0
LINE
  5
30E
100
AcDbEntity
  8
M0
100
AcDbLine
 10
95.515765
 20
447.296331
 11
95.524643
 21
447.000513
  0
LINE
  5
30F
100
AcDbEntity
  8
M0
100
AcDbLine
 10
95.524643
 20
447.000513
 11
95.534921
 21
446.657824
  0
LINE
  5
310
100
AcDbEntity
  8
M0
100
AcDbLine
 10
95.534921
 20
446.657824
 11
95.546298
 21
446.278671
  0
LINE
  5
311
100
AcDbEntity
  8
M0
100
AcDbLine
 10
95.546298
 20
446.278671
 11
95.55842
 21
445.874578
  0
LINE
  5
312
100
AcDbEntity
  8
M0
100
AcDbLine
 10
95.55842
 20
445.874578
 11
95.570922
 21
445.457822
  0
LINE
  5
313
100
AcDbEntity
  8
M0
100
AcDbLine
 10
61.992001
 20
445.457822
 11
62.006047
 21
445.926039
  0
LINE
  5
314
100
AcDbEntity
  8
M0
100
AcDbLine
 10
62.006047
 20
445.926039
 11
62.019555
 21
446.376263
  0
LINE
  5
315
100
AcDbEntity
  8
M0
100
AcDbLine
 10
62.019555
 20
446.376263
 11
62.032003
 21
446.791193
  0
LINE
  5
316
100
AcDbEntity
  8
M0
100
AcDbLine
 10
62.032003
 20
446.791193
 11
62.042912
 21
447.154878
  0
LINE
  5
317
100
AcDbEntity
  8
M0
100
AcDbLine
 10
62.042912
 20
447.154878
 11
62.051866
 21
447.453349
  0
LINE
  5
318
100
AcDbEntity
  8
M0
100
AcDbLine
 10
62.051866
 20
447.453349
 11
62.058521
 21
447.675134
  0
LINE
  5
319
100
AcDbEntity
  8
M0
100
AcDbLine
 10
62.058521
 20
447.675134
 11
62.062617
 21
447.811707
  0
LINE
  5
31A
100
AcDbEntity
  8
M0
100
AcDbLine
 10
62.062617
 20
447.811707
 11
62.064001
 21
447.857822
  0
LINE
  5
31B
100
AcDbEntity
  8
M0
  6
DASHDOT
100
AcDbLine
 10
65.281461
 20
380.239831
 11
66.281461
 21
380.239831
  0
LINE
  5
31C
100
AcDbEntity
  8
M0
  6
DASHDOT
100
AcDbLine
 10
65.781461
 20
379.739831
 11
65.781461
 21
380.739831
  0
LINE
  5
31D
100
AcDbEntity
  8
M0
  6
DASHDOT
100
AcDbLine
 10
78.781458
 20
379.739831
 11
78.781458
 21
380.739831
  0
LINE
  5
31E
100
AcDbEntity
  8
M0
  6
DASHDOT
100
AcDbLine
 10
78.281458
 20
380.239831
 11
79.281458
 21
380.239831
  0
LINE
  5
31F
100
AcDbEntity
  8
M0
  6
DASHDOT
100
AcDbLine
 10
91.781458
 20
379.739831
 11
91.781458
 21
380.739831
  0
LINE
  5
320
100
AcDbEntity
  8
M0
  6
DASHDOT
100
AcDbLine
 10
91.281458
 20
380.239831
 11
92.281458
 21
380.239831
  0
LINE
  5
321
100
AcDbEntity
  8
M0
  6
DASHDOT
100
AcDbLine
 10
91.781458
 20
428.139831
 11
91.781458
 21
427.139831
  0
LINE
  5
322
100
AcDbEntity
  8
M0
  6
DASHDOT
100
AcDbLine
 10
91.281458
 20
427.639831
 11
92.281458
 21
427.639831
  0
LINE
  5
323
100
AcDbEntity
  8
M0
  6
DASHDOT
100
AcDbLine
 10
78.281458
 20
427.639831
 11
79.281458
 21
427.639831
  0
LINE
  5
324
100
AcDbEntity
  8
M0
  6
DASHDOT
100
AcDbLine
 10
65.781461
 20
428.139831
 11
65.781461
 21
427.139831
  0
LINE
  5
325
100
AcDbEntity
  8
M0
  6
DASHDOT
100
AcDbLine
 10
78.781458
 20
428.139831
 11
78.781458
 21
427.139831
  0
LINE
  5
326
100
AcDbEntity
  8
M0
  6
DASHDOT
100
AcDbLine
 10
65.281461
 20
427.639831
 11
66.281461
 21
427.639831
  0
LINE
  5
327
100
AcDbEntity
  8
M0
  6
DASHDOT
100
AcDbLine
 10
104.481461
 20
424.839831
 11
103.481461
 21
424.839831
  0
LINE
  5
328
100
AcDbEntity
  8
M0
  6
DASHDOT
100
AcDbLine
 10
103.981461
 20
424.339831
 11
103.981461
 21
425.339831
  0
LINE
  5
329
100
AcDbEntity
  8
M0
  6
DASHDOT
100
AcDbLine
 10
104.481461
 20
417.239831
 11
103.481461
 21
417.239831
  0
LINE
  5
32A
100
AcDbEntity
  8
M0
  6
DASHDOT
100
AcDbLine
 10
103.981461
 20
416.739831
 11
103.981461
 21
417.739831
  0
LINE
  5
32B
100
AcDbEntity
  8
M0
  6
DASHDOT
100
AcDbLine
 10
104.481461
 20
390.639831
 11
103.481461
 21
390.639831
  0
LINE
  5
32C
100
AcDbEntity
  8
M0
  6
DASHDOT
100
AcDbLine
 10
103.981461
 20
390.139831
 11
103.981461
 21
391.139831
  0
LINE
  5
32D
100
AcDbEntity
  8
M0
  6
DASHDOT
100
AcDbLine
 10
104.481461
 20
383.039831
 11
103.481461
 21
383.039831
  0
LINE
  5
32E
100
AcDbEntity
  8
M0
  6
DASHDOT
100
AcDbLine
 10
103.981461
 20
382.539831
 11
103.981461
 21
383.539831
  0
LINE
  5
32F
100
AcDbEntity
  8
M0
  6
DASHDOT
100
AcDbLine
 10
53.081461
 20
417.239831
 11
54.081461
 21
417.239831
  0
LINE
  5
330
100
AcDbEntity
  8
M0
  6
DASHDOT
100
AcDbLine
 10
53.581461
 20
416.739831
 11
53.581461
 21
417.739831
  0
LINE
  5
331
100
AcDbEntity
  8
M0
  6
DASHDOT
100
AcDbLine
 10
53.081461
 20
424.839831
 11
54.081461
 21
424.839831
  0
LINE
  5
332
100
AcDbEntity
  8
M0
  6
DASHDOT
100
AcDbLine
 10
53.581461
 20
424.339831
 11
53.581461
 21
425.339831
  0
LINE
  5
333
100
AcDbEntity
  8
M0
  6
DASHDOT
100
AcDbLine
 10
53.081461
 20
383.039831
 11
54.081461
 21
383.039831
  0
LINE
  5
334
100
AcDbEntity
  8
M0
  6
DASHDOT
100
AcDbLine
 10
53.581461
 20
382.539831
 11
53.581461
 21
383.539831
  0
LINE
  5
335
100
AcDbEntity
  8
M0
  6
DASHDOT
100
AcDbLine
 10
53.081461
 20
390.639831
 11
54.081461
 21
390.639831
  0
LINE
  5
336
100
AcDbEntity
  8
M0
  6
DASHDOT
100
AcDbLine
 10
53.581461
 20
390.139831
 11
53.581461
 21
391.139831
  0
LINE
  5
337
100
AcDbEntity
  8
M0
  6
DASHDOT
100
AcDbLine
 10
65.281461
 20
371.439831
 11
66.281461
 21
371.439831
  0
LINE
  5
338
100
AcDbEntity
  8
M0
  6
DASHDOT
100
AcDbLine
 10
65.781461
 20
370.939831
 11
65.781461
 21
371.939831
  0
LINE
  5
339
100
AcDbEntity
  8
M0
  6
DASHDOT
100
AcDbLine
 10
91.281461
 20
371.439831
 11
92.281461
 21
371.439831
  0
LINE
  5
33A
100
AcDbEntity
  8
M0
  6
DASHDOT
100
AcDbLine
 10
91.781461
 20
370.939831
 11
91.781461
 21
371.939831
  0
LINE
  5
33B
100
AcDbEntity
  8
M0
  6
DASHDOT
100
AcDbLine
 10
89.181461
 20
442.539831
 11
90.181461
 21
442.539831
  0
LINE
  5
33C
100
AcDbEntity
  8
M0
  6
DASHDOT
100
AcDbLine
 10
89.681461
 20
442.039831
 11
89.681461
 21
443.039831
  0
LINE
  5
33D
100
AcDbEntity
  8
M0
  6
DASHDOT
100
AcDbLine
 10
78.281461
 20
442.139831
 11
79.281461
 21
442.139831
  0
LINE
  5
33E
100
AcDbEntity
  8
M0
  6
DASHDOT
100
AcDbLine
 10
78.781461
 20
441.639831
 11
78.781461
 21
442.639831
  0
LINE
  5
33F
100
AcDbEntity
  8
M0
  6
DASHDOT
100
AcDbLine
 10
68.381461
 20
442.539831
 11
67.381461
 21
442.539831
  0
LINE
  5
340
100
AcDbEntity
  8
M0
  6
DASHDOT
100
AcDbLine
 10
67.881461
 20
442.039831
 11
67.881461
 21
443.039831
  0
CIRCLE
  5
341
100
AcDbEntity
  8
M0
100
AcDbCircle
 10
89.681461
 20
442.539831
 40
3.0
  0
LINE
  5
342
100
AcDbEntity
  8
M0
100
AcDbLine
 10
91.272045
 20
440.949186
 11
88.090405
 21
444.130949
  0
LINE
  5
343
100
AcDbEntity
  8
M0
100
AcDbLine
 10
91.095287
 20
442.893522
 11
89.327709
 21
441.125944
  0
LINE
  5
344
100
AcDbEntity
  8
M0
100
AcDbLine
 10
90.034741
 20
443.954191
 11
88.267162
 21
442.186491
  0
LINE
  5
345
100
AcDbEntity
  8
M0
100
AcDbLine
 10
93.006461
 20
446.364831
 11
86.356461
 21
446.364831
  0
ARC
  5
346
100
AcDbEntity
  8
M0
100
AcDbCircle
 10
93.006461
 20
445.864831
 40
0.5
100
AcDbArc
 50
0.0
 51
90.0
  0
LINE
  5
347
100
AcDbEntity
  8
M0
100
AcDbLine
 10
93.506461
 20
439.214831
 11
93.506461
 21
445.864831
  0
ARC
  5
348
100
AcDbEntity
  8
M0
100
AcDbCircle
 10
93.006461
 20
439.214831
 40
0.5
100
AcDbArc
 50
270.0
 51
360.0
  0
LINE
  5
349
100
AcDbEntity
  8
M0
100
AcDbLine
 10
86.356461
 20
438.714831
 11
93.006461
 21
438.714831
  0
LINE
  5
34A
100
AcDbEntity
  8
M0
100
AcDbLine
 10
85.856461
 20
445.864831
 11
85.856461
 21
439.214831
  0
ARC
  5
34B
100
AcDbEntity
  8
M0
100
AcDbCircle
 10
86.356461
 20
445.864831
 40
0.5
100
AcDbArc
 50
90.0
 51
180.0
  0
ARC
  5
34C
100
AcDbEntity
  8
M0
100
AcDbCircle
 10
86.356461
 20
439.214831
 40
0.5
100
AcDbArc
 50
180.0
 51
270.0
  0
ARC
  5
34D
100
AcDbEntity
  8
M0
100
AcDbCircle
 10
143.081458
 20
423.139831
 40
0.5
100
AcDbArc
 50
270.0
 51
360.0
  0
LINE
  5
34E
100
AcDbEntity
  8
M0
100
AcDbLine
 10
143.581458
 20
432.139831
 11
143.581458
 21
423.139831
  0
ARC
  5
34F
100
AcDbEntity
  8
M0
100
AcDbCircle
 10
143.081458
 20
432.139831
 40
0.5
100
AcDbArc
 50
0.0
 51
90.0
  0
LINE
  5
350
100
AcDbEntity
  8
M0
100
AcDbLine
 10
133.581458
 20
432.139831
 11
133.581458
 21
423.139831
  0
ARC
  5
351
100
AcDbEntity
  8
M0
100
AcDbCircle
 10
134.081458
 20
432.139831
 40
0.5
100
AcDbArc
 50
90.0
 51
180.0
  0
ARC
  5
352
100
AcDbEntity
  8
M0
100
AcDbCircle
 10
134.081458
 20
423.139831
 40
0.5
100
AcDbArc
 50
180.0
 51
270.0
  0
LINE
  5
353
100
AcDbEntity
  8
M0
100
AcDbLine
 10
134.081458
 20
422.639831
 11
143.081458
 21
422.639831
  0
LINE
  5
354
100
AcDbEntity
  8
M0
100
AcDbLine
 10
143.081458
 20
432.639831
 11
134.081458
 21
432.639831
  0
CIRCLE
  5
355
100
AcDbEntity
  8
M0
100
AcDbCircle
 10
138.581458
 20
427.639831
 40
3.5
  0
LINE
  5
356
100
AcDbEntity
  8
M0
100
AcDbLine
 10
139.59233
 20
429.357788
 11
137.017256
 21
426.782715
  0
LINE
  5
357
100
AcDbEntity
  8
M0
100
AcDbLine
 10
140.299437
 20
428.65068
 11
137.724364
 21
426.075607
  0
LINE
  5
358
100
AcDbEntity
  8
M0
100
AcDbLine
 10
137.620604
 20
428.600677
 11
139.465453
 21
426.755844
  0
ARC
  5
359
100
AcDbEntity
  8
M0
100
AcDbCircle
 10
156.081454
 20
423.139831
 40
0.5
100
AcDbArc
 50
270.0
 51
360.0
  0
LINE
  5
35A
100
AcDbEntity
  8
M0
100
AcDbLine
 10
156.581454
 20
432.139831
 11
156.581454
 21
423.139831
  0
ARC
  5
35B
100
AcDbEntity
  8
M0
100
AcDbCircle
 10
156.081454
 20
432.139831
 40
0.5
100
AcDbArc
 50
0.0
 51
90.0
  0
LINE
  5
35C
100
AcDbEntity
  8
M0
100
AcDbLine
 10
146.581454
 20
432.139831
 11
146.581454
 21
423.139831
  0
ARC
  5
35D
100
AcDbEntity
  8
M0
100
AcDbCircle
 10
147.081454
 20
432.139831
 40
0.5
100
AcDbArc
 50
90.0
 51
180.0
  0
ARC
  5
35E
100
AcDbEntity
  8
M0
100
AcDbCircle
 10
147.081454
 20
423.139831
 40
0.5
100
AcDbArc
 50
180.0
 51
270.0
  0
LINE
  5
35F
100
AcDbEntity
  8
M0
100
AcDbLine
 10
147.081454
 20
422.639831
 11
156.081454
 21
422.639831
  0
LINE
  5
360
100
AcDbEntity
  8
M0
100
AcDbLine
 10
156.081454
 20
432.639831
 11
147.081454
 21
432.639831
  0
CIRCLE
  5
361
100
AcDbEntity
  8
M0
100
AcDbCircle
 10
151.581454
 20
427.639831
 40
3.5
  0
LINE
  5
362
100
AcDbEntity
  8
M0
100
AcDbLine
 10
152.592326
 20
429.357788
 11
150.017253
 21
426.782715
  0
LINE
  5
363
100
AcDbEntity
  8
M0
100
AcDbLine
 10
153.299434
 20
428.65068
 11
150.72436
 21
426.075607
  0
LINE
  5
364
100
AcDbEntity
  8
M0
100
AcDbLine
 10
150.620601
 20
428.600677
 11
152.465449
 21
426.755844
  0
ARC
  5
365
100
AcDbEntity
  8
M0
100
AcDbCircle
 10
169.081455
 20
423.139831
 40
0.5
100
AcDbArc
 50
270.0
 51
360.0
  0
LINE
  5
366
100
AcDbEntity
  8
M0
100
AcDbLine
 10
169.581455
 20
432.139831
 11
169.581455
 21
423.139831
  0
ARC
  5
367
100
AcDbEntity
  8
M0
100
AcDbCircle
 10
169.081455
 20
432.139831
 40
0.5
100
AcDbArc
 50
0.0
 51
90.0
  0
LINE
  5
368
100
AcDbEntity
  8
M0
100
AcDbLine
 10
159.581455
 20
432.139831
 11
159.581455
 21
423.139831
  0
ARC
  5
369
100
AcDbEntity
  8
M0
100
AcDbCircle
 10
160.081455
 20
432.139831
 40
0.5
100
AcDbArc
 50
90.0
 51
180.0
  0
ARC
  5
36A
100
AcDbEntity
  8
M0
100
AcDbCircle
 10
160.081455
 20
423.139831
 40
0.5
100
AcDbArc
 50
180.0
 51
270.0
  0
LINE
  5
36B
100
AcDbEntity
  8
M0
100
AcDbLine
 10
160.081455
 20
422.639831
 11
169.081455
 21
422.639831
  0
LINE
  5
36C
100
AcDbEntity
  8
M0
100
AcDbLine
 10
169.081455
 20
432.639831
 11
160.081455
 21
432.639831
  0
CIRCLE
  5
36D
100
AcDbEntity
  8
M0
100
AcDbCircle
 10
164.581455
 20
427.639831
 40
3.5
  0
LINE
  5
36E
100
AcDbEntity
  8
M0
100
AcDbLine
 10
165.592326
 20
429.357788
 11
163.017253
 21
426.782715
  0
LINE
  5
36F
100
AcDbEntity
  8
M0
100
AcDbLine
 10
166.299434
 20
428.65068
 11
163.724361
 21
426.075607
  0
LINE
  5
370
100
AcDbEntity
  8
M0
100
AcDbLine
 10
163.620601
 20
428.600677
 11
165.465449
 21
426.755844
  0
ARC
  5
371
100
AcDbEntity
  8
M0
100
AcDbCircle
 10
169.081455
 20
375.739831
 40
0.5
100
AcDbArc
 50
270.0
 51
360.0
  0
LINE
  5
372
100
AcDbEntity
  8
M0
100
AcDbLine
 10
169.581455
 20
384.739831
 11
169.581455
 21
375.739831
  0
ARC
  5
373
100
AcDbEntity
  8
M0
100
AcDbCircle
 10
169.081455
 20
384.739831
 40
0.5
100
AcDbArc
 50
0.0
 51
90.0
  0
LINE
  5
374
100
AcDbEntity
  8
M0
100
AcDbLine
 10
159.581455
 20
384.739831
 11
159.581455
 21
375.739831
  0
ARC
  5
375
100
AcDbEntity
  8
M0
100
AcDbCircle
 10
160.081455
 20
384.739831
 40
0.5
100
AcDbArc
 50
90.0
 51
180.0
  0
ARC
  5
376
100
AcDbEntity
  8
M0
100
AcDbCircle
 10
160.081455
 20
375.739831
 40
0.5
100
AcDbArc
 50
180.0
 51
270.0
  0
LINE
  5
377
100
AcDbEntity
  8
M0
100
AcDbLine
 10
160.081455
 20
375.239831
 11
169.081455
 21
375.239831
  0
LINE
  5
378
100
AcDbEntity
  8
M0
100
AcDbLine
 10
169.081455
 20
385.239831
 11
160.081455
 21
385.239831
  0
CIRCLE
  5
379
100
AcDbEntity
  8
M0
100
AcDbCircle
 10
164.581455
 20
380.239831
 40
3.5
  0
LINE
  5
37A
100
AcDbEntity
  8
M0
100
AcDbLine
 10
165.592326
 20
381.957787
 11
163.017253
 21
379.382714
  0
LINE
  5
37B
100
AcDbEntity
  8
M0
100
AcDbLine
 10
166.299434
 20
381.25068
 11
163.724361
 21
378.675607
  0
LINE
  5
37C
100
AcDbEntity
  8
M0
100
AcDbLine
 10
163.620601
 20
381.200677
 11
165.465449
 21
379.355843
  0
ARC
  5
37D
100
AcDbEntity
  8
M0
100
AcDbCircle
 10
156.081454
 20
375.739831
 40
0.5
100
AcDbArc
 50
270.0
 51
360.0
  0
LINE
  5
37E
100
AcDbEntity
  8
M0
100
AcDbLine
 10
156.581454
 20
384.739831
 11
156.581454
 21
375.739831
  0
ARC
  5
37F
100
AcDbEntity
  8
M0
100
AcDbCircle
 10
156.081454
 20
384.739831
 40
0.5
100
AcDbArc
 50
0.0
 51
90.0
  0
LINE
  5
380
100
AcDbEntity
  8
M0
100
AcDbLine
 10
146.581454
 20
384.739831
 11
146.581454
 21
375.739831
  0
ARC
  5
381
100
AcDbEntity
  8
M0
100
AcDbCircle
 10
147.081454
 20
384.739831
 40
0.5
100
AcDbArc
 50
90.0
 51
180.0
  0
ARC
  5
382
100
AcDbEntity
  8
M0
100
AcDbCircle
 10
147.081454
 20
375.739831
 40
0.5
100
AcDbArc
 50
180.0
 51
270.0
  0
LINE
  5
383
100
AcDbEntity
  8
M0
100
AcDbLine
 10
147.081454
 20
375.239831
 11
156.081454
 21
375.239831
  0
LINE
  5
384
100
AcDbEntity
  8
M0
100
AcDbLine
 10
156.081454
 20
385.239831
 11
147.081454
 21
385.239831
  0
CIRCLE
  5
385
100
AcDbEntity
  8
M0
100
AcDbCircle
 10
151.581454
 20
380.239831
 40
3.5
  0
LINE
  5
386
100
AcDbEntity
  8
M0
100
AcDbLine
 10
152.592326
 20
381.957787
 11
150.017253
 21
379.382714
  0
LINE
  5
387
100
AcDbEntity
  8
M0
100
AcDbLine
 10
153.299434
 20
381.25068
 11
150.72436
 21
378.675607
  0
LINE
  5
388
100
AcDbEntity
  8
M0
100
AcDbLine
 10
150.620601
 20
381.200677
 11
152.465449
 21
379.355843
  0
ARC
  5
389
100
AcDbEntity
  8
M0
100
AcDbCircle
 10
143.081458
 20
375.739831
 40
0.5
100
AcDbArc
 50
270.0
 51
360.0
  0
LINE
  5
38A
100
AcDbEntity
  8
M0
100
AcDbLine
 10
143.581458
 20
384.739831
 11
143.581458
 21
375.739831
  0
ARC
  5
38B
100
AcDbEntity
  8
M0
100
AcDbCircle
 10
143.081458
 20
384.739831
 40
0.5
100
AcDbArc
 50
0.0
 51
90.0
  0
LINE
  5
38C
100
AcDbEntity
  8
M0
100
AcDbLine
 10
133.581458
 20
384.739831
 11
133.581458
 21
375.739831
  0
ARC
  5
38D
100
AcDbEntity
  8
M0
100
AcDbCircle
 10
134.081458
 20
384.739831
 40
0.5
100
AcDbArc
 50
90.0
 51
180.0
  0
ARC
  5
38E
100
AcDbEntity
  8
M0
100
AcDbCircle
 10
134.081458
 20
375.739831
 40
0.5
100
AcDbArc
 50
180.0
 51
270.0
  0
LINE
  5
38F
100
AcDbEntity
  8
M0
100
AcDbLine
 10
134.081458
 20
375.239831
 11
143.081458
 21
375.239831
  0
LINE
  5
390
100
AcDbEntity
  8
M0
100
AcDbLine
 10
143.081458
 20
385.239831
 11
134.081458
 21
385.239831
  0
CIRCLE
  5
391
100
AcDbEntity
  8
M0
100
AcDbCircle
 10
138.581458
 20
380.239831
 40
3.5
  0
LINE
  5
392
100
AcDbEntity
  8
M0
100
AcDbLine
 10
139.59233
 20
381.957787
 11
137.017256
 21
379.382714
  0
LINE
  5
393
100
AcDbEntity
  8
M0
100
AcDbLine
 10
140.299437
 20
381.25068
 11
137.724364
 21
378.675607
  0
LINE
  5
394
100
AcDbEntity
  8
M0
100
AcDbLine
 10
137.620604
 20
381.200677
 11
139.465453
 21
379.355843
  0
CIRCLE
  5
395
100
AcDbEntity
  8
M0
100
AcDbCircle
 10
138.581458
 20
371.439831
 40
2.75
  0
LINE
  5
396
100
AcDbEntity
  8
M0
100
AcDbLine
 10
138.281458
 20
370.039831
 11
138.281458
 21
370.436191
  0
LINE
  5
397
100
AcDbEntity
  8
M0
100
AcDbLine
 10
138.881458
 20
370.039831
 11
138.881458
 21
370.436191
  0
LINE
  5
398
100
AcDbEntity
  8
M0
100
AcDbLine
 10
138.281458
 20
372.839831
 11
138.281458
 21
372.44347
  0
LINE
  5
399
100
AcDbEntity
  8
M0
100
AcDbLine
 10
138.881458
 20
372.839831
 11
138.881458
 21
372.44347
  0
ARC
  5
39A
100
AcDbEntity
  8
M0
100
AcDbCircle
 10
137.556458
 20
370.414831
 40
0.725
100
AcDbArc
 50
0.0
 51
90.0
  0
ARC
  5
39B
100
AcDbEntity
  8
M0
100
AcDbCircle
 10
137.556458
 20
372.464831
 40
0.725
100
AcDbArc
 50
-90.0
 51
0.0
  0
ARC
  5
39C
100
AcDbEntity
  8
M0
100
AcDbCircle
 10
139.606458
 20
372.464831
 40
0.725
100
AcDbArc
 50
180.0
 51
270.0
  0
ARC
  5
39D
100
AcDbEntity
  8
M0
100
AcDbCircle
 10
139.606458
 20
370.414831
 40
0.725
100
AcDbArc
 50
90.0
 51
180.0
  0
LINE
  5
39E
100
AcDbEntity
  8
M0
100
AcDbLine
 10
139.606458
 20
371.139831
 11
140.006458
 21
371.139831
  0
LINE
  5
39F
100
AcDbEntity
  8
M0
100
AcDbLine
 10
139.606458
 20
371.739831
 11
140.006458
 21
371.739831
  0
LINE
  5
3A0
100
AcDbEntity
  8
M0
100
AcDbLine
 10
138.281458
 20
372.839831
 11
138.881458
 21
372.839831
  0
LINE
  5
3A1
100
AcDbEntity
  8
M0
100
AcDbLine
 10
138.281458
 20
370.039831
 11
138.881458
 21
370.039831
  0
LINE
  5
3A2
100
AcDbEntity
  8
M0
100
AcDbLine
 10
137.181458
 20
371.739831
 11
137.556458
 21
371.739831
  0
LINE
  5
3A3
100
AcDbEntity
  8
M0
100
AcDbLine
 10
137.181458
 20
371.739831
 11
137.181458
 21
371.139831
  0
LINE
  5
3A4
100
AcDbEntity
  8
M0
100
AcDbLine
 10
137.181458
 20
371.139831
 11
137.556458
 21
371.139831
  0
LINE
  5
3A5
100
AcDbEntity
  8
M0
100
AcDbLine
 10
140.006458
 20
371.739831
 11
140.006458
 21
371.139831
  0
CIRCLE
  5
3A6
100
AcDbEntity
  8
M0
  6
DASHED
100
AcDbCircle
 10
126.381458
 20
383.039831
 40
3.0
  0
LINE
  5
3A7
100
AcDbEntity
  8
M0
  6
DASHED
100
AcDbLine
 10
127.972042
 20
381.449186
 11
124.790401
 21
384.630949
  0
LINE
  5
3A8
100
AcDbEntity
  8
M0
  6
DASHED
100
AcDbLine
 10
127.795284
 20
383.393522
 11
126.027706
 21
381.625944
  0
LINE
  5
3A9
100
AcDbEntity
  8
M0
  6
DASHED
100
AcDbLine
 10
126.734737
 20
384.454191
 11
124.967159
 21
382.686491
  0
LINE
  5
3AA
100
AcDbEntity
  8
M0
  6
DASHED
100
AcDbLine
 10
129.706458
 20
386.864831
 11
123.056458
 21
386.864831
  0
ARC
  5
3AB
100
AcDbEntity
  8
M0
  6
DASHED
100
AcDbCircle
 10
129.706458
 20
386.364831
 40
0.5
100
AcDbArc
 50
0.0
 51
90.0
  0
LINE
  5
3AC
100
AcDbEntity
  8
M0
  6
DASHED
100
AcDbLine
 10
130.206458
 20
379.714831
 11
130.206458
 21
386.364831
  0
ARC
  5
3AD
100
AcDbEntity
  8
M0
  6
DASHED
100
AcDbCircle
 10
129.706458
 20
379.714831
 40
0.5
100
AcDbArc
 50
270.0
 51
360.0
  0
LINE
  5
3AE
100
AcDbEntity
  8
M0
  6
DASHED
100
AcDbLine
 10
123.056458
 20
379.214831
 11
129.706458
 21
379.214831
  0
LINE
  5
3AF
100
AcDbEntity
  8
M0
  6
DASHED
100
AcDbLine
 10
122.556458
 20
386.364831
 11
122.556458
 21
379.714831
  0
ARC
  5
3B0
100
AcDbEntity
  8
M0
  6
DASHED
100
AcDbCircle
 10
123.056458
 20
386.364831
 40
0.5
100
AcDbArc
 50
90.0
 51
180.0
  0
ARC
  5
3B1
100
AcDbEntity
  8
M0
  6
DASHED
100
AcDbCircle
 10
123.056458
 20
379.714831
 40
0.5
100
AcDbArc
 50
180.0
 51
270.0
  0
CIRCLE
  5
3B2
100
AcDbEntity
  8
M0
  6
DASHED
100
AcDbCircle
 10
53.581461
 20
424.839831
 40
3.0
  0
LINE
  5
3B3
100
AcDbEntity
  8
M0
  6
DASHED
100
AcDbLine
 10
55.172045
 20
423.249186
 11
51.990405
 21
426.430949
  0
LINE
  5
3B4
100
AcDbEntity
  8
M0
  6
DASHED
100
AcDbLine
 10
54.995287
 20
425.193522
 11
53.227709
 21
423.425944
  0
LINE
  5
3B5
100
AcDbEntity
  8
M0
  6
DASHED
100
AcDbLine
 10
53.934741
 20
426.254191
 11
52.167162
 21
424.486491
  0
LINE
  5
3B6
100
AcDbEntity
  8
M0
  6
DASHED
100
AcDbLine
 10
56.906461
 20
428.664831
 11
50.256461
 21
428.664831
  0
ARC
  5
3B7
100
AcDbEntity
  8
M0
  6
DASHED
100
AcDbCircle
 10
56.906461
 20
428.164831
 40
0.5
100
AcDbArc
 50
0.0
 51
90.0
  0
LINE
  5
3B8
100
AcDbEntity
  8
M0
  6
DASHED
100
AcDbLine
 10
57.406461
 20
421.514831
 11
57.406461
 21
428.164831
  0
ARC
  5
3B9
100
AcDbEntity
  8
M0
  6
DASHED
100
AcDbCircle
 10
56.906461
 20
421.514831
 40
0.5
100
AcDbArc
 50
270.0
 51
360.0
  0
LINE
  5
3BA
100
AcDbEntity
  8
M0
  6
DASHED
100
AcDbLine
 10
50.256461
 20
421.014831
 11
56.906461
 21
421.014831
  0
LINE
  5
3BB
100
AcDbEntity
  8
M0
  6
DASHED
100
AcDbLine
 10
49.756461
 20
428.164831
 11
49.756461
 21
421.514831
  0
ARC
  5
3BC
100
AcDbEntity
  8
M0
  6
DASHED
100
AcDbCircle
 10
50.256461
 20
428.164831
 40
0.5
100
AcDbArc
 50
90.0
 51
180.0
  0
ARC
  5
3BD
100
AcDbEntity
  8
M0
  6
DASHED
100
AcDbCircle
 10
50.256461
 20
421.514831
 40
0.5
100
AcDbArc
 50
180.0
 51
270.0
  0
LINE
  5
3BE
100
AcDbEntity
  8
M0
100
AcDbLine
 10
120.181458
 20
428.239831
 11
120.181458
 21
403.939831
  0
LINE
  5
3BF
100
AcDbEntity
  8
M0
100
AcDbLine
 10
120.181458
 20
421.339831
 11
115.181458
 21
421.339831
  0
LINE
  5
3C0
100
AcDbEntity
  8
M0
100
AcDbLine
 10
117.581458
 20
429.339832
 11
112.781458
 21
429.339832
  0
LINE
  5
3C1
100
AcDbEntity
  8
M0
100
AcDbLine
 10
110.181458
 20
421.339831
 11
115.181458
 21
421.339831
  0
LINE
  5
3C2
100
AcDbEntity
  8
M0
100
AcDbLine
 10
120.181458
 20
425.439831
 11
115.181458
 21
425.439831
  0
LINE
  5
3C3
100
AcDbEntity
  8
M0
100
AcDbLine
 10
110.181458
 20
386.539831
 11
115.181458
 21
386.539831
  0
ARC
  5
3C4
100
AcDbEntity
  8
M0
100
AcDbCircle
 10
119.681458
 20
428.239831
 40
0.5
100
AcDbArc
 50
23.578178
 51
90.0
  0
LINE
  5
3C5
100
AcDbEntity
  8
M0
100
AcDbLine
 10
117.581458
 20
378.53983
 11
112.781458
 21
378.53983
  0
ARC
  5
3C6
100
AcDbEntity
  8
M0
100
AcDbCircle
 10
112.781458
 20
428.739831
 40
0.6
100
AcDbArc
 50
90.0
 51
180.0
  0
ARC
  5
3C7
100
AcDbEntity
  8
M0
100
AcDbCircle
 10
110.681458
 20
428.239831
 40
0.5
100
AcDbArc
 50
90.0
 51
156.421822
  0
LINE
  5
3C8
100
AcDbEntity
  8
M0
100
AcDbLine
 10
110.181458
 20
403.939831
 11
110.181458
 21
379.639831
  0
ARC
  5
3C9
100
AcDbEntity
  8
M0
100
AcDbCircle
 10
117.581458
 20
428.739831
 40
0.6
100
AcDbArc
 50
0.0
 51
90.0
  0
LINE
  5
3CA
100
AcDbEntity
  8
M0
100
AcDbLine
 10
120.181458
 20
379.639831
 11
120.181458
 21
403.939831
  0
LINE
  5
3CB
100
AcDbEntity
  8
M0
100
AcDbLine
 10
120.181458
 20
382.439831
 11
115.181458
 21
382.439831
  0
ARC
  5
3CC
100
AcDbEntity
  8
M0
100
AcDbCircle
 10
117.581458
 20
379.139831
 40
0.6
100
AcDbArc
 50
270.0
 51
360.0
  0
LINE
  5
3CD
100
AcDbEntity
  8
M0
  6
DASHDOT
100
AcDbLine
 10
115.181458
 20
433.939831
 11
115.181458
 21
374.939831
  0
ARC
  5
3CE
100
AcDbEntity
  8
M0
100
AcDbCircle
 10
119.681458
 20
379.639831
 40
0.5
100
AcDbArc
 50
270.0
 51
336.421822
  0
LINE
  5
3CF
100
AcDbEntity
  8
M0
100
AcDbLine
 10
120.181458
 20
386.539831
 11
115.181458
 21
386.539831
  0
LINE
  5
3D0
100
AcDbEntity
  8
M0
100
AcDbLine
 10
110.181458
 20
425.439831
 11
115.181458
 21
425.439831
  0
ARC
  5
3D1
100
AcDbEntity
  8
M0
100
AcDbCircle
 10
110.681458
 20
379.639831
 40
0.5
100
AcDbArc
 50
203.578178
 51
270.0
  0
LINE
  5
3D2
100
AcDbEntity
  8
M0
100
AcDbLine
 10
110.181458
 20
403.939831
 11
110.181458
 21
428.239831
  0
LINE
  5
3D3
100
AcDbEntity
  8
M0
100
AcDbLine
 10
110.681458
 20
379.139833
 11
119.681458
 21
379.139833
  0
ARC
  5
3D4
100
AcDbEntity
  8
M0
100
AcDbCircle
 10
112.781458
 20
379.139831
 40
0.6
100
AcDbArc
 50
180.0
 51
270.0
  0
LINE
  5
3D5
100
AcDbEntity
  8
M0
100
AcDbLine
 10
110.681458
 20
428.73983
 11
119.681458
 21
428.73983
  0
LINE
  5
3D6
100
AcDbEntity
  8
M0
100
AcDbLine
 10
110.181458
 20
382.439831
 11
115.181458
 21
382.439831
  0
CIRCLE
  5
3D7
100
AcDbEntity
  8
M0
  6
DASHED
100
AcDbCircle
 10
53.581461
 20
390.639831
 40
3.0
  0
LINE
  5
3D8
100
AcDbEntity
  8
M0
  6
DASHED
100
AcDbLine
 10
55.172045
 20
389.049186
 11
51.990405
 21
392.230949
  0
LINE
  5
3D9
100
AcDbEntity
  8
M0
  6
DASHED
100
AcDbLine
 10
54.995287
 20
390.993522
 11
53.227709
 21
389.225944
  0
LINE
  5
3DA
100
AcDbEntity
  8
M0
  6
DASHED
100
AcDbLine
 10
53.934741
 20
392.054191
 11
52.167162
 21
390.286491
  0
LINE
  5
3DB
100
AcDbEntity
  8
M0
  6
DASHED
100
AcDbLine
 10
56.906461
 20
394.464831
 11
50.256461
 21
394.464831
  0
ARC
  5
3DC
100
AcDbEntity
  8
M0
  6
DASHED
100
AcDbCircle
 10
56.906461
 20
393.964831
 40
0.5
100
AcDbArc
 50
0.0
 51
90.0
  0
LINE
  5
3DD
100
AcDbEntity
  8
M0
  6
DASHED
100
AcDbLine
 10
57.406461
 20
387.314831
 11
57.406461
 21
393.964831
  0
ARC
  5
3DE
100
AcDbEntity
  8
M0
  6
DASHED
100
AcDbCircle
 10
56.906461
 20
387.314831
 40
0.5
100
AcDbArc
 50
270.0
 51
360.0
  0
LINE
  5
3DF
100
AcDbEntity
  8
M0
  6
DASHED
100
AcDbLine
 10
50.256461
 20
386.814831
 11
56.906461
 21
386.814831
  0
LINE
  5
3E0
100
AcDbEntity
  8
M0
  6
DASHED
100
AcDbLine
 10
49.756461
 20
393.964831
 11
49.756461
 21
387.314831
  0
ARC
  5
3E1
100
AcDbEntity
  8
M0
  6
DASHED
100
AcDbCircle
 10
50.256461
 20
393.964831
 40
0.5
100
AcDbArc
 50
90.0
 51
180.0
  0
ARC
  5
3E2
100
AcDbEntity
  8
M0
  6
DASHED
100
AcDbCircle
 10
50.256461
 20
387.314831
 40
0.5
100
AcDbArc
 50
180.0
 51
270.0
  0
CIRCLE
  5
3E3
100
AcDbEntity
  8
M0
100
AcDbCircle
 10
67.881461
 20
442.539831
 40
3.0
  0
LINE
  5
3E4
100
AcDbEntity
  8
M0
100
AcDbLine
 10
69.472045
 20
440.949186
 11
66.290404
 21
444.130949
  0
LINE
  5
3E5
100
AcDbEntity
  8
M0
100
AcDbLine
 10
69.295287
 20
442.893522
 11
67.527709
 21
441.125944
  0
LINE
  5
3E6
100
AcDbEntity
  8
M0
100
AcDbLine
 10
68.23474
 20
443.954191
 11
66.467162
 21
442.186491
  0
LINE
  5
3E7
100
AcDbEntity
  8
M0
100
AcDbLine
 10
71.206461
 20
446.364831
 11
64.556461
 21
446.364831
  0
ARC
  5
3E8
100
AcDbEntity
  8
M0
100
AcDbCircle
 10
71.206461
 20
445.864831
 40
0.5
100
AcDbArc
 50
0.0
 51
90.0
  0
LINE
  5
3E9
100
AcDbEntity
  8
M0
100
AcDbLine
 10
71.706461
 20
439.214831
 11
71.706461
 21
445.864831
  0
ARC
  5
3EA
100
AcDbEntity
  8
M0
100
AcDbCircle
 10
71.206461
 20
439.214831
 40
0.5
100
AcDbArc
 50
270.0
 51
360.0
  0
LINE
  5
3EB
100
AcDbEntity
  8
M0
100
AcDbLine
 10
64.556461
 20
438.714831
 11
71.206461
 21
438.714831
  0
LINE
  5
3EC
100
AcDbEntity
  8
M0
100
AcDbLine
 10
64.056461
 20
445.864831
 11
64.056461
 21
439.214831
  0
ARC
  5
3ED
100
AcDbEntity
  8
M0
100
AcDbCircle
 10
64.556461
 20
445.864831
 40
0.5
100
AcDbArc
 50
90.0
 51
180.0
  0
ARC
  5
3EE
100
AcDbEntity
  8
M0
100
AcDbCircle
 10
64.556461
 20
439.214831
 40
0.5
100
AcDbArc
 50
180.0
 51
270.0
  0
LINE
  5
3EF
100
AcDbEntity
  8
M0
  6
DASHDOT
100
AcDbLine
 10
151.581458
 20
451.939832
 11
151.581458
 21
363.43983
  0
LINE
  5
3F0
100
AcDbEntity
  8
M0
  6
DASHDOT
100
AcDbLine
 10
115.181458
 20
403.939831
 11
197.481455
 21
403.939831
  0
ARC
  5
3F1
100
AcDbEntity
  8
M0
100
AcDbCircle
 10
159.231458
 20
439.289831
 40
0.5
100
AcDbArc
 50
268.473851
 51
270.0
  0
ARC
  5
3F2
100
AcDbEntity
  8
M0
100
AcDbCircle
 10
124.581458
 20
433.939831
 40
2.25
100
AcDbArc
 50
0.0
 51
180.0
  0
ARC
  5
3F3
100
AcDbEntity
  8
M0
100
AcDbCircle
 10
124.581458
 20
431.939831
 40
2.25
100
AcDbArc
 50
180.0
 51
360.0
  0
ARC
  5
3F4
100
AcDbEntity
  8
M0
100
AcDbCircle
 10
125.181458
 20
373.439831
 40
5.0
100
AcDbArc
 50
180.0
 51
270.0
  0
ARC
  5
3F5
100
AcDbEntity
  8
M0
100
AcDbCircle
 10
125.181458
 20
434.439831
 40
5.0
100
AcDbArc
 50
90.0
 51
180.0
  0
LINE
  5
3F6
100
AcDbEntity
  8
M0
100
AcDbLine
 10
160.481458
 20
391.739831
 11
142.681458
 21
391.739831
  0
LINE
  5
3F7
100
AcDbEntity
  8
M0
100
AcDbLine
 10
142.181459
 20
392.239831
 11
142.181459
 21
415.639831
  0
LINE
  5
3F8
100
AcDbEntity
  8
M0
100
AcDbLine
 10
171.281458
 20
421.339831
 11
131.881458
 21
421.339831
  0
LINE
  5
3F9
100
AcDbEntity
  8
M0
100
AcDbLine
 10
173.081459
 20
406.439831
 11
171.281458
 21
406.439831
  0
LINE
  5
3FA
100
AcDbEntity
  8
M0
100
AcDbLine
 10
146.281459
 20
416.13983
 11
142.681458
 21
416.13983
  0
ARC
  5
3FB
100
AcDbEntity
  8
M0
100
AcDbCircle
 10
129.381458
 20
371.939831
 40
0.5
100
AcDbArc
 50
180.0
 51
270.0
  0
ARC
  5
3FC
100
AcDbEntity
  8
M0
100
AcDbCircle
 10
173.781458
 20
372.939831
 40
0.5
100
AcDbArc
 50
0.0
 51
90.0
  0
ARC
  5
3FD
100
AcDbEntity
  8
M0
100
AcDbCircle
 10
130.381458
 20
372.939831
 40
0.5
100
AcDbArc
 50
0.0
 51
90.0
  0
ARC
  5
3FE
100
AcDbEntity
  8
M0
100
AcDbCircle
 10
129.381458
 20
372.939831
 40
0.5
100
AcDbArc
 50
90.0
 51
180.0
  0
CIRCLE
  5
3FF
100
AcDbEntity
  8
M0
100
AcDbCircle
 10
124.081458
 20
373.939831
 40
2.25
  0
CIRCLE
  5
400
100
AcDbEntity
  8
M0
100
AcDbCircle
 10
179.081458
 20
433.939831
 40
2.25
  0
ARC
  5
401
100
AcDbEntity
  8
M0
100
AcDbCircle
 10
173.781458
 20
371.939831
 40
0.5
100
AcDbArc
 50
270.0
 51
360.0
  0
ARC
  5
402
100
AcDbEntity
  8
M0
100
AcDbCircle
 10
172.781458
 20
372.939831
 40
0.5
100
AcDbArc
 50
90.0
 51
180.0
  0
ARC
  5
403
100
AcDbEntity
  8
M0
100
AcDbCircle
 10
171.581458
 20
438.439831
 40
1.0
100
AcDbArc
 50
90.0
 51
98.626927
  0
ARC
  5
404
100
AcDbEntity
  8
M0
100
AcDbCircle
 10
178.581458
 20
373.939831
 40
2.25
100
AcDbArc
 50
180.0
 51
360.0
  0
ARC
  5
405
100
AcDbEntity
  8
M0
100
AcDbCircle
 10
131.581458
 20
438.439831
 40
1.0
100
AcDbArc
 50
81.373073
 51
90.0
  0
ARC
  5
406
100
AcDbEntity
  8
M0
100
AcDbCircle
 10
177.981458
 20
434.439831
 40
5.0
100
AcDbArc
 50
0.0
 51
90.0
  0
ARC
  5
407
100
AcDbEntity
  8
M0
100
AcDbCircle
 10
130.381458
 20
371.939831
 40
0.5
100
AcDbArc
 50
270.0
 51
360.0
  0
ARC
  5
408
100
AcDbEntity
  8
M0
100
AcDbCircle
 10
178.581458
 20
375.939831
 40
2.25
100
AcDbArc
 50
0.0
 51
180.0
  0
ARC
  5
409
100
AcDbEntity
  8
M0
100
AcDbCircle
 10
177.981458
 20
373.439831
 40
5.0
100
AcDbArc
 50
270.0
 51
360.0
  0
LINE
  5
40A
100
AcDbEntity
  8
M0
100
AcDbLine
 10
131.150688
 20
407.439831
 11
131.150688
 21
406.439831
  0
LINE
  5
40B
100
AcDbEntity
  8
M0
100
AcDbLine
 10
130.881458
 20
407.439831
 11
130.281459
 21
407.439831
  0
LINE
  5
40C
100
AcDbEntity
  8
M0
100
AcDbLine
 10
131.150688
 20
400.439831
 11
131.150688
 21
401.439831
  0
LINE
  5
40D
100
AcDbEntity
  8
M0
100
AcDbLine
 10
130.881458
 20
400.439831
 11
130.281459
 21
400.439831
  0
LINE
  5
40E
100
AcDbEntity
  8
M0
100
AcDbLine
 10
172.012226
 20
400.439831
 11
172.012226
 21
401.439831
  0
LINE
  5
40F
100
AcDbEntity
  8
M0
100
AcDbLine
 10
172.281456
 20
400.439831
 11
172.881459
 21
400.439831
  0
LINE
  5
410
100
AcDbEntity
  8
M0
100
AcDbLine
 10
172.012226
 20
407.439831
 11
172.012226
 21
406.439831
  0
LINE
  5
411
100
AcDbEntity
  8
M0
100
AcDbLine
 10
172.281456
 20
407.439831
 11
172.881459
 21
407.439831
  0
LINE
  5
412
100
AcDbEntity
  8
M0
100
AcDbLine
 10
166.781456
 20
438.439832
 11
166.781456
 21
447.839833
  0
LINE
  5
413
100
AcDbEntity
  8
M0
100
AcDbLine
 10
168.370918
 20
445.457822
 11
168.581457
 21
438.439832
  0
LINE
  5
414
100
AcDbEntity
  8
M0
100
AcDbLine
 10
167.699189
 20
448.439831
 11
167.381459
 21
448.439831
  0
LINE
  5
415
100
AcDbEntity
  8
M0
100
AcDbLine
 10
156.581459
 20
370.939831
 11
156.581459
 21
371.439832
  0
LINE
  5
416
100
AcDbEntity
  8
M0
100
AcDbLine
 10
156.581459
 20
368.43983
 11
146.581457
 21
368.43983
  0
LINE
  5
417
100
AcDbEntity
  8
M0
100
AcDbLine
 10
146.581457
 20
371.439832
 11
146.581457
 21
370.939831
  0
LINE
  5
418
100
AcDbEntity
  8
M0
100
AcDbLine
 10
130.081457
 20
401.439831
 11
130.081457
 21
406.439831
  0
LINE
  5
419
100
AcDbEntity
  8
M0
100
AcDbLine
 10
130.881458
 20
400.439831
 11
131.881458
 21
400.439831
  0
LINE
  5
41A
100
AcDbEntity
  8
M0
100
AcDbLine
 10
130.881458
 20
369.439831
 11
130.881458
 21
400.439831
  0
LINE
  5
41B
100
AcDbEntity
  8
M0
100
AcDbLine
 10
130.881458
 20
407.439831
 11
131.881458
 21
407.439831
  0
LINE
  5
41C
100
AcDbEntity
  8
M0
100
AcDbLine
 10
129.581458
 20
405.439831
 11
130.081457
 21
405.439831
  0
LINE
  5
41D
100
AcDbEntity
  8
M0
100
AcDbLine
 10
129.581458
 20
402.439831
 11
129.581458
 21
405.439831
  0
LINE
  5
41E
100
AcDbEntity
  8
M0
100
AcDbLine
 10
147.081458
 20
370.43983
 11
156.081458
 21
370.43983
  0
LINE
  5
41F
100
AcDbEntity
  8
M0
100
AcDbLine
 10
130.081457
 20
402.439831
 11
129.581458
 21
402.439831
  0
LINE
  5
420
100
AcDbEntity
  8
M0
100
AcDbLine
 10
173.58146
 20
402.439831
 11
173.58146
 21
405.439831
  0
LINE
  5
421
100
AcDbEntity
  8
M0
100
AcDbLine
 10
131.081457
 20
406.439831
 11
130.081457
 21
406.439831
  0
LINE
  5
422
100
AcDbEntity
  8
M0
100
AcDbLine
 10
173.58146
 20
405.439831
 11
173.081459
 21
405.439831
  0
ARC
  5
423
100
AcDbEntity
  8
M0
100
AcDbCircle
 10
130.081458
 20
400.639831
 40
0.5
100
AcDbArc
 50
293.578178
 51
336.421822
  0
ARC
  5
424
100
AcDbEntity
  8
M0
100
AcDbCircle
 10
173.081458
 20
400.639831
 40
0.5
100
AcDbArc
 50
203.578178
 51
246.421822
  0
LINE
  5
425
100
AcDbEntity
  8
M0
100
AcDbLine
 10
129.381458
 20
371.439832
 11
130.381458
 21
371.439832
  0
LINE
  5
426
100
AcDbEntity
  8
M0
100
AcDbLine
 10
130.381458
 20
373.439832
 11
129.381458
 21
373.439832
  0
LINE
  5
427
100
AcDbEntity
  8
M0
100
AcDbLine
 10
173.781459
 20
373.439832
 11
172.781457
 21
373.439832
  0
LINE
  5
428
100
AcDbEntity
  8
M0
100
AcDbLine
 10
128.881457
 20
372.939831
 11
128.881457
 21
371.939829
  0
ARC
  5
429
100
AcDbEntity
  8
M0
100
AcDbCircle
 10
145.681458
 20
447.939831
 40
0.5
100
AcDbArc
 50
0.0
 51
90.0
  0
ARC
  5
42A
100
AcDbEntity
  8
M0
100
AcDbCircle
 10
157.481458
 20
447.939831
 40
0.5
100
AcDbArc
 50
90.0
 51
180.0
  0
ARC
  5
42B
100
AcDbEntity
  8
M0
100
AcDbCircle
 10
145.681458
 20
447.439831
 40
1.0
100
AcDbArc
 50
90.0
 51
180.0
  0
LINE
  5
42C
100
AcDbEntity
  8
M0
100
AcDbLine
 10
149.081458
 20
408.417298
 11
149.081458
 21
408.239831
  0
LINE
  5
42D
100
AcDbEntity
  8
M0
100
AcDbLine
 10
154.081457
 20
398.939831
 11
154.081457
 21
399.039831
  0
ARC
  5
42E
100
AcDbEntity
  8
M0
100
AcDbCircle
 10
157.481458
 20
447.439831
 40
1.0
100
AcDbArc
 50
0.0
 51
90.0
  0
LINE
  5
42F
100
AcDbEntity
  8
M0
100
AcDbLine
 10
154.081457
 20
408.417298
 11
154.081457
 21
408.239831
  0
ARC
  5
430
100
AcDbEntity
  8
M0
100
AcDbCircle
 10
146.781458
 20
407.739831
 40
0.5
100
AcDbArc
 50
90.0
 51
180.0
  0
ARC
  5
431
100
AcDbEntity
  8
M0
100
AcDbCircle
 10
149.331458
 20
407.739831
 40
0.5
100
AcDbArc
 50
0.0
 51
90.0
  0
LINE
  5
432
100
AcDbEntity
  8
M0
100
AcDbLine
 10
174.281456
 20
371.939829
 11
174.281456
 21
372.939831
  0
ARC
  5
433
100
AcDbEntity
  8
M0
100
AcDbCircle
 10
146.781458
 20
399.539831
 40
0.5
100
AcDbArc
 50
180.0
 51
270.0
  0
ARC
  5
434
100
AcDbEntity
  8
M0
100
AcDbCircle
 10
156.381458
 20
407.739831
 40
0.5
100
AcDbArc
 50
0.0
 51
90.0
  0
ARC
  5
435
100
AcDbEntity
  8
M0
100
AcDbCircle
 10
153.831458
 20
407.739831
 40
0.5
100
AcDbArc
 50
90.0
 51
180.0
  0
ARC
  5
436
100
AcDbEntity
  8
M0
100
AcDbCircle
 10
156.381458
 20
399.539831
 40
0.5
100
AcDbArc
 50
270.0
 51
360.0
  0
LINE
  5
437
100
AcDbEntity
  8
M0
100
AcDbLine
 10
159.28146
 20
438.439832
 11
168.581457
 21
438.439832
  0
LINE
  5
438
100
AcDbEntity
  8
M0
100
AcDbLine
 10
168.581457
 20
436.939831
 11
159.28146
 21
436.939831
  0
LINE
  5
439
100
AcDbEntity
  8
M0
100
AcDbLine
 10
168.581457
 20
438.439832
 11
168.581457
 21
436.939831
  0
LINE
  5
43A
100
AcDbEntity
  8
M0
100
AcDbLine
 10
144.681458
 20
446.939832
 11
136.381458
 21
446.939832
  0
LINE
  5
43B
100
AcDbEntity
  8
M0
100
AcDbLine
 10
166.781456
 20
446.939832
 11
158.481457
 21
446.939832
  0
LINE
  5
43C
100
AcDbEntity
  8
M0
100
AcDbLine
 10
158.481457
 20
447.439829
 11
158.481457
 21
439.419626
  0
LINE
  5
43D
100
AcDbEntity
  8
M0
100
AcDbLine
 10
173.081459
 20
402.439831
 11
173.58146
 21
402.439831
  0
LINE
  5
43E
100
AcDbEntity
  8
M0
100
AcDbLine
 10
156.981458
 20
438.87572
 11
156.981458
 21
447.439829
  0
LINE
  5
43F
100
AcDbEntity
  8
M0
100
AcDbLine
 10
143.88146
 20
436.939831
 11
134.581459
 21
436.939831
  0
LINE
  5
440
100
AcDbEntity
  8
M0
100
AcDbLine
 10
168.581457
 20
436.939831
 11
168.581457
 21
434.93983
  0
LINE
  5
441
100
AcDbEntity
  8
M0
100
AcDbLine
 10
134.581459
 20
438.439832
 11
143.88146
 21
438.439832
  0
LINE
  5
442
100
AcDbEntity
  8
M0
100
AcDbLine
 10
177.981459
 20
368.43983
 11
170.881458
 21
368.43983
  0
LINE
  5
443
100
AcDbEntity
  8
M0
100
AcDbLine
 10
128.881457
 20
374.439831
 11
130.881458
 21
374.439831
  0
LINE
  5
444
100
AcDbEntity
  8
M0
100
AcDbLine
 10
128.881457
 20
378.239832
 11
128.881457
 21
374.439831
  0
LINE
  5
445
100
AcDbEntity
  8
M0
100
AcDbLine
 10
174.281456
 20
374.439831
 11
174.281456
 21
378.239832
  0
LINE
  5
446
100
AcDbEntity
  8
M0
100
AcDbLine
 10
172.281456
 20
374.439831
 11
174.281456
 21
374.439831
  0
LINE
  5
447
100
AcDbEntity
  8
M0
100
AcDbLine
 10
176.331461
 20
375.93983
 11
176.331461
 21
373.93983
  0
LINE
  5
448
100
AcDbEntity
  8
M0
100
AcDbLine
 10
180.831456
 20
373.93983
 11
180.831456
 21
375.93983
  0
LINE
  5
449
100
AcDbEntity
  8
M0
100
AcDbLine
 10
120.181458
 20
373.439832
 11
120.181458
 21
434.439831
  0
LINE
  5
44A
100
AcDbEntity
  8
M0
100
AcDbLine
 10
134.581459
 20
438.439832
 11
134.581459
 21
434.93983
  0
LINE
  5
44B
100
AcDbEntity
  8
M0
100
AcDbLine
 10
126.831458
 20
433.93983
 11
126.831458
 21
431.939832
  0
LINE
  5
44C
100
AcDbEntity
  8
M0
100
AcDbLine
 10
122.331458
 20
431.939832
 11
122.331458
 21
433.93983
  0
ARC
  5
44D
100
AcDbEntity
  8
M0
100
AcDbCircle
 10
171.281458
 20
420.339831
 40
1.0
100
AcDbArc
 50
0.0
 51
90.0
  0
ARC
  5
44E
100
AcDbEntity
  8
M0
100
AcDbCircle
 10
171.281458
 20
387.539831
 40
1.0
100
AcDbArc
 50
270.0
 51
360.0
  0
LINE
  5
44F
100
AcDbEntity
  8
M0
100
AcDbLine
 10
171.281458
 20
400.439831
 11
171.281458
 21
401.439831
  0
LINE
  5
450
100
AcDbEntity
  8
M0
100
AcDbLine
 10
173.081459
 20
401.439831
 11
171.281458
 21
401.439831
  0
LINE
  5
451
100
AcDbEntity
  8
M0
100
AcDbLine
 10
152.781458
 20
416.13983
 11
150.381458
 21
416.13983
  0
LINE
  5
452
100
AcDbEntity
  8
M0
100
AcDbLine
 10
150.381458
 20
417.739831
 11
150.381458
 21
416.13983
  0
LINE
  5
453
100
AcDbEntity
  8
M0
100
AcDbLine
 10
131.081457
 20
406.439831
 11
131.881458
 21
406.439831
  0
LINE
  5
454
100
AcDbEntity
  8
M0
100
AcDbLine
 10
130.081457
 20
401.439831
 11
131.881458
 21
401.439831
  0
LINE
  5
455
100
AcDbEntity
  8
M0
100
AcDbLine
 10
171.281458
 20
407.439831
 11
171.281458
 21
406.439831
  0
LINE
  5
456
100
AcDbEntity
  8
M0
100
AcDbLine
 10
131.881458
 20
407.439831
 11
131.881458
 21
406.439831
  0
LINE
  5
457
100
AcDbEntity
  8
M0
100
AcDbLine
 10
155.881458
 20
415.139831
 11
147.281458
 21
415.139831
  0
LINE
  5
458
100
AcDbEntity
  8
M0
100
AcDbLine
 10
152.781458
 20
417.739831
 11
150.381458
 21
417.739831
  0
LINE
  5
459
100
AcDbEntity
  8
M0
100
AcDbLine
 10
152.781458
 20
417.739831
 11
152.781458
 21
416.13983
  0
LINE
  5
45A
100
AcDbEntity
  8
M0
100
AcDbLine
 10
156.881456
 20
416.13983
 11
160.481458
 21
416.13983
  0
LINE
  5
45B
100
AcDbEntity
  8
M0
100
AcDbLine
 10
160.981459
 20
392.239831
 11
160.981459
 21
415.639831
  0
LINE
  5
45C
100
AcDbEntity
  8
M0
100
AcDbLine
 10
172.881459
 20
379.239832
 11
173.781459
 21
379.239832
  0
LINE
  5
45D
100
AcDbEntity
  8
M0
100
AcDbLine
 10
179.78146
 20
379.239832
 11
180.68146
 21
379.239832
  0
LINE
  5
45E
100
AcDbEntity
  8
M0
100
AcDbLine
 10
129.381458
 20
428.639832
 11
130.281459
 21
428.639832
  0
LINE
  5
45F
100
AcDbEntity
  8
M0
100
AcDbLine
 10
173.781459
 20
428.639832
 11
172.881459
 21
428.639832
  0
LINE
  5
460
100
AcDbEntity
  8
M0
100
AcDbLine
 10
181.781457
 20
376.239831
 11
181.681455
 21
376.239831
  0
LINE
  5
461
100
AcDbEntity
  8
M0
100
AcDbLine
 10
180.68146
 20
428.639832
 11
179.78146
 21
428.639832
  0
LINE
  5
462
100
AcDbEntity
  8
M0
100
AcDbLine
 10
181.781457
 20
431.63983
 11
181.681455
 21
431.63983
  0
LINE
  5
463
100
AcDbEntity
  8
M0
100
AcDbLine
 10
122.481458
 20
428.639832
 11
123.381458
 21
428.639832
  0
ARC
  5
464
100
AcDbEntity
  8
M0
100
AcDbCircle
 10
134.581458
 20
369.439831
 40
1.0
100
AcDbArc
 50
180.0
 51
270.0
  0
LINE
  5
465
100
AcDbEntity
  8
M0
100
AcDbLine
 10
134.581458
 20
368.43983
 11
142.581458
 21
368.43983
  0
LINE
  5
466
100
AcDbEntity
  8
M0
100
AcDbLine
 10
121.381458
 20
376.239831
 11
121.481458
 21
376.239831
  0
LINE
  5
467
100
AcDbEntity
  8
M0
100
AcDbLine
 10
130.281459
 20
379.239832
 11
129.381458
 21
379.239832
  0
LINE
  5
468
100
AcDbEntity
  8
M0
100
AcDbLine
 10
123.381458
 20
379.239832
 11
122.481458
 21
379.239832
  0
ARC
  5
469
100
AcDbEntity
  8
M0
100
AcDbCircle
 10
156.881458
 20
415.639831
 40
0.5
100
AcDbArc
 50
90.0
 51
180.0
  0
ARC
  5
46A
100
AcDbEntity
  8
M0
100
AcDbCircle
 10
160.481458
 20
415.639831
 40
0.5
100
AcDbArc
 50
0.0
 51
90.0
  0
ARC
  5
46B
100
AcDbEntity
  8
M0
100
AcDbCircle
 10
147.281458
 20
415.639831
 40
0.5
100
AcDbArc
 50
180.0
 51
270.0
  0
ARC
  5
46C
100
AcDbEntity
  8
M0
100
AcDbCircle
 10
155.881458
 20
415.639831
 40
0.5
100
AcDbArc
 50
270.0
 51
360.0
  0
LINE
  5
46D
100
AcDbEntity
  8
M0
100
AcDbLine
 10
121.381458
 20
431.63983
 11
121.481458
 21
431.63983
  0
ARC
  5
46E
100
AcDbEntity
  8
M0
100
AcDbCircle
 10
131.881458
 20
420.339831
 40
1.0
100
AcDbArc
 50
90.0
 51
180.0
  0
ARC
  5
46F
100
AcDbEntity
  8
M0
100
AcDbCircle
 10
131.881458
 20
387.539831
 40
1.0
100
AcDbArc
 50
180.0
 51
270.0
  0
ARC
  5
470
100
AcDbEntity
  8
M0
100
AcDbCircle
 10
156.081458
 20
370.939831
 40
0.5
100
AcDbArc
 50
270.0
 51
360.0
  0
ARC
  5
471
100
AcDbEntity
  8
M0
100
AcDbCircle
 10
156.581458
 20
370.439831
 40
2.0
100
AcDbArc
 50
270.0
 51
292.57935
  0
ARC
  5
472
100
AcDbEntity
  8
M0
100
AcDbCircle
 10
142.681458
 20
415.639831
 40
0.5
100
AcDbArc
 50
90.0
 51
180.0
  0
ARC
  5
473
100
AcDbEntity
  8
M0
100
AcDbCircle
 10
146.281458
 20
415.639831
 40
0.5
100
AcDbArc
 50
0.0
 51
90.0
  0
ARC
  5
474
100
AcDbEntity
  8
M0
100
AcDbCircle
 10
160.481458
 20
392.239831
 40
0.5
100
AcDbArc
 50
270.0
 51
360.0
  0
ARC
  5
475
100
AcDbEntity
  8
M0
100
AcDbCircle
 10
142.681458
 20
392.239831
 40
0.5
100
AcDbArc
 50
180.0
 51
270.0
  0
ARC
  5
476
100
AcDbEntity
  8
M0
100
AcDbCircle
 10
135.463728
 20
447.839831
 40
0.6
100
AcDbArc
 50
90.0
 51
178.281642
  0
ARC
  5
477
100
AcDbEntity
  8
M0
100
AcDbCircle
 10
135.781458
 20
447.839831
 40
0.6
100
AcDbArc
 50
0.0
 51
90.0
  0
ARC
  5
478
100
AcDbEntity
  8
M0
100
AcDbCircle
 10
172.781458
 20
371.939831
 40
0.5
100
AcDbArc
 50
180.0
 51
270.0
  0
ARC
  5
479
100
AcDbEntity
  8
M0
100
AcDbCircle
 10
146.581458
 20
370.439831
 40
2.0
100
AcDbArc
 50
247.42065
 51
270.0
  0
ARC
  5
47A
100
AcDbEntity
  8
M0
100
AcDbCircle
 10
147.081458
 20
370.939831
 40
0.5
100
AcDbArc
 50
180.0
 51
270.0
  0
ARC
  5
47B
100
AcDbEntity
  8
M0
100
AcDbCircle
 10
167.381458
 20
447.839831
 40
0.6
100
AcDbArc
 50
90.0
 51
180.0
  0
LINE
  5
47C
100
AcDbEntity
  8
M0
100
AcDbLine
 10
136.381458
 20
447.839833
 11
136.381458
 21
438.439832
  0
LINE
  5
47D
100
AcDbEntity
  8
M0
100
AcDbLine
 10
134.581459
 20
438.439832
 11
134.791997
 21
445.457822
  0
LINE
  5
47E
100
AcDbEntity
  8
M0
100
AcDbLine
 10
135.463729
 20
448.439831
 11
135.781459
 21
448.439831
  0
ARC
  5
47F
100
AcDbEntity
  8
M0
100
AcDbCircle
 10
167.699188
 20
447.839831
 40
0.6
100
AcDbArc
 50
1.718358
 51
90.0
  0
LINE
  5
480
100
AcDbEntity
  8
M0
100
AcDbLine
 10
172.781457
 20
371.439832
 11
173.781459
 21
371.439832
  0
LINE
  5
481
100
AcDbEntity
  8
M0
100
AcDbLine
 10
172.281456
 20
407.439831
 11
171.281458
 21
407.439831
  0
LINE
  5
482
100
AcDbEntity
  8
M0
100
AcDbLine
 10
173.081459
 20
401.439831
 11
173.081459
 21
406.439831
  0
LINE
  5
483
100
AcDbEntity
  8
M0
100
AcDbLine
 10
171.281458
 20
386.53983
 11
131.881458
 21
386.53983
  0
LINE
  5
484
100
AcDbEntity
  8
M0
100
AcDbLine
 10
172.281456
 20
400.439831
 11
171.281458
 21
400.439831
  0
LINE
  5
485
100
AcDbEntity
  8
M0
100
AcDbLine
 10
172.281456
 20
369.439831
 11
172.281456
 21
400.439831
  0
LINE
  5
486
100
AcDbEntity
  8
M0
100
AcDbLine
 10
131.881458
 20
400.439831
 11
131.881458
 21
401.439831
  0
LINE
  5
487
100
AcDbEntity
  8
M0
100
AcDbLine
 10
156.981458
 20
447.439829
 11
156.981458
 21
447.93983
  0
LINE
  5
488
100
AcDbEntity
  8
M0
100
AcDbLine
 10
146.181458
 20
446.939832
 11
147.281458
 21
446.939832
  0
LINE
  5
489
100
AcDbEntity
  8
M0
100
AcDbLine
 10
156.881456
 20
399.539831
 11
156.881456
 21
407.739831
  0
LINE
  5
48A
100
AcDbEntity
  8
M0
100
AcDbLine
 10
155.881458
 20
446.939832
 11
156.981458
 21
446.939832
  0
LINE
  5
48B
100
AcDbEntity
  8
M0
100
AcDbLine
 10
146.181458
 20
447.439829
 11
146.181458
 21
438.87572
  0
LINE
  5
48C
100
AcDbEntity
  8
M0
100
AcDbLine
 10
144.681458
 20
439.419626
 11
144.681458
 21
447.439829
  0
LINE
  5
48D
100
AcDbEntity
  8
M0
100
AcDbLine
 10
146.181458
 20
447.93983
 11
146.181458
 21
447.439829
  0
LINE
  5
48E
100
AcDbEntity
  8
M0
100
AcDbLine
 10
155.381457
 20
408.539831
 11
155.381457
 21
408.239831
  0
LINE
  5
48F
100
AcDbEntity
  8
M0
100
AcDbLine
 10
156.881456
 20
407.739831
 11
156.881456
 21
408.539831
  0
LINE
  5
490
100
AcDbEntity
  8
M0
100
AcDbLine
 10
147.781459
 20
408.539831
 11
147.781459
 21
408.239831
  0
LINE
  5
491
100
AcDbEntity
  8
M0
100
AcDbLine
 10
155.381457
 20
399.039831
 11
155.381457
 21
398.939831
  0
LINE
  5
492
100
AcDbEntity
  8
M0
100
AcDbLine
 10
146.281459
 20
402.139831
 11
145.781458
 21
402.139831
  0
LINE
  5
493
100
AcDbEntity
  8
M0
100
AcDbLine
 10
156.881456
 20
402.139831
 11
157.381457
 21
402.139831
  0
LINE
  5
494
100
AcDbEntity
  8
M0
100
AcDbLine
 10
156.881456
 20
398.939831
 11
156.881456
 21
399.539831
  0
LINE
  5
495
100
AcDbEntity
  8
M0
100
AcDbLine
 10
145.781458
 20
405.139831
 11
146.281459
 21
405.139831
  0
LINE
  5
496
100
AcDbEntity
  8
M0
100
AcDbLine
 10
149.081458
 20
408.417298
 11
149.081458
 21
408.539831
  0
LINE
  5
497
100
AcDbEntity
  8
M0
100
AcDbLine
 10
130.281459
 20
400.139831
 11
130.881458
 21
400.139831
  0
LINE
  5
498
100
AcDbEntity
  8
M0
100
AcDbLine
 10
149.081458
 20
398.939831
 11
149.081458
 21
399.039831
  0
LINE
  5
499
100
AcDbEntity
  8
M0
100
AcDbLine
 10
154.081457
 20
408.417298
 11
154.081457
 21
408.539831
  0
LINE
  5
49A
100
AcDbEntity
  8
M0
100
AcDbLine
 10
146.281459
 20
398.939831
 11
146.281459
 21
399.539831
  0
LINE
  5
49B
100
AcDbEntity
  8
M0
100
AcDbLine
 10
147.781459
 20
399.039831
 11
147.781459
 21
398.939831
  0
LINE
  5
49C
100
AcDbEntity
  8
M0
100
AcDbLine
 10
172.881459
 20
400.139831
 11
172.281456
 21
400.139831
  0
LINE
  5
49D
100
AcDbEntity
  8
M0
100
AcDbLine
 10
153.331459
 20
407.739831
 11
153.331459
 21
400.539831
  0
LINE
  5
49E
100
AcDbEntity
  8
M0
100
AcDbLine
 10
149.831456
 20
407.739831
 11
149.831456
 21
400.539831
  0
LINE
  5
49F
100
AcDbEntity
  8
M0
100
AcDbLine
 10
146.781457
 20
408.239831
 11
149.331459
 21
408.239831
  0
LINE
  5
4A0
100
AcDbEntity
  8
M0
100
AcDbLine
 10
156.381459
 20
399.039831
 11
146.781457
 21
399.039831
  0
LINE
  5
4A1
100
AcDbEntity
  8
M0
100
AcDbLine
 10
156.381459
 20
408.239831
 11
153.831457
 21
408.239831
  0
LINE
  5
4A2
100
AcDbEntity
  8
M0
100
AcDbLine
 10
149.831456
 20
400.539831
 11
153.331459
 21
400.539831
  0
LINE
  5
4A3
100
AcDbEntity
  8
M0
100
AcDbLine
 10
142.181459
 20
408.239831
 11
142.381459
 21
408.239831
  0
LINE
  5
4A4
100
AcDbEntity
  8
M0
100
AcDbLine
 10
142.381459
 20
399.039831
 11
142.181459
 21
399.039831
  0
LINE
  5
4A5
100
AcDbEntity
  8
M0
100
AcDbLine
 10
146.281459
 20
407.739831
 11
146.281459
 21
408.539831
  0
LINE
  5
4A6
100
AcDbEntity
  8
M0
100
AcDbLine
 10
157.381457
 20
405.139831
 11
156.881456
 21
405.139831
  0
LINE
  5
4A7
100
AcDbEntity
  8
M0
100
AcDbLine
 10
147.581459
 20
408.239831
 11
155.581457
 21
408.239831
  0
LINE
  5
4A8
100
AcDbEntity
  8
M0
100
AcDbLine
 10
146.281459
 20
399.539831
 11
146.281459
 21
407.739831
  0
LINE
  5
4A9
100
AcDbEntity
  8
M0
100
AcDbLine
 10
160.981459
 20
408.239831
 11
160.781459
 21
408.239831
  0
LINE
  5
4AA
100
AcDbEntity
  8
M0
100
AcDbLine
 10
160.781459
 20
399.039831
 11
160.981459
 21
399.039831
  0
LINE
  5
4AB
100
AcDbEntity
  8
M0
100
AcDbLine
 10
181.98146
 20
424.03983
 11
181.681455
 21
424.03983
  0
ARC
  5
4AC
100
AcDbEntity
  8
M0
100
AcDbCircle
 10
144.881458
 20
438.439831
 40
1.0
100
AcDbArc
 50
90.0
 51
180.0
  0
LINE
  5
4AD
100
AcDbEntity
  8
M0
100
AcDbLine
 10
181.681455
 20
400.239831
 11
181.98146
 21
400.239831
  0
LINE
  5
4AE
100
AcDbEntity
  8
M0
100
AcDbLine
 10
181.98146
 20
407.639831
 11
181.681455
 21
407.639831
  0
ARC
  5
4AF
100
AcDbEntity
  8
M0
100
AcDbCircle
 10
157.881458
 20
438.439831
 40
1.0
100
AcDbArc
 50
90.0
 51
180.0
  0
ARC
  5
4B0
100
AcDbEntity
  8
M0
100
AcDbCircle
 10
157.881458
 20
369.439831
 40
1.0
100
AcDbArc
 50
180.0
 51
270.0
  0
ARC
  5
4B1
100
AcDbEntity
  8
M0
100
AcDbCircle
 10
145.281458
 20
438.439831
 40
1.0
100
AcDbArc
 50
0.0
 51
90.0
  0
ARC
  5
4B2
100
AcDbEntity
  8
M0
100
AcDbCircle
 10
145.281458
 20
369.439831
 40
1.0
100
AcDbArc
 50
270.0
 51
360.0
  0
LINE
  5
4B3
100
AcDbEntity
  8
M0
100
AcDbLine
 10
160.781459
 20
396.43983
 11
160.781459
 21
410.039831
  0
LINE
  5
4B4
100
AcDbEntity
  8
M0
100
AcDbLine
 10
159.781457
 20
415.939831
 11
158.281458
 21
415.939831
  0
LINE
  5
4B5
100
AcDbEntity
  8
M0
100
AcDbLine
 10
159.781457
 20
391.939831
 11
159.28146
 21
391.939831
  0
LINE
  5
4B6
100
AcDbEntity
  8
M0
100
AcDbLine
 10
181.681455
 20
383.839831
 11
181.98146
 21
383.839831
  0
LINE
  5
4B7
100
AcDbEntity
  8
M0
100
AcDbLine
 10
180.68146
 20
430.639831
 11
180.68146
 21
408.639831
  0
LINE
  5
4B8
100
AcDbEntity
  8
M0
100
AcDbLine
 10
145.281457
 20
368.43983
 11
144.881458
 21
368.43983
  0
LINE
  5
4B9
100
AcDbEntity
  8
M0
100
AcDbLine
 10
144.881458
 20
385.039831
 11
145.281457
 21
385.039831
  0
LINE
  5
4BA
100
AcDbEntity
  8
M0
100
AcDbLine
 10
145.281457
 20
385.039831
 11
146.281459
 21
385.039831
  0
ARC
  5
4BB
100
AcDbEntity
  8
M0
100
AcDbCircle
 10
158.281458
 20
438.439831
 40
1.0
100
AcDbArc
 50
0.0
 51
90.0
  0
ARC
  5
4BC
100
AcDbEntity
  8
M0
100
AcDbCircle
 10
170.881458
 20
438.439831
 40
1.0
100
AcDbArc
 50
90.0
 51
180.0
  0
LINE
  5
4BD
100
AcDbEntity
  8
M0
100
AcDbLine
 10
180.68146
 20
399.239831
 11
180.68146
 21
377.239831
  0
ARC
  5
4BE
100
AcDbEntity
  8
M0
100
AcDbCircle
 10
158.281458
 20
369.439831
 40
1.0
100
AcDbArc
 50
270.0
 51
360.0
  0
ARC
  5
4BF
100
AcDbEntity
  8
M0
100
AcDbCircle
 10
171.281458
 20
369.439831
 40
1.0
100
AcDbArc
 50
270.0
 51
360.0
  0
LINE
  5
4C0
100
AcDbEntity
  8
M0
100
AcDbLine
 10
144.881458
 20
439.439832
 11
145.281457
 21
439.439832
  0
ARC
  5
4C1
100
AcDbEntity
  8
M0
100
AcDbCircle
 10
170.881458
 20
369.439831
 40
1.0
100
AcDbArc
 50
180.0
 51
270.0
  0
ARC
  5
4C2
100
AcDbEntity
  8
M0
100
AcDbCircle
 10
171.281458
 20
438.439831
 40
1.0
100
AcDbArc
 50
0.0
 51
90.0
  0
LINE
  5
4C3
100
AcDbEntity
  8
M0
100
AcDbLine
 10
181.98146
 20
407.639831
 11
181.98146
 21
400.239831
  0
LINE
  5
4C4
100
AcDbEntity
  8
M0
100
AcDbLine
 10
174.281456
 20
399.939831
 11
174.281456
 21
407.939831
  0
LINE
  5
4C5
100
AcDbEntity
  8
M0
100
AcDbLine
 10
172.281456
 20
399.939831
 11
174.281456
 21
399.939831
  0
LINE
  5
4C6
100
AcDbEntity
  8
M0
100
AcDbLine
 10
121.181458
 20
400.239831
 11
121.481458
 21
400.239831
  0
LINE
  5
4C7
100
AcDbEntity
  8
M0
100
AcDbLine
 10
121.181458
 20
424.03983
 11
121.481458
 21
424.03983
  0
LINE
  5
4C8
100
AcDbEntity
  8
M0
100
AcDbLine
 10
180.68146
 20
407.639831
 11
180.68146
 21
400.239831
  0
LINE
  5
4C9
100
AcDbEntity
  8
M0
100
AcDbLine
 10
180.68146
 20
400.239831
 11
177.681454
 21
400.239831
  0
LINE
  5
4CA
100
AcDbEntity
  8
M0
100
AcDbLine
 10
121.181458
 20
407.639831
 11
121.181458
 21
400.239831
  0
LINE
  5
4CB
100
AcDbEntity
  8
M0
100
AcDbLine
 10
177.681454
 20
407.639831
 11
180.68146
 21
407.639831
  0
LINE
  5
4CC
100
AcDbEntity
  8
M0
100
AcDbLine
 10
171.38146
 20
407.439831
 11
171.38146
 21
406.439831
  0
LINE
  5
4CD
100
AcDbEntity
  8
M0
100
AcDbLine
 10
172.281456
 20
407.939831
 11
174.281456
 21
407.939831
  0
LINE
  5
4CE
100
AcDbEntity
  8
M0
100
AcDbLine
 10
177.681454
 20
400.239831
 11
177.681454
 21
407.639831
  0
LINE
  5
4CF
100
AcDbEntity
  8
M0
100
AcDbLine
 10
143.381459
 20
415.939831
 11
144.881458
 21
415.939831
  0
LINE
  5
4D0
100
AcDbEntity
  8
M0
100
AcDbLine
 10
142.381459
 20
396.43983
 11
142.381459
 21
410.039831
  0
LINE
  5
4D1
100
AcDbEntity
  8
M0
100
AcDbLine
 10
143.381459
 20
391.939831
 11
143.88146
 21
391.939831
  0
LINE
  5
4D2
100
AcDbEntity
  8
M0
100
AcDbLine
 10
146.531456
 20
414.939831
 11
156.631459
 21
414.939831
  0
LINE
  5
4D3
100
AcDbEntity
  8
M0
100
AcDbLine
 10
157.131457
 20
408.539831
 11
146.031459
 21
408.539831
  0
LINE
  5
4D4
100
AcDbEntity
  8
M0
100
AcDbLine
 10
146.531456
 20
410.039831
 11
156.631459
 21
410.039831
  0
LINE
  5
4D5
100
AcDbEntity
  8
M0
100
AcDbLine
 10
156.631459
 20
413.439831
 11
146.531456
 21
413.439831
  0
LINE
  5
4D6
100
AcDbEntity
  8
M0
100
AcDbLine
 10
121.481458
 20
407.639831
 11
121.181458
 21
407.639831
  0
LINE
  5
4D7
100
AcDbEntity
  8
M0
100
AcDbLine
 10
171.38146
 20
401.439831
 11
171.38146
 21
400.439831
  0
LINE
  5
4D8
100
AcDbEntity
  8
M0
100
AcDbLine
 10
121.481458
 20
383.839831
 11
121.181458
 21
383.839831
  0
LINE
  5
4D9
100
AcDbEntity
  8
M0
100
AcDbLine
 10
122.481458
 20
430.639831
 11
122.481458
 21
408.639831
  0
LINE
  5
4DA
100
AcDbEntity
  8
M0
100
AcDbLine
 10
172.881459
 20
400.939831
 11
172.881459
 21
399.939831
  0
LINE
  5
4DB
100
AcDbEntity
  8
M0
100
AcDbLine
 10
172.881459
 20
407.939831
 11
172.881459
 21
406.939831
  0
LINE
  5
4DC
100
AcDbEntity
  8
M0
100
AcDbLine
 10
122.481458
 20
413.239831
 11
130.881458
 21
413.239831
  0
LINE
  5
4DD
100
AcDbEntity
  8
M0
100
AcDbLine
 10
172.881459
 20
400.939831
 11
173.181456
 21
400.939831
  0
LINE
  5
4DE
100
AcDbEntity
  8
M0
100
AcDbLine
 10
173.181456
 20
406.939831
 11
173.181456
 21
405.439831
  0
LINE
  5
4DF
100
AcDbEntity
  8
M0
100
AcDbLine
 10
172.281456
 20
394.639831
 11
180.68146
 21
394.639831
  0
LINE
  5
4E0
100
AcDbEntity
  8
M0
100
AcDbLine
 10
173.181456
 20
406.939831
 11
172.881459
 21
406.939831
  0
LINE
  5
4E1
100
AcDbEntity
  8
M0
100
AcDbLine
 10
173.181456
 20
402.439831
 11
173.181456
 21
400.939831
  0
LINE
  5
4E2
100
AcDbEntity
  8
M0
100
AcDbLine
 10
129.981457
 20
402.439831
 11
129.981457
 21
400.939831
  0
LINE
  5
4E3
100
AcDbEntity
  8
M0
100
AcDbLine
 10
129.981457
 20
406.939831
 11
129.981457
 21
405.439831
  0
LINE
  5
4E4
100
AcDbEntity
  8
M0
100
AcDbLine
 10
130.281459
 20
400.939831
 11
129.981457
 21
400.939831
  0
LINE
  5
4E5
100
AcDbEntity
  8
M0
100
AcDbLine
 10
130.281459
 20
400.939831
 11
130.281459
 21
399.939831
  0
LINE
  5
4E6
100
AcDbEntity
  8
M0
100
AcDbLine
 10
130.881458
 20
394.639831
 11
122.481458
 21
394.639831
  0
LINE
  5
4E7
100
AcDbEntity
  8
M0
100
AcDbLine
 10
129.981457
 20
406.939831
 11
130.281459
 21
406.939831
  0
ARC
  5
4E8
100
AcDbEntity
  8
M0
100
AcDbCircle
 10
132.281458
 20
438.439831
 40
1.0
100
AcDbArc
 50
0.0
 51
90.0
  0
ARC
  5
4E9
100
AcDbEntity
  8
M0
100
AcDbCircle
 10
144.881458
 20
369.439831
 40
1.0
100
AcDbArc
 50
180.0
 51
270.0
  0
ARC
  5
4EA
100
AcDbEntity
  8
M0
100
AcDbCircle
 10
131.881458
 20
438.439831
 40
1.0
100
AcDbArc
 50
90.0
 51
180.0
  0
ARC
  5
4EB
100
AcDbEntity
  8
M0
100
AcDbCircle
 10
132.281458
 20
369.439831
 40
1.0
100
AcDbArc
 50
270.0
 51
360.0
  0
LINE
  5
4EC
100
AcDbEntity
  8
M0
100
AcDbLine
 10
132.281457
 20
368.43983
 11
132.081457
 21
368.43983
  0
LINE
  5
4ED
100
AcDbEntity
  8
M0
100
AcDbLine
 10
132.081457
 20
439.439832
 11
132.281457
 21
439.439832
  0
LINE
  5
4EE
100
AcDbEntity
  8
M0
100
AcDbLine
 10
160.981459
 20
409.239831
 11
160.781459
 21
409.239831
  0
ARC
  5
4EF
100
AcDbEntity
  8
M0
100
AcDbCircle
 10
130.881458
 20
384.439831
 40
0.6
100
AcDbArc
 50
180.0
 51
270.0
  0
LINE
  5
4F0
100
AcDbEntity
  8
M0
100
AcDbLine
 10
130.281459
 20
407.939831
 11
130.281459
 21
406.939831
  0
LINE
  5
4F1
100
AcDbEntity
  8
M0
100
AcDbLine
 10
180.68146
 20
413.239831
 11
172.281456
 21
413.239831
  0
ARC
  5
4F2
100
AcDbEntity
  8
M0
100
AcDbCircle
 10
172.281458
 20
384.439831
 40
0.6
100
AcDbArc
 50
270.0
 51
360.0
  0
ARC
  5
4F3
100
AcDbEntity
  8
M0
100
AcDbCircle
 10
131.881458
 20
369.439831
 40
1.0
100
AcDbArc
 50
180.0
 51
270.0
  0
ARC
  5
4F4
100
AcDbEntity
  8
M0
100
AcDbCircle
 10
130.881458
 20
423.439831
 40
0.6
100
AcDbArc
 50
90.0
 51
180.0
  0
ARC
  5
4F5
100
AcDbEntity
  8
M0
100
AcDbCircle
 10
172.281458
 20
423.439831
 40
0.6
100
AcDbArc
 50
0.0
 51
90.0
  0
LINE
  5
4F6
100
AcDbEntity
  8
M0
100
AcDbLine
 10
159.28146
 20
422.839831
 11
156.881456
 21
422.839831
  0
LINE
  5
4F7
100
AcDbEntity
  8
M0
100
AcDbLine
 10
159.28146
 20
385.039831
 11
158.281458
 21
385.039831
  0
LINE
  5
4F8
100
AcDbEntity
  8
M0
100
AcDbLine
 10
157.881458
 20
368.43983
 11
158.281458
 21
368.43983
  0
LINE
  5
4F9
100
AcDbEntity
  8
M0
100
AcDbLine
 10
157.881458
 20
385.039831
 11
156.881456
 21
385.039831
  0
LINE
  5
4FA
100
AcDbEntity
  8
M0
100
AcDbLine
 10
158.281458
 20
385.039831
 11
157.881458
 21
385.039831
  0
LINE
  5
4FB
100
AcDbEntity
  8
M0
100
AcDbLine
 10
177.981458
 20
439.439832
 11
170.881459
 21
439.439832
  0
LINE
  5
4FC
100
AcDbEntity
  8
M0
100
AcDbLine
 10
172.281456
 20
407.439831
 11
172.281456
 21
438.439832
  0
LINE
  5
4FD
100
AcDbEntity
  8
M0
100
AcDbLine
 10
158.281458
 20
439.439832
 11
157.881458
 21
439.439832
  0
LINE
  5
4FE
100
AcDbEntity
  8
M0
100
AcDbLine
 10
169.881456
 20
386.53983
 11
169.881456
 21
369.439832
  0
ARC
  5
4FF
100
AcDbEntity
  8
M0
100
AcDbCircle
 10
145.531458
 20
392.439831
 40
0.5
100
AcDbArc
 50
270.0
 51
360.0
  0
ARC
  5
500
100
AcDbEntity
  8
M0
100
AcDbCircle
 10
157.631458
 20
392.439831
 40
0.5
100
AcDbArc
 50
180.0
 51
270.0
  0
ARC
  5
501
100
AcDbEntity
  8
M0
100
AcDbCircle
 10
145.531458
 20
414.939831
 40
1.0
100
AcDbArc
 50
0.0
 51
90.0
  0
ARC
  5
502
100
AcDbEntity
  8
M0
100
AcDbCircle
 10
146.031458
 20
409.039831
 40
0.5
100
AcDbArc
 50
270.0
 51
360.0
  0
ARC
  5
503
100
AcDbEntity
  8
M0
100
AcDbCircle
 10
159.781458
 20
392.939831
 40
1.0
100
AcDbArc
 50
270.0
 51
360.0
  0
ARC
  5
504
100
AcDbEntity
  8
M0
100
AcDbCircle
 10
159.781458
 20
396.439831
 40
1.0
100
AcDbArc
 50
0.0
 51
90.0
  0
ARC
  5
505
100
AcDbEntity
  8
M0
100
AcDbCircle
 10
157.631458
 20
414.939831
 40
1.0
100
AcDbArc
 50
90.0
 51
180.0
  0
ARC
  5
506
100
AcDbEntity
  8
M0
100
AcDbCircle
 10
157.131458
 20
409.039831
 40
0.5
100
AcDbArc
 50
180.0
 51
270.0
  0
ARC
  5
507
100
AcDbEntity
  8
M0
100
AcDbCircle
 10
181.981458
 20
408.639831
 40
1.0
100
AcDbArc
 50
270.0
 51
360.0
  0
ARC
  5
508
100
AcDbEntity
  8
M0
100
AcDbCircle
 10
181.981458
 20
423.039831
 40
1.0
100
AcDbArc
 50
0.0
 51
90.0
  0
ARC
  5
509
100
AcDbEntity
  8
M0
100
AcDbCircle
 10
143.381458
 20
414.939831
 40
1.0
100
AcDbArc
 50
90.0
 51
180.0
  0
ARC
  5
50A
100
AcDbEntity
  8
M0
100
AcDbCircle
 10
143.381458
 20
392.939831
 40
1.0
100
AcDbArc
 50
180.0
 51
270.0
  0
ARC
  5
50B
100
AcDbEntity
  8
M0
100
AcDbCircle
 10
181.981458
 20
384.839831
 40
1.0
100
AcDbArc
 50
270.0
 51
360.0
  0
LINE
  5
50C
100
AcDbEntity
  8
M0
100
AcDbLine
 10
157.131457
 20
397.439831
 11
146.031459
 21
397.439831
  0
LINE
  5
50D
100
AcDbEntity
  8
M0
100
AcDbLine
 10
146.031459
 20
393.439831
 11
157.131457
 21
393.439831
  0
LINE
  5
50E
100
AcDbEntity
  8
M0
100
AcDbLine
 10
146.031459
 20
398.939831
 11
157.131457
 21
398.939831
  0
LINE
  5
50F
100
AcDbEntity
  8
M0
100
AcDbLine
 10
142.381459
 20
410.039831
 11
142.381459
 21
414.939831
  0
LINE
  5
510
100
AcDbEntity
  8
M0
100
AcDbLine
 10
143.88146
 20
408.539831
 11
142.381459
 21
410.039831
  0
LINE
  5
511
100
AcDbEntity
  8
M0
100
AcDbLine
 10
142.381459
 20
392.939831
 11
142.381459
 21
396.43983
  0
ARC
  5
512
100
AcDbEntity
  8
M0
100
AcDbCircle
 10
134.481458
 20
387.239831
 40
1.0
100
AcDbArc
 50
270.0
 51
315.572996
  0
ARC
  5
513
100
AcDbEntity
  8
M0
100
AcDbCircle
 10
142.681458
 20
387.239831
 40
1.0
100
AcDbArc
 50
224.427004
 51
270.0
  0
ARC
  5
514
100
AcDbEntity
  8
M0
100
AcDbCircle
 10
143.381458
 20
396.439831
 40
1.0
100
AcDbArc
 50
90.0
 51
180.0
  0
ARC
  5
515
100
AcDbEntity
  8
M0
100
AcDbCircle
 10
159.781458
 20
414.939831
 40
1.0
100
AcDbArc
 50
0.0
 51
90.0
  0
LINE
  5
516
100
AcDbEntity
  8
M0
100
AcDbLine
 10
182.981455
 20
434.439831
 11
182.981455
 21
373.439831
  0
ARC
  5
517
100
AcDbEntity
  8
M0
100
AcDbCircle
 10
168.681458
 20
420.639831
 40
1.0
100
AcDbArc
 50
90.0
 51
135.572996
  0
LINE
  5
518
100
AcDbEntity
  8
M0
100
AcDbLine
 10
155.681458
 20
421.63983
 11
156.881456
 21
421.63983
  0
LINE
  5
519
100
AcDbEntity
  8
M0
100
AcDbLine
 10
168.681459
 20
386.239831
 11
169.881456
 21
386.239831
  0
LINE
  5
51A
100
AcDbEntity
  8
M0
100
AcDbLine
 10
160.481458
 20
386.239831
 11
159.28146
 21
386.239831
  0
LINE
  5
51B
100
AcDbEntity
  8
M0
100
AcDbLine
 10
180.68146
 20
421.039831
 11
172.881459
 21
421.039831
  0
LINE
  5
51C
100
AcDbEntity
  8
M0
100
AcDbLine
 10
147.481457
 20
421.63983
 11
146.281459
 21
421.63983
  0
LINE
  5
51D
100
AcDbEntity
  8
M0
100
AcDbLine
 10
159.28146
 20
374.939832
 11
169.881456
 21
374.939832
  0
LINE
  5
51E
100
AcDbEntity
  8
M0
100
AcDbLine
 10
156.881456
 20
432.939832
 11
146.281459
 21
432.939832
  0
ARC
  5
51F
100
AcDbEntity
  8
M0
100
AcDbCircle
 10
121.481458
 20
423.039831
 40
1.0
100
AcDbArc
 50
0.0
 51
90.0
  0
ARC
  5
520
100
AcDbEntity
  8
M0
100
AcDbCircle
 10
121.481458
 20
399.239831
 40
1.0
100
AcDbArc
 50
0.0
 51
90.0
  0
ARC
  5
521
100
AcDbEntity
  8
M0
100
AcDbCircle
 10
121.181458
 20
408.639831
 40
1.0
100
AcDbArc
 50
180.0
 51
270.0
  0
ARC
  5
522
100
AcDbEntity
  8
M0
100
AcDbCircle
 10
121.181458
 20
423.039831
 40
1.0
100
AcDbArc
 50
90.0
 51
180.0
  0
ARC
  5
523
100
AcDbEntity
  8
M0
100
AcDbCircle
 10
181.681458
 20
384.839831
 40
1.0
100
AcDbArc
 50
180.0
 51
270.0
  0
ARC
  5
524
100
AcDbEntity
  8
M0
100
AcDbCircle
 10
181.681458
 20
408.639831
 40
1.0
100
AcDbArc
 50
180.0
 51
270.0
  0
ARC
  5
525
100
AcDbEntity
  8
M0
100
AcDbCircle
 10
121.481458
 20
384.839831
 40
1.0
100
AcDbArc
 50
270.0
 51
360.0
  0
ARC
  5
526
100
AcDbEntity
  8
M0
100
AcDbCircle
 10
121.481458
 20
408.639831
 40
1.0
100
AcDbArc
 50
270.0
 51
360.0
  0
ARC
  5
527
100
AcDbEntity
  8
M0
100
AcDbCircle
 10
121.181458
 20
399.239831
 40
1.0
100
AcDbArc
 50
90.0
 51
180.0
  0
ARC
  5
528
100
AcDbEntity
  8
M0
100
AcDbCircle
 10
121.181458
 20
384.839831
 40
1.0
100
AcDbArc
 50
180.0
 51
270.0
  0
LINE
  5
529
100
AcDbEntity
  8
M0
100
AcDbLine
 10
168.681459
 20
421.63983
 11
169.881456
 21
421.63983
  0
LINE
  5
52A
100
AcDbEntity
  8
M0
100
AcDbLine
 10
122.481458
 20
407.639831
 11
122.481458
 21
400.239831
  0
LINE
  5
52B
100
AcDbEntity
  8
M0
100
AcDbLine
 10
131.781458
 20
401.439831
 11
131.781458
 21
400.439831
  0
LINE
  5
52C
100
AcDbEntity
  8
M0
100
AcDbLine
 10
125.481458
 20
400.239831
 11
125.481458
 21
407.639831
  0
LINE
  5
52D
100
AcDbEntity
  8
M0
100
AcDbLine
 10
122.481458
 20
400.239831
 11
125.481458
 21
400.239831
  0
LINE
  5
52E
100
AcDbEntity
  8
M0
100
AcDbLine
 10
128.881457
 20
399.939831
 11
128.881457
 21
407.939831
  0
LINE
  5
52F
100
AcDbEntity
  8
M0
100
AcDbLine
 10
130.881458
 20
407.939831
 11
128.881457
 21
407.939831
  0
LINE
  5
530
100
AcDbEntity
  8
M0
100
AcDbLine
 10
131.781458
 20
407.439831
 11
131.781458
 21
406.439831
  0
LINE
  5
531
100
AcDbEntity
  8
M0
100
AcDbLine
 10
130.881458
 20
399.939831
 11
128.881457
 21
399.939831
  0
ARC
  5
532
100
AcDbEntity
  8
M0
100
AcDbCircle
 10
181.681458
 20
423.039831
 40
1.0
100
AcDbArc
 50
90.0
 51
180.0
  0
ARC
  5
533
100
AcDbEntity
  8
M0
100
AcDbCircle
 10
181.981458
 20
399.239831
 40
1.0
100
AcDbArc
 50
0.0
 51
90.0
  0
LINE
  5
534
100
AcDbEntity
  8
M0
100
AcDbLine
 10
169.881456
 20
432.939832
 11
159.28146
 21
432.939832
  0
ARC
  5
535
100
AcDbEntity
  8
M0
100
AcDbCircle
 10
181.681458
 20
399.239831
 40
1.0
100
AcDbArc
 50
90.0
 51
180.0
  0
LINE
  5
536
100
AcDbEntity
  8
M0
100
AcDbLine
 10
142.181459
 20
409.239831
 11
142.381459
 21
409.239831
  0
LINE
  5
537
100
AcDbEntity
  8
M0
100
AcDbLine
 10
125.481458
 20
407.639831
 11
122.481458
 21
407.639831
  0
LINE
  5
538
100
AcDbEntity
  8
M0
100
AcDbLine
 10
160.981459
 20
398.63983
 11
160.781459
 21
398.63983
  0
LINE
  5
539
100
AcDbEntity
  8
M0
100
AcDbLine
 10
142.181459
 20
398.63983
 11
142.381459
 21
398.63983
  0
LINE
  5
53A
100
AcDbEntity
  8
M0
100
AcDbLine
 10
146.531456
 20
414.939831
 11
146.531456
 21
409.039831
  0
LINE
  5
53B
100
AcDbEntity
  8
M0
100
AcDbLine
 10
156.631459
 20
414.939831
 11
156.631459
 21
409.039831
  0
LINE
  5
53C
100
AcDbEntity
  8
M0
100
AcDbLine
 10
146.031459
 20
400.689831
 11
146.031459
 21
392.439831
  0
LINE
  5
53D
100
AcDbEntity
  8
M0
100
AcDbLine
 10
145.781458
 20
401.189831
 11
146.031459
 21
400.689831
  0
LINE
  5
53E
100
AcDbEntity
  8
M0
100
AcDbLine
 10
157.381457
 20
401.189831
 11
157.131457
 21
400.689831
  0
LINE
  5
53F
100
AcDbEntity
  8
M0
100
AcDbLine
 10
157.381457
 20
406.689831
 11
157.381457
 21
401.189831
  0
LINE
  5
540
100
AcDbEntity
  8
M0
100
AcDbLine
 10
157.131457
 20
408.539831
 11
157.131457
 21
407.189831
  0
LINE
  5
541
100
AcDbEntity
  8
M0
100
AcDbLine
 10
157.131457
 20
400.689831
 11
157.131457
 21
392.439831
  0
LINE
  5
542
100
AcDbEntity
  8
M0
100
AcDbLine
 10
143.381459
 20
397.439831
 11
143.88146
 21
397.439831
  0
LINE
  5
543
100
AcDbEntity
  8
M0
100
AcDbLine
 10
145.781458
 20
406.689831
 11
145.781458
 21
401.189831
  0
LINE
  5
544
100
AcDbEntity
  8
M0
100
AcDbLine
 10
143.88146
 20
397.439831
 11
143.88146
 21
408.539831
  0
LINE
  5
545
100
AcDbEntity
  8
M0
100
AcDbLine
 10
146.031459
 20
407.189831
 11
145.781458
 21
406.689831
  0
LINE
  5
546
100
AcDbEntity
  8
M0
100
AcDbLine
 10
146.031459
 20
408.539831
 11
146.031459
 21
407.189831
  0
LINE
  5
547
100
AcDbEntity
  8
M0
100
AcDbLine
 10
133.281457
 20
374.939832
 11
143.88146
 21
374.939832
  0
LINE
  5
548
100
AcDbEntity
  8
M0
100
AcDbLine
 10
142.681458
 20
386.239831
 11
143.88146
 21
386.239831
  0
LINE
  5
549
100
AcDbEntity
  8
M0
100
AcDbLine
 10
160.781459
 20
392.939831
 11
160.781459
 21
396.43983
  0
LINE
  5
54A
100
AcDbEntity
  8
M0
100
AcDbLine
 10
134.481457
 20
386.239831
 11
133.281457
 21
386.239831
  0
LINE
  5
54B
100
AcDbEntity
  8
M0
100
AcDbLine
 10
159.781457
 20
397.439831
 11
159.28146
 21
397.439831
  0
LINE
  5
54C
100
AcDbEntity
  8
M0
100
AcDbLine
 10
159.28146
 20
397.439831
 11
159.28146
 21
408.539831
  0
LINE
  5
54D
100
AcDbEntity
  8
M0
100
AcDbLine
 10
143.381459
 20
415.939831
 11
145.531458
 21
415.939831
  0
LINE
  5
54E
100
AcDbEntity
  8
M0
100
AcDbLine
 10
157.131457
 20
407.189831
 11
157.381457
 21
406.689831
  0
LINE
  5
54F
100
AcDbEntity
  8
M0
100
AcDbLine
 10
160.781459
 20
410.039831
 11
160.781459
 21
414.939831
  0
LINE
  5
550
100
AcDbEntity
  8
M0
100
AcDbLine
 10
159.28146
 20
408.539831
 11
160.781459
 21
410.039831
  0
LINE
  5
551
100
AcDbEntity
  8
M0
100
AcDbLine
 10
143.381458
 20
391.939831
 11
159.781457
 21
391.939831
  0
LINE
  5
552
100
AcDbEntity
  8
M0
100
AcDbLine
 10
159.781457
 20
415.939831
 11
157.631458
 21
415.939831
  0
ELLIPSE
  5
553
100
AcDbEntity
  8
M0
100
AcDbEllipse
 10
147.281458
 20
438.856498
 11
1.0
 21
0.0
210
0.0
220
0.0
230
1.0
 40
0.416667
 41
3.141592653589793
 42
4.71238898038469
  0
ELLIPSE
  5
554
100
AcDbEntity
  8
M0
100
AcDbEllipse
 10
155.881458
 20
438.856498
 11
1.0
 21
0.0
210
0.0
220
0.0
230
1.0
 40
0.416667
 41
4.71238898038469
 42
6.283185307179586
  0
LINE
  5
555
100
AcDbEntity
  8
M0
100
AcDbLine
 10
155.881458
 20
438.439832
 11
147.281458
 21
438.439832
  0
LINE
  5
556
100
AcDbEntity
  8
M0
100
AcDbLine
 10
147.281458
 20
446.939832
 11
155.881458
 21
446.939832
  0
LINE
  5
557
100
AcDbEntity
  8
M0
100
AcDbLine
 10
133.281457
 20
434.93983
 11
143.88146
 21
434.93983
  0
LINE
  5
558
100
AcDbEntity
  8
M0
100
AcDbLine
 10
146.281459
 20
434.93983
 11
156.881456
 21
434.93983
  0
LINE
  5
559
100
AcDbEntity
  8
M0
100
AcDbLine
 10
146.281459
 20
445.939831
 11
146.281459
 21
421.339831
  0
LINE
  5
55A
100
AcDbEntity
  8
M0
100
AcDbLine
 10
156.881456
 20
436.939831
 11
146.281459
 21
436.939831
  0
LINE
  5
55B
100
AcDbEntity
  8
M0
100
AcDbLine
 10
161.331457
 20
368.939831
 11
161.331457
 21
369.439832
  0
LINE
  5
55C
100
AcDbEntity
  8
M0
100
AcDbLine
 10
167.831459
 20
371.439832
 11
167.831459
 21
369.439832
  0
LINE
  5
55D
100
AcDbEntity
  8
M0
100
AcDbLine
 10
160.581459
 20
368.43983
 11
168.581458
 21
368.43983
  0
LINE
  5
55E
100
AcDbEntity
  8
M0
100
AcDbLine
 10
161.331457
 20
369.439832
 11
161.331457
 21
371.439832
  0
LINE
  5
55F
100
AcDbEntity
  8
M0
100
AcDbLine
 10
169.581459
 20
369.439832
 11
169.581459
 21
372.939831
  0
LINE
  5
560
100
AcDbEntity
  8
M0
100
AcDbLine
 10
169.581459
 20
372.939831
 11
169.881456
 21
372.939831
  0
LINE
  5
561
100
AcDbEntity
  8
M0
100
AcDbLine
 10
121.481458
 20
376.239831
 11
121.181458
 21
376.239831
  0
LINE
  5
562
100
AcDbEntity
  8
M0
100
AcDbLine
 10
133.581459
 20
372.939831
 11
133.281457
 21
372.939831
  0
LINE
  5
563
100
AcDbEntity
  8
M0
100
AcDbLine
 10
168.581457
 20
374.939832
 11
168.581457
 21
373.93983
  0
LINE
  5
564
100
AcDbEntity
  8
M0
100
AcDbLine
 10
121.181458
 20
431.63983
 11
121.481458
 21
431.63983
  0
LINE
  5
565
100
AcDbEntity
  8
M0
100
AcDbLine
 10
142.581458
 20
372.43983
 11
142.581458
 21
374.939832
  0
LINE
  5
566
100
AcDbEntity
  8
M0
100
AcDbLine
 10
143.88146
 20
371.439832
 11
143.581458
 21
371.439832
  0
LINE
  5
567
100
AcDbEntity
  8
M0
100
AcDbLine
 10
167.831459
 20
369.439832
 11
167.831459
 21
368.939831
  0
LINE
  5
568
100
AcDbEntity
  8
M0
100
AcDbLine
 10
169.881456
 20
434.93983
 11
159.28146
 21
434.93983
  0
LINE
  5
569
100
AcDbEntity
  8
M0
100
AcDbLine
 10
160.581459
 20
372.43983
 11
160.581459
 21
374.939832
  0
LINE
  5
56A
100
AcDbEntity
  8
M0
100
AcDbLine
 10
134.581459
 20
374.939832
 11
134.581459
 21
373.93983
  0
LINE
  5
56B
100
AcDbEntity
  8
M0
100
AcDbLine
 10
156.881456
 20
371.439832
 11
146.281459
 21
371.439832
  0
LINE
  5
56C
100
AcDbEntity
  8
M0
100
AcDbLine
 10
159.581457
 20
371.439832
 11
159.28146
 21
371.439832
  0
ARC
  5
56D
100
AcDbEntity
  8
M0
100
AcDbCircle
 10
168.331458
 20
368.939831
 40
0.5
100
AcDbArc
 50
180.0
 51
270.0
  0
ARC
  5
56E
100
AcDbEntity
  8
M0
100
AcDbCircle
 10
160.831458
 20
368.939831
 40
0.5
100
AcDbArc
 50
270.0
 51
360.0
  0
ARC
  5
56F
100
AcDbEntity
  8
M0
100
AcDbCircle
 10
164.581458
 20
371.439831
 40
3.25
100
AcDbArc
 50
0.0
 51
180.0
  0
ARC
  5
570
100
AcDbEntity
  8
M0
100
AcDbCircle
 10
147.281458
 20
445.939831
 40
1.0
100
AcDbArc
 50
90.0
 51
180.0
  0
ARC
  5
571
100
AcDbEntity
  8
M0
100
AcDbCircle
 10
155.881458
 20
445.939831
 40
1.0
100
AcDbArc
 50
0.0
 51
90.0
  0
ARC
  5
572
100
AcDbEntity
  8
M0
100
AcDbCircle
 10
168.581458
 20
369.439831
 40
1.0
100
AcDbArc
 50
270.0
 51
360.0
  0
ARC
  5
573
100
AcDbEntity
  8
M0
100
AcDbCircle
 10
134.831458
 20
368.939831
 40
0.5
100
AcDbArc
 50
270.0
 51
360.0
  0
ARC
  5
574
100
AcDbEntity
  8
M0
100
AcDbCircle
 10
142.581458
 20
369.439831
 40
1.0
100
AcDbArc
 50
270.0
 51
360.0
  0
ARC
  5
575
100
AcDbEntity
  8
M0
100
AcDbCircle
 10
160.581458
 20
369.439831
 40
1.0
100
AcDbArc
 50
180.0
 51
270.0
  0
ARC
  5
576
100
AcDbEntity
  8
M0
100
AcDbCircle
 10
138.581458
 20
371.439831
 40
3.25
100
AcDbArc
 50
0.0
 51
180.0
  0
LINE
  5
577
100
AcDbEntity
  8
M0
100
AcDbLine
 10
135.331458
 20
371.439831
 11
135.331458
 21
368.939831
  0
LINE
  5
578
100
AcDbEntity
  8
M0
100
AcDbLine
 10
143.581458
 20
371.439832
 11
143.581458
 21
369.439832
  0
LINE
  5
579
100
AcDbEntity
  8
M0
100
AcDbLine
 10
159.581457
 20
371.439832
 11
159.581457
 21
369.439832
  0
LINE
  5
57A
100
AcDbEntity
  8
M0
100
AcDbLine
 10
141.831459
 20
368.939831
 11
141.831459
 21
371.439831
  0
ARC
  5
57B
100
AcDbEntity
  8
M0
100
AcDbCircle
 10
159.581458
 20
372.439831
 40
1.0
100
AcDbArc
 50
270.0
 51
360.0
  0
ARC
  5
57C
100
AcDbEntity
  8
M0
100
AcDbCircle
 10
133.581458
 20
373.939831
 40
1.0
100
AcDbArc
 50
270.0
 51
360.0
  0
ARC
  5
57D
100
AcDbEntity
  8
M0
100
AcDbCircle
 10
142.331458
 20
368.939831
 40
0.5
100
AcDbArc
 50
180.0
 51
270.0
  0
ARC
  5
57E
100
AcDbEntity
  8
M0
100
AcDbCircle
 10
143.581458
 20
372.439831
 40
1.0
100
AcDbArc
 50
180.0
 51
270.0
  0
LINE
  5
57F
100
AcDbEntity
  8
M0
100
AcDbLine
 10
133.581459
 20
369.439832
 11
133.581459
 21
372.939831
  0
ARC
  5
580
100
AcDbEntity
  8
M0
100
AcDbCircle
 10
169.581458
 20
373.939831
 40
1.0
100
AcDbArc
 50
180.0
 51
270.0
  0
ARC
  5
581
100
AcDbEntity
  8
M0
100
AcDbCircle
 10
121.181458
 20
430.639831
 40
1.0
100
AcDbArc
 50
90.0
 51
180.0
  0
LINE
  5
582
100
AcDbEntity
  8
M0
100
AcDbLine
 10
132.281457
 20
368.43983
 11
125.181458
 21
368.43983
  0
LINE
  5
583
100
AcDbEntity
  8
M0
100
AcDbLine
 10
125.181458
 20
439.439832
 11
132.281457
 21
439.439832
  0
LINE
  5
584
100
AcDbEntity
  8
M0
100
AcDbLine
 10
130.881458
 20
438.439831
 11
130.881458
 21
407.439831
  0
LINE
  5
585
100
AcDbEntity
  8
M0
100
AcDbLine
 10
172.881459
 20
376.839831
 11
172.881459
 21
394.639831
  0
LINE
  5
586
100
AcDbEntity
  8
M0
100
AcDbLine
 10
172.881459
 20
413.239831
 11
172.881459
 21
431.039831
  0
ARC
  5
587
100
AcDbEntity
  8
M0
100
AcDbCircle
 10
121.181458
 20
377.239831
 40
1.0
100
AcDbArc
 50
180.0
 51
270.0
  0
ARC
  5
588
100
AcDbEntity
  8
M0
100
AcDbCircle
 10
121.481458
 20
377.239831
 40
1.0
100
AcDbArc
 50
270.0
 51
360.0
  0
LINE
  5
589
100
AcDbEntity
  8
M0
100
AcDbLine
 10
143.88146
 20
422.839831
 11
146.281459
 21
422.839831
  0
ARC
  5
58A
100
AcDbEntity
  8
M0
100
AcDbCircle
 10
130.881458
 20
376.839831
 40
0.6
100
AcDbArc
 50
180.0
 51
270.0
  0
ARC
  5
58B
100
AcDbEntity
  8
M0
100
AcDbCircle
 10
172.281458
 20
431.039831
 40
0.6
100
AcDbArc
 50
0.0
 51
90.0
  0
ARC
  5
58C
100
AcDbEntity
  8
M0
100
AcDbCircle
 10
121.481458
 20
430.639831
 40
1.0
100
AcDbArc
 50
0.0
 51
90.0
  0
ARC
  5
58D
100
AcDbEntity
  8
M0
100
AcDbCircle
 10
130.881458
 20
431.039831
 40
0.6
100
AcDbArc
 50
90.0
 51
180.0
  0
LINE
  5
58E
100
AcDbEntity
  8
M0
100
AcDbLine
 10
133.281457
 20
386.53983
 11
133.281457
 21
369.439832
  0
LINE
  5
58F
100
AcDbEntity
  8
M0
100
AcDbLine
 10
143.88146
 20
369.439832
 11
143.88146
 21
386.53983
  0
LINE
  5
590
100
AcDbEntity
  8
M0
100
AcDbLine
 10
143.88146
 20
385.039831
 11
144.881458
 21
385.039831
  0
LINE
  5
591
100
AcDbEntity
  8
M0
100
AcDbLine
 10
171.081458
 20
439.439832
 11
170.881459
 21
439.439832
  0
LINE
  5
592
100
AcDbEntity
  8
M0
100
AcDbLine
 10
169.881456
 20
438.439832
 11
169.881456
 21
421.339831
  0
LINE
  5
593
100
AcDbEntity
  8
M0
100
AcDbLine
 10
146.281459
 20
369.439831
 11
146.281459
 21
386.53983
  0
LINE
  5
594
100
AcDbEntity
  8
M0
100
AcDbLine
 10
143.88146
 20
438.439831
 11
143.88146
 21
421.339831
  0
LINE
  5
595
100
AcDbEntity
  8
M0
100
AcDbLine
 10
159.28146
 20
386.53983
 11
159.28146
 21
369.439831
  0
LINE
  5
596
100
AcDbEntity
  8
M0
100
AcDbLine
 10
156.881456
 20
369.439831
 11
156.881456
 21
386.53983
  0
LINE
  5
597
100
AcDbEntity
  8
M0
100
AcDbLine
 10
159.28146
 20
438.439831
 11
159.28146
 21
421.339831
  0
LINE
  5
598
100
AcDbEntity
  8
M0
100
AcDbLine
 10
156.881456
 20
421.339831
 11
156.881456
 21
445.939831
  0
LINE
  5
599
100
AcDbEntity
  8
M0
100
AcDbLine
 10
156.881456
 20
371.439832
 11
156.881456
 21
372.43983
  0
LINE
  5
59A
100
AcDbEntity
  8
M0
100
AcDbLine
 10
156.881456
 20
436.439831
 11
156.881456
 21
435.439831
  0
LINE
  5
59B
100
AcDbEntity
  8
M0
100
AcDbLine
 10
181.681455
 20
376.239831
 11
181.98146
 21
376.239831
  0
LINE
  5
59C
100
AcDbEntity
  8
M0
100
AcDbLine
 10
181.98146
 20
431.63983
 11
181.681455
 21
431.63983
  0
LINE
  5
59D
100
AcDbEntity
  8
M0
100
AcDbLine
 10
181.781457
 20
424.03983
 11
181.681455
 21
424.03983
  0
LINE
  5
59E
100
AcDbEntity
  8
M0
100
AcDbLine
 10
133.281457
 20
438.439832
 11
133.281457
 21
421.339831
  0
LINE
  5
59F
100
AcDbEntity
  8
M0
100
AcDbLine
 10
121.381458
 20
424.03983
 11
121.481458
 21
424.03983
  0
LINE
  5
5A0
100
AcDbEntity
  8
M0
100
AcDbLine
 10
181.781457
 20
383.839831
 11
181.681455
 21
383.839831
  0
LINE
  5
5A1
100
AcDbEntity
  8
M0
100
AcDbLine
 10
121.381458
 20
383.839831
 11
121.481458
 21
383.839831
  0
ARC
  5
5A2
100
AcDbEntity
  8
M0
100
AcDbCircle
 10
181.681458
 20
377.239831
 40
1.0
100
AcDbArc
 50
180.0
 51
270.0
  0
ARC
  5
5A3
100
AcDbEntity
  8
M0
100
AcDbCircle
 10
181.681458
 20
430.639831
 40
1.0
100
AcDbArc
 50
90.0
 51
180.0
  0
ARC
  5
5A4
100
AcDbEntity
  8
M0
100
AcDbCircle
 10
172.281458
 20
376.839831
 40
0.6
100
AcDbArc
 50
270.0
 51
360.0
  0
ARC
  5
5A5
100
AcDbEntity
  8
M0
100
AcDbCircle
 10
181.981458
 20
430.639831
 40
1.0
100
AcDbArc
 50
0.0
 51
90.0
  0
LINE
  5
5A6
100
AcDbEntity
  8
M0
100
AcDbLine
 10
130.281459
 20
376.83983
 11
130.281459
 21
394.639831
  0
LINE
  5
5A7
100
AcDbEntity
  8
M0
100
AcDbLine
 10
130.281459
 20
413.239831
 11
130.281459
 21
431.039831
  0
ARC
  5
5A8
100
AcDbEntity
  8
M0
100
AcDbCircle
 10
181.981458
 20
377.239831
 40
1.0
100
AcDbArc
 50
270.0
 51
360.0
  0
LINE
  5
5A9
100
AcDbEntity
  8
M0
100
AcDbLine
 10
122.481458
 20
399.239831
 11
122.481458
 21
377.239831
  0
LINE
  5
5AA
100
AcDbEntity
  8
M0
100
AcDbLine
 10
173.781459
 20
378.239832
 11
173.781459
 21
379.239832
  0
LINE
  5
5AB
100
AcDbEntity
  8
M0
100
AcDbLine
 10
179.78146
 20
378.239832
 11
173.781459
 21
378.239832
  0
LINE
  5
5AC
100
AcDbEntity
  8
M0
100
AcDbLine
 10
179.78146
 20
379.239832
 11
179.78146
 21
378.239832
  0
LINE
  5
5AD
100
AcDbEntity
  8
M0
100
AcDbLine
 10
130.281459
 20
421.039831
 11
122.481458
 21
421.039831
  0
LINE
  5
5AE
100
AcDbEntity
  8
M0
100
AcDbLine
 10
173.781459
 20
429.639832
 11
179.78146
 21
429.639832
  0
LINE
  5
5AF
100
AcDbEntity
  8
M0
100
AcDbLine
 10
173.781459
 20
428.639832
 11
173.781459
 21
429.639832
  0
LINE
  5
5B0
100
AcDbEntity
  8
M0
100
AcDbLine
 10
179.78146
 20
429.639832
 11
179.78146
 21
428.639832
  0
LINE
  5
5B1
100
AcDbEntity
  8
M0
100
AcDbLine
 10
122.481458
 20
386.83983
 11
130.281459
 21
386.83983
  0
LINE
  5
5B2
100
AcDbEntity
  8
M0
100
AcDbLine
 10
172.881459
 20
386.83983
 11
180.68146
 21
386.83983
  0
LINE
  5
5B3
100
AcDbEntity
  8
M0
100
AcDbLine
 10
134.481457
 20
421.63983
 11
133.281457
 21
421.63983
  0
LINE
  5
5B4
100
AcDbEntity
  8
M0
100
AcDbLine
 10
142.681458
 20
421.63983
 11
143.88146
 21
421.63983
  0
LINE
  5
5B5
100
AcDbEntity
  8
M0
100
AcDbLine
 10
143.88146
 20
432.939832
 11
133.281457
 21
432.939832
  0
ARC
  5
5B6
100
AcDbEntity
  8
M0
100
AcDbCircle
 10
147.481458
 20
420.639831
 40
1.0
100
AcDbArc
 50
44.427004
 51
90.0
  0
LINE
  5
5B7
100
AcDbEntity
  8
M0
100
AcDbLine
 10
160.481458
 20
421.63983
 11
159.28146
 21
421.63983
  0
ARC
  5
5B8
100
AcDbEntity
  8
M0
100
AcDbCircle
 10
168.681458
 20
387.239831
 40
1.0
100
AcDbArc
 50
224.427004
 51
270.0
  0
ARC
  5
5B9
100
AcDbEntity
  8
M0
100
AcDbCircle
 10
155.681458
 20
420.639831
 40
1.0
100
AcDbArc
 50
90.0
 51
135.572996
  0
LINE
  5
5BA
100
AcDbEntity
  8
M0
100
AcDbLine
 10
155.681458
 20
386.239831
 11
156.881456
 21
386.239831
  0
LINE
  5
5BB
100
AcDbEntity
  8
M0
100
AcDbLine
 10
147.481457
 20
386.239831
 11
146.281459
 21
386.239831
  0
LINE
  5
5BC
100
AcDbEntity
  8
M0
100
AcDbLine
 10
146.281459
 20
374.939832
 11
156.881456
 21
374.939832
  0
LINE
  5
5BD
100
AcDbEntity
  8
M0
100
AcDbLine
 10
123.381458
 20
429.639832
 11
129.381458
 21
429.639832
  0
LINE
  5
5BE
100
AcDbEntity
  8
M0
100
AcDbLine
 10
123.381458
 20
428.639832
 11
123.381458
 21
429.639832
  0
LINE
  5
5BF
100
AcDbEntity
  8
M0
100
AcDbLine
 10
129.381458
 20
429.639832
 11
129.381458
 21
428.639832
  0
ARC
  5
5C0
100
AcDbEntity
  8
M0
100
AcDbCircle
 10
160.481458
 20
420.639831
 40
1.0
100
AcDbArc
 50
44.427004
 51
90.0
  0
ARC
  5
5C1
100
AcDbEntity
  8
M0
100
AcDbCircle
 10
142.681458
 20
420.639831
 40
1.0
100
AcDbArc
 50
90.0
 51
135.572996
  0
ARC
  5
5C2
100
AcDbEntity
  8
M0
100
AcDbCircle
 10
155.681458
 20
387.239831
 40
1.0
100
AcDbArc
 50
224.427004
 51
270.0
  0
ARC
  5
5C3
100
AcDbEntity
  8
M0
100
AcDbCircle
 10
160.481458
 20
387.239831
 40
1.0
100
AcDbArc
 50
270.0
 51
315.572996
  0
ARC
  5
5C4
100
AcDbEntity
  8
M0
100
AcDbCircle
 10
134.481458
 20
420.639831
 40
1.0
100
AcDbArc
 50
44.427004
 51
90.0
  0
ARC
  5
5C5
100
AcDbEntity
  8
M0
100
AcDbCircle
 10
147.481458
 20
387.239831
 40
1.0
100
AcDbArc
 50
270.0
 51
315.572996
  0
LINE
  5
5C6
100
AcDbEntity
  8
M0
100
AcDbLine
 10
129.381458
 20
378.239832
 11
123.381458
 21
378.239832
  0
LINE
  5
5C7
100
AcDbEntity
  8
M0
100
AcDbLine
 10
129.381458
 20
379.239832
 11
129.381458
 21
378.239832
  0
LINE
  5
5C8
100
AcDbEntity
  8
M0
100
AcDbLine
 10
123.381458
 20
378.239832
 11
123.381458
 21
379.239832
  0
LINE
  5
5C9
100
AcDbEntity
  8
M0
100
AcDbLine
 10
168.29892
 20
447.857822
 11
168.300011
 21
447.821363
  0
LINE
  5
5CA
100
AcDbEntity
  8
M0
100
AcDbLine
 10
168.300011
 20
447.821363
 11
168.30326
 21
447.713083
  0
LINE
  5
5CB
100
AcDbEntity
  8
M0
100
AcDbLine
 10
168.30326
 20
447.713083
 11
168.308564
 21
447.536285
  0
LINE
  5
5CC
100
AcDbEntity
  8
M0
100
AcDbLine
 10
168.308564
 20
447.536285
 11
168.315762
 21
447.296331
  0
LINE
  5
5CD
100
AcDbEntity
  8
M0
100
AcDbLine
 10
168.315762
 20
447.296331
 11
168.324639
 21
447.000513
  0
LINE
  5
5CE
100
AcDbEntity
  8
M0
100
AcDbLine
 10
168.324639
 20
447.000513
 11
168.334917
 21
446.657824
  0
LINE
  5
5CF
100
AcDbEntity
  8
M0
100
AcDbLine
 10
168.334917
 20
446.657824
 11
168.346294
 21
446.278671
  0
LINE
  5
5D0
100
AcDbEntity
  8
M0
100
AcDbLine
 10
168.346294
 20
446.278671
 11
168.358416
 21
445.874578
  0
LINE
  5
5D1
100
AcDbEntity
  8
M0
100
AcDbLine
 10
168.358416
 20
445.874578
 11
168.370918
 21
445.457822
  0
LINE
  5
5D2
100
AcDbEntity
  8
M0
100
AcDbLine
 10
134.791997
 20
445.457822
 11
134.806043
 21
445.926039
  0
LINE
  5
5D3
100
AcDbEntity
  8
M0
100
AcDbLine
 10
134.806043
 20
445.926039
 11
134.819551
 21
446.376263
  0
LINE
  5
5D4
100
AcDbEntity
  8
M0
100
AcDbLine
 10
134.819551
 20
446.376263
 11
134.831999
 21
446.791193
  0
LINE
  5
5D5
100
AcDbEntity
  8
M0
100
AcDbLine
 10
134.831999
 20
446.791193
 11
134.842909
 21
447.154878
  0
LINE
  5
5D6
100
AcDbEntity
  8
M0
100
AcDbLine
 10
134.842909
 20
447.154878
 11
134.851863
 21
447.453349
  0
LINE
  5
5D7
100
AcDbEntity
  8
M0
100
AcDbLine
 10
134.851863
 20
447.453349
 11
134.858518
 21
447.675134
  0
LINE
  5
5D8
100
AcDbEntity
  8
M0
100
AcDbLine
 10
134.858518
 20
447.675134
 11
134.862614
 21
447.811707
  0
LINE
  5
5D9
100
AcDbEntity
  8
M0
100
AcDbLine
 10
134.862614
 20
447.811707
 11
134.863998
 21
447.857822
  0
LINE
  5
5DA
100
AcDbEntity
  8
M0
  6
DASHDOT
100
AcDbLine
 10
138.081458
 20
380.239831
 11
139.081458
 21
380.239831
  0
LINE
  5
5DB
100
AcDbEntity
  8
M0
  6
DASHDOT
100
AcDbLine
 10
138.581458
 20
379.739831
 11
138.581458
 21
380.739831
  0
LINE
  5
5DC
100
AcDbEntity
  8
M0
  6
DASHDOT
100
AcDbLine
 10
151.581454
 20
379.739831
 11
151.581454
 21
380.739831
  0
LINE
  5
5DD
100
AcDbEntity
  8
M0
  6
DASHDOT
100
AcDbLine
 10
151.081454
 20
380.239831
 11
152.081454
 21
380.239831
  0
LINE
  5
5DE
100
AcDbEntity
  8
M0
  6
DASHDOT
100
AcDbLine
 10
164.581455
 20
379.739831
 11
164.581455
 21
380.739831
  0
LINE
  5
5DF
100
AcDbEntity
  8
M0
  6
DASHDOT
100
AcDbLine
 10
164.081455
 20
380.239831
 11
165.081455
 21
380.239831
  0
LINE
  5
5E0
100
AcDbEntity
  8
M0
  6
DASHDOT
100
AcDbLine
 10
164.581455
 20
428.139831
 11
164.581455
 21
427.139831
  0
LINE
  5
5E1
100
AcDbEntity
  8
M0
  6
DASHDOT
100
AcDbLine
 10
164.081455
 20
427.639831
 11
165.081455
 21
427.639831
  0
LINE
  5
5E2
100
AcDbEntity
  8
M0
  6
DASHDOT
100
AcDbLine
 10
151.081454
 20
427.639831
 11
152.081454
 21
427.639831
  0
LINE
  5
5E3
100
AcDbEntity
  8
M0
  6
DASHDOT
100
AcDbLine
 10
138.581458
 20
428.139831
 11
138.581458
 21
427.139831
  0
LINE
  5
5E4
100
AcDbEntity
  8
M0
  6
DASHDOT
100
AcDbLine
 10
151.581454
 20
428.139831
 11
151.581454
 21
427.139831
  0
LINE
  5
5E5
100
AcDbEntity
  8
M0
  6
DASHDOT
100
AcDbLine
 10
138.081458
 20
427.639831
 11
139.081458
 21
427.639831
  0
LINE
  5
5E6
100
AcDbEntity
  8
M0
  6
DASHDOT
100
AcDbLine
 10
177.281458
 20
424.839831
 11
176.281458
 21
424.839831
  0
LINE
  5
5E7
100
AcDbEntity
  8
M0
  6
DASHDOT
100
AcDbLine
 10
176.781458
 20
424.339831
 11
176.781458
 21
425.339831
  0
LINE
  5
5E8
100
AcDbEntity
  8
M0
  6
DASHDOT
100
AcDbLine
 10
177.281458
 20
417.239831
 11
176.281458
 21
417.239831
  0
LINE
  5
5E9
100
AcDbEntity
  8
M0
  6
DASHDOT
100
AcDbLine
 10
176.781458
 20
416.739831
 11
176.781458
 21
417.739831
  0
LINE
  5
5EA
100
AcDbEntity
  8
M0
  6
DASHDOT
100
AcDbLine
 10
177.281458
 20
390.639831
 11
176.281458
 21
390.639831
  0
LINE
  5
5EB
100
AcDbEntity
  8
M0
  6
DASHDOT
100
AcDbLine
 10
176.781458
 20
390.139831
 11
176.781458
 21
391.139831
  0
LINE
  5
5EC
100
AcDbEntity
  8
M0
  6
DASHDOT
100
AcDbLine
 10
177.281458
 20
383.039831
 11
176.281458
 21
383.039831
  0
LINE
  5
5ED
100
AcDbEntity
  8
M0
  6
DASHDOT
100
AcDbLine
 10
176.781458
 20
382.539831
 11
176.781458
 21
383.539831
  0
LINE
  5
5EE
100
AcDbEntity
  8
M0
  6
DASHDOT
100
AcDbLine
 10
125.881458
 20
417.239831
 11
126.881458
 21
417.239831
  0
LINE
  5
5EF
100
AcDbEntity
  8
M0
  6
DASHDOT
100
AcDbLine
 10
126.381458
 20
416.739831
 11
126.381458
 21
417.739831
  0
LINE
  5
5F0
100
AcDbEntity
  8
M0
  6
DASHDOT
100
AcDbLine
 10
125.881458
 20
424.839831
 11
126.881458
 21
424.839831
  0
LINE
  5
5F1
100
AcDbEntity
  8
M0
  6
DASHDOT
100
AcDbLine
 10
126.381458
 20
424.339831
 11
126.381458
 21
425.339831
  0
LINE
  5
5F2
100
AcDbEntity
  8
M0
  6
DASHDOT
100
AcDbLine
 10
125.881458
 20
383.039831
 11
126.881458
 21
383.039831
  0
LINE
  5
5F3
100
AcDbEntity
  8
M0
  6
DASHDOT
100
AcDbLine
 10
126.381458
 20
382.539831
 11
126.381458
 21
383.539831
  0
LINE
  5
5F4
100
AcDbEntity
  8
M0
  6
DASHDOT
100
AcDbLine
 10
125.881458
 20
390.639831
 11
126.881458
 21
390.639831
  0
LINE
  5
5F5
100
AcDbEntity
  8
M0
  6
DASHDOT
100
AcDbLine
 10
126.381458
 20
390.139831
 11
126.381458
 21
391.139831
  0
LINE
  5
5F6
100
AcDbEntity
  8
M0
  6
DASHDOT
100
AcDbLine
 10
138.081458
 20
371.439831
 11
139.081458
 21
371.439831
  0
LINE
  5
5F7
100
AcDbEntity
  8
M0
  6
DASHDOT
100
AcDbLine
 10
138.581458
 20
370.939831
 11
138.581458
 21
371.939831
  0
LINE
  5
5F8
100
AcDbEntity
  8
M0
  6
DASHDOT
100
AcDbLine
 10
164.081458
 20
371.439831
 11
165.081458
 21
371.439831
  0
LINE
  5
5F9
100
AcDbEntity
  8
M0
  6
DASHDOT
100
AcDbLine
 10
164.581458
 20
370.939831
 11
164.581458
 21
371.939831
  0
LINE
  5
5FA
100
AcDbEntity
  8
M0
  6
DASHDOT
100
AcDbLine
 10
161.981458
 20
442.539831
 11
162.981458
 21
442.539831
  0
LINE
  5
5FB
100
AcDbEntity
  8
M0
  6
DASHDOT
100
AcDbLine
 10
162.481458
 20
442.039831
 11
162.481458
 21
443.039831
  0
LINE
  5
5FC
100
AcDbEntity
  8
M0
  6
DASHDOT
100
AcDbLine
 10
151.081458
 20
442.139831
 11
152.081458
 21
442.139831
  0
LINE
  5
5FD
100
AcDbEntity
  8
M0
  6
DASHDOT
100
AcDbLine
 10
151.581458
 20
441.639831
 11
151.581458
 21
442.639831
  0
LINE
  5
5FE
100
AcDbEntity
  8
M0
  6
DASHDOT
100
AcDbLine
 10
141.181458
 20
442.539831
 11
140.181458
 21
442.539831
  0
LINE
  5
5FF
100
AcDbEntity
  8
M0
  6
DASHDOT
100
AcDbLine
 10
140.681458
 20
442.039831
 11
140.681458
 21
443.039831
  0
CIRCLE
  5
600
100
AcDbEntity
  8
M0
100
AcDbCircle
 10
176.781458
 20
424.839831
 40
3.0
  0
LINE
  5
601
100
AcDbEntity
  8
M0
100
AcDbLine
 10
178.372041
 20
423.249186
 11
175.190401
 21
426.430949
  0
LINE
  5
602
100
AcDbEntity
  8
M0
100
AcDbLine
 10
178.195284
 20
425.193522
 11
176.427706
 21
423.425944
  0
LINE
  5
603
100
AcDbEntity
  8
M0
100
AcDbLine
 10
177.134737
 20
426.254191
 11
175.367159
 21
424.486491
  0
LINE
  5
604
100
AcDbEntity
  8
M0
100
AcDbLine
 10
180.106458
 20
428.664831
 11
173.456458
 21
428.664831
  0
ARC
  5
605
100
AcDbEntity
  8
M0
100
AcDbCircle
 10
180.106458
 20
428.164831
 40
0.5
100
AcDbArc
 50
0.0
 51
90.0
  0
LINE
  5
606
100
AcDbEntity
  8
M0
100
AcDbLine
 10
180.606458
 20
421.514831
 11
180.606458
 21
428.164831
  0
ARC
  5
607
100
AcDbEntity
  8
M0
100
AcDbCircle
 10
180.106458
 20
421.514831
 40
0.5
100
AcDbArc
 50
270.0
 51
360.0
  0
LINE
  5
608
100
AcDbEntity
  8
M0
100
AcDbLine
 10
173.456458
 20
421.014831
 11
180.106458
 21
421.014831
  0
LINE
  5
609
100
AcDbEntity
  8
M0
100
AcDbLine
 10
172.956458
 20
428.164831
 11
172.956458
 21
421.514831
  0
ARC
  5
60A
100
AcDbEntity
  8
M0
100
AcDbCircle
 10
173.456458
 20
428.164831
 40
0.5
100
AcDbArc
 50
90.0
 51
180.0
  0
ARC
  5
60B
100
AcDbEntity
  8
M0
100
AcDbCircle
 10
173.456458
 20
421.514831
 40
0.5
100
AcDbArc
 50
180.0
 51
270.0
  0
CIRCLE
  5
60C
100
AcDbEntity
  8
M0
  6
DASHED
100
AcDbCircle
 10
126.381458
 20
417.239831
 40
3.0
  0
LINE
  5
60D
100
AcDbEntity
  8
M0
  6
DASHED
100
AcDbLine
 10
127.972042
 20
415.649186
 11
124.790401
 21
418.830949
  0
LINE
  5
60E
100
AcDbEntity
  8
M0
  6
DASHED
100
AcDbLine
 10
127.795284
 20
417.593522
 11
126.027706
 21
415.825944
  0
LINE
  5
60F
100
AcDbEntity
  8
M0
  6
DASHED
100
AcDbLine
 10
126.734737
 20
418.654191
 11
124.967159
 21
416.886491
  0
LINE
  5
610
100
AcDbEntity
  8
M0
  6
DASHED
100
AcDbLine
 10
129.706458
 20
421.064831
 11
123.056458
 21
421.064831
  0
ARC
  5
611
100
AcDbEntity
  8
M0
  6
DASHED
100
AcDbCircle
 10
129.706458
 20
420.564831
 40
0.5
100
AcDbArc
 50
0.0
 51
90.0
  0
LINE
  5
612
100
AcDbEntity
  8
M0
  6
DASHED
100
AcDbLine
 10
130.206458
 20
413.914831
 11
130.206458
 21
420.564831
  0
ARC
  5
613
100
AcDbEntity
  8
M0
  6
DASHED
100
AcDbCircle
 10
129.706458
 20
413.914831
 40
0.5
100
AcDbArc
 50
270.0
 51
360.0
  0
LINE
  5
614
100
AcDbEntity
  8
M0
  6
DASHED
100
AcDbLine
 10
123.056458
 20
413.414831
 11
129.706458
 21
413.414831
  0
LINE
  5
615
100
AcDbEntity
  8
M0
  6
DASHED
100
AcDbLine
 10
122.556458
 20
420.564831
 11
122.556458
 21
413.914831
  0
ARC
  5
616
100
AcDbEntity
  8
M0
  6
DASHED
100
AcDbCircle
 10
123.056458
 20
420.564831
 40
0.5
100
AcDbArc
 50
90.0
 51
180.0
  0
ARC
  5
617
100
AcDbEntity
  8
M0
  6
DASHED
100
AcDbCircle
 10
123.056458
 20
413.914831
 40
0.5
100
AcDbArc
 50
180.0
 51
270.0
  0
CIRCLE
  5
618
100
AcDbEntity
  8
M0
  6
DASHED
100
AcDbCircle
 10
53.581461
 20
383.039831
 40
3.0
  0
LINE
  5
619
100
AcDbEntity
  8
M0
  6
DASHED
100
AcDbLine
 10
55.172045
 20
381.449186
 11
51.990405
 21
384.630949
  0
LINE
  5
61A
100
AcDbEntity
  8
M0
  6
DASHED
100
AcDbLine
 10
54.995287
 20
383.393522
 11
53.227709
 21
381.625944
  0
LINE
  5
61B
100
AcDbEntity
  8
M0
  6
DASHED
100
AcDbLine
 10
53.934741
 20
384.454191
 11
52.167162
 21
382.686491
  0
LINE
  5
61C
100
AcDbEntity
  8
M0
  6
DASHED
100
AcDbLine
 10
56.906461
 20
386.864831
 11
50.256461
 21
386.864831
  0
ARC
  5
61D
100
AcDbEntity
  8
M0
  6
DASHED
100
AcDbCircle
 10
56.906461
 20
386.364831
 40
0.5
100
AcDbArc
 50
0.0
 51
90.0
  0
LINE
  5
61E
100
AcDbEntity
  8
M0
  6
DASHED
100
AcDbLine
 10
57.406461
 20
379.714831
 11
57.406461
 21
386.364831
  0
ARC
  5
61F
100
AcDbEntity
  8
M0
  6
DASHED
100
AcDbCircle
 10
56.906461
 20
379.714831
 40
0.5
100
AcDbArc
 50
270.0
 51
360.0
  0
LINE
  5
620
100
AcDbEntity
  8
M0
  6
DASHED
100
AcDbLine
 10
50.256461
 20
379.214831
 11
56.906461
 21
379.214831
  0
LINE
  5
621
100
AcDbEntity
  8
M0
  6
DASHED
100
AcDbLine
 10
49.756461
 20
386.364831
 11
49.756461
 21
379.714831
  0
ARC
  5
622
100
AcDbEntity
  8
M0
  6
DASHED
100
AcDbCircle
 10
50.256461
 20
386.364831
 40
0.5
100
AcDbArc
 50
90.0
 51
180.0
  0
ARC
  5
623
100
AcDbEntity
  8
M0
  6
DASHED
100
AcDbCircle
 10
50.256461
 20
379.714831
 40
0.5
100
AcDbArc
 50
180.0
 51
270.0
  0
CIRCLE
  5
624
100
AcDbEntity
  8
M0
100
AcDbCircle
 10
151.581458
 20
442.139831
 40
2.75
  0
LINE
  5
625
100
AcDbEntity
  8
M0
100
AcDbLine
 10
151.281458
 20
440.739831
 11
151.281458
 21
441.136191
  0
LINE
  5
626
100
AcDbEntity
  8
M0
100
AcDbLine
 10
151.881458
 20
440.739831
 11
151.881458
 21
441.136191
  0
LINE
  5
627
100
AcDbEntity
  8
M0
100
AcDbLine
 10
151.281458
 20
443.539831
 11
151.281458
 21
443.14347
  0
LINE
  5
628
100
AcDbEntity
  8
M0
100
AcDbLine
 10
151.881458
 20
443.539831
 11
151.881458
 21
443.14347
  0
ARC
  5
629
100
AcDbEntity
  8
M0
100
AcDbCircle
 10
150.556458
 20
441.114831
 40
0.725
100
AcDbArc
 50
0.0
 51
90.0
  0
ARC
  5
62A
100
AcDbEntity
  8
M0
100
AcDbCircle
 10
150.556458
 20
443.164831
 40
0.725
100
AcDbArc
 50
-90.0
 51
0.0
  0
ARC
  5
62B
100
AcDbEntity
  8
M0
100
AcDbCircle
 10
152.606458
 20
443.164831
 40
0.725
100
AcDbArc
 50
180.0
 51
270.0
  0
ARC
  5
62C
100
AcDbEntity
  8
M0
100
AcDbCircle
 10
152.606458
 20
441.114831
 40
0.725
100
AcDbArc
 50
90.0
 51
180.0
  0
LINE
  5
62D
100
AcDbEntity
  8
M0
100
AcDbLine
 10
152.606458
 20
441.839831
 11
153.006458
 21
441.839831
  0
LINE
  5
62E
100
AcDbEntity
  8
M0
100
AcDbLine
 10
152.606458
 20
442.439831
 11
153.006458
 21
442.439831
  0
LINE
  5
62F
100
AcDbEntity
  8
M0
100
AcDbLine
 10
151.281458
 20
443.539831
 11
151.881458
 21
443.539831
  0
LINE
  5
630
100
AcDbEntity
  8
M0
100
AcDbLine
 10
151.281458
 20
440.739831
 11
151.881458
 21
440.739831
  0
LINE
  5
631
100
AcDbEntity
  8
M0
100
AcDbLine
 10
150.181458
 20
442.439831
 11
150.556458
 21
442.439831
  0
LINE
  5
632
100
AcDbEntity
  8
M0
100
AcDbLine
 10
150.181458
 20
442.439831
 11
150.181458
 21
441.839831
  0
LINE
  5
633
100
AcDbEntity
  8
M0
100
AcDbLine
 10
150.181458
 20
441.839831
 11
150.556458
 21
441.839831
  0
LINE
  5
634
100
AcDbEntity
  8
M0
100
AcDbLine
 10
153.006458
 20
442.439831
 11
153.006458
 21
441.839831
  0
CIRCLE
  5
635
100
AcDbEntity
  8
M0
100
AcDbCircle
 10
65.781461
 20
371.439831
 40
2.75
  0
LINE
  5
636
100
AcDbEntity
  8
M0
100
AcDbLine
 10
65.481461
 20
370.039831
 11
65.481461
 21
370.436191
  0
LINE
  5
637
100
AcDbEntity
  8
M0
100
AcDbLine
 10
66.081461
 20
370.039831
 11
66.081461
 21
370.436191
  0
LINE
  5
638
100
AcDbEntity
  8
M0
100
AcDbLine
 10
65.481461
 20
372.839831
 11
65.481461
 21
372.44347
  0
LINE
  5
639
100
AcDbEntity
  8
M0
100
AcDbLine
 10
66.081461
 20
372.839831
 11
66.081461
 21
372.44347
  0
ARC
  5
63A
100
AcDbEntity
  8
M0
100
AcDbCircle
 10
64.756461
 20
370.414831
 40
0.725
100
AcDbArc
 50
0.0
 51
90.0
  0
ARC
  5
63B
100
AcDbEntity
  8
M0
100
AcDbCircle
 10
64.756461
 20
372.464831
 40
0.725
100
AcDbArc
 50
-90.0
 51
0.0
  0
ARC
  5
63C
100
AcDbEntity
  8
M0
100
AcDbCircle
 10
66.806461
 20
372.464831
 40
0.725
100
AcDbArc
 50
180.0
 51
270.0
  0
ARC
  5
63D
100
AcDbEntity
  8
M0
100
AcDbCircle
 10
66.806461
 20
370.414831
 40
0.725
100
AcDbArc
 50
90.0
 51
180.0
  0
LINE
  5
63E
100
AcDbEntity
  8
M0
100
AcDbLine
 10
66.806461
 20
371.139831
 11
67.206461
 21
371.139831
  0
LINE
  5
63F
100
AcDbEntity
  8
M0
100
AcDbLine
 10
66.806461
 20
371.739831
 11
67.206461
 21
371.739831
  0
LINE
  5
640
100
AcDbEntity
  8
M0
100
AcDbLine
 10
65.481461
 20
372.839831
 11
66.081461
 21
372.839831
  0
LINE
  5
641
100
AcDbEntity
  8
M0
100
AcDbLine
 10
65.481461
 20
370.039831
 11
66.081461
 21
370.039831
  0
LINE
  5
642
100
AcDbEntity
  8
M0
100
AcDbLine
 10
64.381461
 20
371.739831
 11
64.756461
 21
371.739831
  0
LINE
  5
643
100
AcDbEntity
  8
M0
100
AcDbLine
 10
64.381461
 20
371.739831
 11
64.381461
 21
371.139831
  0
LINE
  5
644
100
AcDbEntity
  8
M0
100
AcDbLine
 10
64.381461
 20
371.139831
 11
64.756461
 21
371.139831
  0
LINE
  5
645
100
AcDbEntity
  8
M0
100
AcDbLine
 10
67.206461
 20
371.739831
 11
67.206461
 21
371.139831
  0
CIRCLE
  5
646
100
AcDbEntity
  8
M0
100
AcDbCircle
 10
103.981461
 20
390.639831
 40
3.0
  0
LINE
  5
647
100
AcDbEntity
  8
M0
100
AcDbLine
 10
105.572045
 20
389.049186
 11
102.390404
 21
392.230949
  0
LINE
  5
648
100
AcDbEntity
  8
M0
100
AcDbLine
 10
105.395287
 20
390.993522
 11
103.627709
 21
389.225944
  0
LINE
  5
649
100
AcDbEntity
  8
M0
100
AcDbLine
 10
104.33474
 20
392.054191
 11
102.567162
 21
390.286491
  0
LINE
  5
64A
100
AcDbEntity
  8
M0
100
AcDbLine
 10
107.306461
 20
394.464831
 11
100.656461
 21
394.464831
  0
ARC
  5
64B
100
AcDbEntity
  8
M0
100
AcDbCircle
 10
107.306461
 20
393.964831
 40
0.5
100
AcDbArc
 50
0.0
 51
90.0
  0
LINE
  5
64C
100
AcDbEntity
  8
M0
100
AcDbLine
 10
107.806461
 20
387.314831
 11
107.806461
 21
393.964831
  0
ARC
  5
64D
100
AcDbEntity
  8
M0
100
AcDbCircle
 10
107.306461
 20
387.314831
 40
0.5
100
AcDbArc
 50
270.0
 51
360.0
  0
LINE
  5
64E
100
AcDbEntity
  8
M0
100
AcDbLine
 10
100.656461
 20
386.814831
 11
107.306461
 21
386.814831
  0
LINE
  5
64F
100
AcDbEntity
  8
M0
100
AcDbLine
 10
100.156461
 20
393.964831
 11
100.156461
 21
387.314831
  0
ARC
  5
650
100
AcDbEntity
  8
M0
100
AcDbCircle
 10
100.656461
 20
393.964831
 40
0.5
100
AcDbArc
 50
90.0
 51
180.0
  0
ARC
  5
651
100
AcDbEntity
  8
M0
100
AcDbCircle
 10
100.656461
 20
387.314831
 40
0.5
100
AcDbArc
 50
180.0
 51
270.0
  0
CIRCLE
  5
652
100
AcDbEntity
  8
M0
100
AcDbCircle
 10
103.981461
 20
417.239831
 40
3.0
  0
LINE
  5
653
100
AcDbEntity
  8
M0
100
AcDbLine
 10
105.572045
 20
415.649186
 11
102.390404
 21
418.830949
  0
LINE
  5
654
100
AcDbEntity
  8
M0
100
AcDbLine
 10
105.395287
 20
417.593522
 11
103.627709
 21
415.825944
  0
LINE
  5
655
100
AcDbEntity
  8
M0
100
AcDbLine
 10
104.33474
 20
418.654191
 11
102.567162
 21
416.886491
  0
LINE
  5
656
100
AcDbEntity
  8
M0
100
AcDbLine
 10
107.306461
 20
421.064831
 11
100.656461
 21
421.064831
  0
ARC
  5
657
100
AcDbEntity
  8
M0
100
AcDbCircle
 10
107.306461
 20
420.564831
 40
0.5
100
AcDbArc
 50
0.0
 51
90.0
  0
LINE
  5
658
100
AcDbEntity
  8
M0
100
AcDbLine
 10
107.806461
 20
413.914831
 11
107.806461
 21
420.564831
  0
ARC
  5
659
100
AcDbEntity
  8
M0
100
AcDbCircle
 10
107.306461
 20
413.914831
 40
0.5
100
AcDbArc
 50
270.0
 51
360.0
  0
LINE
  5
65A
100
AcDbEntity
  8
M0
100
AcDbLine
 10
100.656461
 20
413.414831
 11
107.306461
 21
413.414831
  0
LINE
  5
65B
100
AcDbEntity
  8
M0
100
AcDbLine
 10
100.156461
 20
420.564831
 11
100.156461
 21
413.914831
  0
ARC
  5
65C
100
AcDbEntity
  8
M0
100
AcDbCircle
 10
100.656461
 20
420.564831
 40
0.5
100
AcDbArc
 50
90.0
 51
180.0
  0
ARC
  5
65D
100
AcDbEntity
  8
M0
100
AcDbCircle
 10
100.656461
 20
413.914831
 40
0.5
100
AcDbArc
 50
180.0
 51
270.0
  0
CIRCLE
  5
65E
100
AcDbEntity
  8
M0
100
AcDbCircle
 10
176.781458
 20
390.639831
 40
3.0
  0
LINE
  5
65F
100
AcDbEntity
  8
M0
100
AcDbLine
 10
178.372041
 20
389.049186
 11
175.190401
 21
392.230949
  0
LINE
  5
660
100
AcDbEntity
  8
M0
100
AcDbLine
 10
178.195284
 20
390.993522
 11
176.427705
 21
389.225944
  0
LINE
  5
661
100
AcDbEntity
  8
M0
100
AcDbLine
 10
177.134737
 20
392.054191
 11
175.367159
 21
390.286491
  0
LINE
  5
662
100
AcDbEntity
  8
M0
100
AcDbLine
 10
180.106458
 20
394.464831
 11
173.456458
 21
394.464831
  0
ARC
  5
663
100
AcDbEntity
  8
M0
100
AcDbCircle
 10
180.106458
 20
393.964831
 40
0.5
100
AcDbArc
 50
0.0
 51
90.0
  0
LINE
  5
664
100
AcDbEntity
  8
M0
100
AcDbLine
 10
180.606458
 20
387.314831
 11
180.606458
 21
393.964831
  0
ARC
  5
665
100
AcDbEntity
  8
M0
100
AcDbCircle
 10
180.106458
 20
387.314831
 40
0.5
100
AcDbArc
 50
270.0
 51
360.0
  0
LINE
  5
666
100
AcDbEntity
  8
M0
100
AcDbLine
 10
173.456458
 20
386.814831
 11
180.106458
 21
386.814831
  0
LINE
  5
667
100
AcDbEntity
  8
M0
100
AcDbLine
 10
172.956458
 20
393.964831
 11
172.956458
 21
387.314831
  0
ARC
  5
668
100
AcDbEntity
  8
M0
100
AcDbCircle
 10
173.456458
 20
393.964831
 40
0.5
100
AcDbArc
 50
90.0
 51
180.0
  0
ARC
  5
669
100
AcDbEntity
  8
M0
100
AcDbCircle
 10
173.456458
 20
387.314831
 40
0.5
100
AcDbArc
 50
180.0
 51
270.0
  0
CIRCLE
  5
66A
100
AcDbEntity
  8
M0
100
AcDbCircle
 10
162.481458
 20
442.539831
 40
3.0
  0
LINE
  5
66B
100
AcDbEntity
  8
M0
100
AcDbLine
 10
164.072042
 20
440.949186
 11
160.890401
 21
444.130949
  0
LINE
  5
66C
100
AcDbEntity
  8
M0
100
AcDbLine
 10
163.895284
 20
442.893522
 11
162.127706
 21
441.125944
  0
LINE
  5
66D
100
AcDbEntity
  8
M0
100
AcDbLine
 10
162.834737
 20
443.954191
 11
161.067159
 21
442.186491
  0
LINE
  5
66E
100
AcDbEntity
  8
M0
100
AcDbLine
 10
165.806458
 20
446.364831
 11
159.156458
 21
446.364831
  0
ARC
  5
66F
100
AcDbEntity
  8
M0
100
AcDbCircle
 10
165.806458
 20
445.864831
 40
0.5
100
AcDbArc
 50
0.0
 51
90.0
  0
LINE
  5
670
100
AcDbEntity
  8
M0
100
AcDbLine
 10
166.306458
 20
439.214831
 11
166.306458
 21
445.864831
  0
ARC
  5
671
100
AcDbEntity
  8
M0
100
AcDbCircle
 10
165.806458
 20
439.214831
 40
0.5
100
AcDbArc
 50
270.0
 51
360.0
  0
LINE
  5
672
100
AcDbEntity
  8
M0
100
AcDbLine
 10
159.156458
 20
438.714831
 11
165.806458
 21
438.714831
  0
LINE
  5
673
100
AcDbEntity
  8
M0
100
AcDbLine
 10
158.656458
 20
445.864831
 11
158.656458
 21
439.214831
  0
ARC
  5
674
100
AcDbEntity
  8
M0
100
AcDbCircle
 10
159.156458
 20
445.864831
 40
0.5
100
AcDbArc
 50
90.0
 51
180.0
  0
ARC
  5
675
100
AcDbEntity
  8
M0
100
AcDbCircle
 10
159.156458
 20
439.214831
 40
0.5
100
AcDbArc
 50
180.0
 51
270.0
  0
CIRCLE
  5
676
100
AcDbEntity
  8
M0
100
AcDbCircle
 10
103.981461
 20
383.039831
 40
3.0
  0
LINE
  5
677
100
AcDbEntity
  8
M0
100
AcDbLine
 10
105.572045
 20
381.449186
 11
102.390404
 21
384.630949
  0
LINE
  5
678
100
AcDbEntity
  8
M0
100
AcDbLine
 10
105.395287
 20
383.393522
 11
103.627709
 21
381.625944
  0
LINE
  5
679
100
AcDbEntity
  8
M0
100
AcDbLine
 10
104.33474
 20
384.454191
 11
102.567162
 21
382.686491
  0
LINE
  5
67A
100
AcDbEntity
  8
M0
100
AcDbLine
 10
107.306461
 20
386.864831
 11
100.656461
 21
386.864831
  0
ARC
  5
67B
100
AcDbEntity
  8
M0
100
AcDbCircle
 10
107.306461
 20
386.364831
 40
0.5
100
AcDbArc
 50
0.0
 51
90.0
  0
LINE
  5
67C
100
AcDbEntity
  8
M0
100
AcDbLine
 10
107.806461
 20
379.714831
 11
107.806461
 21
386.364831
  0
ARC
  5
67D
100
AcDbEntity
  8
M0
100
AcDbCircle
 10
107.306461
 20
379.714831
 40
0.5
100
AcDbArc
 50
270.0
 51
360.0
  0
LINE
  5
67E
100
AcDbEntity
  8
M0
100
AcDbLine
 10
100.656461
 20
379.214831
 11
107.306461
 21
379.214831
  0
LINE
  5
67F
100
AcDbEntity
  8
M0
100
AcDbLine
 10
100.156461
 20
386.364831
 11
100.156461
 21
379.714831
  0
ARC
  5
680
100
AcDbEntity
  8
M0
100
AcDbCircle
 10
100.656461
 20
386.364831
 40
0.5
100
AcDbArc
 50
90.0
 51
180.0
  0
ARC
  5
681
100
AcDbEntity
  8
M0
100
AcDbCircle
 10
100.656461
 20
379.714831
 40
0.5
100
AcDbArc
 50
180.0
 51
270.0
  0
ARC
  5
682
100
AcDbEntity
  8
M0
100
AcDbCircle
 10
70.281461
 20
423.139831
 40
0.5
100
AcDbArc
 50
270.0
 51
360.0
  0
LINE
  5
683
100
AcDbEntity
  8
M0
100
AcDbLine
 10
70.781461
 20
432.139831
 11
70.781461
 21
423.139831
  0
ARC
  5
684
100
AcDbEntity
  8
M0
100
AcDbCircle
 10
70.281461
 20
432.139831
 40
0.5
100
AcDbArc
 50
0.0
 51
90.0
  0
LINE
  5
685
100
AcDbEntity
  8
M0
100
AcDbLine
 10
60.781461
 20
432.139831
 11
60.781461
 21
423.139831
  0
ARC
  5
686
100
AcDbEntity
  8
M0
100
AcDbCircle
 10
61.281461
 20
432.139831
 40
0.5
100
AcDbArc
 50
90.0
 51
180.0
  0
ARC
  5
687
100
AcDbEntity
  8
M0
100
AcDbCircle
 10
61.281461
 20
423.139831
 40
0.5
100
AcDbArc
 50
180.0
 51
270.0
  0
LINE
  5
688
100
AcDbEntity
  8
M0
100
AcDbLine
 10
61.281461
 20
422.639831
 11
70.281461
 21
422.639831
  0
LINE
  5
689
100
AcDbEntity
  8
M0
100
AcDbLine
 10
70.281461
 20
432.639831
 11
61.281461
 21
432.639831
  0
CIRCLE
  5
68A
100
AcDbEntity
  8
M0
100
AcDbCircle
 10
65.781461
 20
427.639831
 40
3.5
  0
LINE
  5
68B
100
AcDbEntity
  8
M0
100
AcDbLine
 10
66.792333
 20
429.357788
 11
64.21726
 21
426.782715
  0
LINE
  5
68C
100
AcDbEntity
  8
M0
100
AcDbLine
 10
67.499441
 20
428.65068
 11
64.924367
 21
426.075607
  0
LINE
  5
68D
100
AcDbEntity
  8
M0
100
AcDbLine
 10
64.820608
 20
428.600677
 11
66.665456
 21
426.755844
  0
ARC
  5
68E
100
AcDbEntity
  8
M0
100
AcDbCircle
 10
83.281458
 20
423.139831
 40
0.5
100
AcDbArc
 50
270.0
 51
360.0
  0
LINE
  5
68F
100
AcDbEntity
  8
M0
100
AcDbLine
 10
83.781458
 20
432.139831
 11
83.781458
 21
423.139831
  0
ARC
  5
690
100
AcDbEntity
  8
M0
100
AcDbCircle
 10
83.281458
 20
432.139831
 40
0.5
100
AcDbArc
 50
0.0
 51
90.0
  0
LINE
  5
691
100
AcDbEntity
  8
M0
100
AcDbLine
 10
73.781458
 20
432.139831
 11
73.781458
 21
423.139831
  0
ARC
  5
692
100
AcDbEntity
  8
M0
100
AcDbCircle
 10
74.281458
 20
432.139831
 40
0.5
100
AcDbArc
 50
90.0
 51
180.0
  0
ARC
  5
693
100
AcDbEntity
  8
M0
100
AcDbCircle
 10
74.281458
 20
423.139831
 40
0.5
100
AcDbArc
 50
180.0
 51
270.0
  0
LINE
  5
694
100
AcDbEntity
  8
M0
100
AcDbLine
 10
74.281458
 20
422.639831
 11
83.281458
 21
422.639831
  0
LINE
  5
695
100
AcDbEntity
  8
M0
100
AcDbLine
 10
83.281458
 20
432.639831
 11
74.281458
 21
432.639831
  0
CIRCLE
  5
696
100
AcDbEntity
  8
M0
100
AcDbCircle
 10
78.781458
 20
427.639831
 40
3.5
  0
LINE
  5
697
100
AcDbEntity
  8
M0
100
AcDbLine
 10
79.79233
 20
429.357788
 11
77.217256
 21
426.782715
  0
LINE
  5
698
100
AcDbEntity
  8
M0
100
AcDbLine
 10
80.499437
 20
428.65068
 11
77.924364
 21
426.075607
  0
LINE
  5
699
100
AcDbEntity
  8
M0
100
AcDbLine
 10
77.820604
 20
428.600677
 11
79.665453
 21
426.755844
  0
ARC
  5
69A
100
AcDbEntity
  8
M0
100
AcDbCircle
 10
96.281458
 20
423.139831
 40
0.5
100
AcDbArc
 50
270.0
 51
360.0
  0
LINE
  5
69B
100
AcDbEntity
  8
M0
100
AcDbLine
 10
96.781458
 20
432.139831
 11
96.781458
 21
423.139831
  0
ARC
  5
69C
100
AcDbEntity
  8
M0
100
AcDbCircle
 10
96.281458
 20
432.139831
 40
0.5
100
AcDbArc
 50
0.0
 51
90.0
  0
LINE
  5
69D
100
AcDbEntity
  8
M0
100
AcDbLine
 10
86.781458
 20
432.139831
 11
86.781458
 21
423.139831
  0
ARC
  5
69E
100
AcDbEntity
  8
M0
100
AcDbCircle
 10
87.281458
 20
432.139831
 40
0.5
100
AcDbArc
 50
90.0
 51
180.0
  0
ARC
  5
69F
100
AcDbEntity
  8
M0
100
AcDbCircle
 10
87.281458
 20
423.139831
 40
0.5
100
AcDbArc
 50
180.0
 51
270.0
  0
LINE
  5
6A0
100
AcDbEntity
  8
M0
100
AcDbLine
 10
87.281458
 20
422.639831
 11
96.281458
 21
422.639831
  0
LINE
  5
6A1
100
AcDbEntity
  8
M0
100
AcDbLine
 10
96.281458
 20
432.639831
 11
87.281458
 21
432.639831
  0
CIRCLE
  5
6A2
100
AcDbEntity
  8
M0
100
AcDbCircle
 10
91.781458
 20
427.639831
 40
3.5
  0
LINE
  5
6A3
100
AcDbEntity
  8
M0
100
AcDbLine
 10
92.79233
 20
429.357788
 11
90.217257
 21
426.782715
  0
LINE
  5
6A4
100
AcDbEntity
  8
M0
100
AcDbLine
 10
93.499437
 20
428.65068
 11
90.924364
 21
426.075607
  0
LINE
  5
6A5
100
AcDbEntity
  8
M0
100
AcDbLine
 10
90.820604
 20
428.600677
 11
92.665453
 21
426.755844
  0
ARC
  5
6A6
100
AcDbEntity
  8
M0
100
AcDbCircle
 10
96.281458
 20
375.739831
 40
0.5
100
AcDbArc
 50
270.0
 51
360.0
  0
LINE
  5
6A7
100
AcDbEntity
  8
M0
100
AcDbLine
 10
96.781458
 20
384.739831
 11
96.781458
 21
375.739831
  0
ARC
  5
6A8
100
AcDbEntity
  8
M0
100
AcDbCircle
 10
96.281458
 20
384.739831
 40
0.5
100
AcDbArc
 50
0.0
 51
90.0
  0
LINE
  5
6A9
100
AcDbEntity
  8
M0
100
AcDbLine
 10
86.781458
 20
384.739831
 11
86.781458
 21
375.739831
  0
ARC
  5
6AA
100
AcDbEntity
  8
M0
100
AcDbCircle
 10
87.281458
 20
384.739831
 40
0.5
100
AcDbArc
 50
90.0
 51
180.0
  0
ARC
  5
6AB
100
AcDbEntity
  8
M0
100
AcDbCircle
 10
87.281458
 20
375.739831
 40
0.5
100
AcDbArc
 50
180.0
 51
270.0
  0
LINE
  5
6AC
100
AcDbEntity
  8
M0
100
AcDbLine
 10
87.281458
 20
375.239831
 11
96.281458
 21
375.239831
  0
LINE
  5
6AD
100
AcDbEntity
  8
M0
100
AcDbLine
 10
96.281458
 20
385.239831
 11
87.281458
 21
385.239831
  0
CIRCLE
  5
6AE
100
AcDbEntity
  8
M0
100
AcDbCircle
 10
91.781458
 20
380.239831
 40
3.5
  0
LINE
  5
6AF
100
AcDbEntity
  8
M0
100
AcDbLine
 10
92.79233
 20
381.957787
 11
90.217257
 21
379.382714
  0
LINE
  5
6B0
100
AcDbEntity
  8
M0
100
AcDbLine
 10
93.499437
 20
381.25068
 11
90.924364
 21
378.675607
  0
LINE
  5
6B1
100
AcDbEntity
  8
M0
100
AcDbLine
 10
90.820604
 20
381.200677
 11
92.665453
 21
379.355843
  0
ARC
  5
6B2
100
AcDbEntity
  8
M0
100
AcDbCircle
 10
83.281458
 20
375.739831
 40
0.5
100
AcDbArc
 50
270.0
 51
360.0
  0
LINE
  5
6B3
100
AcDbEntity
  8
M0
100
AcDbLine
 10
83.781458
 20
384.739831
 11
83.781458
 21
375.739831
  0
ARC
  5
6B4
100
AcDbEntity
  8
M0
100
AcDbCircle
 10
83.281458
 20
384.739831
 40
0.5
100
AcDbArc
 50
0.0
 51
90.0
  0
LINE
  5
6B5
100
AcDbEntity
  8
M0
100
AcDbLine
 10
73.781458
 20
384.739831
 11
73.781458
 21
375.739831
  0
ARC
  5
6B6
100
AcDbEntity
  8
M0
100
AcDbCircle
 10
74.281458
 20
384.739831
 40
0.5
100
AcDbArc
 50
90.0
 51
180.0
  0
ARC
  5
6B7
100
AcDbEntity
  8
M0
100
AcDbCircle
 10
74.281458
 20
375.739831
 40
0.5
100
AcDbArc
 50
180.0
 51
270.0
  0
LINE
  5
6B8
100
AcDbEntity
  8
M0
100
AcDbLine
 10
74.281458
 20
375.239831
 11
83.281458
 21
375.239831
  0
LINE
  5
6B9
100
AcDbEntity
  8
M0
100
AcDbLine
 10
83.281458
 20
385.239831
 11
74.281458
 21
385.239831
  0
CIRCLE
  5
6BA
100
AcDbEntity
  8
M0
100
AcDbCircle
 10
78.781458
 20
380.239831
 40
3.5
  0
LINE
  5
6BB
100
AcDbEntity
  8
M0
100
AcDbLine
 10
79.79233
 20
381.957787
 11
77.217256
 21
379.382714
  0
LINE
  5
6BC
100
AcDbEntity
  8
M0
100
AcDbLine
 10
80.499437
 20
381.25068
 11
77.924364
 21
378.675607
  0
LINE
  5
6BD
100
AcDbEntity
  8
M0
100
AcDbLine
 10
77.820604
 20
381.200677
 11
79.665453
 21
379.355843
  0
ARC
  5
6BE
100
AcDbEntity
  8
M0
100
AcDbCircle
 10
70.281461
 20
375.739831
 40
0.5
100
AcDbArc
 50
270.0
 51
360.0
  0
LINE
  5
6BF
100
AcDbEntity
  8
M0
100
AcDbLine
 10
70.781461
 20
384.739831
 11
70.781461
 21
375.739831
  0
ARC
  5
6C0
100
AcDbEntity
  8
M0
100
AcDbCircle
 10
70.281461
 20
384.739831
 40
0.5
100
AcDbArc
 50
0.0
 51
90.0
  0
LINE
  5
6C1
100
AcDbEntity
  8
M0
100
AcDbLine
 10
60.781461
 20
384.739831
 11
60.781461
 21
375.739831
  0
ARC
  5
6C2
100
AcDbEntity
  8
M0
100
AcDbCircle
 10
61.281461
 20
384.739831
 40
0.5
100
AcDbArc
 50
90.0
 51
180.0
  0
ARC
  5
6C3
100
AcDbEntity
  8
M0
100
AcDbCircle
 10
61.281461
 20
375.739831
 40
0.5
100
AcDbArc
 50
180.0
 51
270.0
  0
LINE
  5
6C4
100
AcDbEntity
  8
M0
100
AcDbLine
 10
61.281461
 20
375.239831
 11
70.281461
 21
375.239831
  0
LINE
  5
6C5
100
AcDbEntity
  8
M0
100
AcDbLine
 10
70.281461
 20
385.239831
 11
61.281461
 21
385.239831
  0
CIRCLE
  5
6C6
100
AcDbEntity
  8
M0
100
AcDbCircle
 10
65.781461
 20
380.239831
 40
3.5
  0
LINE
  5
6C7
100
AcDbEntity
  8
M0
100
AcDbLine
 10
66.792333
 20
381.957787
 11
64.21726
 21
379.382714
  0
LINE
  5
6C8
100
AcDbEntity
  8
M0
100
AcDbLine
 10
67.499441
 20
381.25068
 11
64.924367
 21
378.675607
  0
LINE
  5
6C9
100
AcDbEntity
  8
M0
100
AcDbLine
 10
64.820608
 20
381.200677
 11
66.665456
 21
379.355843
  0
CIRCLE
  5
6CA
100
AcDbEntity
  8
M0
100
AcDbCircle
 10
176.781458
 20
417.239831
 40
3.0
  0
LINE
  5
6CB
100
AcDbEntity
  8
M0
100
AcDbLine
 10
178.372041
 20
415.649186
 11
175.190401
 21
418.830949
  0
LINE
  5
6CC
100
AcDbEntity
  8
M0
100
AcDbLine
 10
178.195284
 20
417.593522
 11
176.427706
 21
415.825944
  0
LINE
  5
6CD
100
AcDbEntity
  8
M0
100
AcDbLine
 10
177.134737
 20
418.654191
 11
175.367159
 21
416.886491
  0
LINE
  5
6CE
100
AcDbEntity
  8
M0
100
AcDbLine
 10
180.106458
 20
421.064831
 11
173.456458
 21
421.064831
  0
ARC
  5
6CF
100
AcDbEntity
  8
M0
100
AcDbCircle
 10
180.106458
 20
420.564831
 40
0.5
100
AcDbArc
 50
0.0
 51
90.0
  0
LINE
  5
6D0
100
AcDbEntity
  8
M0
100
AcDbLine
 10
180.606458
 20
413.914831
 11
180.606458
 21
420.564831
  0
ARC
  5
6D1
100
AcDbEntity
  8
M0
100
AcDbCircle
 10
180.106458
 20
413.914831
 40
0.5
100
AcDbArc
 50
270.0
 51
360.0
  0
LINE
  5
6D2
100
AcDbEntity
  8
M0
100
AcDbLine
 10
173.456458
 20
413.414831
 11
180.106458
 21
413.414831
  0
LINE
  5
6D3
100
AcDbEntity
  8
M0
100
AcDbLine
 10
172.956458
 20
420.564831
 11
172.956458
 21
413.914831
  0
ARC
  5
6D4
100
AcDbEntity
  8
M0
100
AcDbCircle
 10
173.456458
 20
420.564831
 40
0.5
100
AcDbArc
 50
90.0
 51
180.0
  0
ARC
  5
6D5
100
AcDbEntity
  8
M0
100
AcDbCircle
 10
173.456458
 20
413.914831
 40
0.5
100
AcDbArc
 50
180.0
 51
270.0
  0
CIRCLE
  5
6D6
100
AcDbEntity
  8
M0
  6
DASHED
100
AcDbCircle
 10
53.581461
 20
417.239831
 40
3.0
  0
LINE
  5
6D7
100
AcDbEntity
  8
M0
  6
DASHED
100
AcDbLine
 10
55.172045
 20
415.649186
 11
51.990405
 21
418.830949
  0
LINE
  5
6D8
100
AcDbEntity
  8
M0
  6
DASHED
100
AcDbLine
 10
54.995287
 20
417.593522
 11
53.227709
 21
415.825944
  0
LINE
  5
6D9
100
AcDbEntity
  8
M0
  6
DASHED
100
AcDbLine
 10
53.934741
 20
418.654191
 11
52.167162
 21
416.886491
  0
LINE
  5
6DA
100
AcDbEntity
  8
M0
  6
DASHED
100
AcDbLine
 10
56.906461
 20
421.064831
 11
50.256461
 21
421.064831
  0
ARC
  5
6DB
100
AcDbEntity
  8
M0
  6
DASHED
100
AcDbCircle
 10
56.906461
 20
420.564831
 40
0.5
100
AcDbArc
 50
0.0
 51
90.0
  0
LINE
  5
6DC
100
AcDbEntity
  8
M0
  6
DASHED
100
AcDbLine
 10
57.406461
 20
413.914831
 11
57.406461
 21
420.564831
  0
ARC
  5
6DD
100
AcDbEntity
  8
M0
  6
DASHED
100
AcDbCircle
 10
56.906461
 20
413.914831
 40
0.5
100
AcDbArc
 50
270.0
 51
360.0
  0
LINE
  5
6DE
100
AcDbEntity
  8
M0
  6
DASHED
100
AcDbLine
 10
50.256461
 20
413.414831
 11
56.906461
 21
413.414831
  0
LINE
  5
6DF
100
AcDbEntity
  8
M0
  6
DASHED
100
AcDbLine
 10
49.756461
 20
420.564831
 11
49.756461
 21
413.914831
  0
ARC
  5
6E0
100
AcDbEntity
  8
M0
  6
DASHED
100
AcDbCircle
 10
50.256461
 20
420.564831
 40
0.5
100
AcDbArc
 50
90.0
 51
180.0
  0
ARC
  5
6E1
100
AcDbEntity
  8
M0
  6
DASHED
100
AcDbCircle
 10
50.256461
 20
413.914831
 40
0.5
100
AcDbArc
 50
180.0
 51
270.0
  0
CIRCLE
  5
6E2
100
AcDbEntity
  8
M0
100
AcDbCircle
 10
103.981461
 20
424.839831
 40
3.0
  0
LINE
  5
6E3
100
AcDbEntity
  8
M0
100
AcDbLine
 10
105.572045
 20
423.249186
 11
102.390404
 21
426.430949
  0
LINE
  5
6E4
100
AcDbEntity
  8
M0
100
AcDbLine
 10
105.395287
 20
425.193522
 11
103.627709
 21
423.425944
  0
LINE
  5
6E5
100
AcDbEntity
  8
M0
100
AcDbLine
 10
104.33474
 20
426.254191
 11
102.567162
 21
424.486491
  0
LINE
  5
6E6
100
AcDbEntity
  8
M0
100
AcDbLine
 10
107.306461
 20
428.664831
 11
100.656461
 21
428.664831
  0
ARC
  5
6E7
100
AcDbEntity
  8
M0
100
AcDbCircle
 10
107.306461
 20
428.164831
 40
0.5
100
AcDbArc
 50
0.0
 51
90.0
  0
LINE
  5
6E8
100
AcDbEntity
  8
M0
100
AcDbLine
 10
107.806461
 20
421.514831
 11
107.806461
 21
428.164831
  0
ARC
  5
6E9
100
AcDbEntity
  8
M0
100
AcDbCircle
 10
107.306461
 20
421.514831
 40
0.5
100
AcDbArc
 50
270.0
 51
360.0
  0
LINE
  5
6EA
100
AcDbEntity
  8
M0
100
AcDbLine
 10
100.656461
 20
421.014831
 11
107.306461
 21
421.014831
  0
LINE
  5
6EB
100
AcDbEntity
  8
M0
100
AcDbLine
 10
100.156461
 20
428.164831
 11
100.156461
 21
421.514831
  0
ARC
  5
6EC
100
AcDbEntity
  8
M0
100
AcDbCircle
 10
100.656461
 20
428.164831
 40
0.5
100
AcDbArc
 50
90.0
 51
180.0
  0
ARC
  5
6ED
100
AcDbEntity
  8
M0
100
AcDbCircle
 10
100.656461
 20
421.514831
 40
0.5
100
AcDbArc
 50
180.0
 51
270.0
  0
CIRCLE
  5
6EE
100
AcDbEntity
  8
M0
  6
DASHED
100
AcDbCircle
 10
126.381458
 20
390.639831
 40
3.0
  0
LINE
  5
6EF
100
AcDbEntity
  8
M0
  6
DASHED
100
AcDbLine
 10
127.972042
 20
389.049186
 11
124.790401
 21
392.230949
  0
LINE
  5
6F0
100
AcDbEntity
  8
M0
  6
DASHED
100
AcDbLine
 10
127.795284
 20
390.993522
 11
126.027706
 21
389.225944
  0
LINE
  5
6F1
100
AcDbEntity
  8
M0
  6
DASHED
100
AcDbLine
 10
126.734737
 20
392.054191
 11
124.967159
 21
390.286491
  0
LINE
  5
6F2
100
AcDbEntity
  8
M0
  6
DASHED
100
AcDbLine
 10
129.706458
 20
394.464831
 11
123.056458
 21
394.464831
  0
ARC
  5
6F3
100
AcDbEntity
  8
M0
  6
DASHED
100
AcDbCircle
 10
129.706458
 20
393.964831
 40
0.5
100
AcDbArc
 50
0.0
 51
90.0
  0
LINE
  5
6F4
100
AcDbEntity
  8
M0
  6
DASHED
100
AcDbLine
 10
130.206458
 20
387.314831
 11
130.206458
 21
393.964831
  0
ARC
  5
6F5
100
AcDbEntity
  8
M0
  6
DASHED
100
AcDbCircle
 10
129.706458
 20
387.314831
 40
0.5
100
AcDbArc
 50
270.0
 51
360.0
  0
LINE
  5
6F6
100
AcDbEntity
  8
M0
  6
DASHED
100
AcDbLine
 10
123.056458
 20
386.814831
 11
129.706458
 21
386.814831
  0
LINE
  5
6F7
100
AcDbEntity
  8
M0
  6
DASHED
100
AcDbLine
 10
122.556458
 20
393.964831
 11
122.556458
 21
387.314831
  0
ARC
  5
6F8
100
AcDbEntity
  8
M0
  6
DASHED
100
AcDbCircle
 10
123.056458
 20
393.964831
 40
0.5
100
AcDbArc
 50
90.0
 51
180.0
  0
ARC
  5
6F9
100
AcDbEntity
  8
M0
  6
DASHED
100
AcDbCircle
 10
123.056458
 20
387.314831
 40
0.5
100
AcDbArc
 50
180.0
 51
270.0
  0
CIRCLE
  5
6FA
100
AcDbEntity
  8
M0
100
AcDbCircle
 10
176.781458
 20
383.039831
 40
3.0
  0
LINE
  5
6FB
100
AcDbEntity
  8
M0
100
AcDbLine
 10
178.372041
 20
381.449186
 11
175.190401
 21
384.630949
  0
LINE
  5
6FC
100
AcDbEntity
  8
M0
100
AcDbLine
 10
178.195284
 20
383.393522
 11
176.427705
 21
381.625944
  0
LINE
  5
6FD
100
AcDbEntity
  8
M0
100
AcDbLine
 10
177.134737
 20
384.454191
 11
175.367159
 21
382.686491
  0
LINE
  5
6FE
100
AcDbEntity
  8
M0
100
AcDbLine
 10
180.106458
 20
386.864831
 11
173.456458
 21
386.864831
  0
ARC
  5
6FF
100
AcDbEntity
  8
M0
100
AcDbCircle
 10
180.106458
 20
386.364831
 40
0.5
100
AcDbArc
 50
0.0
 51
90.0
  0
LINE
  5
700
100
AcDbEntity
  8
M0
100
AcDbLine
 10
180.606458
 20
379.714831
 11
180.606458
 21
386.364831
  0
ARC
  5
701
100
AcDbEntity
  8
M0
100
AcDbCircle
 10
180.106458
 20
379.714831
 40
0.5
100
AcDbArc
 50
270.0
 51
360.0
  0
LINE
  5
702
100
AcDbEntity
  8
M0
100
AcDbLine
 10
173.456458
 20
379.214831
 11
180.106458
 21
379.214831
  0
LINE
  5
703
100
AcDbEntity
  8
M0
100
AcDbLine
 10
172.956458
 20
386.364831
 11
172.956458
 21
379.714831
  0
ARC
  5
704
100
AcDbEntity
  8
M0
100
AcDbCircle
 10
173.456458
 20
386.364831
 40
0.5
100
AcDbArc
 50
90.0
 51
180.0
  0
ARC
  5
705
100
AcDbEntity
  8
M0
100
AcDbCircle
 10
173.456458
 20
379.714831
 40
0.5
100
AcDbArc
 50
180.0
 51
270.0
  0
CIRCLE
  5
706
100
AcDbEntity
  8
M0
  6
DASHED
100
AcDbCircle
 10
126.381458
 20
424.839831
 40
3.0
  0
LINE
  5
707
100
AcDbEntity
  8
M0
  6
DASHED
100
AcDbLine
 10
127.972042
 20
423.249186
 11
124.790401
 21
426.430949
  0
LINE
  5
708
100
AcDbEntity
  8
M0
  6
DASHED
100
AcDbLine
 10
127.795284
 20
425.193522
 11
126.027706
 21
423.425944
  0
LINE
  5
709
100
AcDbEntity
  8
M0
  6
DASHED
100
AcDbLine
 10
126.734737
 20
426.254191
 11
124.967159
 21
424.486491
  0
LINE
  5
70A
100
AcDbEntity
  8
M0
  6
DASHED
100
AcDbLine
 10
129.706458
 20
428.664831
 11
123.056458
 21
428.664831
  0
ARC
  5
70B
100
AcDbEntity
  8
M0
  6
DASHED
100
AcDbCircle
 10
129.706458
 20
428.164831
 40
0.5
100
AcDbArc
 50
0.0
 51
90.0
  0
LINE
  5
70C
100
AcDbEntity
  8
M0
  6
DASHED
100
AcDbLine
 10
130.206458
 20
421.514831
 11
130.206458
 21
428.164831
  0
ARC
  5
70D
100
AcDbEntity
  8
M0
  6
DASHED
100
AcDbCircle
 10
129.706458
 20
421.514831
 40
0.5
100
AcDbArc
 50
270.0
 51
360.0
  0
LINE
  5
70E
100
AcDbEntity
  8
M0
  6
DASHED
100
AcDbLine
 10
123.056458
 20
421.014831
 11
129.706458
 21
421.014831
  0
LINE
  5
70F
100
AcDbEntity
  8
M0
  6
DASHED
100
AcDbLine
 10
122.556458
 20
428.164831
 11
122.556458
 21
421.514831
  0
ARC
  5
710
100
AcDbEntity
  8
M0
  6
DASHED
100
AcDbCircle
 10
123.056458
 20
428.164831
 40
0.5
100
AcDbArc
 50
90.0
 51
180.0
  0
ARC
  5
711
100
AcDbEntity
  8
M0
  6
DASHED
100
AcDbCircle
 10
123.056458
 20
421.514831
 40
0.5
100
AcDbArc
 50
180.0
 51
270.0
  0
CIRCLE
  5
712
100
AcDbEntity
  8
M0
100
AcDbCircle
 10
91.781461
 20
371.439831
 40
2.75
  0
LINE
  5
713
100
AcDbEntity
  8
M0
100
AcDbLine
 10
91.481461
 20
370.039831
 11
91.481461
 21
370.436191
  0
LINE
  5
714
100
AcDbEntity
  8
M0
100
AcDbLine
 10
92.081461
 20
370.039831
 11
92.081461
 21
370.436191
  0
LINE
  5
715
100
AcDbEntity
  8
M0
100
AcDbLine
 10
91.481461
 20
372.839831
 11
91.481461
 21
372.44347
  0
LINE
  5
716
100
AcDbEntity
  8
M0
100
AcDbLine
 10
92.081461
 20
372.839831
 11
92.081461
 21
372.44347
  0
ARC
  5
717
100
AcDbEntity
  8
M0
100
AcDbCircle
 10
90.756461
 20
370.414831
 40
0.725
100
AcDbArc
 50
0.0
 51
90.0
  0
ARC
  5
718
100
AcDbEntity
  8
M0
100
AcDbCircle
 10
90.756461
 20
372.464831
 40
0.725
100
AcDbArc
 50
-90.0
 51
0.0
  0
ARC
  5
719
100
AcDbEntity
  8
M0
100
AcDbCircle
 10
92.806461
 20
372.464831
 40
0.725
100
AcDbArc
 50
180.0
 51
270.0
  0
ARC
  5
71A
100
AcDbEntity
  8
M0
100
AcDbCircle
 10
92.806461
 20
370.414831
 40
0.725
100
AcDbArc
 50
90.0
 51
180.0
  0
LINE
  5
71B
100
AcDbEntity
  8
M0
100
AcDbLine
 10
92.806461
 20
371.139831
 11
93.206461
 21
371.139831
  0
LINE
  5
71C
100
AcDbEntity
  8
M0
100
AcDbLine
 10
92.806461
 20
371.739831
 11
93.206461
 21
371.739831
  0
LINE
  5
71D
100
AcDbEntity
  8
M0
100
AcDbLine
 10
91.481461
 20
372.839831
 11
92.081461
 21
372.839831
  0
LINE
  5
71E
100
AcDbEntity
  8
M0
100
AcDbLine
 10
91.481461
 20
370.039831
 11
92.081461
 21
370.039831
  0
LINE
  5
71F
100
AcDbEntity
  8
M0
100
AcDbLine
 10
90.381461
 20
371.739831
 11
90.756461
 21
371.739831
  0
LINE
  5
720
100
AcDbEntity
  8
M0
100
AcDbLine
 10
90.381461
 20
371.739831
 11
90.381461
 21
371.139831
  0
LINE
  5
721
100
AcDbEntity
  8
M0
100
AcDbLine
 10
90.381461
 20
371.139831
 11
90.756461
 21
371.139831
  0
LINE
  5
722
100
AcDbEntity
  8
M0
100
AcDbLine
 10
93.206461
 20
371.739831
 11
93.206461
 21
371.139831
  0
LINE
  5
723
100
AcDbEntity
  8
M0
  6
DASHED
100
AcDbLine
 10
34.881464
 20
433.639831
 11
47.381464
 21
433.639831
  0
LINE
  5
724
100
AcDbEntity
  8
M0
  6
DASHED
100
AcDbLine
 10
34.881464
 20
433.639831
 11
34.881464
 21
374.239831
  0
LINE
  5
725
100
AcDbEntity
  8
M0
  6
DASHED
100
AcDbLine
 10
34.881464
 20
374.239831
 11
47.381464
 21
374.239831
  0
LINE
  5
726
100
AcDbEntity
  8
M0
  6
DASHED
100
AcDbLine
 10
195.481455
 20
433.639831
 11
182.981455
 21
433.639831
  0
LINE
  5
727
100
AcDbEntity
  8
M0
  6
DASHED
100
AcDbLine
 10
195.481455
 20
433.639831
 11
195.481455
 21
374.239831
  0
LINE
  5
728
100
AcDbEntity
  8
M0
  6
DASHED
100
AcDbLine
 10
195.481455
 20
374.239831
 11
182.981455
 21
374.239831
  0
CIRCLE
  5
729
100
AcDbEntity
  8
M0
100
AcDbCircle
 10
78.781461
 20
442.139831
 40
2.75
  0
LINE
  5
72A
100
AcDbEntity
  8
M0
100
AcDbLine
 10
78.481461
 20
440.739831
 11
78.481461
 21
441.136191
  0
LINE
  5
72B
100
AcDbEntity
  8
M0
100
AcDbLine
 10
79.081461
 20
440.739831
 11
79.081461
 21
441.136191
  0
LINE
  5
72C
100
AcDbEntity
  8
M0
100
AcDbLine
 10
78.481461
 20
443.539831
 11
78.481461
 21
443.14347
  0
LINE
  5
72D
100
AcDbEntity
  8
M0
100
AcDbLine
 10
79.081461
 20
443.539831
 11
79.081461
 21
443.14347
  0
ARC
  5
72E
100
AcDbEntity
  8
M0
100
AcDbCircle
 10
77.756461
 20
441.114831
 40
0.725
100
AcDbArc
 50
0.0
 51
90.0
  0
ARC
  5
72F
100
AcDbEntity
  8
M0
100
AcDbCircle
 10
77.756461
 20
443.164831
 40
0.725
100
AcDbArc
 50
-90.0
 51
0.0
  0
ARC
  5
730
100
AcDbEntity
  8
M0
100
AcDbCircle
 10
79.806461
 20
443.164831
 40
0.725
100
AcDbArc
 50
180.0
 51
270.0
  0
ARC
  5
731
100
AcDbEntity
  8
M0
100
AcDbCircle
 10
79.806461
 20
441.114831
 40
0.725
100
AcDbArc
 50
90.0
 51
180.0
  0
LINE
  5
732
100
AcDbEntity
  8
M0
100
AcDbLine
 10
79.806461
 20
441.839831
 11
80.206461
 21
441.839831
  0
LINE
  5
733
100
AcDbEntity
  8
M0
100
AcDbLine
 10
79.806461
 20
442.439831
 11
80.206461
 21
442.439831
  0
LINE
  5
734
100
AcDbEntity
  8
M0
100
AcDbLine
 10
78.481461
 20
443.539831
 11
79.081461
 21
443.539831
  0
LINE
  5
735
100
AcDbEntity
  8
M0
100
AcDbLine
 10
78.481461
 20
440.739831
 11
79.081461
 21
440.739831
  0
LINE
  5
736
100
AcDbEntity
  8
M0
100
AcDbLine
 10
77.381461
 20
442.439831
 11
77.756461
 21
442.439831
  0
LINE
  5
737
100
AcDbEntity
  8
M0
100
AcDbLine
 10
77.381461
 20
442.439831
 11
77.381461
 21
441.839831
  0
LINE
  5
738
100
AcDbEntity
  8
M0
100
AcDbLine
 10
77.381461
 20
441.839831
 11
77.756461
 21
441.839831
  0
LINE
  5
739
100
AcDbEntity
  8
M0
100
AcDbLine
 10
80.206461
 20
442.439831
 11
80.206461
 21
441.839831
  0
CIRCLE
  5
73A
100
AcDbEntity
  8
M0
100
AcDbCircle
 10
140.681458
 20
442.539831
 40
3.0
  0
LINE
  5
73B
100
AcDbEntity
  8
M0
100
AcDbLine
 10
142.272041
 20
440.949186
 11
139.090401
 21
444.130949
  0
LINE
  5
73C
100
AcDbEntity
  8
M0
100
AcDbLine
 10
142.095284
 20
442.893522
 11
140.327705
 21
441.125944
  0
LINE
  5
73D
100
AcDbEntity
  8
M0
100
AcDbLine
 10
141.034737
 20
443.954191
 11
139.267159
 21
442.186491
  0
LINE
  5
73E
100
AcDbEntity
  8
M0
100
AcDbLine
 10
144.006458
 20
446.364831
 11
137.356458
 21
446.364831
  0
ARC
  5
73F
100
AcDbEntity
  8
M0
100
AcDbCircle
 10
144.006458
 20
445.864831
 40
0.5
100
AcDbArc
 50
0.0
 51
90.0
  0
LINE
  5
740
100
AcDbEntity
  8
M0
100
AcDbLine
 10
144.506458
 20
439.214831
 11
144.506458
 21
445.864831
  0
ARC
  5
741
100
AcDbEntity
  8
M0
100
AcDbCircle
 10
144.006458
 20
439.214831
 40
0.5
100
AcDbArc
 50
270.0
 51
360.0
  0
LINE
  5
742
100
AcDbEntity
  8
M0
100
AcDbLine
 10
137.356458
 20
438.714831
 11
144.006458
 21
438.714831
  0
LINE
  5
743
100
AcDbEntity
  8
M0
100
AcDbLine
 10
136.856458
 20
445.864831
 11
136.856458
 21
439.214831
  0
ARC
  5
744
100
AcDbEntity
  8
M0
100
AcDbCircle
 10
137.356458
 20
445.864831
 40
0.5
100
AcDbArc
 50
90.0
 51
180.0
  0
ARC
  5
745
100
AcDbEntity
  8
M0
100
AcDbCircle
 10
137.356458
 20
439.214831
 40
0.5
100
AcDbArc
 50
180.0
 51
270.0
  0
HATCH
  5
746
100
AcDbEntity
  8
M0
 62
     7
100
AcDbHatch
 10
0.0
 20
0.0
210
0.0
220
0.0
230
1.0
  2
SOLID
 70
     1
 71
     0
 91
        1
 92
        1
 93
        4
 72
     1
 10
258.533201
 20
451.45996
 11
256.533201
 21
451.45996
 72
     1
 10
256.533201
 20
451.45996
 11
256.533201
 21
433.25996
 72
     1
 10
256.533201
 20
433.25996
 11
258.533201
 21
433.25996
 72
     1
 10
258.533201
 20
433.25996
 11
258.533201
 21
451.45996
 97
        0
 75
     0
 76
     1
 98
        1
 10
0.0
 20
0.0
  0
LINE
  5
749
100
AcDbEntity
  8
M0
 62
     7
100
AcDbLine
 10
353.333201
 20
427.039837
 11
353.333201
 21
433.039837
  0
LINE
  5
74A
100
AcDbEntity
  8
M0
 62
     7
100
AcDbLine
 10
341.333201
 20
427.039837
 11
341.333201
 21
433.039837
  0
LINE
  5
74B
100
AcDbEntity
  8
M0
 62
     7
100
AcDbLine
 10
329.333201
 20
427.039837
 11
329.333201
 21
433.039837
  0
LINE
  5
74C
100
AcDbEntity
  8
M0
 62
     7
100
AcDbLine
 10
337.333201
 20
427.039837
 11
337.333201
 21
433.039837
  0
LINE
  5
74D
100
AcDbEntity
  8
M0
 62
     7
100
AcDbLine
 10
339.333201
 20
427.039837
 11
339.333201
 21
433.039837
  0
LINE
  5
74E
100
AcDbEntity
  8
M0
 62
     7
100
AcDbLine
 10
351.333201
 20
427.039837
 11
353.333201
 21
427.039837
  0
LINE
  5
74F
100
AcDbEntity
  8
M0
 62
     7
100
AcDbLine
 10
331.333201
 20
427.039837
 11
331.333201
 21
433.039837
  0
LINE
  5
750
100
AcDbEntity
  8
M0
 62
     7
100
AcDbLine
 10
327.333201
 20
427.039837
 11
329.333201
 21
427.039837
  0
LINE
  5
751
100
AcDbEntity
  8
M0
 62
     7
100
AcDbLine
 10
332.633201
 20
369.039837
 11
332.633201
 21
378.539837
  0
LINE
  5
752
100
AcDbEntity
  8
M0
 62
     7
100
AcDbLine
 10
347.333201
 20
427.039837
 11
347.333201
 21
433.039837
  0
LINE
  5
753
100
AcDbEntity
  8
M0
 62
     7
100
AcDbLine
 10
347.333201
 20
427.039837
 11
349.333201
 21
427.039837
  0
LINE
  5
754
100
AcDbEntity
  8
M0
 62
     7
100
AcDbLine
 10
365.933201
 20
372.039837
 11
341.633201
 21
372.039837
  0
LINE
  5
755
100
AcDbEntity
  8
M0
 62
     7
100
AcDbLine
 10
349.333201
 20
427.039837
 11
349.333201
 21
433.039837
  0
LINE
  5
756
100
AcDbEntity
  8
M0
 62
     7
100
AcDbLine
 10
376.633201
 20
384.739837
 11
376.633201
 21
384.539837
  0
LINE
  5
757
100
AcDbEntity
  8
M0
 62
     7
100
AcDbLine
 10
376.933201
 20
378.789837
 11
376.933201
 21
369.289837
  0
LINE
  5
758
100
AcDbEntity
  8
M0
 62
     7
100
AcDbLine
 10
372.433201
 20
414.839837
 11
372.733201
 21
415.339837
  0
LINE
  5
759
100
AcDbEntity
  8
M0
 62
     7
100
AcDbLine
 10
376.933201
 20
375.039837
 11
376.933201
 21
373.039837
  0
LINE
  5
75A
100
AcDbEntity
  8
M0
 62
     7
100
AcDbLine
 10
327.233201
 20
440.525624
 11
327.233201
 21
434.039837
  0
LINE
  5
75B
100
AcDbEntity
  8
M0
 62
     7
100
AcDbLine
 10
321.026094
 20
447.146944
 11
322.233201
 21
445.939837
  0
LINE
  5
75C
100
AcDbEntity
  8
M0
 62
     7
100
AcDbLine
 10
332.418987
 20
370.539837
 11
330.833201
 21
370.539837
  0
LINE
  5
75D
100
AcDbEntity
  8
M0
 62
     7
100
AcDbLine
 10
330.833201
 20
372.039837
 11
330.833201
 21
368.539837
  0
LINE
  5
75E
100
AcDbEntity
  8
M0
 62
     7
100
AcDbLine
 10
372.433201
 20
418.339837
 11
372.433201
 21
420.839837
  0
LINE
  5
75F
100
AcDbEntity
  8
M0
 62
     7
100
AcDbLine
 10
354.133201
 20
434.039837
 11
354.133201
 21
438.039837
  0
ARC
  5
760
100
AcDbEntity
  8
M0
 62
     7
100
AcDbCircle
 10
320.318987
 20
446.439837
 40
1.0
100
AcDbArc
 50
45.0
 51
90.0
  0
ARC
  5
761
100
AcDbEntity
  8
M0
 62
     7
100
AcDbCircle
 10
332.418987
 20
371.539837
 40
1.0
100
AcDbArc
 50
270.0
 51
282.369393
  0
ARC
  5
762
100
AcDbEntity
  8
M0
 62
     7
100
AcDbCircle
 10
329.833201
 20
368.539837
 40
1.0
100
AcDbArc
 50
270.0
 51
360.0
  0
ARC
  5
763
100
AcDbEntity
  8
M0
 62
     7
100
AcDbCircle
 10
372.753362
 20
422.142874
 40
1.374538
100
AcDbArc
 50
233.367407
 51
251.438337
  0
ARC
  5
764
100
AcDbEntity
  8
M0
 62
     7
100
AcDbCircle
 10
376.133201
 20
421.539837
 40
0.5
100
AcDbArc
 50
270.0
 51
360.0
  0
ARC
  5
765
100
AcDbEntity
  8
M0
 62
     7
100
AcDbCircle
 10
334.133201
 20
369.039837
 40
1.5
100
AcDbArc
 50
180.0
 51
270.0
  0
LINE
  5
766
100
AcDbEntity
  8
M0
 62
     7
100
AcDbLine
 10
343.333201
 20
427.039837
 11
343.333201
 21
433.039837
  0
LINE
  5
767
100
AcDbEntity
  8
M0
 62
     7
100
AcDbLine
 10
339.333201
 20
427.039837
 11
341.333201
 21
427.039837
  0
LINE
  5
768
100
AcDbEntity
  8
M0
 62
     7
100
AcDbLine
 10
343.333201
 20
427.039837
 11
345.333201
 21
427.039837
  0
ARC
  5
769
100
AcDbEntity
  8
M0
 62
     7
100
AcDbCircle
 10
326.233201
 20
440.525624
 40
1.0
100
AcDbArc
 50
0.0
 51
45.0
  0
ARC
  5
76A
100
AcDbEntity
  8
M0
 62
     7
100
AcDbCircle
 10
340.633201
 20
368.539837
 40
1.0
100
AcDbArc
 50
270.0
 51
360.0
  0
LINE
  5
76B
100
AcDbEntity
  8
M0
 62
     7
100
AcDbLine
 10
332.633201
 20
378.539837
 11
320.433201
 21
378.539837
  0
ARC
  5
76C
100
AcDbEntity
  8
M0
 62
     7
100
AcDbCircle
 10
376.133201
 20
368.039837
 40
0.5
100
AcDbArc
 50
270.0
 51
360.0
  0
LINE
  5
76D
100
AcDbEntity
  8
M0
 62
     7
100
AcDbLine
 10
376.633201
 20
424.339837
 11
376.633201
 21
422.339837
  0
LINE
  5
76E
100
AcDbEntity
  8
M0
 62
     7
100
AcDbLine
 10
341.633201
 20
383.739837
 11
341.633201
 21
368.539837
  0
LINE
  5
76F
100
AcDbEntity
  8
M0
 62
     7
100
AcDbLine
 10
321.433201
 20
422.339837
 11
333.433201
 21
422.339837
  0
LINE
  5
770
100
AcDbEntity
  8
M0
 62
     7
100
AcDbLine
 10
345.333201
 20
427.039837
 11
345.333201
 21
433.039837
  0
LINE
  5
771
100
AcDbEntity
  8
M0
 62
     7
100
AcDbLine
 10
341.333201
 20
434.039837
 11
339.333201
 21
434.039837
  0
LINE
  5
772
100
AcDbEntity
  8
M0
 62
     7
100
AcDbLine
 10
340.633201
 20
383.739837
 11
347.433201
 21
383.739837
  0
ARC
  5
773
100
AcDbEntity
  8
M0
 62
     7
100
AcDbCircle
 10
373.195083
 20
383.097324
 40
2.316399
100
AcDbArc
 50
112.341791
 51
123.008287
  0
ARC
  5
774
100
AcDbEntity
  8
M0
 62
     7
100
AcDbCircle
 10
376.133201
 20
437.539837
 40
0.5
100
AcDbArc
 50
0.0
 51
90.0
  0
ARC
  5
775
100
AcDbEntity
  8
M0
 62
     7
100
AcDbCircle
 10
376.133201
 20
384.739837
 40
0.5
100
AcDbArc
 50
0.0
 51
90.0
  0
ARC
  5
776
100
AcDbEntity
  8
M0
 62
     7
100
AcDbCircle
 10
376.133201
 20
384.539837
 40
0.5
100
AcDbArc
 50
0.0
 51
90.0
  0
LINE
  5
777
100
AcDbEntity
  8
M0
 62
     7
100
AcDbLine
 10
321.433201
 20
424.339837
 11
365.933201
 21
424.339837
  0
ARC
  5
778
100
AcDbEntity
  8
M0
 62
     7
100
AcDbCircle
 10
376.133201
 20
421.339837
 40
0.5
100
AcDbArc
 50
270.0
 51
360.0
  0
ARC
  5
779
100
AcDbEntity
  8
M0
 62
     7
100
AcDbCircle
 10
366.933201
 20
437.039837
 40
1.0
100
AcDbArc
 50
90.0
 51
180.0
  0
LINE
  5
77A
100
AcDbEntity
  8
M0
 62
     7
100
AcDbLine
 10
372.733201
 20
417.339837
 11
372.733201
 21
415.339837
  0
LINE
  5
77B
100
AcDbEntity
  8
M0
 62
     7
100
AcDbLine
 10
331.333201
 20
427.039837
 11
333.333201
 21
427.039837
  0
LINE
  5
77C
100
AcDbEntity
  8
M0
 62
     7
100
AcDbLine
 10
372.433201
 20
420.839837
 11
372.433201
 21
385.239837
  0
LINE
  5
77D
100
AcDbEntity
  8
M0
 62
     7
100
AcDbLine
 10
376.633201
 20
421.539837
 11
376.633201
 21
421.339837
  0
LINE
  5
77E
100
AcDbEntity
  8
M0
 62
     7
100
AcDbLine
 10
372.333201
 20
385.239837
 11
376.133201
 21
385.239837
  0
LINE
  5
77F
100
AcDbEntity
  8
M0
 62
     7
100
AcDbLine
 10
376.133201
 20
420.839837
 11
372.333201
 21
420.839837
  0
LINE
  5
780
100
AcDbEntity
  8
M0
 62
     7
100
AcDbLine
 10
340.633201
 20
367.539837
 11
334.133201
 21
367.539837
  0
LINE
  5
781
100
AcDbEntity
  8
M0
 62
     7
100
AcDbLine
 10
365.933201
 20
422.339837
 11
365.933201
 21
437.039837
  0
LINE
  5
782
100
AcDbEntity
  8
M0
 62
     7
100
AcDbLine
 10
366.933201
 20
438.039837
 11
376.133201
 21
438.039837
  0
LINE
  5
783
100
AcDbEntity
  8
M0
 62
     7
100
AcDbLine
 10
345.333201
 20
434.039837
 11
343.333201
 21
434.039837
  0
LINE
  5
784
100
AcDbEntity
  8
M0
 62
     7
100
AcDbLine
 10
332.633201
 20
372.039837
 11
309.433201
 21
372.039837
  0
LINE
  5
785
100
AcDbEntity
  8
M0
 62
     7
100
AcDbLine
 10
329.833201
 20
367.539837
 11
309.433201
 21
367.539837
  0
LINE
  5
786
100
AcDbEntity
  8
M0
 62
     7
100
AcDbLine
 10
309.433201
 20
427.739837
 11
320.433201
 21
427.739837
  0
ARC
  5
787
100
AcDbEntity
  8
M0
 62
     7
100
AcDbCircle
 10
298.233201
 20
445.039837
 40
1.0
100
AcDbArc
 50
90.0
 51
180.0
  0
ARC
  5
788
100
AcDbEntity
  8
M0
 62
     7
100
AcDbCircle
 10
301.333201
 20
446.539837
 40
1.0
100
AcDbArc
 50
90.0
 51
115.841933
  0
LINE
  5
789
100
AcDbEntity
  8
M0
 62
     7
100
AcDbLine
 10
320.433201
 20
378.539837
 11
309.433201
 21
378.539837
  0
LINE
  5
78A
100
AcDbEntity
  8
M0
 62
     7
100
AcDbLine
 10
301.333201
 20
447.539837
 11
310.733201
 21
447.539837
  0
LINE
  5
78B
100
AcDbEntity
  8
M0
 62
     7
100
AcDbLine
 10
300.833201
 20
447.439837
 11
320.318987
 21
447.439837
  0
LINE
  5
78C
100
AcDbEntity
  8
M0
 62
     7
100
AcDbLine
 10
309.433201
 20
434.039837
 11
327.333201
 21
434.039837
  0
LINE
  5
78D
100
AcDbEntity
  8
M0
 62
     7
100
AcDbLine
 10
297.233201
 20
445.039837
 11
297.233201
 21
437.539837
  0
ARC
  5
78E
100
AcDbEntity
  8
M0
 62
     7
100
AcDbCircle
 10
300.833201
 20
444.439837
 40
3.0
100
AcDbArc
 50
90.0
 51
180.0
  0
ARC
  5
78F
100
AcDbEntity
  8
M0
 62
     7
100
AcDbCircle
 10
320.433201
 20
426.739837
 40
1.0
100
AcDbArc
 50
0.0
 51
90.0
  0
LINE
  5
790
100
AcDbEntity
  8
M0
 62
     7
100
AcDbLine
 10
373.433201
 20
420.839837
 11
373.433201
 21
419.339837
  0
LINE
  5
791
100
AcDbEntity
  8
M0
 62
     7
100
AcDbLine
 10
322.233201
 20
445.939837
 11
326.940307
 21
441.232731
  0
LINE
  5
792
100
AcDbEntity
  8
M0
 62
     7
100
AcDbLine
 10
331.333201
 20
432.539837
 11
333.333201
 21
432.539837
  0
LINE
  5
793
100
AcDbEntity
  8
M0
 62
     7
100
AcDbLine
 10
339.333201
 20
432.539837
 11
341.333201
 21
432.539837
  0
LINE
  5
794
100
AcDbEntity
  8
M0
 62
     7
100
AcDbLine
 10
367.433201
 20
389.439837
 11
337.133201
 21
389.439837
  0
LINE
  5
795
100
AcDbEntity
  8
M0
 62
     7
100
AcDbLine
 10
333.333201
 20
434.039837
 11
331.333201
 21
434.039837
  0
LINE
  5
796
100
AcDbEntity
  8
M0
 62
     7
100
AcDbLine
 10
374.433201
 20
418.339837
 11
373.433201
 21
419.339837
  0
LINE
  5
797
100
AcDbEntity
  8
M0
 62
     7
100
AcDbLine
 10
368.633201
 20
438.039837
 11
376.133201
 21
438.039837
  0
LINE
  5
798
100
AcDbEntity
  8
M0
 62
     7
100
AcDbLine
 10
374.433201
 20
418.339837
 11
376.633201
 21
418.339837
  0
LINE
  5
799
100
AcDbEntity
  8
M0
 62
     7
100
AcDbLine
 10
376.633201
 20
437.539837
 11
376.633201
 21
418.339837
  0
LINE
  5
79A
100
AcDbEntity
  8
M0
 62
     7
100
AcDbLine
 10
376.933201
 20
436.789837
 11
376.933201
 21
427.289837
  0
LINE
  5
79B
100
AcDbEntity
  8
M0
 62
     7
100
AcDbLine
 10
366.933201
 20
438.039837
 11
368.133201
 21
438.039837
  0
LINE
  5
79C
100
AcDbEntity
  8
M0
 62
     7
100
AcDbLine
 10
372.633201
 20
385.239837
 11
372.633201
 21
385.539837
  0
LINE
  5
79D
100
AcDbEntity
  8
M0
 62
     7
100
AcDbLine
 10
321.333201
 20
420.456065
 11
321.333201
 21
417.579282
  0
LINE
  5
79E
100
AcDbEntity
  8
M0
 62
     7
100
AcDbLine
 10
337.133201
 20
389.439837
 11
337.133201
 21
388.800393
  0
LINE
  5
79F
100
AcDbEntity
  8
M0
 62
     7
100
AcDbLine
 10
365.933201
 20
383.739837
 11
321.433201
 21
383.739837
  0
LINE
  5
7A0
100
AcDbEntity
  8
M0
 62
     7
100
AcDbLine
 10
316.833201
 20
382.939837
 11
316.833201
 21
387.939837
  0
LINE
  5
7A1
100
AcDbEntity
  8
M0
 62
     7
100
AcDbLine
 10
297.833201
 20
437.539837
 11
297.833201
 21
444.439837
  0
LINE
  5
7A2
100
AcDbEntity
  8
M0
 62
     7
100
AcDbLine
 10
351.333201
 20
427.039837
 11
351.333201
 21
433.039837
  0
LINE
  5
7A3
100
AcDbEntity
  8
M0
 62
     7
100
AcDbLine
 10
337.133201
 20
385.039837
 11
376.133201
 21
385.039837
  0
LINE
  5
7A4
100
AcDbEntity
  8
M0
 62
     7
100
AcDbLine
 10
372.733201
 20
417.339837
 11
372.433201
 21
418.339837
  0
LINE
  5
7A5
100
AcDbEntity
  8
M0
 62
     7
100
AcDbLine
 10
376.633201
 20
384.539837
 11
376.633201
 21
384.039837
  0
LINE
  5
7A6
100
AcDbEntity
  8
M0
 62
     7
100
AcDbLine
 10
337.133201
 20
385.32361
 11
337.133201
 21
385.039837
  0
LINE
  5
7A7
100
AcDbEntity
  8
M0
 62
     7
100
AcDbLine
 10
321.433201
 20
426.739837
 11
321.433201
 21
422.339837
  0
LINE
  5
7A8
100
AcDbEntity
  8
M0
 62
     7
100
AcDbLine
 10
367.433201
 20
390.439837
 11
367.433201
 21
389.439837
  0
LINE
  5
7A9
100
AcDbEntity
  8
M0
 62
     7
100
AcDbLine
 10
372.433201
 20
385.739837
 11
372.433201
 21
385.439837
  0
LINE
  5
7AA
100
AcDbEntity
  8
M0
 62
     7
100
AcDbLine
 10
376.633201
 20
437.539837
 11
376.633201
 21
436.789837
  0
LINE
  5
7AB
100
AcDbEntity
  8
M0
 62
     7
100
AcDbLine
 10
368.633201
 20
438.039837
 11
376.133201
 21
438.039837
  0
LINE
  5
7AC
100
AcDbEntity
  8
M0
 62
     7
100
AcDbLine
 10
349.333201
 20
433.039837
 11
349.333201
 21
434.039837
  0
LINE
  5
7AD
100
AcDbEntity
  8
M0
 62
     7
100
AcDbLine
 10
351.333201
 20
434.039837
 11
351.333201
 21
433.039837
  0
LINE
  5
7AE
100
AcDbEntity
  8
M0
 62
     7
100
AcDbLine
 10
339.333201
 20
434.039837
 11
337.333201
 21
434.039837
  0
LINE
  5
7AF
100
AcDbEntity
  8
M0
 62
     7
100
AcDbLine
 10
376.633201
 20
437.539837
 11
376.633201
 21
436.789837
  0
LINE
  5
7B0
100
AcDbEntity
  8
M0
 62
     7
100
AcDbLine
 10
372.433201
 20
385.239837
 11
372.433201
 21
385.439837
  0
LINE
  5
7B1
100
AcDbEntity
  8
M0
 62
     7
100
AcDbLine
 10
327.333201
 20
432.539837
 11
329.333201
 21
432.539837
  0
LINE
  5
7B2
100
AcDbEntity
  8
M0
 62
     7
100
AcDbLine
 10
351.333201
 20
434.039837
 11
349.333201
 21
434.039837
  0
LINE
  5
7B3
100
AcDbEntity
  8
M0
 62
     7
100
AcDbLine
 10
343.333201
 20
434.039837
 11
341.333201
 21
434.039837
  0
LINE
  5
7B4
100
AcDbEntity
  8
M0
 62
     7
100
AcDbLine
 10
354.233201
 20
438.039837
 11
368.133201
 21
438.039837
  0
LINE
  5
7B5
100
AcDbEntity
  8
M0
 62
     7
100
AcDbLine
 10
347.333201
 20
434.039837
 11
345.333201
 21
434.039837
  0
LINE
  5
7B6
100
AcDbEntity
  8
M0
 62
     7
100
AcDbLine
 10
357.333201
 20
433.039837
 11
357.333201
 21
434.039837
  0
LINE
  5
7B7
100
AcDbEntity
  8
M0
 62
     7
100
AcDbLine
 10
354.133201
 20
434.039837
 11
353.333201
 21
434.039837
  0
LINE
  5
7B8
100
AcDbEntity
  8
M0
 62
     7
100
AcDbLine
 10
355.633201
 20
438.039837
 11
376.133201
 21
438.039837
  0
LINE
  5
7B9
100
AcDbEntity
  8
M0
 62
     7
100
AcDbLine
 10
365.933201
 20
368.539837
 11
365.933201
 21
383.739837
  0
LINE
  5
7BA
100
AcDbEntity
  8
M0
 62
     7
100
AcDbLine
 10
376.633201
 20
384.039837
 11
376.633201
 21
368.039837
  0
LINE
  5
7BB
100
AcDbEntity
  8
M0
 62
     7
100
AcDbLine
 10
355.333201
 20
434.039837
 11
355.333201
 21
433.039837
  0
LINE
  5
7BC
100
AcDbEntity
  8
M0
 62
     7
100
AcDbLine
 10
349.333201
 20
434.039837
 11
347.333201
 21
434.039837
  0
LINE
  5
7BD
100
AcDbEntity
  8
M0
 62
     7
100
AcDbLine
 10
353.333201
 20
434.039837
 11
355.333201
 21
434.039837
  0
LINE
  5
7BE
100
AcDbEntity
  8
M0
 62
     7
100
AcDbLine
 10
353.333201
 20
433.039837
 11
353.333201
 21
434.039837
  0
LINE
  5
7BF
100
AcDbEntity
  8
M0
 62
     7
100
AcDbLine
 10
335.333201
 20
434.039837
 11
335.333201
 21
433.039837
  0
LINE
  5
7C0
100
AcDbEntity
  8
M0
 62
     7
100
AcDbLine
 10
376.633201
 20
369.289837
 11
376.933201
 21
369.289837
  0
LINE
  5
7C1
100
AcDbEntity
  8
M0
 62
     7
100
AcDbLine
 10
349.333201
 20
434.039837
 11
351.333201
 21
434.039837
  0
LINE
  5
7C2
100
AcDbEntity
  8
M0
 62
     7
100
AcDbLine
 10
357.333201
 20
427.039837
 11
357.333201
 21
433.039837
  0
LINE
  5
7C3
100
AcDbEntity
  8
M0
 62
     7
100
AcDbLine
 10
345.333201
 20
434.039837
 11
347.333201
 21
434.039837
  0
LINE
  5
7C4
100
AcDbEntity
  8
M0
 62
     7
100
AcDbLine
 10
339.333201
 20
434.039837
 11
339.333201
 21
433.039837
  0
LINE
  5
7C5
100
AcDbEntity
  8
M0
 62
     7
100
AcDbLine
 10
347.333201
 20
434.039837
 11
347.333201
 21
433.039837
  0
LINE
  5
7C6
100
AcDbEntity
  8
M0
 62
     7
100
AcDbLine
 10
327.333201
 20
427.039837
 11
327.333201
 21
433.039837
  0
LINE
  5
7C7
100
AcDbEntity
  8
M0
 62
     7
100
AcDbLine
 10
355.333201
 20
427.039837
 11
357.333201
 21
427.039837
  0
LINE
  5
7C8
100
AcDbEntity
  8
M0
 62
     7
100
AcDbLine
 10
337.333201
 20
434.039837
 11
339.333201
 21
434.039837
  0
LINE
  5
7C9
100
AcDbEntity
  8
M0
 62
     7
100
AcDbLine
 10
357.333201
 20
434.039837
 11
365.933201
 21
434.039837
  0
LINE
  5
7CA
100
AcDbEntity
  8
M0
 62
     7
100
AcDbLine
 10
329.333201
 20
434.039837
 11
327.333201
 21
434.039837
  0
LINE
  5
7CB
100
AcDbEntity
  8
M0
 62
     7
100
AcDbLine
 10
337.333201
 20
433.039837
 11
337.333201
 21
434.039837
  0
LINE
  5
7CC
100
AcDbEntity
  8
M0
 62
     7
100
AcDbLine
 10
345.333201
 20
433.039837
 11
345.333201
 21
434.039837
  0
LINE
  5
7CD
100
AcDbEntity
  8
M0
 62
     7
100
AcDbLine
 10
357.333201
 20
434.039837
 11
355.333201
 21
434.039837
  0
LINE
  5
7CE
100
AcDbEntity
  8
M0
 62
     7
100
AcDbLine
 10
376.633201
 20
437.539837
 11
376.633201
 21
436.789837
  0
LINE
  5
7CF
100
AcDbEntity
  8
M0
 62
     7
100
AcDbLine
 10
355.333201
 20
432.539837
 11
357.333201
 21
432.539837
  0
LINE
  5
7D0
100
AcDbEntity
  8
M0
 62
     7
100
AcDbLine
 10
343.333201
 20
434.039837
 11
343.333201
 21
433.039837
  0
LINE
  5
7D1
100
AcDbEntity
  8
M0
 62
     7
100
AcDbLine
 10
341.333201
 20
434.039837
 11
343.333201
 21
434.039837
  0
LINE
  5
7D2
100
AcDbEntity
  8
M0
 62
     7
100
AcDbLine
 10
333.333201
 20
433.039837
 11
333.333201
 21
434.039837
  0
LINE
  5
7D3
100
AcDbEntity
  8
M0
 62
     7
100
AcDbLine
 10
343.333201
 20
432.539837
 11
345.333201
 21
432.539837
  0
LINE
  5
7D4
100
AcDbEntity
  8
M0
 62
     7
100
AcDbLine
 10
341.333201
 20
433.039837
 11
341.333201
 21
434.039837
  0
LINE
  5
7D5
100
AcDbEntity
  8
M0
 62
     7
100
AcDbLine
 10
347.333201
 20
432.539837
 11
349.333201
 21
432.539837
  0
LINE
  5
7D6
100
AcDbEntity
  8
M0
 62
     7
100
AcDbLine
 10
355.333201
 20
427.039837
 11
355.333201
 21
433.039837
  0
LINE
  5
7D7
100
AcDbEntity
  8
M0
 62
     7
100
AcDbLine
 10
353.333201
 20
434.039837
 11
351.333201
 21
434.039837
  0
LINE
  5
7D8
100
AcDbEntity
  8
M0
 62
     7
100
AcDbLine
 10
337.333201
 20
434.039837
 11
335.333201
 21
434.039837
  0
LINE
  5
7D9
100
AcDbEntity
  8
M0
 62
     7
100
AcDbLine
 10
329.333201
 20
434.039837
 11
331.333201
 21
434.039837
  0
LINE
  5
7DA
100
AcDbEntity
  8
M0
 62
     7
100
AcDbLine
 10
327.333201
 20
434.039837
 11
327.333201
 21
433.039837
  0
LINE
  5
7DB
100
AcDbEntity
  8
M0
 62
     7
100
AcDbLine
 10
373.133201
 20
386.039837
 11
374.633201
 21
386.039837
  0
LINE
  5
7DC
100
AcDbEntity
  8
M0
 62
     7
100
AcDbLine
 10
376.159078
 20
385.237704
 11
374.573201
 21
387.039837
  0
LINE
  5
7DD
100
AcDbEntity
  8
M0
 62
     7
100
AcDbLine
 10
376.633201
 20
429.289837
 11
376.933201
 21
429.289837
  0
LINE
  5
7DE
100
AcDbEntity
  8
M0
 62
     7
100
AcDbLine
 10
321.333201
 20
388.500393
 11
336.833201
 21
388.500393
  0
LINE
  5
7DF
100
AcDbEntity
  8
M0
 62
     7
100
AcDbLine
 10
374.633201
 20
386.039837
 11
374.633201
 21
385.539837
  0
LINE
  5
7E0
100
AcDbEntity
  8
M0
 62
     7
100
AcDbLine
 10
374.633201
 20
385.539837
 11
374.633201
 21
385.239837
  0
LINE
  5
7E1
100
AcDbEntity
  8
M0
 62
     7
100
AcDbLine
 10
321.333201
 20
420.456065
 11
336.833201
 21
420.456065
  0
LINE
  5
7E2
100
AcDbEntity
  8
M0
 62
     7
100
AcDbLine
 10
374.133201
 20
387.539837
 11
374.573201
 21
387.039837
  0
LINE
  5
7E3
100
AcDbEntity
  8
M0
 62
     7
100
AcDbLine
 10
376.633201
 20
424.339837
 11
376.633201
 21
429.289837
  0
LINE
  5
7E4
100
AcDbEntity
  8
M0
 62
     7
100
AcDbLine
 10
321.333201
 20
388.500393
 11
321.333201
 21
385.62361
  0
LINE
  5
7E5
100
AcDbEntity
  8
M0
 62
     7
100
AcDbLine
 10
373.433201
 20
387.039837
 11
373.433201
 21
387.539837
  0
LINE
  5
7E6
100
AcDbEntity
  8
M0
 62
     7
100
AcDbLine
 10
376.933201
 20
436.789837
 11
376.633201
 21
436.789837
  0
LINE
  5
7E7
100
AcDbEntity
  8
M0
 62
     7
100
AcDbLine
 10
336.833201
 20
417.579282
 11
321.333201
 21
417.579282
  0
LINE
  5
7E8
100
AcDbEntity
  8
M0
 62
     7
100
AcDbLine
 10
321.433201
 20
422.339837
 11
365.933201
 21
422.339837
  0
LINE
  5
7E9
100
AcDbEntity
  8
M0
 62
     7
100
AcDbLine
 10
367.433201
 20
416.639837
 11
367.433201
 21
415.639837
  0
LINE
  5
7EA
100
AcDbEntity
  8
M0
 62
     7
100
AcDbLine
 10
376.133201
 20
421.039837
 11
337.133201
 21
421.039837
  0
LINE
  5
7EB
100
AcDbEntity
  8
M0
 62
     7
100
AcDbLine
 10
337.133201
 20
417.279282
 11
337.133201
 21
416.639837
  0
LINE
  5
7EC
100
AcDbEntity
  8
M0
 62
     7
100
AcDbLine
 10
335.333201
 20
427.039837
 11
337.333201
 21
427.039837
  0
LINE
  5
7ED
100
AcDbEntity
  8
M0
 62
     7
100
AcDbLine
 10
316.833201
 20
418.139837
 11
316.833201
 21
423.139837
  0
LINE
  5
7EE
100
AcDbEntity
  8
M0
 62
     7
100
AcDbLine
 10
335.333201
 20
427.039837
 11
335.333201
 21
433.039837
  0
LINE
  5
7EF
100
AcDbEntity
  8
M0
 62
     7
100
AcDbLine
 10
337.133201
 20
416.639837
 11
367.433201
 21
416.639837
  0
LINE
  5
7F0
100
AcDbEntity
  8
M0
 62
     7
100
AcDbLine
 10
337.133201
 20
421.039837
 11
337.133201
 21
420.756065
  0
ARC
  5
7F1
100
AcDbEntity
  8
M0
 62
     7
100
AcDbCircle
 10
336.833201
 20
420.756065
 40
0.3
100
AcDbArc
 50
270.0
 51
360.0
  0
ARC
  5
7F2
100
AcDbEntity
  8
M0
 62
     7
100
AcDbCircle
 10
336.833201
 20
388.800393
 40
0.3
100
AcDbArc
 50
270.0
 51
360.0
  0
ARC
  5
7F3
100
AcDbEntity
  8
M0
 62
     7
100
AcDbCircle
 10
336.833201
 20
385.32361
 40
0.3
100
AcDbArc
 50
0.0
 51
90.0
  0
ARC
  5
7F4
100
AcDbEntity
  8
M0
 62
     7
100
AcDbCircle
 10
373.133201
 20
385.539837
 40
0.5
100
AcDbArc
 50
90.0
 51
180.0
  0
ARC
  5
7F5
100
AcDbEntity
  8
M0
 62
     7
100
AcDbCircle
 10
320.433201
 20
379.539837
 40
1.0
100
AcDbArc
 50
270.0
 51
360.0
  0
LINE
  5
7F6
100
AcDbEntity
  8
M0
 62
     7
100
AcDbLine
 10
336.833201
 20
385.62361
 11
321.333201
 21
385.62361
  0
LINE
  5
7F7
100
AcDbEntity
  8
M0
 62
     7
100
AcDbLine
 10
376.633201
 20
427.289837
 11
376.933201
 21
427.289837
  0
LINE
  5
7F8
100
AcDbEntity
  8
M0
 62
     7
100
AcDbLine
 10
373.433201
 20
387.539837
 11
374.133201
 21
387.539837
  0
LINE
  5
7F9
100
AcDbEntity
  8
M0
 62
     7
100
AcDbLine
 10
376.933201
 20
378.789837
 11
376.633201
 21
378.789837
  0
ARC
  5
7FA
100
AcDbEntity
  8
M0
 62
     7
100
AcDbCircle
 10
336.833201
 20
417.279282
 40
0.3
100
AcDbArc
 50
0.0
 51
90.0
  0
LINE
  5
7FB
100
AcDbEntity
  8
M0
 62
     7
100
AcDbLine
 10
376.333201
 20
367.539837
 11
376.133201
 21
367.539837
  0
LINE
  5
7FC
100
AcDbEntity
  8
M0
 62
     7
100
AcDbLine
 10
376.333201
 20
367.58158
 11
376.333201
 21
367.539837
  0
LINE
  5
7FD
100
AcDbEntity
  8
M0
 62
     7
100
AcDbLine
 10
351.333201
 20
432.539837
 11
353.333201
 21
432.539837
  0
LINE
  5
7FE
100
AcDbEntity
  8
M0
 62
     7
100
AcDbLine
 10
331.333201
 20
434.039837
 11
331.333201
 21
433.039837
  0
LINE
  5
7FF
100
AcDbEntity
  8
M0
 62
     7
100
AcDbLine
 10
310.733201
 20
447.539837
 11
310.733201
 21
447.439837
  0
LINE
  5
800
100
AcDbEntity
  8
M0
 62
     7
100
AcDbLine
 10
335.333201
 20
432.539837
 11
337.333201
 21
432.539837
  0
LINE
  5
801
100
AcDbEntity
  8
M0
 62
     7
100
AcDbLine
 10
333.333201
 20
427.039837
 11
333.333201
 21
433.039837
  0
LINE
  5
802
100
AcDbEntity
  8
M0
 62
     7
100
AcDbLine
 10
373.433201
 20
387.039837
 11
373.433201
 21
386.039837
  0
LINE
  5
803
100
AcDbEntity
  8
M0
 62
     7
100
AcDbLine
 10
367.433201
 20
415.639837
 11
367.433201
 21
390.439837
  0
ARC
  5
804
100
AcDbEntity
  8
M0
 62
     7
100
AcDbCircle
 10
366.933201
 20
368.539837
 40
1.0
100
AcDbArc
 50
180.0
 51
270.0
  0
LINE
  5
805
100
AcDbEntity
  8
M0
 62
     7
100
AcDbLine
 10
321.433201
 20
383.739837
 11
321.433201
 21
379.539837
  0
LINE
  5
806
100
AcDbEntity
  8
M0
 62
     7
100
AcDbLine
 10
333.333201
 20
434.039837
 11
335.333201
 21
434.039837
  0
LINE
  5
807
100
AcDbEntity
  8
M0
 62
     7
100
AcDbLine
 10
329.333201
 20
433.039837
 11
329.333201
 21
434.039837
  0
LINE
  5
808
100
AcDbEntity
  8
M0
 62
     7
100
AcDbLine
 10
366.933201
 20
367.539837
 11
376.133201
 21
367.539837
  0
LINE
  5
809
100
AcDbEntity
  8
M0
 62
     7
100
AcDbLine
 10
258.533201
 20
433.25996
 11
258.533201
 21
451.45996
  0
LINE
  5
80A
100
AcDbEntity
  8
M0
 62
     7
100
AcDbLine
 10
268.833201
 20
400.539837
 11
268.833201
 21
399.539838
  0
LINE
  5
80B
100
AcDbEntity
  8
M0
 62
     7
100
AcDbLine
 10
268.833201
 20
405.539838
 11
268.833201
 21
406.539837
  0
LINE
  5
80C
100
AcDbEntity
  8
M0
 62
     7
100
AcDbLine
 10
268.833201
 20
399.539838
 11
267.833203
 21
399.539838
  0
LINE
  5
80D
100
AcDbEntity
  8
M0
 62
     7
100
AcDbLine
 10
267.833203
 20
405.539838
 11
268.833201
 21
405.539838
  0
LINE
  5
80E
100
AcDbEntity
  8
M0
 62
     7
100
AcDbLine
 10
268.833201
 20
399.539838
 11
269.333202
 21
399.539838
  0
LINE
  5
80F
100
AcDbEntity
  8
M0
 62
     7
100
AcDbLine
 10
267.833203
 20
400.539837
 11
268.833201
 21
400.539837
  0
LINE
  5
810
100
AcDbEntity
  8
M0
 62
     7
100
AcDbLine
 10
268.833201
 20
406.539837
 11
267.833203
 21
406.539837
  0
LINE
  5
811
100
AcDbEntity
  8
M0
 62
     7
100
AcDbLine
 10
268.833201
 20
406.539837
 11
269.333202
 21
406.539837
  0
LINE
  5
812
100
AcDbEntity
  8
M0
 62
     7
100
AcDbLine
 10
269.333202
 20
400.539837
 11
268.833201
 21
400.539837
  0
LINE
  5
813
100
AcDbEntity
  8
M0
 62
     7
100
AcDbLine
 10
265.533201
 20
414.039837
 11
267.833203
 21
414.039837
  0
ARC
  5
814
100
AcDbEntity
  8
M0
 62
     7
100
AcDbCircle
 10
264.033201
 20
414.539837
 40
0.5
100
AcDbArc
 50
90.0
 51
180.0
  0
ARC
  5
815
100
AcDbEntity
  8
M0
 62
     7
100
AcDbCircle
 10
264.033201
 20
396.039837
 40
0.5
100
AcDbArc
 50
90.0
 51
180.0
  0
LINE
  5
816
100
AcDbEntity
  8
M0
 62
     7
100
AcDbLine
 10
265.0332
 20
391.039837
 11
264.033202
 21
391.039837
  0
ARC
  5
817
100
AcDbEntity
  8
M0
 62
     7
100
AcDbCircle
 10
298.433201
 20
368.539837
 40
1.0
100
AcDbArc
 50
180.0
 51
270.0
  0
LINE
  5
818
100
AcDbEntity
  8
M0
 62
     7
100
AcDbLine
 10
292.533202
 20
370.539839
 11
297.433201
 21
370.539839
  0
LINE
  5
819
100
AcDbEntity
  8
M0
 62
     7
100
AcDbLine
 10
264.033202
 20
391.039837
 11
267.833203
 21
391.039837
  0
LINE
  5
81A
100
AcDbEntity
  8
M0
 62
     7
100
AcDbLine
 10
263.533201
 20
414.539837
 11
263.533201
 21
391.539837
  0
LINE
  5
81B
100
AcDbEntity
  8
M0
 62
     7
100
AcDbLine
 10
265.533201
 20
391.039837
 11
265.533201
 21
396.539837
  0
LINE
  5
81C
100
AcDbEntity
  8
M0
 62
     7
100
AcDbLine
 10
269.333202
 20
404.539838
 11
268.833201
 21
404.539838
  0
LINE
  5
81D
100
AcDbEntity
  8
M0
 62
     7
100
AcDbLine
 10
269.333202
 20
405.539838
 11
268.833201
 21
405.539838
  0
LINE
  5
81E
100
AcDbEntity
  8
M0
 62
     7
100
AcDbLine
 10
268.833201
 20
401.539838
 11
268.833201
 21
404.539838
  0
LINE
  5
81F
100
AcDbEntity
  8
M0
 62
     7
100
AcDbLine
 10
268.833201
 20
401.539838
 11
269.333202
 21
401.539838
  0
ELLIPSE
  5
820
100
AcDbEntity
  8
M0
 62
     7
100
AcDbEllipse
 10
264.033201
 20
409.346944
 11
0.5
 21
0.0
210
0.0
220
0.0
230
1.0
 40
0.414214
 41
3.141592653589793
 42
4.71238898038469
  0
ARC
  5
821
100
AcDbEntity
  8
M0
 62
     7
100
AcDbCircle
 10
292.533201
 20
371.539837
 40
1.0
100
AcDbArc
 50
237.247324
 51
270.0
  0
ELLIPSE
  5
822
100
AcDbEntity
  8
M0
 62
     7
100
AcDbEllipse
 10
264.033201
 20
407.846944
 11
0.5
 21
0.0
210
0.0
220
0.0
230
1.0
 40
0.414214
 41
3.141592653589793
 42
4.71238898038469
  0
LINE
  5
823
100
AcDbEntity
  8
M0
 62
     7
100
AcDbLine
 10
293.633202
 20
436.039837
 11
293.633202
 21
434.039837
  0
LINE
  5
824
100
AcDbEntity
  8
M0
 62
     7
100
AcDbLine
 10
297.233201
 20
437.539838
 11
293.633202
 21
436.039837
  0
LINE
  5
825
100
AcDbEntity
  8
M0
 62
     7
100
AcDbLine
 10
297.433201
 20
436.539838
 11
294.6332
 21
435.37317
  0
LINE
  5
826
100
AcDbEntity
  8
M0
 62
     7
100
AcDbLine
 10
302.933201
 20
434.039837
 11
302.933201
 21
437.539838
  0
LINE
  5
827
100
AcDbEntity
  8
M0
 62
     7
100
AcDbLine
 10
307.933201
 20
407.139837
 11
308.033201
 21
407.139837
  0
LINE
  5
828
100
AcDbEntity
  8
M0
 62
     7
100
AcDbLine
 10
302.933201
 20
437.539838
 11
297.233201
 21
437.539838
  0
LINE
  5
829
100
AcDbEntity
  8
M0
 62
     7
100
AcDbLine
 10
301.933201
 20
436.539838
 11
297.433201
 21
436.539838
  0
LINE
  5
82A
100
AcDbEntity
  8
M0
 62
     7
100
AcDbLine
 10
294.6332
 20
435.039837
 11
301.933201
 21
435.039837
  0
LINE
  5
82B
100
AcDbEntity
  8
M0
 62
     7
100
AcDbLine
 10
301.933201
 20
435.039837
 11
301.933201
 21
436.539838
  0
LINE
  5
82C
100
AcDbEntity
  8
M0
 62
     7
100
AcDbLine
 10
294.6332
 20
435.37317
 11
294.6332
 21
435.039837
  0
ARC
  5
82D
100
AcDbEntity
  8
M0
 62
     7
100
AcDbCircle
 10
270.133201
 20
406.339837
 40
1.0
100
AcDbArc
 50
168.463041
 51
180.0
  0
LINE
  5
82E
100
AcDbEntity
  8
M0
 62
     7
100
AcDbLine
 10
269.133202
 20
406.339837
 11
269.133202
 21
405.539838
  0
LINE
  5
82F
100
AcDbEntity
  8
M0
 62
     7
100
AcDbLine
 10
269.133202
 20
400.539837
 11
269.133202
 21
399.539838
  0
LINE
  5
830
100
AcDbEntity
  8
M0
 62
     7
100
AcDbLine
 10
299.533201
 20
400.339837
 11
299.533201
 21
405.739838
  0
LINE
  5
831
100
AcDbEntity
  8
M0
 62
     7
100
AcDbLine
 10
296.033201
 20
405.739838
 11
296.033201
 21
400.339837
  0
LINE
  5
832
100
AcDbEntity
  8
M0
 62
     7
100
AcDbLine
 10
309.433201
 20
368.539838
 11
309.433201
 21
367.539836
  0
LINE
  5
833
100
AcDbEntity
  8
M0
 62
     7
100
AcDbLine
 10
303.033201
 20
437.539838
 11
298.333201
 21
437.539838
  0
LINE
  5
834
100
AcDbEntity
  8
M0
 62
     7
100
AcDbLine
 10
303.033201
 20
437.539838
 11
303.033201
 21
434.039837
  0
LINE
  5
835
100
AcDbEntity
  8
M0
 62
     7
100
AcDbLine
 10
309.433201
 20
413.139837
 11
309.433201
 21
434.039837
  0
ARC
  5
836
100
AcDbEntity
  8
M0
 62
     7
100
AcDbCircle
 10
264.033201
 20
391.539837
 40
0.5
100
AcDbArc
 50
180.0
 51
270.0
  0
ARC
  5
837
100
AcDbEntity
  8
M0
 62
     7
100
AcDbCircle
 10
289.733201
 20
427.739837
 40
3.0
100
AcDbArc
 50
90.0
 51
180.0
  0
ARC
  5
838
100
AcDbEntity
  8
M0
 62
     7
100
AcDbCircle
 10
289.733201
 20
378.339837
 40
3.0
100
AcDbArc
 50
180.0
 51
270.0
  0
ARC
  5
839
100
AcDbEntity
  8
M0
 62
     7
100
AcDbCircle
 10
300.69056
 20
427.739837
 40
3.0
100
AcDbArc
 50
45.0
 51
90.0
  0
ARC
  5
83A
100
AcDbEntity
  8
M0
 62
     7
100
AcDbCircle
 10
300.69056
 20
378.339837
 40
3.0
100
AcDbArc
 50
270.0
 51
315.0
  0
ARC
  5
83B
100
AcDbEntity
  8
M0
 62
     7
100
AcDbCircle
 10
270.833201
 20
420.139837
 40
3.0
100
AcDbArc
 50
90.0
 51
180.0
  0
ARC
  5
83C
100
AcDbEntity
  8
M0
 62
     7
100
AcDbCircle
 10
269.333201
 20
398.339837
 40
1.0
100
AcDbArc
 50
0.0
 51
90.0
  0
ARC
  5
83D
100
AcDbEntity
  8
M0
 62
     7
100
AcDbCircle
 10
283.733201
 20
426.139837
 40
3.0
100
AcDbArc
 50
270.0
 51
360.0
  0
ARC
  5
83E
100
AcDbEntity
  8
M0
 62
     7
100
AcDbCircle
 10
283.733201
 20
379.939837
 40
3.0
100
AcDbArc
 50
0.0
 51
90.0
  0
ARC
  5
83F
100
AcDbEntity
  8
M0
 62
     7
100
AcDbCircle
 10
295.833201
 20
405.239837
 40
0.5
100
AcDbArc
 50
90.0
 51
180.0
  0
LINE
  5
840
100
AcDbEntity
  8
M0
 62
     7
100
AcDbLine
 10
269.833199
 20
383.11141
 11
269.833199
 21
370.539839
  0
ARC
  5
841
100
AcDbEntity
  8
M0
 62
     7
100
AcDbCircle
 10
295.833201
 20
400.839837
 40
0.5
100
AcDbArc
 50
180.0
 51
270.0
  0
LINE
  5
842
100
AcDbEntity
  8
M0
 62
     7
100
AcDbLine
 10
269.833199
 20
435.539838
 11
269.833199
 21
422.968265
  0
LINE
  5
843
100
AcDbEntity
  8
M0
 62
     7
100
AcDbLine
 10
309.433201
 20
418.139838
 11
316.833201
 21
418.139838
  0
LINE
  5
844
100
AcDbEntity
  8
M0
 62
     7
100
AcDbLine
 10
316.833201
 20
423.139837
 11
309.433201
 21
423.139837
  0
LINE
  5
845
100
AcDbEntity
  8
M0
 62
     7
100
AcDbLine
 10
309.433201
 20
413.139837
 11
308.533201
 21
413.139837
  0
ARC
  5
846
100
AcDbEntity
  8
M0
 62
     7
100
AcDbCircle
 10
268.833201
 20
407.739837
 40
1.0
100
AcDbArc
 50
180.0
 51
270.0
  0
ARC
  5
847
100
AcDbEntity
  8
M0
 62
     7
100
AcDbCircle
 10
287.59056
 20
370.539837
 40
3.0
100
AcDbArc
 50
270.0
 51
315.0
  0
ARC
  5
848
100
AcDbEntity
  8
M0
 62
     7
100
AcDbCircle
 10
270.833201
 20
385.939837
 40
3.0
100
AcDbArc
 50
180.0
 51
270.0
  0
ARC
  5
849
100
AcDbEntity
  8
M0
 62
     7
100
AcDbCircle
 10
268.833201
 20
398.339837
 40
1.0
100
AcDbArc
 50
90.0
 51
180.0
  0
ARC
  5
84A
100
AcDbEntity
  8
M0
 62
     7
100
AcDbCircle
 10
272.833201
 20
370.539837
 40
3.0
100
AcDbArc
 50
180.0
 51
270.0
  0
ARC
  5
84B
100
AcDbEntity
  8
M0
 62
     7
100
AcDbCircle
 10
287.59056
 20
435.539837
 40
3.0
100
AcDbArc
 50
45.0
 51
90.0
  0
ARC
  5
84C
100
AcDbEntity
  8
M0
 62
     7
100
AcDbCircle
 10
272.833201
 20
435.539837
 40
3.0
100
AcDbArc
 50
90.0
 51
180.0
  0
ARC
  5
84D
100
AcDbEntity
  8
M0
 62
     7
100
AcDbCircle
 10
269.333201
 20
407.739837
 40
1.0
100
AcDbArc
 50
270.0
 51
360.0
  0
LINE
  5
84E
100
AcDbEntity
  8
M0
 62
     7
100
AcDbLine
 10
304.933201
 20
378.339838
 11
302.81188
 21
376.218516
  0
LINE
  5
84F
100
AcDbEntity
  8
M0
 62
     7
100
AcDbLine
 10
270.3332
 20
398.339838
 11
270.3332
 21
407.739838
  0
LINE
  5
850
100
AcDbEntity
  8
M0
 62
     7
100
AcDbLine
 10
300.69056
 20
375.339838
 11
289.733201
 21
375.339838
  0
LINE
  5
851
100
AcDbEntity
  8
M0
 62
     7
100
AcDbLine
 10
286.7332
 20
426.139837
 11
286.7332
 21
427.739838
  0
LINE
  5
852
100
AcDbEntity
  8
M0
 62
     7
100
AcDbLine
 10
302.81188
 20
429.861158
 11
304.933201
 21
427.739838
  0
LINE
  5
853
100
AcDbEntity
  8
M0
 62
     7
100
AcDbLine
 10
289.733201
 20
430.739837
 11
300.69056
 21
430.739837
  0
LINE
  5
854
100
AcDbEntity
  8
M0
 62
     7
100
AcDbLine
 10
304.933201
 20
427.739838
 11
309.433201
 21
427.739838
  0
LINE
  5
855
100
AcDbEntity
  8
M0
 62
     7
100
AcDbLine
 10
295.333201
 20
405.239837
 11
295.333201
 21
400.839837
  0
LINE
  5
856
100
AcDbEntity
  8
M0
 62
     7
100
AcDbLine
 10
295.833202
 20
400.339837
 11
308.033201
 21
400.339837
  0
LINE
  5
857
100
AcDbEntity
  8
M0
 62
     7
100
AcDbLine
 10
308.033201
 20
405.739838
 11
295.833202
 21
405.739838
  0
LINE
  5
858
100
AcDbEntity
  8
M0
 62
     7
100
AcDbLine
 10
309.433201
 20
378.539838
 11
304.933201
 21
378.339838
  0
LINE
  5
859
100
AcDbEntity
  8
M0
 62
     7
100
AcDbLine
 10
309.433201
 20
434.039837
 11
293.3332
 21
434.039837
  0
LINE
  5
85A
100
AcDbEntity
  8
M0
 62
     7
100
AcDbLine
 10
272.833202
 20
367.539836
 11
287.590561
 21
367.539836
  0
LINE
  5
85B
100
AcDbEntity
  8
M0
 62
     7
100
AcDbLine
 10
287.590561
 20
438.539839
 11
272.833202
 21
438.539839
  0
LINE
  5
85C
100
AcDbEntity
  8
M0
 62
     7
100
AcDbLine
 10
293.3332
 20
434.039837
 11
289.711881
 21
437.661158
  0
LINE
  5
85D
100
AcDbEntity
  8
M0
 62
     7
100
AcDbLine
 10
289.711881
 20
368.418517
 11
293.3332
 21
372.039838
  0
LINE
  5
85E
100
AcDbEntity
  8
M0
 62
     7
100
AcDbLine
 10
269.333202
 20
406.739837
 11
269.333202
 21
399.339838
  0
LINE
  5
85F
100
AcDbEntity
  8
M0
 62
     7
100
AcDbLine
 10
268.833201
 20
406.739837
 11
269.333202
 21
406.739837
  0
LINE
  5
860
100
AcDbEntity
  8
M0
 62
     7
100
AcDbLine
 10
283.733202
 20
382.939838
 11
270.833201
 21
382.939838
  0
LINE
  5
861
100
AcDbEntity
  8
M0
 62
     7
100
AcDbLine
 10
270.833201
 20
423.139837
 11
283.733202
 21
423.139837
  0
LINE
  5
862
100
AcDbEntity
  8
M0
 62
     7
100
AcDbLine
 10
269.333202
 20
399.339838
 11
268.833201
 21
399.339838
  0
LINE
  5
863
100
AcDbEntity
  8
M0
 62
     7
100
AcDbLine
 10
267.833203
 20
385.939837
 11
267.833203
 21
420.139837
  0
ARC
  5
864
100
AcDbEntity
  8
M0
 62
     7
100
AcDbCircle
 10
308.533201
 20
412.639837
 40
0.5
100
AcDbArc
 50
90.0
 51
180.0
  0
ARC
  5
865
100
AcDbEntity
  8
M0
 62
     7
100
AcDbCircle
 10
308.533201
 20
393.439837
 40
0.5
100
AcDbArc
 50
180.0
 51
270.0
  0
LINE
  5
866
100
AcDbEntity
  8
M0
 62
     7
100
AcDbLine
 10
309.433201
 20
372.039838
 11
293.3332
 21
372.039838
  0
LINE
  5
867
100
AcDbEntity
  8
M0
 62
     7
100
AcDbLine
 10
267.833203
 20
415.039837
 11
264.033202
 21
415.039837
  0
LINE
  5
868
100
AcDbEntity
  8
M0
 62
     7
100
AcDbLine
 10
264.033202
 20
407.639838
 11
267.833203
 21
407.639838
  0
LINE
  5
869
100
AcDbEntity
  8
M0
 62
     7
100
AcDbLine
 10
265.533201
 20
414.039837
 11
265.533201
 21
407.639838
  0
LINE
  5
86A
100
AcDbEntity
  8
M0
 62
     7
100
AcDbLine
 10
265.533201
 20
409.139837
 11
264.033202
 21
409.139837
  0
LINE
  5
86B
100
AcDbEntity
  8
M0
 62
     7
100
AcDbLine
 10
265.533201
 20
396.539837
 11
264.033202
 21
396.539837
  0
LINE
  5
86C
100
AcDbEntity
  8
M0
 62
     7
100
AcDbLine
 10
298.433201
 20
367.539836
 11
301.4332
 21
367.539836
  0
LINE
  5
86D
100
AcDbEntity
  8
M0
 62
     7
100
AcDbLine
 10
309.433201
 20
367.539836
 11
309.433201
 21
392.939838
  0
LINE
  5
86E
100
AcDbEntity
  8
M0
 62
     7
100
AcDbLine
 10
297.433201
 20
372.039838
 11
297.433201
 21
368.539838
  0
LINE
  5
86F
100
AcDbEntity
  8
M0
 62
     7
100
AcDbLine
 10
298.433201
 20
367.539836
 11
309.433201
 21
367.539836
  0
LINE
  5
870
100
AcDbEntity
  8
M0
 62
     7
100
AcDbLine
 10
309.433201
 20
392.939838
 11
308.533201
 21
392.939838
  0
LINE
  5
871
100
AcDbEntity
  8
M0
 62
     7
100
AcDbLine
 10
309.433201
 20
382.939838
 11
316.833201
 21
382.939838
  0
LINE
  5
872
100
AcDbEntity
  8
M0
 62
     7
100
AcDbLine
 10
316.833201
 20
387.939837
 11
309.433201
 21
387.939837
  0
LINE
  5
873
100
AcDbEntity
  8
M0
 62
     7
100
AcDbLine
 10
308.033201
 20
412.639837
 11
308.033201
 21
393.439838
  0
LINE
  5
874
100
AcDbEntity
  8
M0
 62
     7
100
AcDbLine
 10
286.7332
 20
378.339838
 11
286.7332
 21
379.939837
  0
LINE
  5
875
100
AcDbEntity
  8
M0
 62
     7
100
AcDbLine
 10
265.533201
 20
414.039837
 11
265.359554
 21
414.213486
  0
LINE
  5
876
100
AcDbEntity
  8
M0
 62
     7
100
AcDbLine
 10
265.359554
 20
414.213486
 11
265.191182
 21
414.381858
  0
LINE
  5
877
100
AcDbEntity
  8
M0
 62
     7
100
AcDbLine
 10
265.191182
 20
414.381858
 11
265.0332
 21
414.539837
  0
LINE
  5
878
100
AcDbEntity
  8
M0
 62
     7
100
AcDbLine
 10
265.0332
 20
414.539837
 11
264.890413
 21
414.682625
  0
LINE
  5
879
100
AcDbEntity
  8
M0
 62
     7
100
AcDbLine
 10
264.890413
 20
414.682625
 11
264.767155
 21
414.805882
  0
LINE
  5
87A
100
AcDbEntity
  8
M0
 62
     7
100
AcDbLine
 10
264.767155
 20
414.805882
 11
264.667175
 21
414.905863
  0
LINE
  5
87B
100
AcDbEntity
  8
M0
 62
     7
100
AcDbLine
 10
264.667175
 20
414.905863
 11
264.593508
 21
414.97953
  0
LINE
  5
87C
100
AcDbEntity
  8
M0
 62
     7
100
AcDbLine
 10
264.593508
 20
414.97953
 11
264.548394
 21
415.024645
  0
LINE
  5
87D
100
AcDbEntity
  8
M0
 62
     7
100
AcDbLine
 10
264.548394
 20
415.024645
 11
264.533203
 21
415.039837
  0
LINE
  5
87E
100
AcDbEntity
  8
M0
  6
DASHED
 62
     7
100
AcDbLine
 10
232.233202
 20
405.339831
 11
232.233202
 21
402.539831
  0
LINE
  5
87F
100
AcDbEntity
  8
M0
  6
DASHED
 62
     7
100
AcDbLine
 10
232.233202
 20
405.339831
 11
233.833201
 21
405.339831
  0
LINE
  5
880
100
AcDbEntity
  8
M0
  6
DASHED
 62
     7
100
AcDbLine
 10
233.833201
 20
402.539831
 11
232.233202
 21
402.539831
  0
LINE
  5
881
100
AcDbEntity
  8
M0
  6
DASHED
 62
     7
100
AcDbLine
 10
267.333201
 20
421.739825
 11
257.933201
 21
421.739825
  0
LINE
  5
882
100
AcDbEntity
  8
M0
  6
DASHED
 62
     7
100
AcDbLine
 10
267.333202
 20
386.339837
 11
262.533201
 21
386.339837
  0
LINE
  5
883
100
AcDbEntity
  8
M0
  6
DASHED
 62
     7
100
AcDbLine
 10
233.833201
 20
384.639831
 11
233.833201
 21
423.439831
  0
ARC
  5
884
100
AcDbEntity
  8
M0
  6
DASHED
 62
     7
100
AcDbCircle
 10
237.833201
 20
384.639831
 40
4.0
100
AcDbArc
 50
180.0
 51
270.0
  0
ARC
  5
885
100
AcDbEntity
  8
M0
  6
DASHED
 62
     7
100
AcDbCircle
 10
252.933201
 20
385.639831
 40
5.0
100
AcDbArc
 50
270.0
 51
360.0
  0
ARC
  5
886
100
AcDbEntity
  8
M0
  6
DASHED
 62
     7
100
AcDbCircle
 10
267.333201
 20
386.839837
 40
0.5
100
AcDbArc
 50
270.0
 51
360.0
  0
ARC
  5
887
100
AcDbEntity
  8
M0
  6
DASHED
 62
     7
100
AcDbCircle
 10
237.833201
 20
423.439831
 40
4.0
100
AcDbArc
 50
90.0
 51
180.0
  0
ARC
  5
888
100
AcDbEntity
  8
M0
  6
DASHED
 62
     7
100
AcDbCircle
 10
252.933201
 20
422.439831
 40
5.0
100
AcDbArc
 50
0.0
 51
90.0
  0
ARC
  5
889
100
AcDbEntity
  8
M0
  6
DASHED
 62
     7
100
AcDbCircle
 10
267.333201
 20
421.239825
 40
0.5
100
AcDbArc
 50
0.0
 51
90.0
  0
LINE
  5
88A
100
AcDbEntity
  8
M0
  6
DASHED
 62
     7
100
AcDbLine
 10
257.933201
 20
421.739825
 11
257.933201
 21
422.439831
  0
LINE
  5
88B
100
AcDbEntity
  8
M0
  6
DASHED
 62
     7
100
AcDbLine
 10
252.933201
 20
427.439832
 11
237.833201
 21
427.439832
  0
LINE
  5
88C
100
AcDbEntity
  8
M0
  6
DASHED
 62
     7
100
AcDbLine
 10
265.733201
 20
421.739825
 11
265.733201
 21
423.73983
  0
LINE
  5
88D
100
AcDbEntity
  8
M0
  6
DASHED
 62
     7
100
AcDbLine
 10
266.133201
 20
423.73983
 11
266.733203
 21
421.739825
  0
LINE
  5
88E
100
AcDbEntity
  8
M0
  6
DASHED
 62
     7
100
AcDbLine
 10
265.733201
 20
423.73983
 11
266.133201
 21
423.73983
  0
LINE
  5
88F
100
AcDbEntity
  8
M0
  6
DASHED
 62
     7
100
AcDbLine
 10
267.333202
 20
386.339837
 11
257.933201
 21
386.339837
  0
LINE
  5
890
100
AcDbEntity
  8
M0
  6
DASHED
 62
     7
100
AcDbLine
 10
257.933201
 20
386.339837
 11
257.933201
 21
385.639831
  0
LINE
  5
891
100
AcDbEntity
  8
M0
  6
DASHED
 62
     7
100
AcDbLine
 10
252.933201
 20
380.639831
 11
237.833201
 21
380.639831
  0
LINE
  5
892
100
AcDbEntity
  8
M0
  6
DIVIDE
 62
     7
100
AcDbLine
 10
373.4332
 20
389.539837
 11
373.4332
 21
385.539837
  0
LINE
  5
893
100
AcDbEntity
  8
M0
  6
DIVIDE
 62
     7
100
AcDbLine
 10
372.4332
 20
385.539837
 11
373.4332
 21
385.539837
  0
LINE
  5
894
100
AcDbEntity
  8
M0
  6
DIVIDE
 62
     7
100
AcDbLine
 10
378.9332
 20
390.539837
 11
372.4332
 21
390.539837
  0
LINE
  5
895
100
AcDbEntity
  8
M0
  6
DIVIDE
 62
     7
100
AcDbLine
 10
379.9332
 20
389.539837
 11
373.4332
 21
389.539837
  0
LINE
  5
896
100
AcDbEntity
  8
M0
  6
DIVIDE
 62
     7
100
AcDbLine
 10
379.9332
 20
389.539837
 11
379.9332
 21
416.539837
  0
LINE
  5
897
100
AcDbEntity
  8
M0
  6
DIVIDE
 62
     7
100
AcDbLine
 10
378.9332
 20
415.539837
 11
378.9332
 21
390.539837
  0
LINE
  5
898
100
AcDbEntity
  8
M0
  6
DIVIDE
 62
     7
100
AcDbLine
 10
378.9332
 20
415.539837
 11
372.4332
 21
415.539837
  0
LINE
  5
899
100
AcDbEntity
  8
M0
  6
DIVIDE
 62
     7
100
AcDbLine
 10
379.9332
 20
416.539837
 11
373.4332
 21
416.539837
  0
LINE
  5
89A
100
AcDbEntity
  8
M0
  6
DIVIDE
 62
     7
100
AcDbLine
 10
373.4332
 20
420.539837
 11
373.4332
 21
416.539837
  0
LINE
  5
89B
100
AcDbEntity
  8
M0
  6
DIVIDE
 62
     7
100
AcDbLine
 10
373.4332
 20
420.539837
 11
372.4332
 21
420.539837
  0
LINE
  5
89C
100
AcDbEntity
  8
M0
  6
DASHDOT
 62
     7
100
AcDbLine
 10
55.878866
 20
253.457876
 11
47.684057
 21
253.457876
  0
LINE
  5
89D
100
AcDbEntity
  8
M0
  6
DASHDOT
 62
     7
100
AcDbLine
 10
51.781454
 20
257.555272
 11
51.781469
 21
249.360463
  0
LINE
  5
89E
100
AcDbEntity
  8
M0
  6
DASHDOT
 62
     7
100
AcDbLine
 10
109.878866
 20
194.457876
 11
101.684057
 21
194.457876
  0
LINE
  5
89F
100
AcDbEntity
  8
M0
  6
DASHDOT
 62
     7
100
AcDbLine
 10
105.781454
 20
198.555272
 11
105.781469
 21
189.360463
  0
LINE
  5
8A0
100
AcDbEntity
  8
M0
  6
DIVIDE
 62
     7
100
AcDbLine
 10
110.181458
 20
258.957877
 11
110.181458
 21
248.757877
  0
LINE
  5
8A1
100
AcDbEntity
  8
M0
  6
DIVIDE
 62
     7
100
AcDbLine
 10
182.981452
 20
187.957874
 11
120.181458
 21
187.957874
  0
LINE
  5
8A2
100
AcDbEntity
  8
M0
  6
DIVIDE
 62
     7
100
AcDbLine
 10
168.551454
 20
258.957877
 11
182.981452
 21
258.957877
  0
LINE
  5
8A3
100
AcDbEntity
  8
M0
  6
DIVIDE
 62
     7
100
AcDbLine
 10
182.981452
 20
258.957877
 11
182.981452
 21
187.957874
  0
LINE
  5
8A4
100
AcDbEntity
  8
M0
  6
DIVIDE
 62
     7
100
AcDbLine
 10
120.181458
 20
258.957877
 11
120.181458
 21
248.757877
  0
LINE
  5
8A5
100
AcDbEntity
  8
M0
  6
DASHDOT
 62
     7
100
AcDbLine
 10
182.67886
 20
194.457876
 11
174.484051
 21
194.457876
  0
LINE
  5
8A6
100
AcDbEntity
  8
M0
  6
DASHDOT
 62
     7
100
AcDbLine
 10
178.581448
 20
198.555272
 11
178.581463
 21
189.360463
  0
LINE
  5
8A7
100
AcDbEntity
  8
M0
  6
DASHDOT
 62
     7
100
AcDbLine
 10
128.67886
 20
253.457876
 11
120.484051
 21
253.457876
  0
LINE
  5
8A8
100
AcDbEntity
  8
M0
  6
DASHDOT
 62
     7
100
AcDbLine
 10
124.581448
 20
257.555272
 11
124.581463
 21
249.360463
  0
LINE
  5
8A9
100
AcDbEntity
  8
M0
  6
DIVIDE
 62
     7
100
AcDbLine
 10
134.611381
 20
267.957876
 11
168.551454
 21
267.957876
  0
LINE
  5
8AA
100
AcDbEntity
  8
M0
  6
DIVIDE
 62
     7
100
AcDbLine
 10
134.611381
 20
258.957877
 11
120.181458
 21
258.957877
  0
LINE
  5
8AB
100
AcDbEntity
  8
M0
  6
DIVIDE
 62
     7
100
AcDbLine
 10
120.181458
 20
197.957874
 11
120.181458
 21
187.957874
  0
LINE
  5
8AC
100
AcDbEntity
  8
M0
  6
DIVIDE
 62
     7
100
AcDbLine
 10
110.181458
 20
187.957874
 11
47.381464
 21
187.957874
  0
LINE
  5
8AD
100
AcDbEntity
  8
M0
  6
DIVIDE
 62
     7
100
AcDbLine
 10
47.381464
 20
258.957877
 11
47.381464
 21
187.957874
  0
LINE
  5
8AE
100
AcDbEntity
  8
M0
  6
DIVIDE
 62
     7
100
AcDbLine
 10
61.811387
 20
258.957877
 11
47.381464
 21
258.957877
  0
LINE
  5
8AF
100
AcDbEntity
  8
M0
  6
DIVIDE
 62
     7
100
AcDbLine
 10
95.75146
 20
258.957877
 11
110.181458
 21
258.957877
  0
LINE
  5
8B0
100
AcDbEntity
  8
M0
  6
DIVIDE
 62
     7
100
AcDbLine
 10
110.181458
 20
197.957874
 11
110.181458
 21
187.957874
  0
LINE
  5
8B1
100
AcDbEntity
  8
M0
  6
DIVIDE
 62
     7
100
AcDbLine
 10
61.811387
 20
267.957876
 11
95.75146
 21
267.957876
  0
LINE
  5
8B2
100
AcDbEntity
  8
M0
  6
DIVIDE
 62
     7
100
AcDbLine
 10
95.75146
 20
267.957876
 11
95.75146
 21
258.957877
  0
LINE
  5
8B3
100
AcDbEntity
  8
M0
  6
DIVIDE
 62
     7
100
AcDbLine
 10
61.811387
 20
267.957876
 11
61.811387
 21
258.957877
  0
LINE
  5
8B4
100
AcDbEntity
  8
M0
  6
DIVIDE
 62
     7
100
AcDbLine
 10
134.611381
 20
267.957876
 11
134.611381
 21
258.957877
  0
LINE
  5
8B5
100
AcDbEntity
  8
M0
  6
DIVIDE
 62
     7
100
AcDbLine
 10
168.551454
 20
267.957876
 11
168.551454
 21
258.957877
  0
CIRCLE
  5
8B6
100
AcDbEntity
  8
M0
 62
     7
100
AcDbCircle
 10
124.581455
 20
253.457868
 40
1.7
  0
CIRCLE
  5
8B7
100
AcDbEntity
  8
M0
 62
     7
100
AcDbCircle
 10
124.581455
 20
253.457876
 40
2.0
  0
CIRCLE
  5
8B8
100
AcDbEntity
  8
M0
 62
     7
100
AcDbCircle
 10
51.781461
 20
253.457868
 40
1.7
  0
CIRCLE
  5
8B9
100
AcDbEntity
  8
M0
 62
     7
100
AcDbCircle
 10
51.781461
 20
253.457876
 40
2.0
  0
CIRCLE
  5
8BA
100
AcDbEntity
  8
M0
 62
     7
100
AcDbCircle
 10
105.781461
 20
194.457876
 40
2.0
  0
CIRCLE
  5
8BB
100
AcDbEntity
  8
M0
 62
     7
100
AcDbCircle
 10
105.781461
 20
194.457876
 40
1.7
  0
CIRCLE
  5
8BC
100
AcDbEntity
  8
M0
 62
     7
100
AcDbCircle
 10
178.581454
 20
194.457876
 40
2.0
  0
CIRCLE
  5
8BD
100
AcDbEntity
  8
M0
 62
     7
100
AcDbCircle
 10
178.581454
 20
194.457876
 40
1.7
  0
LINE
  5
8BE
100
AcDbEntity
  8
M0
  6
DIVIDE
 62
     7
100
AcDbLine
 10
120.181458
 20
197.957874
 11
110.181458
 21
197.957874
  0
LINE
  5
8BF
100
AcDbEntity
  8
M0
  6
DIVIDE
 62
     7
100
AcDbLine
 10
120.181458
 20
248.757877
 11
110.181458
 21
248.757877
  0
LINE
  5
8C0
100
AcDbEntity
  8
M1
 62
     2
100
AcDbLine
 10
20.0
 20
20.0
 11
20.0
 21
570.0
  0
LINE
  5
8C1
100
AcDbEntity
  8
M1
 62
     2
100
AcDbLine
 10
20.0
 20
570.0
 11
400.0
 21
570.0
  0
LINE
  5
8C2
100
AcDbEntity
  8
M1
 62
     2
100
AcDbLine
 10
400.0
 20
570.0
 11
400.0
 21
20.0
  0
LINE
  5
8C3
100
AcDbEntity
  8
M1
 62
     2
100
AcDbLine
 10
400.0
 20
20.0
 11
20.0
 21
20.0
  0
LINE
  5
8C4
100
AcDbEntity
  8
M1
 62
     2
100
AcDbLine
 10
400.0
 20
40.0
 11
200.0
 21
40.0
  0
LINE
  5
8C5
100
AcDbEntity
  8
M1
 62
     2
100
AcDbLine
 10
400.0
 20
60.0
 11
200.0
 21
60.0
  0
LINE
  5
8C6
100
AcDbEntity
  8
M1
 62
     2
100
AcDbLine
 10
400.0
 20
80.0
 11
200.0
 21
80.0
  0
LINE
  5
8C7
100
AcDbEntity
  8
M1
 62
     2
100
AcDbLine
 10
200.0
 20
20.0
 11
200.0
 21
80.0
  0
TEXT
  5
8C8
100
AcDbEntity
  8
M1
 62
     2
100
AcDbText
 10
205.0
 20
25.0
 40
10.0
  1
適　用；
  7
STANDARD
100
AcDbText
  0
TEXT
  5
8C9
100
AcDbEntity
  8
M1
 62
     2
100
AcDbText
 10
205.0
 20
65.0
 40
10.0
  1
登録名：
  7
STANDARD
100
AcDbText
  0
TEXT
  5
8CA
100
AcDbEntity
  8
M1
 62
     2
100
AcDbText
 10
253.0
 20
65.0
 40
10.0
  1
ＤＭＨＳ２０ＲＧＲ００
 41
0.5
  7
STANDARD
100
AcDbText
  0
TEXT
  5
8CB
100
AcDbEntity
  8
M1
 62
     2
100
AcDbText
 10
205.0
 20
45.0
 40
10.0
  1
形　式；
  7
STANDARD
100
AcDbText
  0
TEXT
  5
8CC
100
AcDbEntity
  8
M1
 62
     2
100
AcDbText
 10
253.0
 20
45.0
 40
10.0
  1
ＨＳ２０－ＲＧ
 41
0.5
  7
STANDARD
100
AcDbText
  0
POINT
  5
8CD
100
AcDbEntity
  8
M1
100
AcDbPoint
 10
115.181458
 20
403.939831
  0
POINT
  5
8CE
100
AcDbEntity
  8
M1
100
AcDbPoint
 10
232.233202
 20
403.939831
  0
LINE
  5
8CF
100
AcDbEntity
  8
DN0
100
AcDbLine
 10
187.881671
 20
160.532443
 11
220.341672
 21
160.532443
  0
TEXT
  5
8D0
100
AcDbEntity
  8
DN0
100
AcDbText
 10
188.778338
 20
161.332443
 40
8.0
  1
せん孔図
 41
0.833333
  7
STANDARD
100
AcDbText
  0
ENDSEC
  0
SECTION
  2
OBJECTS
  0
DICTIONARY
  5
C
100
AcDbDictionary
  3
ACAD_GROUP
350
D
  3
ACAD_MLINESTYLE
350
E
  3
ACDBVARIABLEDICTIONARY
350
747
  0
DICTIONARY
  5
D
102
{ACAD_REACTORS
330
C
102
}
100
AcDbDictionary
  0
DICTIONARY
  5
E
102
{ACAD_REACTORS
330
C
102
}
100
AcDbDictionary
  3
STANDARD
350
13
  0
DICTIONARY
  5
747
102
{ACAD_REACTORS
330
C
102
}
100
AcDbDictionary
  3
SORTENTS
350
748
  0
MLINESTYLE
  5
13
102
{ACAD_REACTORS
330
E
102
}
100
AcDbMlineStyle
  2
STANDARD
 70
     0
  3

 62
     0
 51
90.0
 52
90.0
 71
     2
 49
0.5
 62
   256
  6
BYLAYER
 49
-0.5
 62
   256
  6
BYLAYER
  0
DICTIONARYVAR
  5
748
102
{ACAD_REACTORS
330
747
102
}
100
DictionaryVariables
280
     0
  1
96
  0
ENDSEC
  0
EOF
