  0
SECTION
  2
HEADER
  9
$ACADVER
  1
AC1014
  9
$INSBASE
 10
0.000000
 20
0.000000
 30
0.0
  9
$VIEWCTR
 10
7.531722
 20
4.5
  9
$VIEWSIZE
 40
9.0
  9
$SNAPMODE
 70
     0
  9
$SNAPUNIT
 10
1.0
 20
1.0
  9
$SNAPBASE
 10
0.0
 20
0.0
  9
$SNAPANG
 50
0.0
  9
$SNAPSTYLE
 70
     0
  9
$SNAPISOPAIR
 70
     0
  9
$GRIDMODE
 70
     0
  9
$GRIDUNIT
 10
0.0
 20
0.0
  9
$ORTHOMODE
 70
     0
  9
$REGENMODE
 70
     1
  9
$FILLMODE
 70
     1
  9
$QTEXTMODE
 70
     0
  9
$DRAGMODE
 70
     2
  9
$LTSCALE
  40
     1.000000
  9
$OSMODE
 70
     0
  9
$ATTMODE
 70
     1
  9
$TEXTSIZE
 40
0.2
  9
$TRACEWID
 40
0.05
  9
$TEXTSTYLE
  7
STANDARD
  9
$CELTYPE
  6
BYLAYER
  9
$CECOLOR
 62
   256
  9
$DIMSCALE
 40
1.0
  9
$DIMASZ
 40
0.18
  9
$DIMEXO
 40
0.0625
  9
$DIMDLI
 40
0.38
  9
$DIMRND
 40
0.0
  9
$DIMDLE
 40
0.0
  9
$DIMEXE
 40
0.18
  9
$DIMTP
 40
0.0
  9
$DIMTM
 40
0.0
  9
$DIMTXT
 40
0.18
  9
$DIMCEN
 40
0.09
  9
$DIMTSZ
 40
0.0
  9
$DIMTOL
 70
     0
  9
$DIMLIM
 70
     0
  9
$DIMTIH
 70
     1
  9
$DIMTOH
 70
     1
  9
$DIMSE1
 70
     0
  9
$DIMSE2
 70
     0
  9
$DIMTAD
 70
     0
  9
$DIMZIN
 70
     0
  9
$DIMBLK
  1

  9
$LUNITS
 70
     2
  9
$LUPREC
 70
     4
  9
$AXISMODE
 70
     0
  9
$AXISUNIT
 10
0.0
 20
0.0
  9
$SKETCHINC
 40
0.1
  9
$FILLETRAD
 40
0.0
  9
$AUNITS
 70
     0
  9
$AUPREC
 70
     0
  9
$MENU
  1
ACAD
  9
$ELEVATION
 40
0.0
  9
$THICKNESS
 40
0.0
  9
$VIEWDIR
 10
0.0
 20
0.0
 30
1.0
  9
$LIMCHECK
 70
     0
  9
$BLIPMODE
 70
     1
  9
$CHAMFERA
 40
0.0
  9
$CHAMFERB
 40
0.0
  9
$FASTZOOM
 70
     1
  9
$SKPOLY
 70
     0
  9
$TDCREATE
 40
0000000.0000000000
  9
$TDUPDATE
 40
0000000.0000000000
  9
$TDINDWG
 40
0.0000000000
  9
$TDUSRTIMER
 40
0.0000000000
  9
$USRTIMER
 70
     1
  9
$ANGBASE
 50
0.0
  9
$ANGDIR
 70
     0
  9
$PDMODE
 70
     0
  9
$PDSIZE
 40
0.0
  9
$PLINEWID
 40
0.0
  9
$COORDS
 70
     0
  9
$USERI1
 70
     0
  9
$USERI2
 70
     0
  9
$USERI3
 70
     0
  9
$USERI4
 70
     0
  9
$USERI5
 70
     0
  9
$USERR1
 40
0.0
  9
$USERR2
 40
0.0
  9
$USERR3
 40
0.0
  9
$USERR4
 40
0.0
  9
$USERR5
 40
0.0
  9
$CLAYER
  8
M0
  9
$EXTMIN
 10
25.0
 20
25.0
  9
$EXTMAX
 10
499.999993
 20
712.499989
  9
$LIMMIN
 10
0.0
 20
0.0
  9
$LIMMAX
 10
210.0
 20
297.0
  9
$HANDSEED
  5
7DA
  0
ENDSEC
  0
SECTION
  2
CLASSES
  0
ENDSEC
  0
SECTION
  2
TABLES
  0
TABLE
  2
VPORT
  5
8
100
AcDbSymbolTable
 70
     2
  0
VPORT
  5
14
100
AcDbSymbolTableRecord
100
AcDbViewportTableRecord
  2
*ACTIVE
 70
     0
 10
0.0
 20
0.0
 11
1.0
 21
1.0
 12
484.0
 22
297.0
 13
0.0
 23
0.0
 14
1.0
 24
1.0
 15
0.0
 25
0.0
 16
0.0
 26
0.0
 36
1.0
 17
0.0
 27
0.0
 37
0.0
 40
594.0
 41
2.0
 42
50.0
 43
0.0
 44
0.0
 50
0.0
 51
0.0
 71
     0
 72
   100
 73
     1
 74
     1
 75
     0
 76
     0
 77
     0
 78
     0
  0
ENDTAB
  0
TABLE
  2
LTYPE
  5
5
100
AcDbSymbolTable
 70
     5
  0
LTYPE
  5
15
100
AcDbSymbolTableRecord
100
AcDbLinetypeTableRecord
  2
BYBLOCK
 70
     0
  3

 72
    65
 73
     0
 40
0.0
  0
LTYPE
  5
16
100
AcDbSymbolTableRecord
100
AcDbLinetypeTableRecord
  2
BYLAYER
 70
     0
  3

 72
    65
 73
     0
 40
0.0
  0
LTYPE
  5
17
100
AcDbSymbolTableRecord
100
AcDbLinetypeTableRecord
  2
CONTINUOUS
 70
    64
  3
Solid line
 72
    65
 73
     0
 40
0.0
  0
LTYPE
  5
18
100
AcDbSymbolTableRecord
100
AcDbLinetypeTableRecord
  2
DASHED
 70
    64
  3
__ __ __ __ __ __ __ __ __ __ __ __ __ __ __ __
 72
    65
 73
     2
 40
0.75
 49
0.5
 74
     0
 49
-0.25
 74
     0
  0
LTYPE
  5
19
100
AcDbSymbolTableRecord
100
AcDbLinetypeTableRecord
  2
DASHDOT
 70
    64
  3
__ . __ . __ . __ . __ . __ . __ . __ . __ . __
 72
    65
 73
     4
 40
1.0
 49
0.5
 74
     0
 49
-0.25
 74
     0
 49
0.0
 74
     0
 49
-0.25
 74
     0
  0
LTYPE
  5
1A
100
AcDbSymbolTableRecord
100
AcDbLinetypeTableRecord
  2
DIVIDE
 70
    64
  3
____ . . ____ . . ____ . . ____ . . ____ . . __
 72
    65
 73
     6
 40
1.25
 49
0.5
 74
     0
 49
-0.25
 74
     0
 49
0.0
 74
     0
 49
-0.25
 74
     0
 49
0.0
 74
     0
 49
-0.25
 74
     0
  0
LTYPE
  5
1B
100
AcDbSymbolTableRecord
100
AcDbLinetypeTableRecord
  2
DOT
 70
    64
  3
. . . . . . . . . . . . . . . . . . . . . . . .
 72
    65
 73
     2
 40
0.25
 49
0.0
 74
     0
 49
-0.25
 74
     0
  0
ENDTAB
  0
TABLE
  2
LAYER
  5
2
100
AcDbSymbolTable
 70
   102
  0
LAYER
  5
F
100
AcDbSymbolTableRecord
100
AcDbLayerTableRecord
  2
0
 70
     0
 62
     7
  6
CONTINUOUS
  0
LAYER
  5
1C
100
AcDbSymbolTableRecord
100
AcDbLayerTableRecord
  2
DEFPOINTS
 70
     0
 62
     7
  6
CONTINUOUS
  0
LAYER
  5
1D
100
AcDbSymbolTableRecord
100
AcDbLayerTableRecord
  2
M0
 70
     0
 62
     3
  6
CONTINUOUS
  0
LAYER
  5
1E
100
AcDbSymbolTableRecord
100
AcDbLayerTableRecord
  2
M1
 70
     0
 62
     3
  6
CONTINUOUS
  0
LAYER
  5
1F
100
AcDbSymbolTableRecord
100
AcDbLayerTableRecord
  2
DD0
 70
     0
 62
     4
  6
CONTINUOUS
  0
LAYER
  5
20
100
AcDbSymbolTableRecord
100
AcDbLayerTableRecord
  2
DN0
 70
     0
 62
     2
  6
CONTINUOUS
  0
ENDTAB
  0
TABLE
  2
STYLE
  5
3
100
AcDbSymbolTable
 70
     2
  0
STYLE
  5
10
100
AcDbSymbolTableRecord
100
AcDbTextStyleTableRecord
  2
STANDARD
 70
     0
 40
0.0
 41
1.0
 50
0.0
 71
     0
 42
0.2
  3
txt
  4
BIGFONT
  0
ENDTAB
  0
TABLE
  2
VIEW
  5
6
100
AcDbSymbolTable
 70
     0
  0
ENDTAB
  0
TABLE
  2
UCS
  5
7
100
AcDbSymbolTable
 70
     0
  0
ENDTAB
  0
TABLE
  2
APPID
  5
9
100
AcDbSymbolTable
 70
     1
  0
APPID
  5
11
100
AcDbSymbolTableRecord
100
AcDbRegAppTableRecord
  2
ACAD
 70
     0
  0
ENDTAB
  0
TABLE
  2
DIMSTYLE
  5
A
100
AcDbSymbolTable
 70
     2
  0
DIMSTYLE
105
27
100
AcDbSymbolTableRecord
100
AcDbDimStyleTableRecord
  2
STANDARD
 70
     0
  3

  4

  5

  6
_OPEN
  7
_OPEN
 40
1.0
 41
7.5
 42
1.0
 43
8.0
 44
1.0
 45
0.0
 46
0.0
 47
0.0
 48
0.0
140
7.875
141
0.09
142
0.0
143
0.03937
144
1.0
145
0.0
146
1.0
147
0.6
 71
     0
 72
     0
 73
     1
 74
     1
 75
     0
 76
     0
 77
     3
 78
     8
170
     0
171
     2
172
     0
173
     1
174
     0
175
     0
176
     0
177
     0
178
     0
270
     2
271
     2
272
     4
273
     2
274
     2
340
10
275
     0
280
     0
281
     0
282
     0
283
     1
284
     0
285
     0
286
     0
287
     3
288
     0
  0
DIMSTYLE
105
28
100
AcDbSymbolTableRecord
100
AcDbDimStyleTableRecord
  2
LEADSTYL
 70
     0
  3

  4

  5

  6
_OPEN
  7
_OPEN
 40
1.0
 41
7.5
 42
0.0625
 43
0.38
 44
0.18
 45
0.0
 46
0.0
 47
0.0
 48
0.0
140
7.875
141
0.09
142
0.0
143
25.4
144
1.0
145
0.0
146
1.0
147
0.6
 71
     0
 72
     0
 73
     1
 74
     1
 75
     0
 76
     0
 77
     0
 78
     0
170
     0
171
     2
172
     0
173
     1
174
     0
175
     0
176
     0
177
     0
178
     0
270
     2
271
     4
272
     4
273
     2
274
     2
340
10
275
     0
280
     0
281
     0
282
     0
283
     1
284
     0
285
     0
286
     0
287
     3
288
     0
  0
ENDTAB
  0
TABLE
  2
BLOCK_RECORD
  5
1
100
AcDbSymbolTable
 70
    16
  0
BLOCK_RECORD
  5
21
100
AcDbSymbolTableRecord
100
AcDbBlockTableRecord
  2
*MODEL_SPACE
  0
BLOCK_RECORD
  5
24
100
AcDbSymbolTableRecord
100
AcDbBlockTableRecord
  2
*PAPER_SPACE
  0
BLOCK_RECORD
  5
29
100
AcDbSymbolTableRecord
100
AcDbBlockTableRecord
  2
_NONE
  0
BLOCK_RECORD
  5
2D
100
AcDbSymbolTableRecord
100
AcDbBlockTableRecord
  2
_OPEN
  0
BLOCK_RECORD
  5
33
100
AcDbSymbolTableRecord
100
AcDbBlockTableRecord
  2
_CLOSED
  0
BLOCK_RECORD
  5
3A
100
AcDbSymbolTableRecord
100
AcDbBlockTableRecord
  2
_ORIGIN
  0
BLOCK_RECORD
  5
3F
100
AcDbSymbolTableRecord
100
AcDbBlockTableRecord
  2
_DOT
  0
BLOCK_RECORD
  5
47
100
AcDbSymbolTableRecord
100
AcDbBlockTableRecord
  2
_OBLIQUE
  0
BLOCK_RECORD
  5
4B
100
AcDbSymbolTableRecord
100
AcDbBlockTableRecord
  2
DIMS0
  0
BLOCK_RECORD
  5
57
100
AcDbSymbolTableRecord
100
AcDbBlockTableRecord
  2
DIMS1
  0
BLOCK_RECORD
  5
63
100
AcDbSymbolTableRecord
100
AcDbBlockTableRecord
  2
DIMS2
  0
BLOCK_RECORD
  5
6F
100
AcDbSymbolTableRecord
100
AcDbBlockTableRecord
  2
DIMS3
  0
BLOCK_RECORD
  5
7B
100
AcDbSymbolTableRecord
100
AcDbBlockTableRecord
  2
DIMS4
  0
BLOCK_RECORD
  5
87
100
AcDbSymbolTableRecord
100
AcDbBlockTableRecord
  2
DIMS5
  0
BLOCK_RECORD
  5
93
100
AcDbSymbolTableRecord
100
AcDbBlockTableRecord
  2
DIMS6
  0
BLOCK_RECORD
  5
9F
100
AcDbSymbolTableRecord
100
AcDbBlockTableRecord
  2
DIMS7
  0
BLOCK_RECORD
  5
A8
100
AcDbSymbolTableRecord
100
AcDbBlockTableRecord
  2
DIMS8
  0
BLOCK_RECORD
  5
B4
100
AcDbSymbolTableRecord
100
AcDbBlockTableRecord
  2
DIMS9
  0
ENDTAB
  0
ENDSEC
  0
SECTION
  2
BLOCKS
  0
BLOCK
  5
22
100
AcDbEntity
  8
0
100
AcDbBlockBegin
  2
*MODEL_SPACE
 70
     0
 10
0.0
 20
0.0
 30
0.0
  3
*MODEL_SPACE
  1

  0
ENDBLK
  5
23
100
AcDbEntity
  8
0
100
AcDbBlockEnd
  0
BLOCK
  5
25
100
AcDbEntity
 67
     1
  8
0
100
AcDbBlockBegin
  2
*PAPER_SPACE
 70
     0
 10
0.0
 20
0.0
 30
0.0
  3
*PAPER_SPACE
  1

  0
ENDBLK
  5
26
100
AcDbEntity
 67
     1
  8
0
100
AcDbBlockEnd
  0
BLOCK
  5
2A
100
AcDbEntity
  8
0
100
AcDbBlockBegin
  2
_NONE
 70
     0
 10
0.0
 20
0.0
  0
CIRCLE
  5
2B
100
AcDbEntity
  8
0
 62
     0
100
AcDbCircle
 10
0.0
 20
0.0
 40
0.25
  0
ENDBLK
  5
2C
100
AcDbEntity
  8
0
100
AcDbBlockEnd
  0
BLOCK
  5
2E
100
AcDbEntity
  8
0
100
AcDbBlockBegin
  2
_OPEN
 70
     0
 10
0.0
 20
0.0
  0
LINE
  5
2F
100
AcDbEntity
  8
0
 62
     0
100
AcDbLine
 10
-0.965926
 20
0.258819
 11
0.0
 21
0.0
  0
LINE
  5
30
100
AcDbEntity
  8
0
 62
     0
100
AcDbLine
 10
0.0
 20
0.0
 11
-0.965926
 21
-0.258819
  0
LINE
  5
31
100
AcDbEntity
  8
0
 62
     0
100
AcDbLine
 10
0.0
 20
0.0
 11
-1.0
 21
0.0
  0
ENDBLK
  5
32
100
AcDbEntity
  8
0
100
AcDbBlockEnd
  0
BLOCK
  5
34
100
AcDbEntity
  8
0
100
AcDbBlockBegin
  2
_CLOSED
 70
     0
 10
0.0
 20
0.0
  0
LINE
  5
35
100
AcDbEntity
  8
0
 62
     0
100
AcDbLine
 10
-0.965926
 20
0.258819
 11
0.0
 21
0.0
  0
LINE
  5
36
100
AcDbEntity
  8
0
 62
     0
100
AcDbLine
 10
0.0
 20
0.0
 11
-0.965926
 21
-0.258819
  0
LINE
  5
37
100
AcDbEntity
  8
0
 62
     0
100
AcDbLine
 10
-0.965926
 20
0.258819
 11
-0.965926
 21
-0.258819
  0
LINE
  5
38
100
AcDbEntity
  8
0
 62
     0
100
AcDbLine
 10
0.0
 20
0.0
 11
-1.0
 21
0.0
  0
ENDBLK
  5
39
100
AcDbEntity
  8
0
100
AcDbBlockEnd
  0
BLOCK
  5
3B
100
AcDbEntity
  8
0
100
AcDbBlockBegin
  2
_ORIGIN
 70
     0
 10
0.0
 20
0.0
  0
CIRCLE
  5
3C
100
AcDbEntity
  8
0
 62
     0
100
AcDbCircle
 10
0.0
 20
0.0
 40
0.5
  0
LINE
  5
3D
100
AcDbEntity
  8
0
 62
     0
100
AcDbLine
 10
0.0
 20
0.0
 11
-1.0
 21
0.0
  0
ENDBLK
  5
3E
100
AcDbEntity
  8
0
100
AcDbBlockEnd
  0
BLOCK
  5
40
100
AcDbEntity
  8
0
100
AcDbBlockBegin
  2
_DOT
 70
     0
 10
0.0
 20
0.0
  0
POLYLINE
  5
41
100
AcDbEntity
  8
0
 62
     0
100
AcDb2dPolyline
 66
     1
 70
     1
 40
0.5
 41
0.5
  0
VERTEX
  5
42
100
AcDbEntity
  8
0
 62
     0
100
AcDbVertex
100
AcDb2dVertex
 10
-0.25
 20
0.0
 42
1.0
  0
VERTEX
  5
43
100
AcDbEntity
  8
0
 62
     0
100
AcDbVertex
100
AcDb2dVertex
 10
0.25
 20
0.0
 42
1.0
  0
SEQEND
  5
44
100
AcDbEntity
  8
0
 62
     0
  0
LINE
  5
45
100
AcDbEntity
  8
0
 62
     0
100
AcDbLine
 10
-0.5
 20
0.0
 11
-1.0
 21
0.0
  0
ENDBLK
  5
46
100
AcDbEntity
  8
0
100
AcDbBlockEnd
  0
BLOCK
  5
48
100
AcDbEntity
  8
0
100
AcDbBlockBegin
  2
_OBLIQUE
 70
     0
 10
0.0
 20
0.0
  0
LINE
  5
49
100
AcDbEntity
  8
0
 62
     0
100
AcDbLine
 10
-0.353553
 20
-0.353553
 11
0.353553
 21
0.353553
  0
ENDBLK
  5
4A
100
AcDbEntity
  8
0
100
AcDbBlockEnd
  0
BLOCK
  5
4C
100
AcDbEntity
  8
DD0
100
AcDbBlockBegin
  2
DIMS0
 70
     0
 10
0.0
 20
0.0
  0
LINE
  5
4D
100
AcDbEntity
  8
DD0
100
AcDbLine
 10
217.176701
 20
602.568083
 11
243.839203
 21
602.568083
  0
LINE
  5
4E
100
AcDbEntity
  8
DD0
100
AcDbLine
 10
218.176705
 20
418.368257
 11
243.839203
 21
418.368257
  0
LINE
  5
4F
100
AcDbEntity
  8
DD0
100
AcDbLine
 10
243.280346
 20
595.32364
 11
241.339203
 21
602.568083
  0
LINE
  5
50
100
AcDbEntity
  8
DD0
100
AcDbLine
 10
241.339203
 20
602.568083
 11
239.39806
 21
595.32364
  0
LINE
  5
51
100
AcDbEntity
  8
DD0
100
AcDbLine
 10
239.39806
 20
425.612701
 11
241.339203
 21
418.368257
  0
LINE
  5
52
100
AcDbEntity
  8
DD0
100
AcDbLine
 10
241.339203
 20
418.368257
 11
243.280346
 21
425.612701
  0
LINE
  5
53
100
AcDbEntity
  8
DD0
100
AcDbLine
 10
241.339203
 20
602.568083
 11
241.339203
 21
418.368257
  0
TEXT
  5
54
100
AcDbEntity
  8
DD0
100
AcDbText
 10
239.589211
 20
501.543155
 40
7.875
  1
１８４
 50
90.000003
 41
0.666667
  7
STANDARD
100
AcDbText
  0
ENDBLK
  5
55
100
AcDbEntity
  8
DD0
100
AcDbBlockEnd
  0
BLOCK
  5
58
100
AcDbEntity
  8
DD0
100
AcDbBlockBegin
  2
DIMS1
 70
     0
 10
0.0
 20
0.0
  0
LINE
  5
59
100
AcDbEntity
  8
DD0
 60
     1
100
AcDbLine
 10
218.176705
 20
418.368257
 11
243.839203
 21
418.368257
  0
LINE
  5
5A
100
AcDbEntity
  8
DD0
100
AcDbLine
 10
128.878096
 20
410.871957
 11
243.839203
 21
410.871957
  0
LINE
  5
5B
100
AcDbEntity
  8
DD0
100
AcDbLine
 10
239.39806
 20
425.612701
 11
241.339203
 21
418.368257
  0
LINE
  5
5C
100
AcDbEntity
  8
DD0
100
AcDbLine
 10
241.339203
 20
418.368257
 11
243.280346
 21
425.612701
  0
LINE
  5
5D
100
AcDbEntity
  8
DD0
100
AcDbLine
 10
243.280346
 20
403.627514
 11
241.339203
 21
410.871957
  0
LINE
  5
5E
100
AcDbEntity
  8
DD0
100
AcDbLine
 10
241.339203
 20
410.871957
 11
239.39806
 21
403.627514
  0
LINE
  5
5F
100
AcDbEntity
  8
DD0
100
AcDbLine
 10
241.339203
 20
426.618257
 11
241.339203
 21
393.821958
  0
TEXT
  5
60
100
AcDbEntity
  8
DD0
100
AcDbText
 10
239.589211
 20
395.946958
 40
7.875
  1
８
 50
90.000003
 41
0.666667
  7
STANDARD
100
AcDbText
  0
ENDBLK
  5
61
100
AcDbEntity
  8
DD0
100
AcDbBlockEnd
  0
BLOCK
  5
64
100
AcDbEntity
  8
DD0
100
AcDbBlockBegin
  2
DIMS2
 70
     0
 10
0.0
 20
0.0
  0
LINE
  5
65
100
AcDbEntity
  8
DD0
100
AcDbLine
 10
82.176703
 20
585.968238
 11
82.176703
 21
635.08647
  0
LINE
  5
66
100
AcDbEntity
  8
DD0
100
AcDbLine
 10
215.676705
 20
588.068076
 11
215.676705
 21
635.08647
  0
LINE
  5
67
100
AcDbEntity
  8
DD0
100
AcDbLine
 10
89.421147
 20
634.527613
 11
82.176703
 21
632.58647
  0
LINE
  5
68
100
AcDbEntity
  8
DD0
100
AcDbLine
 10
82.176703
 20
632.58647
 11
89.421147
 21
630.645327
  0
LINE
  5
69
100
AcDbEntity
  8
DD0
100
AcDbLine
 10
208.432261
 20
630.645327
 11
215.676705
 21
632.58647
  0
LINE
  5
6A
100
AcDbEntity
  8
DD0
100
AcDbLine
 10
215.676705
 20
632.58647
 11
208.432261
 21
634.527613
  0
LINE
  5
6B
100
AcDbEntity
  8
DD0
100
AcDbLine
 10
82.176703
 20
632.58647
 11
215.676705
 21
632.58647
  0
TEXT
  5
6C
100
AcDbEntity
  8
DD0
100
AcDbText
 10
140.001708
 20
634.336462
 40
7.875
  1
１３４
 41
0.666667
  7
STANDARD
100
AcDbText
  0
ENDBLK
  5
6D
100
AcDbEntity
  8
DD0
100
AcDbBlockEnd
  0
BLOCK
  5
70
100
AcDbEntity
  8
DD0
100
AcDbBlockBegin
  2
DIMS3
 70
     0
 10
0.0
 20
0.0
  0
LINE
  5
71
100
AcDbEntity
  8
DD0
100
AcDbLine
 10
218.176705
 20
333.755946
 11
243.839203
 21
333.755946
  0
LINE
  5
72
100
AcDbEntity
  8
DD0
100
AcDbLine
 10
206.176698
 20
298.756099
 11
243.839203
 21
298.756099
  0
LINE
  5
73
100
AcDbEntity
  8
DD0
100
AcDbLine
 10
243.280346
 20
326.511502
 11
241.339203
 21
333.755946
  0
LINE
  5
74
100
AcDbEntity
  8
DD0
100
AcDbLine
 10
241.339203
 20
333.755946
 11
239.39806
 21
326.511502
  0
LINE
  5
75
100
AcDbEntity
  8
DD0
100
AcDbLine
 10
239.39806
 20
306.000543
 11
241.339203
 21
298.756099
  0
LINE
  5
76
100
AcDbEntity
  8
DD0
100
AcDbLine
 10
241.339203
 20
298.756099
 11
243.280346
 21
306.000543
  0
LINE
  5
77
100
AcDbEntity
  8
DD0
100
AcDbLine
 10
241.339203
 20
333.755946
 11
241.339203
 21
298.756099
  0
TEXT
  5
78
100
AcDbEntity
  8
DD0
100
AcDbText
 10
239.589211
 20
310.481032
 40
7.875
  1
３５
 50
90.000003
 41
0.666667
  7
STANDARD
100
AcDbText
  0
ENDBLK
  5
79
100
AcDbEntity
  8
DD0
100
AcDbBlockEnd
  0
BLOCK
  5
7C
100
AcDbEntity
  8
DD0
100
AcDbBlockBegin
  2
DIMS4
 70
     0
 10
0.0
 20
0.0
  0
LINE
  5
7D
100
AcDbEntity
  8
DD0
 60
     1
100
AcDbLine
 10
206.176698
 20
298.756099
 11
243.839203
 21
298.756099
  0
LINE
  5
7E
100
AcDbEntity
  8
DD0
100
AcDbLine
 10
106.176699
 20
168.756082
 11
243.839203
 21
168.756082
  0
LINE
  5
7F
100
AcDbEntity
  8
DD0
100
AcDbLine
 10
243.280346
 20
291.511655
 11
241.339203
 21
298.756099
  0
LINE
  5
80
100
AcDbEntity
  8
DD0
100
AcDbLine
 10
241.339203
 20
298.756099
 11
239.39806
 21
291.511655
  0
LINE
  5
81
100
AcDbEntity
  8
DD0
100
AcDbLine
 10
239.39806
 20
176.000526
 11
241.339203
 21
168.756082
  0
LINE
  5
82
100
AcDbEntity
  8
DD0
100
AcDbLine
 10
241.339203
 20
168.756082
 11
243.280346
 21
176.000526
  0
LINE
  5
83
100
AcDbEntity
  8
DD0
100
AcDbLine
 10
241.339203
 20
298.756099
 11
241.339203
 21
168.756082
  0
TEXT
  5
84
100
AcDbEntity
  8
DD0
100
AcDbText
 10
239.589211
 20
224.831104
 40
7.875
  1
１３０
 50
90.000003
 41
0.666667
  7
STANDARD
100
AcDbText
  0
ENDBLK
  5
85
100
AcDbEntity
  8
DD0
100
AcDbBlockEnd
  0
BLOCK
  5
88
100
AcDbEntity
  8
DD0
100
AcDbBlockBegin
  2
DIMS5
 70
     0
 10
0.0
 20
0.0
  0
LINE
  5
89
100
AcDbEntity
  8
DD0
100
AcDbLine
 10
215.676705
 20
336.255946
 11
215.676705
 21
357.068972
  0
LINE
  5
8A
100
AcDbEntity
  8
DD0
100
AcDbLine
 10
191.676709
 20
313.256087
 11
191.676709
 21
357.068972
  0
LINE
  5
8B
100
AcDbEntity
  8
DD0
100
AcDbLine
 10
222.921149
 20
356.510115
 11
215.676705
 21
354.568972
  0
LINE
  5
8C
100
AcDbEntity
  8
DD0
100
AcDbLine
 10
215.676705
 20
354.568972
 11
222.921149
 21
352.627829
  0
LINE
  5
8D
100
AcDbEntity
  8
DD0
100
AcDbLine
 10
184.432266
 20
352.627829
 11
191.676709
 21
354.568972
  0
LINE
  5
8E
100
AcDbEntity
  8
DD0
100
AcDbLine
 10
191.676709
 20
354.568972
 11
184.432266
 21
356.510115
  0
LINE
  5
8F
100
AcDbEntity
  8
DD0
100
AcDbLine
 10
239.026705
 20
354.568972
 11
183.426709
 21
354.568972
  0
TEXT
  5
90
100
AcDbEntity
  8
DD0
100
AcDbText
 10
224.451713
 20
356.318964
 40
7.875
  1
２４
 41
0.666667
  7
STANDARD
100
AcDbText
  0
ENDBLK
  5
91
100
AcDbEntity
  8
DD0
100
AcDbBlockEnd
  0
BLOCK
  5
94
100
AcDbEntity
  8
DD0
100
AcDbBlockBegin
  2
DIMS6
 70
     0
 10
0.0
 20
0.0
  0
LINE
  5
95
100
AcDbEntity
  8
DD0
 60
     1
100
AcDbLine
 10
191.676709
 20
313.256087
 11
191.676709
 21
357.068972
  0
LINE
  5
96
100
AcDbEntity
  8
DD0
100
AcDbLine
 10
91.676701
 20
183.256089
 11
91.676701
 21
357.068972
  0
LINE
  5
97
100
AcDbEntity
  8
DD0
100
AcDbLine
 10
184.432266
 20
352.627829
 11
191.676709
 21
354.568972
  0
LINE
  5
98
100
AcDbEntity
  8
DD0
100
AcDbLine
 10
191.676709
 20
354.568972
 11
184.432266
 21
356.510115
  0
LINE
  5
99
100
AcDbEntity
  8
DD0
100
AcDbLine
 10
98.921145
 20
356.510115
 11
91.676701
 21
354.568972
  0
LINE
  5
9A
100
AcDbEntity
  8
DD0
100
AcDbLine
 10
91.676701
 20
354.568972
 11
98.921145
 21
352.627829
  0
LINE
  5
9B
100
AcDbEntity
  8
DD0
100
AcDbLine
 10
191.676709
 20
354.568972
 11
91.676701
 21
354.568972
  0
TEXT
  5
9C
100
AcDbEntity
  8
DD0
100
AcDbText
 10
132.751714
 20
356.318964
 40
7.875
  1
１００
 41
0.666667
  7
STANDARD
100
AcDbText
  0
ENDBLK
  5
9D
100
AcDbEntity
  8
DD0
100
AcDbBlockEnd
  0
BLOCK
  5
A0
100
AcDbEntity
  8
DD0
100
AcDbBlockBegin
  2
DIMS7
 70
     0
 10
0.0
 20
0.0
  0
TEXT
  5
A1
100
AcDbEntity
  8
DD0
100
AcDbText
 10
78.913414
 20
120.580681
 40
7.875
  1
２－Ｍ６ねじ穴
 41
0.666667
  7
STANDARD
100
AcDbText
  0
LINE
  5
A2
100
AcDbEntity
  8
DD0
100
AcDbLine
 10
87.222813
 20
158.223972
 11
87.98786
 21
165.68485
  0
LINE
  5
A3
100
AcDbEntity
  8
DD0
100
AcDbLine
 10
87.98786
 20
165.68485
 11
83.594871
 21
159.606064
  0
LINE
  5
A4
100
AcDbEntity
  8
DD0
100
AcDbLine
 10
87.98786
 20
165.68485
 11
70.138415
 21
118.830679
  0
LINE
  5
A5
100
AcDbEntity
  8
DD0
100
AcDbLine
 10
70.138415
 20
118.830679
 11
130.738419
 21
118.830679
  0
ENDBLK
  5
A6
100
AcDbEntity
  8
DD0
100
AcDbBlockEnd
  0
BLOCK
  5
A9
100
AcDbEntity
  8
DD0
100
AcDbBlockBegin
  2
DIMS8
 70
     0
 10
0.0
 20
0.0
  0
LINE
  5
AA
100
AcDbEntity
  8
DD0
100
AcDbLine
 10
465.525544
 20
430.468248
 11
465.525544
 21
378.139948
  0
LINE
  5
AB
100
AcDbEntity
  8
DD0
100
AcDbLine
 10
412.325624
 20
419.96776
 11
412.325624
 21
378.139948
  0
LINE
  5
AC
100
AcDbEntity
  8
DD0
100
AcDbLine
 10
458.2811
 20
378.698805
 11
465.525544
 21
380.639948
  0
LINE
  5
AD
100
AcDbEntity
  8
DD0
100
AcDbLine
 10
465.525544
 20
380.639948
 11
458.2811
 21
382.581091
  0
LINE
  5
AE
100
AcDbEntity
  8
DD0
100
AcDbLine
 10
419.570068
 20
382.581091
 11
412.325624
 21
380.639948
  0
LINE
  5
AF
100
AcDbEntity
  8
DD0
100
AcDbLine
 10
412.325624
 20
380.639948
 11
419.570068
 21
378.698805
  0
LINE
  5
B0
100
AcDbEntity
  8
DD0
100
AcDbLine
 10
465.525544
 20
380.639948
 11
412.325624
 21
380.639948
  0
TEXT
  5
B1
100
AcDbEntity
  8
DD0
100
AcDbText
 10
415.944345
 20
382.139963
 40
7.875
  1
５３（取付）
 41
0.833333
  7
STANDARD
100
AcDbText
  0
ENDBLK
  5
B2
100
AcDbEntity
  8
DD0
100
AcDbBlockEnd
  0
BLOCK
  5
B5
100
AcDbEntity
  8
DD0
100
AcDbBlockBegin
  2
DIMS9
 70
     0
 10
0.0
 20
0.0
  0
LINE
  5
B6
100
AcDbEntity
  8
DD0
100
AcDbLine
 10
264.325348
 20
553.968231
 11
264.325348
 21
635.08647
  0
LINE
  5
B7
100
AcDbEntity
  8
DD0
100
AcDbLine
 10
465.525582
 20
584.468222
 11
465.525582
 21
635.08647
  0
LINE
  5
B8
100
AcDbEntity
  8
DD0
100
AcDbLine
 10
271.569791
 20
634.527613
 11
264.325348
 21
632.58647
  0
LINE
  5
B9
100
AcDbEntity
  8
DD0
100
AcDbLine
 10
264.325348
 20
632.58647
 11
271.569791
 21
630.645327
  0
LINE
  5
BA
100
AcDbEntity
  8
DD0
100
AcDbLine
 10
458.281138
 20
630.645327
 11
465.525582
 21
632.58647
  0
LINE
  5
BB
100
AcDbEntity
  8
DD0
100
AcDbLine
 10
465.525582
 20
632.58647
 11
458.281138
 21
634.527613
  0
LINE
  5
BC
100
AcDbEntity
  8
DD0
100
AcDbLine
 10
264.325348
 20
632.58647
 11
465.525582
 21
632.58647
  0
TEXT
  5
BD
100
AcDbEntity
  8
DD0
100
AcDbText
 10
353.756693
 20
634.086485
 40
7.875
  1
２０１
 41
0.833333
  7
STANDARD
100
AcDbText
  0
ENDBLK
  5
BE
100
AcDbEntity
  8
DD0
100
AcDbBlockEnd
  0
ENDSEC
  0
SECTION
  2
ENTITIES
  0
INSERT
  5
56
100
AcDbEntity
  8
DD0
100
AcDbBlockReference
  2
DIMS0
 10
0.0
 20
0.0
  0
INSERT
  5
62
100
AcDbEntity
  8
DD0
100
AcDbBlockReference
  2
DIMS1
 10
0.0
 20
0.0
  0
INSERT
  5
6E
100
AcDbEntity
  8
DD0
100
AcDbBlockReference
  2
DIMS2
 10
0.0
 20
0.0
  0
INSERT
  5
7A
100
AcDbEntity
  8
DD0
100
AcDbBlockReference
  2
DIMS3
 10
0.0
 20
0.0
  0
INSERT
  5
86
100
AcDbEntity
  8
DD0
100
AcDbBlockReference
  2
DIMS4
 10
0.0
 20
0.0
  0
INSERT
  5
92
100
AcDbEntity
  8
DD0
100
AcDbBlockReference
  2
DIMS5
 10
0.0
 20
0.0
  0
INSERT
  5
9E
100
AcDbEntity
  8
DD0
100
AcDbBlockReference
  2
DIMS6
 10
0.0
 20
0.0
  0
INSERT
  5
A7
100
AcDbEntity
  8
DD0
100
AcDbBlockReference
  2
DIMS7
 10
0.0
 20
0.0
  0
INSERT
  5
B3
100
AcDbEntity
  8
DD0
100
AcDbBlockReference
  2
DIMS8
 10
0.0
 20
0.0
  0
INSERT
  5
BF
100
AcDbEntity
  8
DD0
100
AcDbBlockReference
  2
DIMS9
 10
0.0
 20
0.0
  0
LINE
  5
C0
100
AcDbEntity
  8
M0
 62
   234
100
AcDbLine
 10
461.925452
 20
585.56822
 11
461.925452
 21
602.56822
  0
LINE
  5
C1
100
AcDbEntity
  8
M0
 62
   234
100
AcDbLine
 10
461.925452
 20
602.56822
 11
417.925452
 21
602.56822
  0
LINE
  5
C2
100
AcDbEntity
  8
M0
 62
   234
100
AcDbLine
 10
417.925452
 20
602.56822
 11
417.925452
 21
585.56822
  0
LINE
  5
C3
100
AcDbEntity
  8
M0
 62
   234
100
AcDbLine
 10
417.925452
 20
585.56822
 11
461.925452
 21
585.56822
  0
LINE
  5
C4
100
AcDbEntity
  8
M0
 62
   234
100
AcDbLine
 10
456.268598
 20
585.56822
 11
461.925452
 21
591.225075
  0
LINE
  5
C5
100
AcDbEntity
  8
M0
 62
   234
100
AcDbLine
 10
450.611743
 20
585.56822
 11
461.925452
 21
596.881929
  0
LINE
  5
C6
100
AcDbEntity
  8
M0
 62
   234
100
AcDbLine
 10
444.954889
 20
585.56822
 11
461.925452
 21
602.538783
  0
LINE
  5
C7
100
AcDbEntity
  8
M0
 62
   234
100
AcDbLine
 10
439.298035
 20
585.56822
 11
456.298035
 21
602.56822
  0
LINE
  5
C8
100
AcDbEntity
  8
M0
 62
   234
100
AcDbLine
 10
433.641181
 20
585.56822
 11
450.641181
 21
602.56822
  0
LINE
  5
C9
100
AcDbEntity
  8
M0
 62
   234
100
AcDbLine
 10
427.984326
 20
585.56822
 11
444.984326
 21
602.56822
  0
LINE
  5
CA
100
AcDbEntity
  8
M0
 62
   234
100
AcDbLine
 10
422.327472
 20
585.56822
 11
439.327472
 21
602.56822
  0
LINE
  5
CB
100
AcDbEntity
  8
M0
 62
   234
100
AcDbLine
 10
417.925452
 20
586.823054
 11
433.670618
 21
602.56822
  0
LINE
  5
CC
100
AcDbEntity
  8
M0
 62
   234
100
AcDbLine
 10
417.925452
 20
592.479909
 11
428.013764
 21
602.56822
  0
LINE
  5
CD
100
AcDbEntity
  8
M0
 62
   234
100
AcDbLine
 10
417.925452
 20
598.136763
 11
422.356909
 21
602.56822
  0
LINE
  5
CE
100
AcDbEntity
  8
M0
 62
   234
100
AcDbLine
 10
214.676703
 20
585.568083
 11
214.676703
 21
602.568083
  0
LINE
  5
CF
100
AcDbEntity
  8
M0
 62
   234
100
AcDbLine
 10
214.676703
 20
602.568083
 11
168.676703
 21
602.568083
  0
LINE
  5
D0
100
AcDbEntity
  8
M0
 62
   234
100
AcDbLine
 10
168.676703
 20
602.568083
 11
168.676703
 21
601.867806
  0
LINE
  5
D1
100
AcDbEntity
  8
M0
 62
   234
100
AcDbLine
 10
185.676505
 20
585.568083
 11
214.676703
 21
585.568083
  0
LINE
  5
D2
100
AcDbEntity
  8
M0
 62
   234
100
AcDbLine
 10
209.019849
 20
585.568083
 11
214.676703
 21
591.224937
  0
LINE
  5
D3
100
AcDbEntity
  8
M0
 62
   234
100
AcDbLine
 10
203.362994
 20
585.568083
 11
214.676703
 21
596.881791
  0
LINE
  5
D4
100
AcDbEntity
  8
M0
 62
   234
100
AcDbLine
 10
197.70614
 20
585.568083
 11
214.676703
 21
602.538646
  0
LINE
  5
D5
100
AcDbEntity
  8
M0
 62
   234
100
AcDbLine
 10
192.049286
 20
585.568083
 11
209.049286
 21
602.568083
  0
LINE
  5
D6
100
AcDbEntity
  8
M0
 62
   234
100
AcDbLine
 10
186.392432
 20
585.568083
 11
203.392432
 21
602.568083
  0
LINE
  5
D7
100
AcDbEntity
  8
M0
 62
   234
100
AcDbLine
 10
180.735577
 20
585.568083
 11
197.735577
 21
602.568083
  0
LINE
  5
D8
100
AcDbEntity
  8
M0
 62
   234
100
AcDbLine
 10
175.078723
 20
585.568083
 11
192.078723
 21
602.568083
  0
LINE
  5
D9
100
AcDbEntity
  8
M0
 62
   234
100
AcDbLine
 10
172.176505
 20
588.322719
 11
186.421869
 21
602.568083
  0
LINE
  5
DA
100
AcDbEntity
  8
M0
 62
   234
100
AcDbLine
 10
172.176505
 20
593.979573
 11
180.765015
 21
602.568083
  0
LINE
  5
DB
100
AcDbEntity
  8
M0
 62
   234
100
AcDbLine
 10
172.176505
 20
599.636427
 11
175.10816
 21
602.568083
  0
LINE
  5
DC
100
AcDbEntity
  8
M0
 62
   234
100
AcDbLine
 10
168.751031
 20
601.867808
 11
169.451306
 21
602.568083
  0
LINE
  5
DD
100
AcDbEntity
  8
M0
 62
   234
100
AcDbLine
 10
91.676733
 20
585.568083
 11
91.676733
 21
602.568083
  0
LINE
  5
DE
100
AcDbEntity
  8
M0
 62
   234
100
AcDbLine
 10
91.676733
 20
602.568083
 11
137.676733
 21
602.568083
  0
LINE
  5
DF
100
AcDbEntity
  8
M0
 62
   234
100
AcDbLine
 10
137.676733
 20
602.568083
 11
137.676733
 21
601.867266
  0
LINE
  5
E0
100
AcDbEntity
  8
M0
 62
   234
100
AcDbLine
 10
113.676703
 20
585.568083
 11
91.676733
 21
585.568083
  0
LINE
  5
E1
100
AcDbEntity
  8
M0
 62
   234
100
AcDbLine
 10
131.019647
 20
600.867411
 11
131.676703
 21
601.524467
  0
LINE
  5
E2
100
AcDbEntity
  8
M0
 62
   234
100
AcDbLine
 10
132.019879
 20
601.867644
 11
132.720319
 21
602.568083
  0
LINE
  5
E3
100
AcDbEntity
  8
M0
 62
   234
100
AcDbLine
 10
110.063464
 20
585.568083
 11
112.176703
 21
587.681322
  0
LINE
  5
E4
100
AcDbEntity
  8
M0
 62
   234
100
AcDbLine
 10
125.362955
 20
600.867574
 11
127.063464
 21
602.568083
  0
LINE
  5
E5
100
AcDbEntity
  8
M0
 62
   234
100
AcDbLine
 10
104.40661
 20
585.568083
 11
112.176703
 21
593.338176
  0
LINE
  5
E6
100
AcDbEntity
  8
M0
 62
   234
100
AcDbLine
 10
120.706217
 20
601.867689
 11
121.40661
 21
602.568083
  0
LINE
  5
E7
100
AcDbEntity
  8
M0
 62
   234
100
AcDbLine
 10
98.749756
 20
585.568083
 11
112.176703
 21
598.99503
  0
LINE
  5
E8
100
AcDbEntity
  8
M0
 62
   234
100
AcDbLine
 10
115.049494
 20
601.867821
 11
115.749756
 21
602.568083
  0
LINE
  5
E9
100
AcDbEntity
  8
M0
 62
   234
100
AcDbLine
 10
93.092902
 20
585.568083
 11
110.092902
 21
602.568083
  0
LINE
  5
EA
100
AcDbEntity
  8
M0
 62
   234
100
AcDbLine
 10
91.676733
 20
589.808769
 11
104.436047
 21
602.568083
  0
LINE
  5
EB
100
AcDbEntity
  8
M0
 62
   234
100
AcDbLine
 10
91.676733
 20
595.465623
 11
98.779193
 21
602.568083
  0
LINE
  5
EC
100
AcDbEntity
  8
M0
 62
   234
100
AcDbLine
 10
91.676733
 20
601.122478
 11
93.122339
 21
602.568083
  0
LINE
  5
ED
100
AcDbEntity
  8
M0
100
AcDbLine
 10
407.02555
 20
602.26822
 11
385.02555
 21
602.26822
  0
LINE
  5
EE
100
AcDbEntity
  8
M0
100
AcDbLine
 10
381.02555
 20
585.56822
 11
411.02555
 21
585.56822
  0
LINE
  5
EF
100
AcDbEntity
  8
M0
100
AcDbLine
 10
411.02555
 20
585.56822
 11
411.02555
 21
598.26822
  0
LINE
  5
F0
100
AcDbEntity
  8
M0
100
AcDbLine
 10
381.02555
 20
598.26822
 11
381.02555
 21
585.56822
  0
ARC
  5
F1
100
AcDbEntity
  8
M0
100
AcDbCircle
 10
385.02555
 20
598.26822
 40
4.0
100
AcDbArc
 50
90.0
 51
180.0
  0
ARC
  5
F2
100
AcDbEntity
  8
M0
100
AcDbCircle
 10
407.02555
 20
598.26822
 40
4.0
100
AcDbArc
 50
0.0
 51
90.0
  0
LINE
  5
F3
100
AcDbEntity
  8
M0
  6
DASHDOT
100
AcDbLine
 10
142.176703
 20
434.968229
 11
142.176703
 21
568.968229
  0
LINE
  5
F4
100
AcDbEntity
  8
M0
  6
DASHDOT
100
AcDbLine
 10
142.176703
 20
434.968229
 11
142.176703
 21
568.968229
  0
LINE
  5
F5
100
AcDbEntity
  8
M0
100
AcDbLine
 10
120.476706
 20
443.968229
 11
129.176703
 21
443.968229
  0
LINE
  5
F6
100
AcDbEntity
  8
M0
100
AcDbLine
 10
189.676703
 20
458.467985
 11
189.676703
 21
545.468229
  0
LINE
  5
F7
100
AcDbEntity
  8
M0
100
AcDbLine
 10
163.8767
 20
559.967985
 11
155.176703
 21
559.967985
  0
LINE
  5
F8
100
AcDbEntity
  8
M0
100
AcDbLine
 10
94.676703
 20
545.468229
 11
94.676703
 21
458.468229
  0
LINE
  5
F9
100
AcDbEntity
  8
M0
100
AcDbLine
 10
160.676703
 20
557.467741
 11
158.676703
 21
557.467741
  0
LINE
  5
FA
100
AcDbEntity
  8
M0
100
AcDbLine
 10
123.676703
 20
446.468229
 11
125.676703
 21
446.468229
  0
LINE
  5
FB
100
AcDbEntity
  8
M0
100
AcDbLine
 10
96.676703
 20
547.468229
 11
118.976706
 21
547.468229
  0
LINE
  5
FC
100
AcDbEntity
  8
M0
100
AcDbLine
 10
96.676703
 20
456.468229
 11
118.976706
 21
456.468229
  0
ARC
  5
FD
100
AcDbEntity
  8
M0
100
AcDbCircle
 10
187.676703
 20
545.468229
 40
2.0
100
AcDbArc
 50
0.0
 51
90.0
  0
ARC
  5
FE
100
AcDbEntity
  8
M0
100
AcDbCircle
 10
96.676703
 20
545.468229
 40
2.0
100
AcDbArc
 50
89.999563
 51
180.0
  0
ARC
  5
FF
100
AcDbEntity
  8
M0
100
AcDbCircle
 10
96.676703
 20
458.468229
 40
2.0
100
AcDbArc
 50
179.999563
 51
270.0
  0
ARC
  5
100
100
AcDbEntity
  8
M0
100
AcDbCircle
 10
187.676703
 20
458.468229
 40
2.0
100
AcDbArc
 50
269.999563
 51
359.993006
  0
LINE
  5
101
100
AcDbEntity
  8
M0
100
AcDbLine
 10
164.3767
 20
559.467741
 11
164.3767
 21
548.468229
  0
LINE
  5
102
100
AcDbEntity
  8
M0
100
AcDbLine
 10
119.976706
 20
559.467497
 11
119.976706
 21
548.468229
  0
LINE
  5
103
100
AcDbEntity
  8
M0
100
AcDbLine
 10
119.976706
 20
455.468229
 11
119.976706
 21
444.468229
  0
LINE
  5
104
100
AcDbEntity
  8
M0
100
AcDbLine
 10
164.3767
 20
455.468229
 11
164.3767
 21
444.468229
  0
LINE
  5
105
100
AcDbEntity
  8
M0
100
AcDbLine
 10
149.676703
 20
455.468229
 11
149.676703
 21
450.468229
  0
LINE
  5
106
100
AcDbEntity
  8
M0
100
AcDbLine
 10
134.676703
 20
455.468229
 11
134.676703
 21
450.468229
  0
LINE
  5
107
100
AcDbEntity
  8
M0
100
AcDbLine
 10
149.676703
 20
553.467741
 11
149.676703
 21
548.468229
  0
LINE
  5
108
100
AcDbEntity
  8
M0
100
AcDbLine
 10
134.676703
 20
553.467497
 11
134.676703
 21
548.468229
  0
LINE
  5
109
100
AcDbEntity
  8
M0
100
AcDbLine
 10
153.676703
 20
446.468229
 11
154.176703
 21
446.468229
  0
LINE
  5
10A
100
AcDbEntity
  8
M0
100
AcDbLine
 10
130.676688
 20
557.467741
 11
130.17681
 21
557.467497
  0
ARC
  5
10B
100
AcDbEntity
  8
M0
100
AcDbCircle
 10
130.676703
 20
450.468229
 40
4.0
100
AcDbArc
 50
270.0
 51
360.0
  0
ARC
  5
10C
100
AcDbEntity
  8
M0
100
AcDbCircle
 10
153.676703
 20
450.468229
 40
4.0
100
AcDbArc
 50
179.999781
 51
270.0
  0
ARC
  5
10D
100
AcDbEntity
  8
M0
100
AcDbCircle
 10
130.676703
 20
553.467497
 40
4.0
100
AcDbArc
 50
0.0
 51
90.0
  0
ARC
  5
10E
100
AcDbEntity
  8
M0
100
AcDbCircle
 10
153.676703
 20
553.467741
 40
4.0
100
AcDbArc
 50
90.0
 51
180.0
  0
LINE
  5
10F
100
AcDbEntity
  8
M0
100
AcDbLine
 10
154.676703
 20
445.968229
 11
154.676703
 21
441.468229
  0
LINE
  5
110
100
AcDbEntity
  8
M0
100
AcDbLine
 10
129.676703
 20
445.968229
 11
129.676703
 21
441.468229
  0
LINE
  5
111
100
AcDbEntity
  8
M0
100
AcDbLine
 10
154.676703
 20
562.467741
 11
154.676703
 21
557.967497
  0
LINE
  5
112
100
AcDbEntity
  8
M0
100
AcDbLine
 10
129.676703
 20
562.467985
 11
129.676703
 21
557.967253
  0
LINE
  5
113
100
AcDbEntity
  8
M0
100
AcDbLine
 10
129.176703
 20
559.967741
 11
120.476706
 21
559.967741
  0
LINE
  5
114
100
AcDbEntity
  8
M0
100
AcDbLine
 10
155.176703
 20
443.968229
 11
163.8767
 21
443.968229
  0
LINE
  5
115
100
AcDbEntity
  8
M0
100
AcDbLine
 10
126.176703
 20
445.968229
 11
126.176703
 21
444.468229
  0
LINE
  5
116
100
AcDbEntity
  8
M0
100
AcDbLine
 10
158.176703
 20
445.968229
 11
158.176703
 21
444.468229
  0
LINE
  5
117
100
AcDbEntity
  8
M0
100
AcDbLine
 10
158.176703
 20
559.467741
 11
158.176703
 21
557.967497
  0
LINE
  5
118
100
AcDbEntity
  8
M0
100
AcDbLine
 10
126.176703
 20
559.467497
 11
126.176703
 21
557.967253
  0
LINE
  5
119
100
AcDbEntity
  8
M0
100
AcDbLine
 10
123.176703
 20
445.968229
 11
123.176703
 21
444.468229
  0
LINE
  5
11A
100
AcDbEntity
  8
M0
100
AcDbLine
 10
161.176703
 20
445.968229
 11
161.176703
 21
444.468229
  0
LINE
  5
11B
100
AcDbEntity
  8
M0
100
AcDbLine
 10
161.176703
 20
559.467741
 11
161.176703
 21
557.967497
  0
LINE
  5
11C
100
AcDbEntity
  8
M0
100
AcDbLine
 10
123.176703
 20
559.467497
 11
123.176703
 21
557.967253
  0
LINE
  5
11D
100
AcDbEntity
  8
M0
100
AcDbLine
 10
158.676703
 20
446.468229
 11
160.676703
 21
446.468229
  0
LINE
  5
11E
100
AcDbEntity
  8
M0
100
AcDbLine
 10
130.176703
 20
446.468229
 11
130.676703
 21
446.468229
  0
LINE
  5
11F
100
AcDbEntity
  8
M0
100
AcDbLine
 10
154.176581
 20
557.467741
 11
153.676688
 21
557.467985
  0
LINE
  5
120
100
AcDbEntity
  8
M0
100
AcDbLine
 10
119.976706
 20
557.467497
 11
119.976706
 21
557.467985
  0
LINE
  5
121
100
AcDbEntity
  8
M0
100
AcDbLine
 10
125.676703
 20
557.467497
 11
123.676703
 21
557.467497
  0
LINE
  5
122
100
AcDbEntity
  8
M0
100
AcDbLine
 10
135.676703
 20
547.468229
 11
148.676703
 21
547.468229
  0
LINE
  5
123
100
AcDbEntity
  8
M0
100
AcDbLine
 10
165.3767
 20
547.468229
 11
187.676703
 21
547.468229
  0
LINE
  5
124
100
AcDbEntity
  8
M0
100
AcDbLine
 10
135.676703
 20
456.468229
 11
148.676703
 21
456.468229
  0
LINE
  5
125
100
AcDbEntity
  8
M0
100
AcDbLine
 10
165.3767
 20
456.468229
 11
187.676703
 21
456.468229
  0
ARC
  5
126
100
AcDbEntity
  8
M0
100
AcDbCircle
 10
118.976706
 20
455.468229
 40
1.0
100
AcDbArc
 50
0.0
 51
89.999126
  0
ARC
  5
127
100
AcDbEntity
  8
M0
100
AcDbCircle
 10
135.676703
 20
455.468229
 40
1.0
100
AcDbArc
 50
90.0
 51
179.999126
  0
ARC
  5
128
100
AcDbEntity
  8
M0
100
AcDbCircle
 10
148.676703
 20
455.468229
 40
1.0
100
AcDbArc
 50
0.0
 51
90.0
  0
ARC
  5
129
100
AcDbEntity
  8
M0
100
AcDbCircle
 10
165.3767
 20
455.468229
 40
1.0
100
AcDbArc
 50
90.0
 51
179.999126
  0
ARC
  5
12A
100
AcDbEntity
  8
M0
100
AcDbCircle
 10
165.3767
 20
548.468229
 40
1.0
100
AcDbArc
 50
180.0
 51
269.999126
  0
ARC
  5
12B
100
AcDbEntity
  8
M0
100
AcDbCircle
 10
148.676703
 20
548.468229
 40
1.0
100
AcDbArc
 50
270.0
 51
360.0
  0
ARC
  5
12C
100
AcDbEntity
  8
M0
100
AcDbCircle
 10
135.676703
 20
548.468229
 40
1.0
100
AcDbArc
 50
180.0
 51
270.0
  0
ARC
  5
12D
100
AcDbEntity
  8
M0
100
AcDbCircle
 10
118.976706
 20
548.468229
 40
1.0
100
AcDbArc
 50
270.0
 51
360.0
  0
LINE
  5
12E
100
AcDbEntity
  8
M0
100
AcDbLine
 10
106.476706
 20
543.968229
 11
118.476706
 21
543.968229
  0
LINE
  5
12F
100
AcDbEntity
  8
M0
100
AcDbLine
 10
106.476706
 20
459.968229
 11
118.476706
 21
459.968229
  0
LINE
  5
130
100
AcDbEntity
  8
M0
100
AcDbLine
 10
177.8767
 20
546.968229
 11
177.8767
 21
543.968229
  0
LINE
  5
131
100
AcDbEntity
  8
M0
100
AcDbLine
 10
165.8767
 20
546.968229
 11
165.8767
 21
543.968229
  0
LINE
  5
132
100
AcDbEntity
  8
M0
100
AcDbLine
 10
148.176703
 20
546.968229
 11
148.176703
 21
543.968229
  0
LINE
  5
133
100
AcDbEntity
  8
M0
100
AcDbLine
 10
136.176703
 20
546.968229
 11
136.176703
 21
543.968229
  0
LINE
  5
134
100
AcDbEntity
  8
M0
100
AcDbLine
 10
118.476706
 20
546.968229
 11
118.476706
 21
543.968229
  0
LINE
  5
135
100
AcDbEntity
  8
M0
100
AcDbLine
 10
106.476706
 20
546.968229
 11
106.476706
 21
543.968229
  0
LINE
  5
136
100
AcDbEntity
  8
M0
100
AcDbLine
 10
177.8767
 20
459.968229
 11
177.8767
 21
456.968229
  0
LINE
  5
137
100
AcDbEntity
  8
M0
100
AcDbLine
 10
165.8767
 20
459.968229
 11
165.8767
 21
456.968229
  0
LINE
  5
138
100
AcDbEntity
  8
M0
100
AcDbLine
 10
148.176703
 20
459.968229
 11
148.176703
 21
456.968229
  0
LINE
  5
139
100
AcDbEntity
  8
M0
100
AcDbLine
 10
136.176703
 20
459.968229
 11
136.176703
 21
456.968229
  0
LINE
  5
13A
100
AcDbEntity
  8
M0
100
AcDbLine
 10
118.476706
 20
459.968229
 11
118.476706
 21
456.968229
  0
LINE
  5
13B
100
AcDbEntity
  8
M0
100
AcDbLine
 10
106.476706
 20
459.968229
 11
106.476706
 21
456.968229
  0
LINE
  5
13C
100
AcDbEntity
  8
M0
100
AcDbLine
 10
136.176703
 20
459.968229
 11
148.176703
 21
459.968229
  0
LINE
  5
13D
100
AcDbEntity
  8
M0
100
AcDbLine
 10
165.8767
 20
459.968229
 11
177.8767
 21
459.968229
  0
LINE
  5
13E
100
AcDbEntity
  8
M0
100
AcDbLine
 10
136.176703
 20
543.968229
 11
148.176703
 21
543.968229
  0
LINE
  5
13F
100
AcDbEntity
  8
M0
100
AcDbLine
 10
165.8767
 20
543.968229
 11
177.8767
 21
543.968229
  0
ARC
  5
140
100
AcDbEntity
  8
M0
100
AcDbCircle
 10
105.976706
 20
456.968229
 40
0.5
100
AcDbArc
 50
270.0
 51
360.0
  0
ARC
  5
141
100
AcDbEntity
  8
M0
100
AcDbCircle
 10
135.676703
 20
456.968229
 40
0.5
100
AcDbArc
 50
270.0
 51
360.0
  0
ARC
  5
142
100
AcDbEntity
  8
M0
100
AcDbCircle
 10
165.3767
 20
456.968229
 40
0.5
100
AcDbArc
 50
269.998251
 51
360.0
  0
ARC
  5
143
100
AcDbEntity
  8
M0
100
AcDbCircle
 10
118.976706
 20
456.968229
 40
0.5
100
AcDbArc
 50
179.998251
 51
270.0
  0
ARC
  5
144
100
AcDbEntity
  8
M0
100
AcDbCircle
 10
178.3767
 20
456.968229
 40
0.5
100
AcDbArc
 50
179.998251
 51
269.998251
  0
ARC
  5
145
100
AcDbEntity
  8
M0
100
AcDbCircle
 10
148.676703
 20
456.968229
 40
0.5
100
AcDbArc
 50
179.998251
 51
270.0
  0
ARC
  5
146
100
AcDbEntity
  8
M0
100
AcDbCircle
 10
105.976706
 20
546.968229
 40
0.5
100
AcDbArc
 50
0.0
 51
89.998251
  0
ARC
  5
147
100
AcDbEntity
  8
M0
100
AcDbCircle
 10
135.676703
 20
546.968229
 40
0.5
100
AcDbArc
 50
0.0
 51
90.0
  0
ARC
  5
148
100
AcDbEntity
  8
M0
100
AcDbCircle
 10
165.3767
 20
546.968229
 40
0.5
100
AcDbArc
 50
0.0
 51
90.0
  0
ARC
  5
149
100
AcDbEntity
  8
M0
100
AcDbCircle
 10
178.3767
 20
546.968229
 40
0.5
100
AcDbArc
 50
90.0
 51
180.0
  0
ARC
  5
14A
100
AcDbEntity
  8
M0
100
AcDbCircle
 10
148.676703
 20
546.968229
 40
0.5
100
AcDbArc
 50
90.0
 51
180.0
  0
ARC
  5
14B
100
AcDbEntity
  8
M0
100
AcDbCircle
 10
118.976706
 20
546.968229
 40
0.5
100
AcDbArc
 50
89.998251
 51
180.0
  0
ARC
  5
14C
100
AcDbEntity
  8
M0
100
AcDbCircle
 10
155.176703
 20
444.468229
 40
0.5
100
AcDbArc
 50
179.998251
 51
270.0
  0
ARC
  5
14D
100
AcDbEntity
  8
M0
100
AcDbCircle
 10
163.8767
 20
444.468229
 40
0.5
100
AcDbArc
 50
269.998251
 51
360.0
  0
ARC
  5
14E
100
AcDbEntity
  8
M0
100
AcDbCircle
 10
160.676703
 20
445.968229
 40
0.5
100
AcDbArc
 50
0.0
 51
90.0
  0
ARC
  5
14F
100
AcDbEntity
  8
M0
100
AcDbCircle
 10
158.676703
 20
445.968229
 40
0.5
100
AcDbArc
 50
90.0
 51
179.998251
  0
ARC
  5
150
100
AcDbEntity
  8
M0
100
AcDbCircle
 10
157.676703
 20
444.468229
 40
0.5
100
AcDbArc
 50
270.0
 51
360.0
  0
ARC
  5
151
100
AcDbEntity
  8
M0
100
AcDbCircle
 10
161.676703
 20
444.468229
 40
0.5
100
AcDbArc
 50
179.998251
 51
269.998251
  0
ARC
  5
152
100
AcDbEntity
  8
M0
100
AcDbCircle
 10
126.676703
 20
444.468229
 40
0.5
100
AcDbArc
 50
179.998251
 51
270.0
  0
ARC
  5
153
100
AcDbEntity
  8
M0
100
AcDbCircle
 10
122.676703
 20
444.468229
 40
0.5
100
AcDbArc
 50
270.0
 51
360.0
  0
ARC
  5
154
100
AcDbEntity
  8
M0
100
AcDbCircle
 10
129.176703
 20
444.468229
 40
0.5
100
AcDbArc
 50
270.0
 51
360.0
  0
ARC
  5
155
100
AcDbEntity
  8
M0
100
AcDbCircle
 10
125.676703
 20
445.968229
 40
0.5
100
AcDbArc
 50
0.0
 51
89.998251
  0
ARC
  5
156
100
AcDbEntity
  8
M0
100
AcDbCircle
 10
123.676703
 20
445.968229
 40
0.5
100
AcDbArc
 50
89.998251
 51
179.998251
  0
ARC
  5
157
100
AcDbEntity
  8
M0
100
AcDbCircle
 10
120.476706
 20
444.468229
 40
0.5
100
AcDbArc
 50
179.998251
 51
270.0
  0
ARC
  5
158
100
AcDbEntity
  8
M0
100
AcDbCircle
 10
130.176703
 20
445.968229
 40
0.5
100
AcDbArc
 50
90.0
 51
179.998251
  0
ARC
  5
159
100
AcDbEntity
  8
M0
100
AcDbCircle
 10
154.176703
 20
445.968229
 40
0.5
100
AcDbArc
 50
0.0
 51
90.0
  0
ARC
  5
15A
100
AcDbEntity
  8
M0
100
AcDbCircle
 10
163.8767
 20
559.467741
 40
0.5
100
AcDbArc
 50
0.0
 51
90.0
  0
ARC
  5
15B
100
AcDbEntity
  8
M0
100
AcDbCircle
 10
155.176703
 20
559.467741
 40
0.5
100
AcDbArc
 50
90.0
 51
180.0
  0
ARC
  5
15C
100
AcDbEntity
  8
M0
100
AcDbCircle
 10
154.176703
 20
557.967497
 40
0.5
100
AcDbArc
 50
269.985902
 51
360.0
  0
ARC
  5
15D
100
AcDbEntity
  8
M0
100
AcDbCircle
 10
158.676703
 20
557.967497
 40
0.5
100
AcDbArc
 50
180.0
 51
269.998251
  0
ARC
  5
15E
100
AcDbEntity
  8
M0
100
AcDbCircle
 10
160.676703
 20
557.967497
 40
0.5
100
AcDbArc
 50
269.998251
 51
360.0
  0
ARC
  5
15F
100
AcDbEntity
  8
M0
100
AcDbCircle
 10
130.176703
 20
557.967253
 40
0.5
100
AcDbArc
 50
180.0
 51
270.012349
  0
ARC
  5
160
100
AcDbEntity
  8
M0
100
AcDbCircle
 10
129.176703
 20
559.467497
 40
0.5
100
AcDbArc
 50
0.0
 51
90.0
  0
ARC
  5
161
100
AcDbEntity
  8
M0
100
AcDbCircle
 10
120.476706
 20
559.467497
 40
0.5
100
AcDbArc
 50
89.998251
 51
180.0
  0
ARC
  5
162
100
AcDbEntity
  8
M0
100
AcDbCircle
 10
123.676703
 20
557.967253
 40
0.5
100
AcDbArc
 50
180.0
 51
270.0
  0
ARC
  5
163
100
AcDbEntity
  8
M0
100
AcDbCircle
 10
125.676703
 20
557.967253
 40
0.5
100
AcDbArc
 50
270.0
 51
360.0
  0
ARC
  5
164
100
AcDbEntity
  8
M0
100
AcDbCircle
 10
157.676703
 20
559.467741
 40
0.5
100
AcDbArc
 50
0.0
 51
90.0
  0
ARC
  5
165
100
AcDbEntity
  8
M0
100
AcDbCircle
 10
122.676703
 20
559.467497
 40
0.5
100
AcDbArc
 50
0.0
 51
89.998251
  0
ARC
  5
166
100
AcDbEntity
  8
M0
100
AcDbCircle
 10
161.676703
 20
559.467741
 40
0.5
100
AcDbArc
 50
90.0
 51
180.0
  0
ARC
  5
167
100
AcDbEntity
  8
M0
100
AcDbCircle
 10
126.676703
 20
559.467497
 40
0.5
100
AcDbArc
 50
90.0
 51
180.0
  0
LINE
  5
168
100
AcDbEntity
  8
M0
100
AcDbLine
 10
121.676703
 20
441.468229
 11
123.176703
 21
441.468229
  0
LINE
  5
169
100
AcDbEntity
  8
M0
100
AcDbLine
 10
157.676703
 20
441.468229
 11
159.176703
 21
441.468229
  0
LINE
  5
16A
100
AcDbEntity
  8
M0
100
AcDbLine
 10
120.676703
 20
438.468229
 11
127.676688
 21
438.468229
  0
LINE
  5
16B
100
AcDbEntity
  8
M0
100
AcDbLine
 10
129.676703
 20
441.468229
 11
127.676703
 21
438.468229
  0
LINE
  5
16C
100
AcDbEntity
  8
M0
100
AcDbLine
 10
154.676703
 20
441.468229
 11
156.676703
 21
438.468229
  0
LINE
  5
16D
100
AcDbEntity
  8
M0
100
AcDbLine
 10
118.676703
 20
445.468199
 11
118.676703
 21
440.468229
  0
LINE
  5
16E
100
AcDbEntity
  8
M0
100
AcDbLine
 10
165.676703
 20
445.468229
 11
165.676703
 21
440.468229
  0
ARC
  5
16F
100
AcDbEntity
  8
M0
100
AcDbCircle
 10
120.676703
 20
440.468229
 40
2.0
100
AcDbArc
 50
179.999563
 51
270.0
  0
ARC
  5
170
100
AcDbEntity
  8
M0
100
AcDbCircle
 10
163.676703
 20
440.468229
 40
2.0
100
AcDbArc
 50
269.999563
 51
360.0
  0
LINE
  5
171
100
AcDbEntity
  8
M0
100
AcDbLine
 10
164.3767
 20
446.468229
 11
164.676703
 21
446.468229
  0
LINE
  5
172
100
AcDbEntity
  8
M0
100
AcDbLine
 10
119.976706
 20
446.468229
 11
119.676703
 21
446.468229
  0
ARC
  5
173
100
AcDbEntity
  8
M0
100
AcDbCircle
 10
164.676703
 20
445.468229
 40
1.0
100
AcDbArc
 50
0.0
 51
90.0
  0
ARC
  5
174
100
AcDbEntity
  8
M0
100
AcDbCircle
 10
119.676703
 20
445.468214
 40
1.0
100
AcDbArc
 50
89.999126
 51
179.999126
  0
LINE
  5
175
100
AcDbEntity
  8
M0
100
AcDbLine
 10
125.176703
 20
441.468229
 11
125.176703
 21
438.468229
  0
LINE
  5
176
100
AcDbEntity
  8
M0
100
AcDbLine
 10
159.176703
 20
441.468229
 11
159.176703
 21
438.468229
  0
LINE
  5
177
100
AcDbEntity
  8
M0
100
AcDbLine
 10
161.176703
 20
441.468229
 11
161.176703
 21
438.468229
  0
LINE
  5
178
100
AcDbEntity
  8
M0
100
AcDbLine
 10
123.176703
 20
441.468229
 11
123.176703
 21
438.468229
  0
LINE
  5
179
100
AcDbEntity
  8
M0
100
AcDbLine
 10
125.176703
 20
441.468229
 11
126.676703
 21
441.468229
  0
LINE
  5
17A
100
AcDbEntity
  8
M0
100
AcDbLine
 10
161.176703
 20
441.468229
 11
162.676703
 21
441.468229
  0
LINE
  5
17B
100
AcDbEntity
  8
M0
100
AcDbLine
 10
156.676688
 20
438.468229
 11
163.676703
 21
438.468229
  0
LINE
  5
17C
100
AcDbEntity
  8
M0
100
AcDbLine
 10
126.676703
 20
443.968229
 11
126.676703
 21
441.468229
  0
LINE
  5
17D
100
AcDbEntity
  8
M0
100
AcDbLine
 10
121.676703
 20
443.968229
 11
121.676703
 21
441.468229
  0
LINE
  5
17E
100
AcDbEntity
  8
M0
100
AcDbLine
 10
157.676703
 20
443.968229
 11
157.676703
 21
441.468229
  0
LINE
  5
17F
100
AcDbEntity
  8
M0
100
AcDbLine
 10
162.676703
 20
443.968229
 11
162.676703
 21
441.468229
  0
LINE
  5
180
100
AcDbEntity
  8
M0
100
AcDbLine
 10
154.676718
 20
562.467985
 11
156.676718
 21
565.467985
  0
LINE
  5
181
100
AcDbEntity
  8
M0
100
AcDbLine
 10
159.176718
 20
562.467985
 11
159.176718
 21
565.467985
  0
LINE
  5
182
100
AcDbEntity
  8
M0
100
AcDbLine
 10
157.676718
 20
562.467985
 11
159.176718
 21
562.467985
  0
LINE
  5
183
100
AcDbEntity
  8
M0
100
AcDbLine
 10
157.676718
 20
559.967985
 11
157.676718
 21
562.467985
  0
LINE
  5
184
100
AcDbEntity
  8
M0
100
AcDbLine
 10
161.176718
 20
562.467985
 11
161.176718
 21
565.467985
  0
LINE
  5
185
100
AcDbEntity
  8
M0
100
AcDbLine
 10
161.176718
 20
562.467985
 11
162.676718
 21
562.467985
  0
LINE
  5
186
100
AcDbEntity
  8
M0
100
AcDbLine
 10
162.676718
 20
559.967985
 11
162.676718
 21
562.467985
  0
ARC
  5
187
100
AcDbEntity
  8
M0
100
AcDbCircle
 10
164.676718
 20
558.467985
 40
1.0
100
AcDbArc
 50
-90.000874
 51
0.0
  0
LINE
  5
188
100
AcDbEntity
  8
M0
100
AcDbLine
 10
165.676718
 20
558.467985
 11
165.676718
 21
563.467985
  0
ARC
  5
189
100
AcDbEntity
  8
M0
100
AcDbCircle
 10
163.676718
 20
563.467985
 40
2.0
100
AcDbArc
 50
0.0
 51
90.0
  0
LINE
  5
18A
100
AcDbEntity
  8
M0
100
AcDbLine
 10
129.676718
 20
562.467985
 11
127.676718
 21
565.467985
  0
LINE
  5
18B
100
AcDbEntity
  8
M0
100
AcDbLine
 10
120.676718
 20
565.467985
 11
127.676703
 21
565.467985
  0
ARC
  5
18C
100
AcDbEntity
  8
M0
100
AcDbCircle
 10
120.676718
 20
563.467985
 40
2.0
100
AcDbArc
 50
89.999563
 51
180.0
  0
LINE
  5
18D
100
AcDbEntity
  8
M0
100
AcDbLine
 10
118.676718
 20
558.468229
 11
118.676718
 21
563.467985
  0
ARC
  5
18E
100
AcDbEntity
  8
M0
100
AcDbCircle
 10
119.676718
 20
558.468229
 40
1.0
100
AcDbArc
 50
180.0
 51
270.0
  0
LINE
  5
18F
100
AcDbEntity
  8
M0
100
AcDbLine
 10
121.676718
 20
559.967985
 11
121.676718
 21
562.467985
  0
LINE
  5
190
100
AcDbEntity
  8
M0
100
AcDbLine
 10
121.676718
 20
562.467985
 11
123.176718
 21
562.467985
  0
LINE
  5
191
100
AcDbEntity
  8
M0
100
AcDbLine
 10
123.176718
 20
562.467985
 11
123.176718
 21
565.467985
  0
LINE
  5
192
100
AcDbEntity
  8
M0
100
AcDbLine
 10
125.176718
 20
562.467985
 11
125.176718
 21
565.467985
  0
LINE
  5
193
100
AcDbEntity
  8
M0
100
AcDbLine
 10
125.176718
 20
562.467985
 11
126.676718
 21
562.467985
  0
LINE
  5
194
100
AcDbEntity
  8
M0
100
AcDbLine
 10
126.676718
 20
559.967985
 11
126.676718
 21
562.467985
  0
LINE
  5
195
100
AcDbEntity
  8
M0
100
AcDbLine
 10
153.476691
 20
486.468229
 11
153.476691
 21
488.967985
  0
LINE
  5
196
100
AcDbEntity
  8
M0
100
AcDbLine
 10
130.8767
 20
486.468229
 11
130.8767
 21
488.968229
  0
LINE
  5
197
100
AcDbEntity
  8
M0
100
AcDbLine
 10
133.8767
 20
491.968229
 11
134.368414
 21
491.968229
  0
LINE
  5
198
100
AcDbEntity
  8
M0
100
AcDbLine
 10
133.8767
 20
512.268034
 11
138.176703
 21
512.268034
  0
LINE
  5
199
100
AcDbEntity
  8
M0
100
AcDbLine
 10
139.426703
 20
514.968229
 11
139.926703
 21
514.968229
  0
LINE
  5
19A
100
AcDbEntity
  8
M0
100
AcDbLine
 10
140.426703
 20
517.968229
 11
143.926703
 21
517.968229
  0
LINE
  5
19B
100
AcDbEntity
  8
M0
100
AcDbLine
 10
138.176703
 20
513.968229
 11
138.426703
 21
513.968229
  0
LINE
  5
19C
100
AcDbEntity
  8
M0
100
AcDbLine
 10
133.8767
 20
495.968229
 11
134.176703
 21
495.968229
  0
LINE
  5
19D
100
AcDbEntity
  8
M0
100
AcDbLine
 10
131.640631
 20
490.968229
 11
152.712744
 21
490.968229
  0
LINE
  5
19E
100
AcDbEntity
  8
M0
100
AcDbLine
 10
131.3767
 20
485.968229
 11
152.976691
 21
485.968229
  0
ARC
  5
19F
100
AcDbEntity
  8
M0
100
AcDbCircle
 10
131.3767
 20
486.468229
 40
0.5
100
AcDbArc
 50
179.999891
 51
270.0
  0
ARC
  5
1A0
100
AcDbEntity
  8
M0
100
AcDbCircle
 10
152.976691
 20
486.468229
 40
0.5
100
AcDbArc
 50
270.0
 51
360.0
  0
ARC
  5
1A1
100
AcDbEntity
  8
M0
100
AcDbCircle
 10
150.476691
 20
509.268034
 40
3.0
100
AcDbArc
 50
0.0
 51
90.0
  0
ARC
  5
1A2
100
AcDbEntity
  8
M0
100
AcDbCircle
 10
133.8767
 20
509.268034
 40
3.0
100
AcDbArc
 50
90.0
 51
179.999982
  0
LINE
  5
1A3
100
AcDbEntity
  8
M0
100
AcDbLine
 10
130.8767
 20
498.968229
 11
130.8767
 21
509.268034
  0
LINE
  5
1A4
100
AcDbEntity
  8
M0
100
AcDbLine
 10
153.476691
 20
498.967985
 11
153.476691
 21
509.268034
  0
ARC
  5
1A5
100
AcDbEntity
  8
M0
100
AcDbCircle
 10
133.8767
 20
498.968229
 40
3.0
100
AcDbArc
 50
179.999964
 51
270.0
  0
ARC
  5
1A6
100
AcDbEntity
  8
M0
100
AcDbCircle
 10
133.8767
 20
488.968229
 40
3.0
100
AcDbArc
 50
90.0
 51
179.999964
  0
ARC
  5
1A7
100
AcDbEntity
  8
M0
100
AcDbCircle
 10
150.476691
 20
498.968229
 40
3.0
100
AcDbArc
 50
270.0
 51
360.0
  0
LINE
  5
1A8
100
AcDbEntity
  8
M0
100
AcDbLine
 10
150.176703
 20
495.968229
 11
150.176703
 21
491.968229
  0
LINE
  5
1A9
100
AcDbEntity
  8
M0
100
AcDbLine
 10
134.176703
 20
495.968229
 11
134.176703
 21
491.968229
  0
LINE
  5
1AA
100
AcDbEntity
  8
M0
100
AcDbLine
 10
150.176703
 20
495.968229
 11
150.476691
 21
495.968229
  0
ARC
  5
1AB
100
AcDbEntity
  8
M0
100
AcDbCircle
 10
150.476691
 20
488.968229
 40
3.0
100
AcDbArc
 50
0.0
 51
90.0
  0
LINE
  5
1AC
100
AcDbEntity
  8
M0
100
AcDbLine
 10
150.026694
 20
494.968229
 11
150.176703
 21
494.968229
  0
LINE
  5
1AD
100
AcDbEntity
  8
M0
100
AcDbLine
 10
150.026694
 20
492.968229
 11
150.176703
 21
492.968229
  0
LINE
  5
1AE
100
AcDbEntity
  8
M0
100
AcDbLine
 10
134.176703
 20
494.968229
 11
134.326697
 21
494.968229
  0
LINE
  5
1AF
100
AcDbEntity
  8
M0
100
AcDbLine
 10
134.176703
 20
492.968229
 11
134.326697
 21
492.968229
  0
LINE
  5
1B0
100
AcDbEntity
  8
M0
100
AcDbLine
 10
153.005042
 20
509.968229
 11
153.39382
 21
509.968229
  0
LINE
  5
1B1
100
AcDbEntity
  8
M0
100
AcDbLine
 10
150.976691
 20
496.376433
 11
150.976691
 21
496.009978
  0
LINE
  5
1B2
100
AcDbEntity
  8
M0
100
AcDbLine
 10
133.3767
 20
496.376433
 11
133.3767
 21
496.009978
  0
LINE
  5
1B3
100
AcDbEntity
  8
M0
100
AcDbLine
 10
153.176703
 20
507.718229
 11
153.476691
 21
507.718229
  0
LINE
  5
1B4
100
AcDbEntity
  8
M0
100
AcDbLine
 10
130.8767
 20
507.718229
 11
131.176703
 21
507.718229
  0
ARC
  5
1B5
100
AcDbEntity
  8
M0
100
AcDbCircle
 10
152.976691
 20
508.968229
 40
0.5
100
AcDbArc
 50
359.971914
 51
431.031255
  0
ARC
  5
1B6
100
AcDbEntity
  8
M0
100
AcDbCircle
 10
131.3767
 20
509.468229
 40
0.5
100
AcDbArc
 50
90.0
 51
180.0
  0
ARC
  5
1B7
100
AcDbEntity
  8
M0
100
AcDbCircle
 10
131.3767
 20
508.968229
 40
0.5
100
AcDbArc
 50
108.968641
 51
180.0
  0
ARC
  5
1B8
100
AcDbEntity
  8
M0
100
AcDbCircle
 10
134.676703
 20
511.768034
 40
0.5
100
AcDbArc
 50
90.0
 51
156.428117
  0
ARC
  5
1B9
100
AcDbEntity
  8
M0
100
AcDbCircle
 10
149.676703
 20
511.768034
 40
0.5
100
AcDbArc
 50
23.515015
 51
90.0
  0
ARC
  5
1BA
100
AcDbEntity
  8
M0
100
AcDbCircle
 10
131.3767
 20
498.968229
 40
0.5
100
AcDbArc
 50
90.0
 51
179.999891
  0
ARC
  5
1BB
100
AcDbEntity
  8
M0
100
AcDbCircle
 10
152.976691
 20
498.968229
 40
0.5
100
AcDbArc
 50
359.972023
 51
426.949153
  0
LINE
  5
1BC
100
AcDbEntity
  8
M0
100
AcDbLine
 10
144.926703
 20
516.968229
 11
144.926703
 21
514.668181
  0
LINE
  5
1BD
100
AcDbEntity
  8
M0
100
AcDbLine
 10
139.426703
 20
516.968229
 11
139.426703
 21
514.668181
  0
ARC
  5
1BE
100
AcDbEntity
  8
M0
100
AcDbCircle
 10
143.926703
 20
516.968229
 40
1.0
100
AcDbArc
 50
0.0
 51
90.0
  0
ARC
  5
1BF
100
AcDbEntity
  8
M0
100
AcDbCircle
 10
140.426703
 20
516.968229
 40
1.0
100
AcDbArc
 50
90.0
 51
180.0
  0
LINE
  5
1C0
100
AcDbEntity
  8
M0
100
AcDbLine
 10
146.176703
 20
511.968229
 11
146.176703
 21
514.668181
  0
LINE
  5
1C1
100
AcDbEntity
  8
M0
100
AcDbLine
 10
138.176703
 20
511.968229
 11
138.176703
 21
514.668181
  0
LINE
  5
1C2
100
AcDbEntity
  8
M0
100
AcDbLine
 10
144.926703
 20
514.668181
 11
146.176703
 21
514.668181
  0
LINE
  5
1C3
100
AcDbEntity
  8
M0
100
AcDbLine
 10
138.176703
 20
514.668181
 11
139.426703
 21
514.668181
  0
LINE
  5
1C4
100
AcDbEntity
  8
M0
100
AcDbLine
 10
145.926703
 20
513.968229
 11
146.176703
 21
513.968229
  0
LINE
  5
1C5
100
AcDbEntity
  8
M0
100
AcDbLine
 10
146.176703
 20
512.268034
 11
150.476691
 21
512.268034
  0
CIRCLE
  5
1C6
100
AcDbEntity
  8
M0
100
AcDbCircle
 10
127.326697
 20
550.968229
 40
4.5
  0
CIRCLE
  5
1C7
100
AcDbEntity
  8
M0
100
AcDbCircle
 10
157.026694
 20
452.968229
 40
4.5
  0
CIRCLE
  5
1C8
100
AcDbEntity
  8
M0
100
AcDbCircle
 10
157.026694
 20
452.968229
 40
2.25
  0
CIRCLE
  5
1C9
100
AcDbEntity
  8
M0
100
AcDbCircle
 10
127.326697
 20
550.968229
 40
2.25
  0
CIRCLE
  5
1CA
100
AcDbEntity
  8
M0
100
AcDbCircle
 10
184.676703
 20
463.718229
 40
1.86
  0
CIRCLE
  5
1CB
100
AcDbEntity
  8
M0
100
AcDbCircle
 10
99.676703
 20
463.718229
 40
1.86
  0
CIRCLE
  5
1CC
100
AcDbEntity
  8
M0
100
AcDbCircle
 10
184.676703
 20
540.218229
 40
1.86
  0
CIRCLE
  5
1CD
100
AcDbEntity
  8
M0
100
AcDbCircle
 10
99.676703
 20
540.218229
 40
1.86
  0
CIRCLE
  5
1CE
100
AcDbEntity
  8
M0
100
AcDbCircle
 10
99.676703
 20
463.718229
 40
1.36
  0
CIRCLE
  5
1CF
100
AcDbEntity
  8
M0
100
AcDbCircle
 10
184.676703
 20
463.718229
 40
1.36
  0
CIRCLE
  5
1D0
100
AcDbEntity
  8
M0
100
AcDbCircle
 10
184.676703
 20
540.218229
 40
1.36
  0
CIRCLE
  5
1D1
100
AcDbEntity
  8
M0
100
AcDbCircle
 10
99.676703
 20
540.218229
 40
1.36
  0
LINE
  5
1D2
100
AcDbEntity
  8
M0
100
AcDbLine
 10
164.3767
 20
557.467985
 11
164.676718
 21
557.467985
  0
LINE
  5
1D3
100
AcDbEntity
  8
M0
100
AcDbLine
 10
119.676718
 20
557.467985
 11
119.976706
 21
557.467985
  0
LINE
  5
1D4
100
AcDbEntity
  8
M0
100
AcDbLine
 10
149.984961
 20
491.968229
 11
150.476691
 21
491.968229
  0
LINE
  5
1D5
100
AcDbEntity
  8
M0
100
AcDbLine
 10
144.426703
 20
514.968229
 11
144.926703
 21
514.968229
  0
LINE
  5
1D6
100
AcDbEntity
  8
M0
100
AcDbLine
 10
90.176703
 20
426.968229
 11
94.476706
 21
426.968229
  0
LINE
  5
1D7
100
AcDbEntity
  8
M0
100
AcDbLine
 10
202.176703
 20
434.968214
 11
202.176703
 21
455.968229
  0
LINE
  5
1D8
100
AcDbEntity
  8
M0
100
AcDbLine
 10
194.176703
 20
576.968229
 11
189.876761
 21
576.967985
  0
LINE
  5
1D9
100
AcDbEntity
  8
M0
100
AcDbLine
 10
82.176703
 20
568.967741
 11
82.176703
 21
563.468229
  0
LINE
  5
1DA
100
AcDbEntity
  8
M0
100
AcDbLine
 10
82.176703
 20
455.968229
 11
82.176703
 21
434.968229
  0
LINE
  5
1DB
100
AcDbEntity
  8
M0
100
AcDbLine
 10
202.176703
 20
556.968229
 11
202.176703
 21
568.967741
  0
LINE
  5
1DC
100
AcDbEntity
  8
M0
100
AcDbLine
 10
128.176703
 20
576.967985
 11
114.476706
 21
576.967741
  0
LINE
  5
1DD
100
AcDbEntity
  8
M0
100
AcDbLine
 10
169.176703
 20
575.967985
 11
169.176703
 21
568.468229
  0
LINE
  5
1DE
100
AcDbEntity
  8
M0
100
AcDbLine
 10
115.176703
 20
575.967741
 11
115.176703
 21
568.468229
  0
ARC
  5
1DF
100
AcDbEntity
  8
M0
100
AcDbCircle
 10
112.176703
 20
568.468229
 40
3.0
100
AcDbArc
 50
320.053499
 51
360.0
  0
ARC
  5
1E0
100
AcDbEntity
  8
M0
100
AcDbCircle
 10
172.176703
 20
568.468229
 40
3.0
100
AcDbArc
 50
180.0
 51
219.947135
  0
ARC
  5
1E1
100
AcDbEntity
  8
M0
100
AcDbCircle
 10
168.176703
 20
575.967985
 40
1.0
100
AcDbArc
 50
0.0
 51
90.0
  0
ARC
  5
1E2
100
AcDbEntity
  8
M0
100
AcDbCircle
 10
116.176703
 20
575.967741
 40
1.0
100
AcDbArc
 50
89.999126
 51
180.0
  0
LINE
  5
1E3
100
AcDbEntity
  8
M0
100
AcDbLine
 10
115.676703
 20
574.968229
 11
118.676703
 21
574.968229
  0
LINE
  5
1E4
100
AcDbEntity
  8
M0
100
AcDbLine
 10
119.176703
 20
574.468229
 11
119.176703
 21
565.468229
  0
LINE
  5
1E5
100
AcDbEntity
  8
M0
100
AcDbLine
 10
165.176703
 20
574.468229
 11
165.176703
 21
565.468229
  0
LINE
  5
1E6
100
AcDbEntity
  8
M0
100
AcDbLine
 10
165.676703
 20
574.968229
 11
168.676703
 21
574.968229
  0
ARC
  5
1E7
100
AcDbEntity
  8
M0
100
AcDbCircle
 10
168.676703
 20
574.468229
 40
0.5
100
AcDbArc
 50
0.0
 51
90.0
  0
ARC
  5
1E8
100
AcDbEntity
  8
M0
100
AcDbCircle
 10
115.676703
 20
574.468229
 40
0.5
100
AcDbArc
 50
89.998251
 51
180.0
  0
ARC
  5
1E9
100
AcDbEntity
  8
M0
100
AcDbCircle
 10
165.676703
 20
574.468229
 40
0.5
100
AcDbArc
 50
90.0
 51
180.0
  0
ARC
  5
1EA
100
AcDbEntity
  8
M0
100
AcDbCircle
 10
118.676703
 20
574.468229
 40
0.5
100
AcDbArc
 50
0.0
 51
89.998251
  0
LINE
  5
1EB
100
AcDbEntity
  8
M0
100
AcDbLine
 10
157.176459
 20
573.968229
 11
165.176703
 21
573.968229
  0
LINE
  5
1EC
100
AcDbEntity
  8
M0
100
AcDbLine
 10
119.176703
 20
573.968229
 11
127.176703
 21
573.968229
  0
LINE
  5
1ED
100
AcDbEntity
  8
M0
100
AcDbLine
 10
87.176703
 20
573.968229
 11
94.476706
 21
573.968229
  0
LINE
  5
1EE
100
AcDbEntity
  8
M0
100
AcDbLine
 10
84.367621
 20
574.468229
 11
86.676703
 21
574.468229
  0
LINE
  5
1EF
100
AcDbEntity
  8
M0
100
AcDbLine
 10
87.176703
 20
573.968229
 11
87.176703
 21
565.468229
  0
ARC
  5
1F0
100
AcDbEntity
  8
M0
100
AcDbCircle
 10
90.176703
 20
568.967741
 40
8.0
100
AcDbArc
 50
89.999891
 51
180.0
  0
ARC
  5
1F1
100
AcDbEntity
  8
M0
100
AcDbCircle
 10
194.176703
 20
568.967985
 40
8.0
100
AcDbArc
 50
0.0
 51
90.0
  0
ARC
  5
1F2
100
AcDbEntity
  8
M0
100
AcDbCircle
 10
86.676703
 20
573.968229
 40
0.5
100
AcDbArc
 50
0.0
 51
89.998251
  0
ARC
  5
1F3
100
AcDbEntity
  8
M0
100
AcDbCircle
 10
92.176703
 20
436.968229
 40
3.5
100
AcDbArc
 50
48.917467
 51
311.082509
  0
ARC
  5
1F4
100
AcDbEntity
  8
M0
100
AcDbCircle
 10
192.176703
 20
566.968229
 40
3.5
100
AcDbArc
 50
228.921015
 51
491.081804
  0
ARC
  5
1F5
100
AcDbEntity
  8
M0
100
AcDbCircle
 10
90.176703
 20
434.968229
 40
8.0
100
AcDbArc
 50
179.999891
 51
270.0
  0
ARC
  5
1F6
100
AcDbEntity
  8
M0
100
AcDbCircle
 10
194.176703
 20
434.968229
 40
8.0
100
AcDbArc
 50
269.999891
 51
360.0
  0
LINE
  5
1F7
100
AcDbEntity
  8
M0
100
AcDbLine
 10
169.876761
 20
576.967985
 11
156.176459
 21
576.967985
  0
LINE
  5
1F8
100
AcDbEntity
  8
M0
100
AcDbLine
 10
94.476706
 20
576.967741
 11
90.176703
 21
576.967741
  0
LINE
  5
1F9
100
AcDbEntity
  8
M0
100
AcDbLine
 10
189.876669
 20
426.968229
 11
194.176703
 21
426.968229
  0
LINE
  5
1FA
100
AcDbEntity
  8
M0
100
AcDbLine
 10
152.176703
 20
426.968229
 11
169.876685
 21
426.968229
  0
LINE
  5
1FB
100
AcDbEntity
  8
M0
100
AcDbLine
 10
114.476706
 20
426.968229
 11
132.176703
 21
426.968229
  0
LINE
  5
1FC
100
AcDbEntity
  8
M0
 62
     6
100
AcDbLine
 10
152.176703
 20
559.468229
 11
152.176703
 21
577.468474
  0
LINE
  5
1FD
100
AcDbEntity
  8
M0
 62
     6
100
AcDbLine
 10
152.176703
 20
577.468474
 11
132.176703
 21
577.468474
  0
LINE
  5
1FE
100
AcDbEntity
  8
M0
 62
     6
100
AcDbLine
 10
132.176703
 20
577.468474
 11
132.176703
 21
559.468229
  0
LINE
  5
1FF
100
AcDbEntity
  8
M0
 62
     6
100
AcDbLine
 10
135.176703
 20
547.602019
 11
135.176703
 21
550.968229
  0
LINE
  5
200
100
AcDbEntity
  8
M0
 62
     6
100
AcDbLine
 10
149.176703
 20
547.602019
 11
149.176703
 21
550.968229
  0
LINE
  5
201
100
AcDbEntity
  8
M0
 62
     6
100
AcDbLine
 10
135.176703
 20
550.968229
 11
134.676703
 21
552.384733
  0
LINE
  5
202
100
AcDbEntity
  8
M0
 62
     6
100
AcDbLine
 10
149.176703
 20
550.968229
 11
149.676703
 21
552.384733
  0
LINE
  5
203
100
AcDbEntity
  8
M0
 62
     6
100
AcDbLine
 10
133.198843
 20
556.571989
 11
132.176703
 21
559.468229
  0
LINE
  5
204
100
AcDbEntity
  8
M0
 62
     6
100
AcDbLine
 10
151.154669
 20
556.572233
 11
152.176703
 21
559.468229
  0
LINE
  5
205
100
AcDbEntity
  8
M0
 62
     6
100
AcDbLine
 10
119.476706
 20
547.602019
 11
119.476706
 21
550.968229
  0
LINE
  5
206
100
AcDbEntity
  8
M0
 62
     6
100
AcDbLine
 10
114.476706
 20
577.467985
 11
94.476706
 21
577.467985
  0
LINE
  5
207
100
AcDbEntity
  8
M0
 62
     6
100
AcDbLine
 10
105.476706
 20
547.468229
 11
94.476706
 21
559.468229
  0
LINE
  5
208
100
AcDbEntity
  8
M0
 62
     6
100
AcDbLine
 10
119.476706
 20
550.968229
 11
114.476706
 21
559.468229
  0
LINE
  5
209
100
AcDbEntity
  8
M0
 62
     6
100
AcDbLine
 10
94.476706
 20
559.468229
 11
94.476706
 21
577.467985
  0
LINE
  5
20A
100
AcDbEntity
  8
M0
 62
     6
100
AcDbLine
 10
114.476706
 20
559.468229
 11
114.476706
 21
577.467985
  0
LINE
  5
20B
100
AcDbEntity
  8
M0
 62
     6
100
AcDbLine
 10
119.476706
 20
456.334273
 11
119.476706
 21
452.96826
  0
LINE
  5
20C
100
AcDbEntity
  8
M0
 62
     6
100
AcDbLine
 10
114.476706
 20
426.468504
 11
94.476706
 21
426.468504
  0
LINE
  5
20D
100
AcDbEntity
  8
M0
 62
     6
100
AcDbLine
 10
105.476706
 20
456.46826
 11
94.476706
 21
444.46826
  0
LINE
  5
20E
100
AcDbEntity
  8
M0
 62
     6
100
AcDbLine
 10
119.476706
 20
452.96826
 11
114.476706
 21
444.46826
  0
LINE
  5
20F
100
AcDbEntity
  8
M0
 62
     6
100
AcDbLine
 10
94.476706
 20
444.46826
 11
94.476706
 21
426.468504
  0
LINE
  5
210
100
AcDbEntity
  8
M0
 62
     6
100
AcDbLine
 10
114.476706
 20
444.46826
 11
114.476706
 21
426.468504
  0
LINE
  5
211
100
AcDbEntity
  8
M0
 62
     6
100
AcDbLine
 10
152.176703
 20
444.46826
 11
152.176703
 21
426.468016
  0
LINE
  5
212
100
AcDbEntity
  8
M0
 62
     6
100
AcDbLine
 10
152.176703
 20
426.468016
 11
132.176703
 21
426.468016
  0
LINE
  5
213
100
AcDbEntity
  8
M0
 62
     6
100
AcDbLine
 10
132.176703
 20
426.468016
 11
132.176703
 21
444.46826
  0
LINE
  5
214
100
AcDbEntity
  8
M0
 62
     6
100
AcDbLine
 10
135.176703
 20
456.334273
 11
135.176703
 21
452.96826
  0
LINE
  5
215
100
AcDbEntity
  8
M0
 62
     6
100
AcDbLine
 10
149.176703
 20
456.334273
 11
149.176703
 21
452.96826
  0
LINE
  5
216
100
AcDbEntity
  8
M0
 62
     6
100
AcDbLine
 10
135.176703
 20
452.96826
 11
134.676703
 21
451.551588
  0
LINE
  5
217
100
AcDbEntity
  8
M0
 62
     6
100
AcDbLine
 10
149.176703
 20
452.96826
 11
149.676703
 21
451.551588
  0
LINE
  5
218
100
AcDbEntity
  8
M0
 62
     6
100
AcDbLine
 10
133.198492
 20
447.363325
 11
132.176703
 21
444.46826
  0
LINE
  5
219
100
AcDbEntity
  8
M0
 62
     6
100
AcDbLine
 10
151.154898
 20
447.363325
 11
152.176703
 21
444.46826
  0
LINE
  5
21A
100
AcDbEntity
  8
M0
 62
     6
100
AcDbLine
 10
164.876715
 20
456.334288
 11
164.8767
 21
452.968229
  0
LINE
  5
21B
100
AcDbEntity
  8
M0
 62
     6
100
AcDbLine
 10
169.876683
 20
426.468504
 11
189.876669
 21
426.468474
  0
LINE
  5
21C
100
AcDbEntity
  8
M0
 62
     6
100
AcDbLine
 10
178.8767
 20
456.468224
 11
189.876669
 21
444.46822
  0
LINE
  5
21D
100
AcDbEntity
  8
M0
 62
     6
100
AcDbLine
 10
164.8767
 20
452.968234
 11
169.876694
 21
444.468231
  0
LINE
  5
21E
100
AcDbEntity
  8
M0
 62
     6
100
AcDbLine
 10
189.876669
 20
444.46822
 11
189.876669
 21
426.468474
  0
LINE
  5
21F
100
AcDbEntity
  8
M0
 62
     6
100
AcDbLine
 10
169.876694
 20
444.468231
 11
169.876683
 21
426.468504
  0
LINE
  5
220
100
AcDbEntity
  8
M0
 62
     6
100
AcDbLine
 10
164.876746
 20
547.602019
 11
164.876761
 21
550.967741
  0
LINE
  5
221
100
AcDbEntity
  8
M0
 62
     6
100
AcDbLine
 10
169.87678
 20
577.467497
 11
189.876761
 21
577.467467
  0
LINE
  5
222
100
AcDbEntity
  8
M0
 62
     6
100
AcDbLine
 10
178.876759
 20
547.467737
 11
189.876761
 21
559.46773
  0
LINE
  5
223
100
AcDbEntity
  8
M0
 62
     6
100
AcDbLine
 10
164.876763
 20
550.967745
 11
169.876769
 21
559.467741
  0
LINE
  5
224
100
AcDbEntity
  8
M0
 62
     6
100
AcDbLine
 10
189.876761
 20
559.46773
 11
189.876761
 21
577.467467
  0
LINE
  5
225
100
AcDbEntity
  8
M0
 62
     6
100
AcDbLine
 10
169.876769
 20
559.467741
 11
169.87678
 21
577.467497
  0
LINE
  5
226
100
AcDbEntity
  8
M0
100
AcDbLine
 10
115.653174
 20
446.468229
 11
119.676703
 21
446.468229
  0
LINE
  5
227
100
AcDbEntity
  8
M0
100
AcDbLine
 10
202.176703
 20
455.967985
 11
202.176703
 21
556.968229
  0
LINE
  5
228
100
AcDbEntity
  8
M0
100
AcDbLine
 10
168.700568
 20
557.467985
 11
164.698676
 21
557.468229
  0
LINE
  5
229
100
AcDbEntity
  8
M0
100
AcDbLine
 10
82.176688
 20
563.467985
 11
82.176703
 21
455.968229
  0
LINE
  5
22A
100
AcDbEntity
  8
M0
100
AcDbLine
 10
189.676703
 20
448.467985
 11
189.676703
 21
458.468229
  0
LINE
  5
22B
100
AcDbEntity
  8
M0
100
AcDbLine
 10
94.676703
 20
448.468229
 11
94.676703
 21
458.468229
  0
LINE
  5
22C
100
AcDbEntity
  8
M0
100
AcDbLine
 10
84.176703
 20
453.968229
 11
93.676703
 21
453.968229
  0
LINE
  5
22D
100
AcDbEntity
  8
M0
100
AcDbLine
 10
190.676703
 20
453.968229
 11
200.176703
 21
453.968229
  0
LINE
  5
22E
100
AcDbEntity
  8
M0
100
AcDbLine
 10
189.676703
 20
545.468229
 11
189.676703
 21
555.467741
  0
LINE
  5
22F
100
AcDbEntity
  8
M0
100
AcDbLine
 10
94.676703
 20
545.468229
 11
94.676703
 21
555.467985
  0
ARC
  5
230
100
AcDbEntity
  8
M0
100
AcDbCircle
 10
93.676703
 20
452.968229
 40
1.0
100
AcDbArc
 50
359.986012
 51
449.999126
  0
ARC
  5
231
100
AcDbEntity
  8
M0
100
AcDbCircle
 10
190.676703
 20
452.968229
 40
1.0
100
AcDbArc
 50
90.0
 51
179.999126
  0
ARC
  5
232
100
AcDbEntity
  8
M0
100
AcDbCircle
 10
187.676703
 20
448.468229
 40
2.0
100
AcDbArc
 50
269.999563
 51
359.993006
  0
ARC
  5
233
100
AcDbEntity
  8
M0
100
AcDbCircle
 10
200.176703
 20
455.968229
 40
2.0
100
AcDbArc
 50
269.999563
 51
359.993006
  0
ARC
  5
234
100
AcDbEntity
  8
M0
100
AcDbCircle
 10
84.176703
 20
455.968229
 40
2.0
100
AcDbArc
 50
179.999563
 51
270.0
  0
ARC
  5
235
100
AcDbEntity
  8
M0
100
AcDbCircle
 10
96.676703
 20
448.468229
 40
2.0
100
AcDbArc
 50
179.999563
 51
270.0
  0
LINE
  5
236
100
AcDbEntity
  8
M0
100
AcDbLine
 10
130.676703
 20
446.468229
 11
132.882575
 21
446.468229
  0
LINE
  5
237
100
AcDbEntity
  8
M0
100
AcDbLine
 10
164.676703
 20
446.468229
 11
168.700186
 21
446.468229
  0
ARC
  5
238
100
AcDbEntity
  8
M0
100
AcDbCircle
 10
187.676703
 20
555.467985
 40
2.0
100
AcDbArc
 50
359.992569
 51
450.0
  0
ARC
  5
239
100
AcDbEntity
  8
M0
100
AcDbCircle
 10
96.676703
 20
555.467985
 40
2.0
100
AcDbArc
 50
89.999563
 51
180.0
  0
LINE
  5
23A
100
AcDbEntity
  8
M0
100
AcDbLine
 10
84.176703
 20
565.468229
 11
94.476706
 21
565.468229
  0
LINE
  5
23B
100
AcDbEntity
  8
M0
100
AcDbLine
 10
189.419089
 20
558.968229
 11
200.176703
 21
558.968229
  0
ARC
  5
23C
100
AcDbEntity
  8
M0
100
AcDbCircle
 10
84.176703
 20
563.468229
 40
2.0
100
AcDbArc
 50
89.999563
 51
180.006994
  0
ARC
  5
23D
100
AcDbEntity
  8
M0
100
AcDbCircle
 10
200.176703
 20
556.968229
 40
2.0
100
AcDbArc
 50
0.0
 51
90.0
  0
LINE
  5
23E
100
AcDbEntity
  8
M0
100
AcDbLine
 10
119.676718
 20
557.467985
 11
115.653311
 21
557.467741
  0
LINE
  5
23F
100
AcDbEntity
  8
M0
100
AcDbLine
 10
153.676703
 20
557.468229
 11
151.470877
 21
557.467985
  0
LINE
  5
240
100
AcDbEntity
  8
M0
100
AcDbLine
 10
128.176703
 20
576.968229
 11
132.176703
 21
576.968229
  0
LINE
  5
241
100
AcDbEntity
  8
M0
100
AcDbLine
 10
127.176703
 20
567.468229
 11
132.176703
 21
567.468229
  0
LINE
  5
242
100
AcDbEntity
  8
M0
100
AcDbLine
 10
157.176703
 20
575.968229
 11
157.176703
 21
565.468229
  0
LINE
  5
243
100
AcDbEntity
  8
M0
100
AcDbLine
 10
127.176703
 20
575.968229
 11
127.176703
 21
565.468229
  0
LINE
  5
244
100
AcDbEntity
  8
M0
100
AcDbLine
 10
156.676871
 20
565.468229
 11
169.876761
 21
565.468229
  0
ARC
  5
245
100
AcDbEntity
  8
M0
100
AcDbCircle
 10
156.176703
 20
575.968229
 40
1.0
100
AcDbArc
 50
0.0
 51
90.0
  0
ARC
  5
246
100
AcDbEntity
  8
M0
100
AcDbCircle
 10
128.176703
 20
575.968229
 40
1.0
100
AcDbArc
 50
90.0
 51
180.0
  0
LINE
  5
247
100
AcDbEntity
  8
M0
100
AcDbLine
 10
82.176688
 20
471.968229
 11
92.676703
 21
471.968229
  0
LINE
  5
248
100
AcDbEntity
  8
M0
100
AcDbLine
 10
191.676703
 20
471.968229
 11
202.176703
 21
471.968229
  0
ARC
  5
249
100
AcDbEntity
  8
M0
100
AcDbCircle
 10
92.676703
 20
469.968229
 40
2.0
100
AcDbArc
 50
0.0
 51
89.999563
  0
ARC
  5
24A
100
AcDbEntity
  8
M0
100
AcDbCircle
 10
191.676703
 20
469.968229
 40
2.0
100
AcDbArc
 50
90.0
 51
179.999563
  0
LINE
  5
24B
100
AcDbEntity
  8
M0
100
AcDbLine
 10
82.176688
 20
498.218229
 11
89.176703
 21
498.218229
  0
LINE
  5
24C
100
AcDbEntity
  8
M0
100
AcDbLine
 10
82.176688
 20
499.218229
 11
86.176688
 21
499.218229
  0
LINE
  5
24D
100
AcDbEntity
  8
M0
100
AcDbLine
 10
86.176688
 20
499.218229
 11
86.176688
 21
498.218229
  0
LINE
  5
24E
100
AcDbEntity
  8
M0
100
AcDbLine
 10
85.676688
 20
499.218229
 11
85.676688
 21
498.218229
  0
LINE
  5
24F
100
AcDbEntity
  8
M0
100
AcDbLine
 10
82.676688
 20
499.218229
 11
82.676688
 21
498.218229
  0
LINE
  5
250
100
AcDbEntity
  8
M0
100
AcDbLine
 10
90.176703
 20
499.217985
 11
90.176703
 21
501.968229
  0
ARC
  5
251
100
AcDbEntity
  8
M0
100
AcDbCircle
 10
89.176703
 20
499.218229
 40
1.0
100
AcDbArc
 50
270.0
 51
359.986012
  0
LINE
  5
252
100
AcDbEntity
  8
M0
100
AcDbLine
 10
82.676688
 20
504.717985
 11
82.676688
 21
505.717985
  0
LINE
  5
253
100
AcDbEntity
  8
M0
100
AcDbLine
 10
82.176688
 20
504.717985
 11
86.176688
 21
504.717985
  0
LINE
  5
254
100
AcDbEntity
  8
M0
100
AcDbLine
 10
82.176688
 20
505.717985
 11
89.176703
 21
505.717985
  0
LINE
  5
255
100
AcDbEntity
  8
M0
100
AcDbLine
 10
85.676688
 20
504.717985
 11
85.676688
 21
505.717985
  0
LINE
  5
256
100
AcDbEntity
  8
M0
100
AcDbLine
 10
86.176688
 20
504.717985
 11
86.176688
 21
505.717985
  0
ARC
  5
257
100
AcDbEntity
  8
M0
100
AcDbCircle
 10
89.176703
 20
504.717985
 40
1.0
100
AcDbArc
 50
0.013934
 51
89.999126
  0
LINE
  5
258
100
AcDbEntity
  8
M0
100
AcDbLine
 10
90.176703
 20
504.718229
 11
90.176703
 21
501.968229
  0
LINE
  5
259
100
AcDbEntity
  8
M0
100
AcDbLine
 10
201.676703
 20
499.217985
 11
201.676703
 21
498.217985
  0
LINE
  5
25A
100
AcDbEntity
  8
M0
100
AcDbLine
 10
202.176703
 20
499.217985
 11
198.176703
 21
499.217985
  0
LINE
  5
25B
100
AcDbEntity
  8
M0
100
AcDbLine
 10
202.176703
 20
498.217985
 11
195.176703
 21
498.217985
  0
LINE
  5
25C
100
AcDbEntity
  8
M0
100
AcDbLine
 10
198.676703
 20
499.217985
 11
198.676703
 21
498.217985
  0
LINE
  5
25D
100
AcDbEntity
  8
M0
100
AcDbLine
 10
198.176703
 20
499.217985
 11
198.176703
 21
498.217985
  0
ARC
  5
25E
100
AcDbEntity
  8
M0
100
AcDbCircle
 10
195.176703
 20
499.217985
 40
1.0
100
AcDbArc
 50
180.013934
 51
269.999126
  0
LINE
  5
25F
100
AcDbEntity
  8
M0
100
AcDbLine
 10
194.176703
 20
499.217741
 11
194.176703
 21
501.967985
  0
LINE
  5
260
100
AcDbEntity
  8
M0
100
AcDbLine
 10
194.176703
 20
504.717985
 11
194.176703
 21
501.967985
  0
ARC
  5
261
100
AcDbEntity
  8
M0
100
AcDbCircle
 10
195.176703
 20
504.717741
 40
1.0
100
AcDbArc
 50
90.0
 51
179.986012
  0
LINE
  5
262
100
AcDbEntity
  8
M0
100
AcDbLine
 10
202.176703
 20
505.717741
 11
195.176703
 21
505.717741
  0
LINE
  5
263
100
AcDbEntity
  8
M0
100
AcDbLine
 10
198.176703
 20
504.717741
 11
198.176703
 21
505.717741
  0
LINE
  5
264
100
AcDbEntity
  8
M0
100
AcDbLine
 10
198.676703
 20
504.717741
 11
198.676703
 21
505.717741
  0
LINE
  5
265
100
AcDbEntity
  8
M0
100
AcDbLine
 10
202.176703
 20
504.717741
 11
198.176703
 21
504.717741
  0
LINE
  5
266
100
AcDbEntity
  8
M0
100
AcDbLine
 10
201.676703
 20
504.717741
 11
201.676703
 21
505.717741
  0
LINE
  5
267
100
AcDbEntity
  8
M0
100
AcDbLine
 10
94.176703
 20
477.468229
 11
94.176703
 21
494.968229
  0
LINE
  5
268
100
AcDbEntity
  8
M0
100
AcDbLine
 10
86.176703
 20
474.967985
 11
86.176703
 21
494.968229
  0
LINE
  5
269
100
AcDbEntity
  8
M0
100
AcDbLine
 10
82.676688
 20
474.468229
 11
85.676703
 21
474.468229
  0
LINE
  5
26A
100
AcDbEntity
  8
M0
100
AcDbLine
 10
87.176703
 20
495.968229
 11
93.176703
 21
495.968229
  0
ARC
  5
26B
100
AcDbEntity
  8
M0
100
AcDbCircle
 10
93.176703
 20
494.968229
 40
1.0
100
AcDbArc
 50
0.0
 51
89.999126
  0
ARC
  5
26C
100
AcDbEntity
  8
M0
100
AcDbCircle
 10
87.176703
 20
494.968229
 40
1.0
100
AcDbArc
 50
89.999126
 51
179.999945
  0
ARC
  5
26D
100
AcDbEntity
  8
M0
100
AcDbCircle
 10
82.676688
 20
474.968229
 40
0.5
100
AcDbArc
 50
179.998251
 51
270.0
  0
ARC
  5
26E
100
AcDbEntity
  8
M0
100
AcDbCircle
 10
85.676703
 20
474.968229
 40
0.5
100
AcDbArc
 50
270.0
 51
359.972024
  0
ARC
  5
26F
100
AcDbEntity
  8
M0
100
AcDbCircle
 10
94.676703
 20
477.468229
 40
0.5
100
AcDbArc
 50
179.998251
 51
270.0
  0
LINE
  5
270
100
AcDbEntity
  8
M0
100
AcDbLine
 10
82.676688
 20
484.468229
 11
85.676703
 21
484.468229
  0
ARC
  5
271
100
AcDbEntity
  8
M0
100
AcDbCircle
 10
82.676688
 20
484.968229
 40
0.5
100
AcDbArc
 50
179.998251
 51
270.0
  0
ARC
  5
272
100
AcDbEntity
  8
M0
100
AcDbCircle
 10
85.676703
 20
484.968229
 40
0.5
100
AcDbArc
 50
270.0
 51
359.972024
  0
ARC
  5
273
100
AcDbEntity
  8
M0
100
AcDbCircle
 10
94.676703
 20
485.968229
 40
0.5
100
AcDbArc
 50
179.999891
 51
270.0
  0
LINE
  5
274
100
AcDbEntity
  8
M0
100
AcDbLine
 10
86.176703
 20
476.968229
 11
94.676703
 21
476.968229
  0
ARC
  5
275
100
AcDbEntity
  8
M0
100
AcDbCircle
 10
82.676688
 20
528.967985
 40
0.5
100
AcDbArc
 50
89.998251
 51
180.0
  0
LINE
  5
276
100
AcDbEntity
  8
M0
100
AcDbLine
 10
82.676688
 20
529.467985
 11
85.676703
 21
529.467985
  0
ARC
  5
277
100
AcDbEntity
  8
M0
100
AcDbCircle
 10
85.676703
 20
528.967985
 40
0.5
100
AcDbArc
 50
0.026228
 51
89.998251
  0
LINE
  5
278
100
AcDbEntity
  8
M0
100
AcDbLine
 10
86.176703
 20
528.968229
 11
86.176703
 21
508.967985
  0
ARC
  5
279
100
AcDbEntity
  8
M0
100
AcDbCircle
 10
87.176703
 20
508.967985
 40
1.0
100
AcDbArc
 50
180.0
 51
270.0
  0
LINE
  5
27A
100
AcDbEntity
  8
M0
100
AcDbLine
 10
87.176703
 20
507.967985
 11
93.176703
 21
507.967985
  0
ARC
  5
27B
100
AcDbEntity
  8
M0
100
AcDbCircle
 10
93.176703
 20
508.967985
 40
1.0
100
AcDbArc
 50
-90.0
 51
0.0
  0
LINE
  5
27C
100
AcDbEntity
  8
M0
100
AcDbLine
 10
94.176703
 20
526.467985
 11
94.176703
 21
508.967985
  0
ARC
  5
27D
100
AcDbEntity
  8
M0
100
AcDbCircle
 10
94.676703
 20
526.467985
 40
0.5
100
AcDbArc
 50
89.998251
 51
180.0
  0
LINE
  5
27E
100
AcDbEntity
  8
M0
100
AcDbLine
 10
86.176703
 20
526.967985
 11
94.676703
 21
526.967985
  0
ARC
  5
27F
100
AcDbEntity
  8
M0
100
AcDbCircle
 10
94.676703
 20
517.967985
 40
0.5
100
AcDbArc
 50
89.998251
 51
180.0
  0
ARC
  5
280
100
AcDbEntity
  8
M0
100
AcDbCircle
 10
82.676688
 20
518.967985
 40
0.5
100
AcDbArc
 50
89.998251
 51
180.0
  0
LINE
  5
281
100
AcDbEntity
  8
M0
100
AcDbLine
 10
82.676688
 20
519.467985
 11
85.676703
 21
519.467985
  0
ARC
  5
282
100
AcDbEntity
  8
M0
100
AcDbCircle
 10
85.676703
 20
518.967985
 40
0.5
100
AcDbArc
 50
0.026228
 51
89.998251
  0
LINE
  5
283
100
AcDbEntity
  8
M0
100
AcDbLine
 10
197.176703
 20
507.967741
 11
191.176703
 21
507.967741
  0
LINE
  5
284
100
AcDbEntity
  8
M0
100
AcDbLine
 10
198.176703
 20
528.967985
 11
198.176703
 21
508.967741
  0
LINE
  5
285
100
AcDbEntity
  8
M0
100
AcDbLine
 10
201.676703
 20
529.467741
 11
198.676703
 21
529.467741
  0
LINE
  5
286
100
AcDbEntity
  8
M0
100
AcDbLine
 10
201.676703
 20
519.467741
 11
198.676703
 21
519.467741
  0
LINE
  5
287
100
AcDbEntity
  8
M0
100
AcDbLine
 10
198.176703
 20
526.967741
 11
189.676703
 21
526.967741
  0
LINE
  5
288
100
AcDbEntity
  8
M0
100
AcDbLine
 10
190.176703
 20
526.467741
 11
190.176703
 21
508.967741
  0
ARC
  5
289
100
AcDbEntity
  8
M0
100
AcDbCircle
 10
198.676703
 20
528.967741
 40
0.5
100
AcDbArc
 50
90.0
 51
179.972024
  0
ARC
  5
28A
100
AcDbEntity
  8
M0
100
AcDbCircle
 10
201.676703
 20
528.967741
 40
0.5
100
AcDbArc
 50
0.0
 51
90.0
  0
ARC
  5
28B
100
AcDbEntity
  8
M0
100
AcDbCircle
 10
201.676703
 20
518.967741
 40
0.5
100
AcDbArc
 50
0.0
 51
90.0
  0
ARC
  5
28C
100
AcDbEntity
  8
M0
100
AcDbCircle
 10
198.676703
 20
518.967741
 40
0.5
100
AcDbArc
 50
90.0
 51
179.972024
  0
ARC
  5
28D
100
AcDbEntity
  8
M0
100
AcDbCircle
 10
197.176703
 20
508.967741
 40
1.0
100
AcDbArc
 50
269.999126
 51
360.0
  0
ARC
  5
28E
100
AcDbEntity
  8
M0
100
AcDbCircle
 10
191.176703
 20
508.967741
 40
1.0
100
AcDbArc
 50
180.0
 51
269.999126
  0
ARC
  5
28F
100
AcDbEntity
  8
M0
100
AcDbCircle
 10
189.676703
 20
517.967741
 40
0.5
100
AcDbArc
 50
0.0
 51
90.0
  0
ARC
  5
290
100
AcDbEntity
  8
M0
100
AcDbCircle
 10
189.676703
 20
526.467741
 40
0.5
100
AcDbArc
 50
0.0
 51
90.0
  0
ARC
  5
291
100
AcDbEntity
  8
M0
100
AcDbCircle
 10
191.176459
 20
494.968718
 40
1.0
100
AcDbArc
 50
90.0
 51
179.999945
  0
ARC
  5
292
100
AcDbEntity
  8
M0
100
AcDbCircle
 10
189.676459
 20
485.968718
 40
0.5
100
AcDbArc
 50
-90.001749
 51
0.0
  0
LINE
  5
293
100
AcDbEntity
  8
M0
100
AcDbLine
 10
190.176459
 20
477.468718
 11
190.176459
 21
494.968718
  0
ARC
  5
294
100
AcDbEntity
  8
M0
100
AcDbCircle
 10
189.676459
 20
477.468718
 40
0.5
100
AcDbArc
 50
-90.001749
 51
0.0
  0
LINE
  5
295
100
AcDbEntity
  8
M0
100
AcDbLine
 10
198.176459
 20
476.968718
 11
189.676459
 21
476.968718
  0
LINE
  5
296
100
AcDbEntity
  8
M0
100
AcDbLine
 10
197.176459
 20
495.968718
 11
191.176459
 21
495.968718
  0
ARC
  5
297
100
AcDbEntity
  8
M0
100
AcDbCircle
 10
197.176459
 20
494.968718
 40
1.0
100
AcDbArc
 50
0.0
 51
90.0
  0
LINE
  5
298
100
AcDbEntity
  8
M0
100
AcDbLine
 10
198.176459
 20
474.968474
 11
198.176459
 21
494.968718
  0
ARC
  5
299
100
AcDbEntity
  8
M0
100
AcDbCircle
 10
198.676459
 20
474.968718
 40
0.5
100
AcDbArc
 50
180.026228
 51
269.998251
  0
LINE
  5
29A
100
AcDbEntity
  8
M0
100
AcDbLine
 10
201.676459
 20
474.468718
 11
198.676459
 21
474.468718
  0
ARC
  5
29B
100
AcDbEntity
  8
M0
100
AcDbCircle
 10
201.676459
 20
474.968718
 40
0.5
100
AcDbArc
 50
-90.001749
 51
0.0
  0
ARC
  5
29C
100
AcDbEntity
  8
M0
100
AcDbCircle
 10
201.676459
 20
484.968718
 40
0.5
100
AcDbArc
 50
-90.001749
 51
0.0
  0
LINE
  5
29D
100
AcDbEntity
  8
M0
100
AcDbLine
 10
201.676459
 20
484.468718
 11
198.676459
 21
484.468718
  0
ARC
  5
29E
100
AcDbEntity
  8
M0
100
AcDbCircle
 10
198.676459
 20
484.968718
 40
0.5
100
AcDbArc
 50
180.026228
 51
269.998251
  0
LINE
  5
29F
100
AcDbEntity
  8
M0
100
AcDbLine
 10
86.176703
 20
487.468229
 11
86.77674
 21
487.468229
  0
LINE
  5
2A0
100
AcDbEntity
  8
M0
100
AcDbLine
 10
86.176703
 20
516.468229
 11
86.776755
 21
516.468229
  0
LINE
  5
2A1
100
AcDbEntity
  8
M0
100
AcDbLine
 10
190.176703
 20
516.468229
 11
191.026694
 21
516.468229
  0
LINE
  5
2A2
100
AcDbEntity
  8
M0
100
AcDbLine
 10
190.176459
 20
487.468229
 11
191.026694
 21
487.468229
  0
LINE
  5
2A3
100
AcDbEntity
  8
M0
100
AcDbLine
 10
86.176703
 20
477.868132
 11
86.776709
 21
477.868132
  0
LINE
  5
2A4
100
AcDbEntity
  8
M0
100
AcDbLine
 10
86.176703
 20
526.068083
 11
86.776755
 21
526.068083
  0
LINE
  5
2A5
100
AcDbEntity
  8
M0
100
AcDbLine
 10
190.176703
 20
526.068083
 11
191.026694
 21
526.068083
  0
LINE
  5
2A6
100
AcDbEntity
  8
M0
100
AcDbLine
 10
190.176459
 20
477.868132
 11
191.026694
 21
477.868132
  0
LINE
  5
2A7
100
AcDbEntity
  8
M0
100
AcDbLine
 10
93.326727
 20
486.968229
 11
93.426703
 21
486.968229
  0
LINE
  5
2A8
100
AcDbEntity
  8
M0
100
AcDbLine
 10
93.326743
 20
516.968229
 11
93.426703
 21
516.968229
  0
LINE
  5
2A9
100
AcDbEntity
  8
M0
100
AcDbLine
 10
86.176703
 20
485.968229
 11
86.360815
 21
485.968229
  0
LINE
  5
2AA
100
AcDbEntity
  8
M0
100
AcDbLine
 10
86.176703
 20
517.968229
 11
86.360831
 21
517.968229
  0
LINE
  5
2AB
100
AcDbEntity
  8
M0
100
AcDbLine
 10
93.426703
 20
487.468229
 11
93.426703
 21
486.468229
  0
LINE
  5
2AC
100
AcDbEntity
  8
M0
100
AcDbLine
 10
93.426703
 20
517.468229
 11
93.426703
 21
516.468229
  0
LINE
  5
2AD
100
AcDbEntity
  8
M0
100
AcDbLine
 10
198.176703
 20
485.967985
 11
197.992819
 21
485.967741
  0
LINE
  5
2AE
100
AcDbEntity
  8
M0
100
AcDbLine
 10
191.026694
 20
486.967741
 11
190.926703
 21
486.967985
  0
LINE
  5
2AF
100
AcDbEntity
  8
M0
100
AcDbLine
 10
190.926703
 20
487.467985
 11
190.926703
 21
486.467497
  0
LINE
  5
2B0
100
AcDbEntity
  8
M0
100
AcDbLine
 10
190.926703
 20
517.467741
 11
190.926703
 21
516.467985
  0
LINE
  5
2B1
100
AcDbEntity
  8
M0
100
AcDbLine
 10
198.176703
 20
517.967985
 11
197.992331
 21
517.967741
  0
LINE
  5
2B2
100
AcDbEntity
  8
M0
100
AcDbLine
 10
191.026694
 20
516.967741
 11
190.926703
 21
516.967985
  0
LINE
  5
2B3
100
AcDbEntity
  8
M0
100
AcDbLine
 10
93.992453
 20
485.968229
 11
94.176703
 21
485.968229
  0
LINE
  5
2B4
100
AcDbEntity
  8
M0
100
AcDbLine
 10
93.992606
 20
517.968229
 11
94.176703
 21
517.968229
  0
ARC
  5
2B5
100
AcDbEntity
  8
M0
100
AcDbCircle
 10
93.926703
 20
517.468229
 40
0.5
100
AcDbArc
 50
174.6204
 51
180.0
  0
ARC
  5
2B6
100
AcDbEntity
  8
M0
100
AcDbCircle
 10
86.426703
 20
517.468229
 40
0.5
100
AcDbArc
 50
0.0
 51
5.379544
  0
ARC
  5
2B7
100
AcDbEntity
  8
M0
100
AcDbCircle
 10
93.926703
 20
486.468229
 40
0.5
100
AcDbArc
 50
179.999891
 51
185.435364
  0
ARC
  5
2B8
100
AcDbEntity
  8
M0
100
AcDbCircle
 10
86.426703
 20
486.468229
 40
0.5
100
AcDbArc
 50
354.592657
 51
360.0
  0
LINE
  5
2B9
100
AcDbEntity
  8
M0
100
AcDbLine
 10
190.361044
 20
517.967741
 11
190.176703
 21
517.967985
  0
LINE
  5
2BA
100
AcDbEntity
  8
M0
100
AcDbLine
 10
190.360556
 20
485.967741
 11
190.176703
 21
485.967985
  0
ARC
  5
2BB
100
AcDbEntity
  8
M0
100
AcDbCircle
 10
190.426703
 20
486.467497
 40
0.5
100
AcDbArc
 50
354.676817
 51
360.0
  0
ARC
  5
2BC
100
AcDbEntity
  8
M0
100
AcDbCircle
 10
197.926703
 20
486.467497
 40
0.5
100
AcDbArc
 50
179.999891
 51
185.322803
  0
ARC
  5
2BD
100
AcDbEntity
  8
M0
100
AcDbCircle
 10
197.926703
 20
517.467741
 40
0.5
100
AcDbArc
 50
174.564367
 51
180.0
  0
ARC
  5
2BE
100
AcDbEntity
  8
M0
100
AcDbCircle
 10
190.426703
 20
517.467741
 40
0.5
100
AcDbArc
 50
0.0
 51
5.435908
  0
LINE
  5
2BF
100
AcDbEntity
  8
M0
100
AcDbLine
 10
86.226721
 20
492.618132
 11
86.176703
 21
492.468229
  0
LINE
  5
2C0
100
AcDbEntity
  8
M0
100
AcDbLine
 10
94.126746
 20
492.617888
 11
94.176703
 21
492.468229
  0
LINE
  5
2C1
100
AcDbEntity
  8
M0
100
AcDbLine
 10
86.226691
 20
483.018034
 11
86.176703
 21
482.868132
  0
LINE
  5
2C2
100
AcDbEntity
  8
M0
100
AcDbLine
 10
94.126715
 20
483.018034
 11
94.176703
 21
482.868132
  0
LINE
  5
2C3
100
AcDbEntity
  8
M0
100
AcDbLine
 10
86.226736
 20
520.917936
 11
86.176703
 21
521.068083
  0
LINE
  5
2C4
100
AcDbEntity
  8
M0
100
AcDbLine
 10
86.226736
 20
511.317839
 11
86.176703
 21
511.467985
  0
LINE
  5
2C5
100
AcDbEntity
  8
M0
100
AcDbLine
 10
94.12673
 20
511.317839
 11
94.176703
 21
511.467985
  0
LINE
  5
2C6
100
AcDbEntity
  8
M0
100
AcDbLine
 10
94.12673
 20
520.917936
 11
94.176703
 21
521.068083
  0
LINE
  5
2C7
100
AcDbEntity
  8
M0
100
AcDbLine
 10
198.1267
 20
483.01779
 11
198.176703
 21
482.867888
  0
LINE
  5
2C8
100
AcDbEntity
  8
M0
100
AcDbLine
 10
190.226691
 20
483.01779
 11
190.176703
 21
482.867888
  0
LINE
  5
2C9
100
AcDbEntity
  8
M0
100
AcDbLine
 10
190.226691
 20
492.617888
 11
190.176703
 21
492.467985
  0
LINE
  5
2CA
100
AcDbEntity
  8
M0
100
AcDbLine
 10
198.1267
 20
492.617888
 11
198.176703
 21
492.467985
  0
LINE
  5
2CB
100
AcDbEntity
  8
M0
100
AcDbLine
 10
198.1267
 20
511.317595
 11
198.176703
 21
511.467741
  0
LINE
  5
2CC
100
AcDbEntity
  8
M0
100
AcDbLine
 10
198.1267
 20
520.917692
 11
198.176703
 21
521.067839
  0
LINE
  5
2CD
100
AcDbEntity
  8
M0
100
AcDbLine
 10
190.226691
 20
520.917692
 11
190.176703
 21
521.067839
  0
LINE
  5
2CE
100
AcDbEntity
  8
M0
100
AcDbLine
 10
190.226691
 20
511.317595
 11
190.176703
 21
511.467741
  0
LINE
  5
2CF
100
AcDbEntity
  8
M0
100
AcDbLine
 10
84.676688
 20
474.468229
 11
84.676688
 21
471.968229
  0
LINE
  5
2D0
100
AcDbEntity
  8
M0
100
AcDbLine
 10
199.676703
 20
474.468718
 11
199.676703
 21
471.968229
  0
LINE
  5
2D1
100
AcDbEntity
  8
M0
100
AcDbLine
 10
199.676703
 20
531.968229
 11
199.676703
 21
529.467741
  0
LINE
  5
2D2
100
AcDbEntity
  8
M0
100
AcDbLine
 10
84.676688
 20
529.467985
 11
84.676688
 21
531.968229
  0
LINE
  5
2D3
100
AcDbEntity
  8
M0
100
AcDbLine
 10
82.176688
 20
531.967985
 11
84.676688
 21
531.967985
  0
LINE
  5
2D4
100
AcDbEntity
  8
M0
100
AcDbLine
 10
202.176703
 20
531.967741
 11
199.676703
 21
531.967741
  0
LINE
  5
2D5
100
AcDbEntity
  8
M0
100
AcDbLine
 10
132.882529
 20
557.467985
 11
130.676703
 21
557.467985
  0
LINE
  5
2D6
100
AcDbEntity
  8
M0
100
AcDbLine
 10
152.176703
 20
567.468229
 11
157.176703
 21
567.468229
  0
LINE
  5
2D7
100
AcDbEntity
  8
M0
100
AcDbLine
 10
152.176703
 20
576.968229
 11
156.176703
 21
576.968229
  0
LINE
  5
2D8
100
AcDbEntity
  8
M0
100
AcDbLine
 10
114.476706
 20
565.468229
 11
127.176703
 21
565.468229
  0
LINE
  5
2D9
100
AcDbEntity
  8
M0
100
AcDbLine
 10
151.470816
 20
446.468229
 11
153.676703
 21
446.468229
  0
LINE
  5
2DA
100
AcDbEntity
  8
M0
100
AcDbLine
 10
197.576682
 20
477.868132
 11
198.176459
 21
477.868132
  0
LINE
  5
2DB
100
AcDbEntity
  8
M0
100
AcDbLine
 10
197.576682
 20
487.468229
 11
198.176459
 21
487.468229
  0
LINE
  5
2DC
100
AcDbEntity
  8
M0
100
AcDbLine
 10
197.576682
 20
516.468229
 11
198.176703
 21
516.468229
  0
LINE
  5
2DD
100
AcDbEntity
  8
M0
100
AcDbLine
 10
197.576682
 20
526.068083
 11
198.176703
 21
526.068083
  0
LINE
  5
2DE
100
AcDbEntity
  8
M0
100
AcDbLine
 10
93.326743
 20
526.068083
 11
94.176703
 21
526.068083
  0
LINE
  5
2DF
100
AcDbEntity
  8
M0
100
AcDbLine
 10
93.326743
 20
516.468229
 11
94.176703
 21
516.468229
  0
LINE
  5
2E0
100
AcDbEntity
  8
M0
100
AcDbLine
 10
93.326727
 20
487.468229
 11
94.176703
 21
487.468229
  0
LINE
  5
2E1
100
AcDbEntity
  8
M0
100
AcDbLine
 10
93.326697
 20
477.868132
 11
94.176703
 21
477.868132
  0
LINE
  5
2E2
100
AcDbEntity
  8
M0
 62
     5
100
AcDbLine
 10
179.876761
 20
576.972853
 11
186.378226
 21
573.220259
  0
LINE
  5
2E3
100
AcDbEntity
  8
M0
 62
     5
100
AcDbLine
 10
186.378226
 20
573.220259
 11
186.378226
 21
565.714613
  0
LINE
  5
2E4
100
AcDbEntity
  8
M0
 62
     5
100
AcDbLine
 10
186.378226
 20
565.714613
 11
179.876761
 21
561.961867
  0
LINE
  5
2E5
100
AcDbEntity
  8
M0
 62
     5
100
AcDbLine
 10
179.876761
 20
561.961867
 11
173.377737
 21
565.714613
  0
LINE
  5
2E6
100
AcDbEntity
  8
M0
 62
     5
100
AcDbLine
 10
173.377737
 20
565.714613
 11
173.377737
 21
573.220259
  0
LINE
  5
2E7
100
AcDbEntity
  8
M0
 62
     5
100
AcDbLine
 10
173.377737
 20
573.220259
 11
179.876761
 21
576.972853
  0
CIRCLE
  5
2E8
100
AcDbEntity
  8
M0
 62
     5
100
AcDbCircle
 10
179.876761
 20
569.467512
 40
4.0
  0
LINE
  5
2E9
100
AcDbEntity
  8
M0
  6
DASHDOT
 62
     5
100
AcDbLine
 10
190.029105
 20
569.467512
 11
169.724417
 21
569.467512
  0
LINE
  5
2EA
100
AcDbEntity
  8
M0
  6
DASHDOT
 62
     5
100
AcDbLine
 10
179.876761
 20
579.619841
 11
179.876761
 21
559.315184
  0
LINE
  5
2EB
100
AcDbEntity
  8
M0
 62
     5
100
AcDbLine
 10
142.176703
 20
576.973585
 11
148.678168
 21
573.220991
  0
LINE
  5
2EC
100
AcDbEntity
  8
M0
 62
     5
100
AcDbLine
 10
148.678168
 20
573.220991
 11
148.678168
 21
565.715346
  0
LINE
  5
2ED
100
AcDbEntity
  8
M0
 62
     5
100
AcDbLine
 10
148.678168
 20
565.715346
 11
142.176703
 21
561.962599
  0
LINE
  5
2EE
100
AcDbEntity
  8
M0
 62
     5
100
AcDbLine
 10
142.176703
 20
561.962599
 11
135.677679
 21
565.715346
  0
LINE
  5
2EF
100
AcDbEntity
  8
M0
 62
     5
100
AcDbLine
 10
135.677679
 20
565.715346
 11
135.677679
 21
573.220991
  0
LINE
  5
2F0
100
AcDbEntity
  8
M0
 62
     5
100
AcDbLine
 10
135.677679
 20
573.220991
 11
142.176703
 21
576.973585
  0
CIRCLE
  5
2F1
100
AcDbEntity
  8
M0
 62
     5
100
AcDbCircle
 10
142.176703
 20
569.468245
 40
4.0
  0
LINE
  5
2F2
100
AcDbEntity
  8
M0
  6
DASHDOT
 62
     5
100
AcDbLine
 10
152.329047
 20
569.468245
 11
132.024359
 21
569.468245
  0
LINE
  5
2F3
100
AcDbEntity
  8
M0
  6
DASHDOT
 62
     5
100
AcDbLine
 10
142.176703
 20
579.620573
 11
142.176703
 21
559.315916
  0
LINE
  5
2F4
100
AcDbEntity
  8
M0
 62
     5
100
AcDbLine
 10
104.476706
 20
576.973585
 11
110.978171
 21
573.220991
  0
LINE
  5
2F5
100
AcDbEntity
  8
M0
 62
     5
100
AcDbLine
 10
110.978171
 20
573.220991
 11
110.978171
 21
565.715346
  0
LINE
  5
2F6
100
AcDbEntity
  8
M0
 62
     5
100
AcDbLine
 10
110.978171
 20
565.715346
 11
104.476706
 21
561.962599
  0
LINE
  5
2F7
100
AcDbEntity
  8
M0
 62
     5
100
AcDbLine
 10
104.476706
 20
561.962599
 11
97.977683
 21
565.715346
  0
LINE
  5
2F8
100
AcDbEntity
  8
M0
 62
     5
100
AcDbLine
 10
97.977683
 20
565.715346
 11
97.977683
 21
573.220991
  0
LINE
  5
2F9
100
AcDbEntity
  8
M0
 62
     5
100
AcDbLine
 10
97.977683
 20
573.220991
 11
104.476706
 21
576.973585
  0
CIRCLE
  5
2FA
100
AcDbEntity
  8
M0
 62
     5
100
AcDbCircle
 10
104.476706
 20
569.468245
 40
4.0
  0
LINE
  5
2FB
100
AcDbEntity
  8
M0
  6
DASHDOT
 62
     5
100
AcDbLine
 10
114.62905
 20
569.468245
 11
94.324362
 21
569.468245
  0
LINE
  5
2FC
100
AcDbEntity
  8
M0
  6
DASHDOT
 62
     5
100
AcDbLine
 10
104.476706
 20
579.620573
 11
104.476706
 21
559.315916
  0
LINE
  5
2FD
100
AcDbEntity
  8
M0
 62
     5
100
AcDbLine
 10
179.876685
 20
441.97357
 11
186.378149
 21
438.220976
  0
LINE
  5
2FE
100
AcDbEntity
  8
M0
 62
     5
100
AcDbLine
 10
186.378149
 20
438.220976
 11
186.378149
 21
430.71533
  0
LINE
  5
2FF
100
AcDbEntity
  8
M0
 62
     5
100
AcDbLine
 10
186.378149
 20
430.71533
 11
179.876685
 21
426.962584
  0
LINE
  5
300
100
AcDbEntity
  8
M0
 62
     5
100
AcDbLine
 10
179.876685
 20
426.962584
 11
173.377661
 21
430.71533
  0
LINE
  5
301
100
AcDbEntity
  8
M0
 62
     5
100
AcDbLine
 10
173.377661
 20
430.71533
 11
173.377661
 21
438.220976
  0
LINE
  5
302
100
AcDbEntity
  8
M0
 62
     5
100
AcDbLine
 10
173.377661
 20
438.220976
 11
179.876685
 21
441.97357
  0
CIRCLE
  5
303
100
AcDbEntity
  8
M0
 62
     5
100
AcDbCircle
 10
179.876685
 20
434.468229
 40
4.0
  0
LINE
  5
304
100
AcDbEntity
  8
M0
  6
DASHDOT
 62
     5
100
AcDbLine
 10
190.029028
 20
434.468229
 11
169.724341
 21
434.468229
  0
LINE
  5
305
100
AcDbEntity
  8
M0
  6
DASHDOT
 62
     5
100
AcDbLine
 10
179.876685
 20
444.620558
 11
179.876685
 21
424.315901
  0
LINE
  5
306
100
AcDbEntity
  8
M0
 62
     5
100
AcDbLine
 10
142.176703
 20
441.973616
 11
148.678168
 21
438.221022
  0
LINE
  5
307
100
AcDbEntity
  8
M0
 62
     5
100
AcDbLine
 10
148.678168
 20
438.221022
 11
148.678168
 21
430.715376
  0
LINE
  5
308
100
AcDbEntity
  8
M0
 62
     5
100
AcDbLine
 10
148.678168
 20
430.715376
 11
142.176703
 21
426.962629
  0
LINE
  5
309
100
AcDbEntity
  8
M0
 62
     5
100
AcDbLine
 10
142.176703
 20
426.962629
 11
135.677679
 21
430.715376
  0
LINE
  5
30A
100
AcDbEntity
  8
M0
 62
     5
100
AcDbLine
 10
135.677679
 20
430.715376
 11
135.677679
 21
438.221022
  0
LINE
  5
30B
100
AcDbEntity
  8
M0
 62
     5
100
AcDbLine
 10
135.677679
 20
438.221022
 11
142.176703
 21
441.973616
  0
CIRCLE
  5
30C
100
AcDbEntity
  8
M0
 62
     5
100
AcDbCircle
 10
142.176703
 20
434.468275
 40
4.0
  0
LINE
  5
30D
100
AcDbEntity
  8
M0
  6
DASHDOT
 62
     5
100
AcDbLine
 10
152.329047
 20
434.468275
 11
132.024359
 21
434.468275
  0
LINE
  5
30E
100
AcDbEntity
  8
M0
  6
DASHDOT
 62
     5
100
AcDbLine
 10
142.176703
 20
444.620604
 11
142.176703
 21
424.315947
  0
LINE
  5
30F
100
AcDbEntity
  8
M0
 62
     5
100
AcDbLine
 10
104.476706
 20
441.973616
 11
110.978171
 21
438.221022
  0
LINE
  5
310
100
AcDbEntity
  8
M0
 62
     5
100
AcDbLine
 10
110.978171
 20
438.221022
 11
110.978171
 21
430.715376
  0
LINE
  5
311
100
AcDbEntity
  8
M0
 62
     5
100
AcDbLine
 10
110.978171
 20
430.715376
 11
104.476706
 21
426.962629
  0
LINE
  5
312
100
AcDbEntity
  8
M0
 62
     5
100
AcDbLine
 10
104.476706
 20
426.962629
 11
97.977683
 21
430.715376
  0
LINE
  5
313
100
AcDbEntity
  8
M0
 62
     5
100
AcDbLine
 10
97.977683
 20
430.715376
 11
97.977683
 21
438.221022
  0
LINE
  5
314
100
AcDbEntity
  8
M0
 62
     5
100
AcDbLine
 10
97.977683
 20
438.221022
 11
104.476706
 21
441.973616
  0
CIRCLE
  5
315
100
AcDbEntity
  8
M0
 62
     5
100
AcDbCircle
 10
104.476706
 20
434.468275
 40
4.0
  0
LINE
  5
316
100
AcDbEntity
  8
M0
  6
DASHDOT
 62
     5
100
AcDbLine
 10
114.62905
 20
434.468275
 11
94.324362
 21
434.468275
  0
LINE
  5
317
100
AcDbEntity
  8
M0
  6
DASHDOT
 62
     5
100
AcDbLine
 10
104.476706
 20
444.620604
 11
104.476706
 21
424.315947
  0
LINE
  5
318
100
AcDbEntity
  8
M0
 62
     5
100
AcDbLine
 10
173.679816
 20
455.064192
 11
172.972708
 21
455.7713
  0
LINE
  5
319
100
AcDbEntity
  8
M0
 62
     5
100
AcDbLine
 10
172.972708
 20
455.7713
 11
171.876715
 21
454.675291
  0
LINE
  5
31A
100
AcDbEntity
  8
M0
 62
     5
100
AcDbLine
 10
170.073584
 20
452.872175
 11
170.780692
 21
452.165068
  0
LINE
  5
31B
100
AcDbEntity
  8
M0
 62
     5
100
AcDbLine
 10
170.780692
 20
452.165068
 11
171.8767
 21
453.261091
  0
LINE
  5
31C
100
AcDbEntity
  8
M0
 62
     5
100
AcDbLine
 10
171.169608
 20
453.968199
 11
170.073584
 21
452.872175
  0
LINE
  5
31D
100
AcDbEntity
  8
M0
 62
     5
100
AcDbLine
 10
172.583807
 20
453.968184
 11
173.679816
 21
455.064192
  0
LINE
  5
31E
100
AcDbEntity
  8
M0
 62
     5
100
AcDbLine
 10
173.679861
 20
452.872145
 11
172.583807
 21
453.968184
  0
LINE
  5
31F
100
AcDbEntity
  8
M0
 62
     5
100
AcDbLine
 10
170.780661
 20
455.771345
 11
170.073554
 21
455.064238
  0
LINE
  5
320
100
AcDbEntity
  8
M0
 62
     5
100
AcDbLine
 10
170.073554
 20
455.064238
 11
171.169608
 21
453.968199
  0
LINE
  5
321
100
AcDbEntity
  8
M0
 62
     5
100
AcDbLine
 10
172.972754
 20
452.165037
 11
173.679861
 21
452.872145
  0
ARC
  5
322
100
AcDbEntity
  8
M0
 62
     5
100
AcDbCircle
 10
171.876715
 20
453.968199
 40
3.5
100
AcDbArc
 50
134.413916
 51
405.586239
  0
LINE
  5
323
100
AcDbEntity
  8
M0
 62
     5
100
AcDbLine
 10
171.876715
 20
454.675291
 11
170.780661
 21
455.771345
  0
LINE
  5
324
100
AcDbEntity
  8
M0
 62
     5
100
AcDbLine
 10
171.8767
 20
453.261091
 11
172.972754
 21
452.165037
  0
LINE
  5
325
100
AcDbEntity
  8
M0
 62
     5
100
AcDbLine
 10
143.979819
 20
455.064253
 11
143.272711
 21
455.771361
  0
LINE
  5
326
100
AcDbEntity
  8
M0
 62
     5
100
AcDbLine
 10
143.272711
 20
455.771361
 11
142.176718
 21
454.675352
  0
LINE
  5
327
100
AcDbEntity
  8
M0
 62
     5
100
AcDbLine
 10
140.373587
 20
452.872236
 11
141.080695
 21
452.165129
  0
LINE
  5
328
100
AcDbEntity
  8
M0
 62
     5
100
AcDbLine
 10
141.080695
 20
452.165129
 11
142.176703
 21
453.261152
  0
LINE
  5
329
100
AcDbEntity
  8
M0
 62
     5
100
AcDbLine
 10
141.469611
 20
453.96826
 11
140.373587
 21
452.872236
  0
LINE
  5
32A
100
AcDbEntity
  8
M0
 62
     5
100
AcDbLine
 10
142.88381
 20
453.968245
 11
143.979819
 21
455.064253
  0
LINE
  5
32B
100
AcDbEntity
  8
M0
 62
     5
100
AcDbLine
 10
143.979865
 20
452.872206
 11
142.88381
 21
453.968245
  0
LINE
  5
32C
100
AcDbEntity
  8
M0
 62
     5
100
AcDbLine
 10
141.080664
 20
455.771406
 11
140.373557
 21
455.064299
  0
LINE
  5
32D
100
AcDbEntity
  8
M0
 62
     5
100
AcDbLine
 10
140.373557
 20
455.064299
 11
141.469611
 21
453.96826
  0
LINE
  5
32E
100
AcDbEntity
  8
M0
 62
     5
100
AcDbLine
 10
143.272757
 20
452.165098
 11
143.979865
 21
452.872206
  0
ARC
  5
32F
100
AcDbEntity
  8
M0
 62
     5
100
AcDbCircle
 10
142.176718
 20
453.96826
 40
3.5
100
AcDbArc
 50
134.41534
 51
405.584826
  0
LINE
  5
330
100
AcDbEntity
  8
M0
 62
     5
100
AcDbLine
 10
142.176718
 20
454.675352
 11
141.080664
 21
455.771406
  0
LINE
  5
331
100
AcDbEntity
  8
M0
 62
     5
100
AcDbLine
 10
142.176703
 20
453.261152
 11
143.272757
 21
452.165098
  0
LINE
  5
332
100
AcDbEntity
  8
M0
  6
DASHDOT
 62
     5
100
AcDbLine
 10
142.176703
 20
448.46826
 11
142.176718
 21
459.468245
  0
LINE
  5
333
100
AcDbEntity
  8
M0
 62
     5
100
AcDbLine
 10
114.279822
 20
455.064253
 11
113.572714
 21
455.771361
  0
LINE
  5
334
100
AcDbEntity
  8
M0
 62
     5
100
AcDbLine
 10
113.572714
 20
455.771361
 11
112.476721
 21
454.675352
  0
LINE
  5
335
100
AcDbEntity
  8
M0
 62
     5
100
AcDbLine
 10
110.67359
 20
452.872236
 11
111.380698
 21
452.165129
  0
LINE
  5
336
100
AcDbEntity
  8
M0
 62
     5
100
AcDbLine
 10
111.380698
 20
452.165129
 11
112.476706
 21
453.261152
  0
LINE
  5
337
100
AcDbEntity
  8
M0
 62
     5
100
AcDbLine
 10
111.769614
 20
453.96826
 11
110.67359
 21
452.872236
  0
LINE
  5
338
100
AcDbEntity
  8
M0
 62
     5
100
AcDbLine
 10
113.183814
 20
453.968245
 11
114.279822
 21
455.064253
  0
LINE
  5
339
100
AcDbEntity
  8
M0
 62
     5
100
AcDbLine
 10
114.279868
 20
452.872206
 11
113.183814
 21
453.968245
  0
LINE
  5
33A
100
AcDbEntity
  8
M0
 62
     5
100
AcDbLine
 10
111.380667
 20
455.771406
 11
110.67356
 21
455.064299
  0
LINE
  5
33B
100
AcDbEntity
  8
M0
 62
     5
100
AcDbLine
 10
110.67356
 20
455.064299
 11
111.769614
 21
453.96826
  0
LINE
  5
33C
100
AcDbEntity
  8
M0
 62
     5
100
AcDbLine
 10
113.57276
 20
452.165098
 11
114.279868
 21
452.872206
  0
ARC
  5
33D
100
AcDbEntity
  8
M0
 62
     5
100
AcDbCircle
 10
112.476721
 20
453.96826
 40
3.5
100
AcDbArc
 50
134.41534
 51
405.584826
  0
LINE
  5
33E
100
AcDbEntity
  8
M0
 62
     5
100
AcDbLine
 10
112.476721
 20
454.675352
 11
111.380667
 21
455.771406
  0
LINE
  5
33F
100
AcDbEntity
  8
M0
 62
     5
100
AcDbLine
 10
112.476706
 20
453.261152
 11
113.57276
 21
452.165098
  0
LINE
  5
340
100
AcDbEntity
  8
M0
 62
     5
100
AcDbLine
 10
173.679816
 20
551.06349
 11
172.972708
 21
551.770598
  0
LINE
  5
341
100
AcDbEntity
  8
M0
 62
     5
100
AcDbLine
 10
172.972708
 20
551.770598
 11
171.876715
 21
550.674589
  0
LINE
  5
342
100
AcDbEntity
  8
M0
 62
     5
100
AcDbLine
 10
170.073584
 20
548.871473
 11
170.780692
 21
548.164366
  0
LINE
  5
343
100
AcDbEntity
  8
M0
 62
     5
100
AcDbLine
 10
170.780692
 20
548.164366
 11
171.8767
 21
549.260389
  0
LINE
  5
344
100
AcDbEntity
  8
M0
 62
     5
100
AcDbLine
 10
171.169608
 20
549.967497
 11
170.073584
 21
548.871473
  0
LINE
  5
345
100
AcDbEntity
  8
M0
 62
     5
100
AcDbLine
 10
172.583807
 20
549.967482
 11
173.679816
 21
551.06349
  0
LINE
  5
346
100
AcDbEntity
  8
M0
 62
     5
100
AcDbLine
 10
173.679861
 20
548.871443
 11
172.583807
 21
549.967482
  0
LINE
  5
347
100
AcDbEntity
  8
M0
 62
     5
100
AcDbLine
 10
170.780661
 20
551.770643
 11
170.073554
 21
551.063536
  0
LINE
  5
348
100
AcDbEntity
  8
M0
 62
     5
100
AcDbLine
 10
170.073554
 20
551.063536
 11
171.169608
 21
549.967497
  0
LINE
  5
349
100
AcDbEntity
  8
M0
 62
     5
100
AcDbLine
 10
172.972754
 20
548.164335
 11
173.679861
 21
548.871443
  0
ARC
  5
34A
100
AcDbEntity
  8
M0
 62
     5
100
AcDbCircle
 10
171.876715
 20
549.967497
 40
3.5
100
AcDbArc
 50
314.432297
 51
585.567482
  0
LINE
  5
34B
100
AcDbEntity
  8
M0
 62
     5
100
AcDbLine
 10
171.876715
 20
550.674589
 11
170.780661
 21
551.770643
  0
LINE
  5
34C
100
AcDbEntity
  8
M0
 62
     5
100
AcDbLine
 10
171.8767
 20
549.260389
 11
172.972754
 21
548.164335
  0
LINE
  5
34D
100
AcDbEntity
  8
M0
 62
     5
100
AcDbLine
 10
143.979819
 20
551.064223
 11
143.272711
 21
551.77133
  0
LINE
  5
34E
100
AcDbEntity
  8
M0
 62
     5
100
AcDbLine
 10
143.272711
 20
551.77133
 11
142.176718
 21
550.675322
  0
LINE
  5
34F
100
AcDbEntity
  8
M0
 62
     5
100
AcDbLine
 10
140.373587
 20
548.872206
 11
141.080695
 21
548.165098
  0
LINE
  5
350
100
AcDbEntity
  8
M0
 62
     5
100
AcDbLine
 10
141.080695
 20
548.165098
 11
142.176703
 21
549.261122
  0
LINE
  5
351
100
AcDbEntity
  8
M0
 62
     5
100
AcDbLine
 10
141.469611
 20
549.968229
 11
140.373587
 21
548.872206
  0
LINE
  5
352
100
AcDbEntity
  8
M0
 62
     5
100
AcDbLine
 10
142.88381
 20
549.968214
 11
143.979819
 21
551.064223
  0
LINE
  5
353
100
AcDbEntity
  8
M0
 62
     5
100
AcDbLine
 10
143.979865
 20
548.872175
 11
142.88381
 21
549.968214
  0
LINE
  5
354
100
AcDbEntity
  8
M0
 62
     5
100
AcDbLine
 10
141.080664
 20
551.771376
 11
140.373557
 21
551.064268
  0
LINE
  5
355
100
AcDbEntity
  8
M0
 62
     5
100
AcDbLine
 10
140.373557
 20
551.064268
 11
141.469611
 21
549.968229
  0
LINE
  5
356
100
AcDbEntity
  8
M0
 62
     5
100
AcDbLine
 10
143.272757
 20
548.165068
 11
143.979865
 21
548.872175
  0
ARC
  5
357
100
AcDbEntity
  8
M0
 62
     5
100
AcDbCircle
 10
142.176718
 20
549.968229
 40
3.5
100
AcDbArc
 50
314.415141
 51
585.584638
  0
LINE
  5
358
100
AcDbEntity
  8
M0
 62
     5
100
AcDbLine
 10
142.176718
 20
550.675322
 11
141.080664
 21
551.771376
  0
LINE
  5
359
100
AcDbEntity
  8
M0
 62
     5
100
AcDbLine
 10
142.176703
 20
549.261122
 11
143.272757
 21
548.165068
  0
LINE
  5
35A
100
AcDbEntity
  8
M0
  6
DASHDOT
 62
     5
100
AcDbLine
 10
142.176703
 20
544.468229
 11
142.176718
 21
555.468214
  0
LINE
  5
35B
100
AcDbEntity
  8
M0
 62
     5
100
AcDbLine
 10
114.279822
 20
551.064223
 11
113.572714
 21
551.77133
  0
LINE
  5
35C
100
AcDbEntity
  8
M0
 62
     5
100
AcDbLine
 10
113.572714
 20
551.77133
 11
112.476721
 21
550.675322
  0
LINE
  5
35D
100
AcDbEntity
  8
M0
 62
     5
100
AcDbLine
 10
110.67359
 20
548.872206
 11
111.380698
 21
548.165098
  0
LINE
  5
35E
100
AcDbEntity
  8
M0
 62
     5
100
AcDbLine
 10
111.380698
 20
548.165098
 11
112.476706
 21
549.261122
  0
LINE
  5
35F
100
AcDbEntity
  8
M0
 62
     5
100
AcDbLine
 10
111.769614
 20
549.968229
 11
110.67359
 21
548.872206
  0
LINE
  5
360
100
AcDbEntity
  8
M0
 62
     5
100
AcDbLine
 10
113.183814
 20
549.968214
 11
114.279822
 21
551.064223
  0
LINE
  5
361
100
AcDbEntity
  8
M0
 62
     5
100
AcDbLine
 10
114.279868
 20
548.872175
 11
113.183814
 21
549.968214
  0
LINE
  5
362
100
AcDbEntity
  8
M0
 62
     5
100
AcDbLine
 10
111.380667
 20
551.771376
 11
110.67356
 21
551.064268
  0
LINE
  5
363
100
AcDbEntity
  8
M0
 62
     5
100
AcDbLine
 10
110.67356
 20
551.064268
 11
111.769614
 21
549.968229
  0
LINE
  5
364
100
AcDbEntity
  8
M0
 62
     5
100
AcDbLine
 10
113.57276
 20
548.165068
 11
114.279868
 21
548.872175
  0
ARC
  5
365
100
AcDbEntity
  8
M0
 62
     5
100
AcDbCircle
 10
112.476721
 20
549.968229
 40
3.5
100
AcDbArc
 50
314.415141
 51
585.584638
  0
LINE
  5
366
100
AcDbEntity
  8
M0
 62
     5
100
AcDbLine
 10
112.476721
 20
550.675322
 11
111.380667
 21
551.771376
  0
LINE
  5
367
100
AcDbEntity
  8
M0
 62
     5
100
AcDbLine
 10
112.476706
 20
549.261122
 11
113.57276
 21
548.165068
  0
LINE
  5
368
100
AcDbEntity
  8
M0
 62
     5
100
AcDbLine
 10
194.88381
 20
461.968245
 11
196.979742
 21
464.064192
  0
LINE
  5
369
100
AcDbEntity
  8
M0
 62
     5
100
AcDbLine
 10
192.080771
 20
459.165205
 11
194.176703
 21
461.261152
  0
LINE
  5
36A
100
AcDbEntity
  8
M0
 62
     5
100
AcDbLine
 10
193.469611
 20
461.96826
 11
191.373663
 21
459.872313
  0
LINE
  5
36B
100
AcDbEntity
  8
M0
 62
     5
100
AcDbLine
 10
196.27265
 20
464.771284
 11
194.176718
 21
462.675352
  0
LINE
  5
36C
100
AcDbEntity
  8
M0
 62
     5
100
AcDbLine
 10
194.176718
 20
462.675352
 11
193.080664
 21
463.771406
  0
LINE
  5
36D
100
AcDbEntity
  8
M0
 62
     5
100
AcDbLine
 10
195.979865
 20
460.872206
 11
194.88381
 21
461.968245
  0
LINE
  5
36E
100
AcDbEntity
  8
M0
 62
     5
100
AcDbLine
 10
194.176703
 20
461.261152
 11
195.272757
 21
460.165098
  0
LINE
  5
36F
100
AcDbEntity
  8
M0
 62
     5
100
AcDbLine
 10
192.373557
 20
463.064299
 11
193.469611
 21
461.96826
  0
CIRCLE
  5
370
100
AcDbEntity
  8
M0
 62
     5
100
AcDbCircle
 10
194.176718
 20
461.96826
 40
3.5
  0
LINE
  5
371
100
AcDbEntity
  8
M0
 62
     5
100
AcDbLine
 10
195.272757
 20
460.165098
 11
195.979865
 21
460.872206
  0
LINE
  5
372
100
AcDbEntity
  8
M0
 62
     5
100
AcDbLine
 10
193.080664
 20
463.771406
 11
192.373557
 21
463.064299
  0
CIRCLE
  5
373
100
AcDbEntity
  8
M0
 62
     5
100
AcDbCircle
 10
194.176718
 20
461.96826
 40
4.0
  0
LINE
  5
374
100
AcDbEntity
  8
M0
 62
     5
100
AcDbLine
 10
194.88381
 20
531.968214
 11
196.979742
 21
534.064161
  0
LINE
  5
375
100
AcDbEntity
  8
M0
 62
     5
100
AcDbLine
 10
192.080771
 20
529.165175
 11
194.176703
 21
531.261122
  0
LINE
  5
376
100
AcDbEntity
  8
M0
 62
     5
100
AcDbLine
 10
193.469611
 20
531.968229
 11
191.373663
 21
529.872282
  0
LINE
  5
377
100
AcDbEntity
  8
M0
 62
     5
100
AcDbLine
 10
196.27265
 20
534.771254
 11
194.176718
 21
532.675322
  0
LINE
  5
378
100
AcDbEntity
  8
M0
 62
     5
100
AcDbLine
 10
194.176718
 20
532.675322
 11
193.080664
 21
533.771376
  0
LINE
  5
379
100
AcDbEntity
  8
M0
 62
     5
100
AcDbLine
 10
195.979865
 20
530.872175
 11
194.88381
 21
531.968214
  0
LINE
  5
37A
100
AcDbEntity
  8
M0
 62
     5
100
AcDbLine
 10
194.176703
 20
531.261122
 11
195.272757
 21
530.165068
  0
LINE
  5
37B
100
AcDbEntity
  8
M0
 62
     5
100
AcDbLine
 10
192.373557
 20
533.064268
 11
193.469611
 21
531.968229
  0
CIRCLE
  5
37C
100
AcDbEntity
  8
M0
 62
     5
100
AcDbCircle
 10
194.176718
 20
531.968229
 40
3.5
  0
LINE
  5
37D
100
AcDbEntity
  8
M0
 62
     5
100
AcDbLine
 10
195.272757
 20
530.165068
 11
195.979865
 21
530.872175
  0
LINE
  5
37E
100
AcDbEntity
  8
M0
 62
     5
100
AcDbLine
 10
193.080664
 20
533.771376
 11
192.373557
 21
533.064268
  0
CIRCLE
  5
37F
100
AcDbEntity
  8
M0
 62
     5
100
AcDbCircle
 10
194.176718
 20
531.968229
 40
4.0
  0
LINE
  5
380
100
AcDbEntity
  8
M0
 62
     5
100
AcDbLine
 10
90.88381
 20
531.968214
 11
92.979742
 21
534.064161
  0
LINE
  5
381
100
AcDbEntity
  8
M0
 62
     5
100
AcDbLine
 10
88.080771
 20
529.165175
 11
90.176703
 21
531.261122
  0
LINE
  5
382
100
AcDbEntity
  8
M0
 62
     5
100
AcDbLine
 10
89.469611
 20
531.968229
 11
87.373663
 21
529.872282
  0
LINE
  5
383
100
AcDbEntity
  8
M0
 62
     5
100
AcDbLine
 10
92.27265
 20
534.771254
 11
90.176718
 21
532.675322
  0
LINE
  5
384
100
AcDbEntity
  8
M0
 62
     5
100
AcDbLine
 10
90.176718
 20
532.675322
 11
89.080664
 21
533.771376
  0
LINE
  5
385
100
AcDbEntity
  8
M0
 62
     5
100
AcDbLine
 10
91.979865
 20
530.872175
 11
90.88381
 21
531.968214
  0
LINE
  5
386
100
AcDbEntity
  8
M0
 62
     5
100
AcDbLine
 10
90.176703
 20
531.261122
 11
91.272757
 21
530.165068
  0
LINE
  5
387
100
AcDbEntity
  8
M0
 62
     5
100
AcDbLine
 10
88.373557
 20
533.064268
 11
89.469611
 21
531.968229
  0
CIRCLE
  5
388
100
AcDbEntity
  8
M0
 62
     5
100
AcDbCircle
 10
90.176718
 20
531.968229
 40
3.5
  0
LINE
  5
389
100
AcDbEntity
  8
M0
 62
     5
100
AcDbLine
 10
91.272757
 20
530.165068
 11
91.979865
 21
530.872175
  0
LINE
  5
38A
100
AcDbEntity
  8
M0
 62
     5
100
AcDbLine
 10
89.080664
 20
533.771376
 11
88.373557
 21
533.064268
  0
CIRCLE
  5
38B
100
AcDbEntity
  8
M0
 62
     5
100
AcDbCircle
 10
90.176718
 20
531.968229
 40
4.0
  0
LINE
  5
38C
100
AcDbEntity
  8
M0
 62
     5
100
AcDbLine
 10
90.88381
 20
461.968245
 11
92.979742
 21
464.064192
  0
LINE
  5
38D
100
AcDbEntity
  8
M0
 62
     5
100
AcDbLine
 10
88.080771
 20
459.165205
 11
90.176703
 21
461.261152
  0
LINE
  5
38E
100
AcDbEntity
  8
M0
 62
     5
100
AcDbLine
 10
89.469611
 20
461.96826
 11
87.373663
 21
459.872313
  0
LINE
  5
38F
100
AcDbEntity
  8
M0
 62
     5
100
AcDbLine
 10
92.27265
 20
464.771284
 11
90.176718
 21
462.675352
  0
LINE
  5
390
100
AcDbEntity
  8
M0
 62
     5
100
AcDbLine
 10
90.176718
 20
462.675352
 11
89.080664
 21
463.771406
  0
LINE
  5
391
100
AcDbEntity
  8
M0
 62
     5
100
AcDbLine
 10
91.979865
 20
460.872206
 11
90.88381
 21
461.968245
  0
LINE
  5
392
100
AcDbEntity
  8
M0
 62
     5
100
AcDbLine
 10
90.176703
 20
461.261152
 11
91.272757
 21
460.165098
  0
LINE
  5
393
100
AcDbEntity
  8
M0
 62
     5
100
AcDbLine
 10
88.373557
 20
463.064299
 11
89.469611
 21
461.96826
  0
CIRCLE
  5
394
100
AcDbEntity
  8
M0
 62
     5
100
AcDbCircle
 10
90.176718
 20
461.96826
 40
3.5
  0
LINE
  5
395
100
AcDbEntity
  8
M0
 62
     5
100
AcDbLine
 10
91.272757
 20
460.165098
 11
91.979865
 21
460.872206
  0
LINE
  5
396
100
AcDbEntity
  8
M0
 62
     5
100
AcDbLine
 10
89.080664
 20
463.771406
 11
88.373557
 21
463.064299
  0
CIRCLE
  5
397
100
AcDbEntity
  8
M0
 62
     5
100
AcDbCircle
 10
90.176718
 20
461.96826
 40
4.0
  0
LINE
  5
398
100
AcDbEntity
  8
M0
 62
     2
100
AcDbLine
 10
164.676703
 20
573.968229
 11
157.676703
 21
573.968229
  0
LINE
  5
399
100
AcDbEntity
  8
M0
 62
     2
100
AcDbLine
 10
157.676703
 20
573.968229
 11
157.676703
 21
571.65988
  0
LINE
  5
39A
100
AcDbEntity
  8
M0
 62
     2
100
AcDbLine
 10
164.676703
 20
565.468229
 11
164.676703
 21
567.275847
  0
LINE
  5
39B
100
AcDbEntity
  8
M0
 62
     2
100
AcDbLine
 10
157.676703
 20
567.276091
 11
157.676703
 21
565.467985
  0
LINE
  5
39C
100
AcDbEntity
  8
M0
 62
     2
100
AcDbLine
 10
164.676703
 20
571.659392
 11
164.676703
 21
573.968229
  0
LINE
  5
39D
100
AcDbEntity
  8
M0
 62
     2
100
AcDbLine
 10
126.676703
 20
573.968229
 11
119.676703
 21
573.968229
  0
LINE
  5
39E
100
AcDbEntity
  8
M0
 62
     2
100
AcDbLine
 10
119.676703
 20
573.968229
 11
119.676703
 21
571.65988
  0
LINE
  5
39F
100
AcDbEntity
  8
M0
 62
     2
100
AcDbLine
 10
126.676703
 20
565.468229
 11
126.676703
 21
567.275847
  0
LINE
  5
3A0
100
AcDbEntity
  8
M0
 62
     2
100
AcDbLine
 10
119.676703
 20
567.276091
 11
119.676703
 21
565.467985
  0
LINE
  5
3A1
100
AcDbEntity
  8
M0
 62
     2
100
AcDbLine
 10
126.676703
 20
571.659392
 11
126.676703
 21
573.968229
  0
LINE
  5
3A2
100
AcDbEntity
  8
M0
 62
     2
100
AcDbLine
 10
94.476706
 20
573.967985
 11
87.676703
 21
573.968229
  0
LINE
  5
3A3
100
AcDbEntity
  8
M0
 62
     2
100
AcDbLine
 10
87.676703
 20
573.968229
 11
87.676703
 21
571.65988
  0
LINE
  5
3A4
100
AcDbEntity
  8
M0
 62
     2
100
AcDbLine
 10
87.676703
 20
567.276091
 11
87.676703
 21
565.467985
  0
LINE
  5
3A5
100
AcDbEntity
  8
M0
 62
     5
100
AcDbLine
 10
164.951682
 20
568.167692
 11
164.951682
 21
570.76779
  0
LINE
  5
3A6
100
AcDbEntity
  8
M0
 62
     5
100
AcDbLine
 10
163.657568
 20
573.76779
 11
158.6957
 21
573.76779
  0
LINE
  5
3A7
100
AcDbEntity
  8
M0
 62
     5
100
AcDbLine
 10
157.401679
 20
570.768034
 11
157.401679
 21
568.168181
  0
LINE
  5
3A8
100
AcDbEntity
  8
M0
 62
     5
100
AcDbLine
 10
157.401679
 20
568.168181
 11
158.217932
 21
565.52072
  0
LINE
  5
3A9
100
AcDbEntity
  8
M0
 62
     5
100
AcDbLine
 10
157.401679
 20
570.768034
 11
158.217795
 21
573.414763
  0
LINE
  5
3AA
100
AcDbEntity
  8
M0
 62
     5
100
AcDbLine
 10
164.951697
 20
568.167936
 11
164.135504
 21
565.52072
  0
LINE
  5
3AB
100
AcDbEntity
  8
M0
 62
     5
100
AcDbLine
 10
164.951697
 20
570.76779
 11
164.135489
 21
573.414763
  0
ARC
  5
3AC
100
AcDbEntity
  8
M0
 62
     5
100
AcDbCircle
 10
158.6957
 20
565.668181
 40
0.5
100
AcDbArc
 50
197.15252
 51
203.571883
  0
ARC
  5
3AD
100
AcDbEntity
  8
M0
 62
     5
100
AcDbCircle
 10
163.657721
 20
565.668181
 40
0.5
100
AcDbArc
 50
336.427428
 51
342.84793
  0
ARC
  5
3AE
100
AcDbEntity
  8
M0
 62
     5
100
AcDbCircle
 10
163.657568
 20
573.267546
 40
0.5
100
AcDbArc
 50
17.120719
 51
90.0
  0
ARC
  5
3AF
100
AcDbEntity
  8
M0
 62
     5
100
AcDbCircle
 10
158.6957
 20
573.267546
 40
0.5
100
AcDbArc
 50
90.0
 51
162.878799
  0
LINE
  5
3B0
100
AcDbEntity
  8
M0
 62
     5
100
AcDbLine
 10
157.956717
 20
572.568083
 11
159.776679
 21
572.568083
  0
LINE
  5
3B1
100
AcDbEntity
  8
M0
 62
     5
100
AcDbLine
 10
157.956656
 20
566.368132
 11
159.776679
 21
566.368132
  0
LINE
  5
3B2
100
AcDbEntity
  8
M0
 62
     5
100
AcDbLine
 10
157.586691
 20
567.568083
 11
158.855185
 21
567.568083
  0
LINE
  5
3B3
100
AcDbEntity
  8
M0
 62
     5
100
AcDbLine
 10
157.58663
 20
571.367888
 11
158.854773
 21
571.367888
  0
LINE
  5
3B4
100
AcDbEntity
  8
M0
 62
     5
100
AcDbLine
 10
163.498206
 20
567.568083
 11
164.766745
 21
567.568083
  0
LINE
  5
3B5
100
AcDbEntity
  8
M0
 62
     5
100
AcDbLine
 10
163.498618
 20
571.367888
 11
164.766653
 21
571.367888
  0
LINE
  5
3B6
100
AcDbEntity
  8
M0
 62
     5
100
AcDbLine
 10
162.576682
 20
566.368132
 11
162.576682
 21
566.814909
  0
LINE
  5
3B7
100
AcDbEntity
  8
M0
 62
     5
100
AcDbLine
 10
159.776679
 20
566.368132
 11
159.776679
 21
566.814909
  0
LINE
  5
3B8
100
AcDbEntity
  8
M0
 62
     5
100
AcDbLine
 10
159.776679
 20
572.568083
 11
159.776679
 21
572.121306
  0
LINE
  5
3B9
100
AcDbEntity
  8
M0
 62
     5
100
AcDbLine
 10
162.576682
 20
572.568083
 11
162.576682
 21
572.121306
  0
LINE
  5
3BA
100
AcDbEntity
  8
M0
 62
     5
100
AcDbLine
 10
162.576682
 20
566.368132
 11
164.396765
 21
566.368132
  0
LINE
  5
3BB
100
AcDbEntity
  8
M0
 62
     5
100
AcDbLine
 10
162.576682
 20
572.568083
 11
164.396567
 21
572.568083
  0
CIRCLE
  5
3BC
100
AcDbEntity
  8
M0
 62
     5
100
AcDbCircle
 10
161.176703
 20
569.468229
 40
3.0
  0
LINE
  5
3BD
100
AcDbEntity
  8
M0
 62
     5
100
AcDbLine
 10
162.166647
 20
567.770964
 11
162.873755
 21
568.478239
  0
LINE
  5
3BE
100
AcDbEntity
  8
M0
 62
     5
100
AcDbLine
 10
162.873755
 20
568.478239
 11
161.883795
 21
569.467985
  0
LINE
  5
3BF
100
AcDbEntity
  8
M0
 62
     5
100
AcDbLine
 10
160.186743
 20
571.165251
 11
159.479651
 21
570.457976
  0
LINE
  5
3C0
100
AcDbEntity
  8
M0
 62
     5
100
AcDbLine
 10
159.479651
 20
570.457976
 11
160.469595
 21
569.468229
  0
LINE
  5
3C1
100
AcDbEntity
  8
M0
 62
     5
100
AcDbLine
 10
158.731482
 20
567.729948
 11
160.469595
 21
569.468229
  0
LINE
  5
3C2
100
AcDbEntity
  8
M0
 62
     5
100
AcDbLine
 10
159.43859
 20
567.022917
 11
161.176688
 21
568.760954
  0
LINE
  5
3C3
100
AcDbEntity
  8
M0
 62
     5
100
AcDbLine
 10
163.621893
 20
571.206267
 11
161.883795
 21
569.467985
  0
LINE
  5
3C4
100
AcDbEntity
  8
M0
 62
     5
100
AcDbLine
 10
162.914786
 20
571.913298
 11
161.176703
 21
570.175261
  0
LINE
  5
3C5
100
AcDbEntity
  8
M0
 62
     5
100
AcDbLine
 10
162.166647
 20
567.770964
 11
161.176688
 21
568.760954
  0
LINE
  5
3C6
100
AcDbEntity
  8
M0
 62
     5
100
AcDbLine
 10
160.186743
 20
571.165251
 11
161.176703
 21
570.175261
  0
LINE
  5
3C7
100
AcDbEntity
  8
M0
 62
     5
100
AcDbLine
 10
126.951682
 20
568.167692
 11
126.951682
 21
570.76779
  0
LINE
  5
3C8
100
AcDbEntity
  8
M0
 62
     5
100
AcDbLine
 10
125.657568
 20
573.76779
 11
120.6957
 21
573.76779
  0
LINE
  5
3C9
100
AcDbEntity
  8
M0
 62
     5
100
AcDbLine
 10
119.401679
 20
570.768034
 11
119.401679
 21
568.168181
  0
LINE
  5
3CA
100
AcDbEntity
  8
M0
 62
     5
100
AcDbLine
 10
119.401679
 20
568.168181
 11
120.217932
 21
565.52072
  0
LINE
  5
3CB
100
AcDbEntity
  8
M0
 62
     5
100
AcDbLine
 10
119.401679
 20
570.768034
 11
120.217795
 21
573.414763
  0
LINE
  5
3CC
100
AcDbEntity
  8
M0
 62
     5
100
AcDbLine
 10
126.951697
 20
568.167936
 11
126.135504
 21
565.52072
  0
LINE
  5
3CD
100
AcDbEntity
  8
M0
 62
     5
100
AcDbLine
 10
126.951697
 20
570.76779
 11
126.135489
 21
573.414763
  0
ARC
  5
3CE
100
AcDbEntity
  8
M0
 62
     5
100
AcDbCircle
 10
120.6957
 20
565.668181
 40
0.5
100
AcDbArc
 50
197.15252
 51
203.571883
  0
ARC
  5
3CF
100
AcDbEntity
  8
M0
 62
     5
100
AcDbCircle
 10
125.657721
 20
565.668181
 40
0.5
100
AcDbArc
 50
336.396891
 51
342.84793
  0
ARC
  5
3D0
100
AcDbEntity
  8
M0
 62
     5
100
AcDbCircle
 10
125.657568
 20
573.267546
 40
0.5
100
AcDbArc
 50
17.120719
 51
90.0
  0
ARC
  5
3D1
100
AcDbEntity
  8
M0
 62
     5
100
AcDbCircle
 10
120.6957
 20
573.267546
 40
0.5
100
AcDbArc
 50
90.0
 51
162.878799
  0
LINE
  5
3D2
100
AcDbEntity
  8
M0
 62
     5
100
AcDbLine
 10
119.956717
 20
572.568083
 11
121.776679
 21
572.568083
  0
LINE
  5
3D3
100
AcDbEntity
  8
M0
 62
     5
100
AcDbLine
 10
119.956656
 20
566.368132
 11
121.776679
 21
566.368132
  0
LINE
  5
3D4
100
AcDbEntity
  8
M0
 62
     5
100
AcDbLine
 10
119.586691
 20
567.568083
 11
120.855185
 21
567.568083
  0
LINE
  5
3D5
100
AcDbEntity
  8
M0
 62
     5
100
AcDbLine
 10
119.58663
 20
571.367888
 11
120.854773
 21
571.367888
  0
LINE
  5
3D6
100
AcDbEntity
  8
M0
 62
     5
100
AcDbLine
 10
125.498206
 20
567.568083
 11
126.766745
 21
567.568083
  0
LINE
  5
3D7
100
AcDbEntity
  8
M0
 62
     5
100
AcDbLine
 10
125.498618
 20
571.367888
 11
126.766653
 21
571.367888
  0
LINE
  5
3D8
100
AcDbEntity
  8
M0
 62
     5
100
AcDbLine
 10
124.576682
 20
566.368132
 11
124.576682
 21
566.814909
  0
LINE
  5
3D9
100
AcDbEntity
  8
M0
 62
     5
100
AcDbLine
 10
121.776679
 20
566.368132
 11
121.776679
 21
566.814909
  0
LINE
  5
3DA
100
AcDbEntity
  8
M0
 62
     5
100
AcDbLine
 10
121.776679
 20
572.568083
 11
121.776679
 21
572.121306
  0
LINE
  5
3DB
100
AcDbEntity
  8
M0
 62
     5
100
AcDbLine
 10
124.576682
 20
572.568083
 11
124.576682
 21
572.121306
  0
LINE
  5
3DC
100
AcDbEntity
  8
M0
 62
     5
100
AcDbLine
 10
124.576682
 20
566.368132
 11
126.396765
 21
566.368132
  0
LINE
  5
3DD
100
AcDbEntity
  8
M0
 62
     5
100
AcDbLine
 10
124.576682
 20
572.568083
 11
126.396567
 21
572.568083
  0
CIRCLE
  5
3DE
100
AcDbEntity
  8
M0
 62
     5
100
AcDbCircle
 10
123.176703
 20
569.468229
 40
3.0
  0
LINE
  5
3DF
100
AcDbEntity
  8
M0
 62
     5
100
AcDbLine
 10
124.166647
 20
567.770964
 11
124.873755
 21
568.478239
  0
LINE
  5
3E0
100
AcDbEntity
  8
M0
 62
     5
100
AcDbLine
 10
124.873755
 20
568.478239
 11
123.883795
 21
569.467985
  0
LINE
  5
3E1
100
AcDbEntity
  8
M0
 62
     5
100
AcDbLine
 10
122.186743
 20
571.165251
 11
121.479651
 21
570.457976
  0
LINE
  5
3E2
100
AcDbEntity
  8
M0
 62
     5
100
AcDbLine
 10
121.479651
 20
570.457976
 11
122.469595
 21
569.468229
  0
LINE
  5
3E3
100
AcDbEntity
  8
M0
 62
     5
100
AcDbLine
 10
120.731482
 20
567.729948
 11
122.469595
 21
569.468229
  0
LINE
  5
3E4
100
AcDbEntity
  8
M0
 62
     5
100
AcDbLine
 10
121.43859
 20
567.022917
 11
123.176688
 21
568.760954
  0
LINE
  5
3E5
100
AcDbEntity
  8
M0
 62
     5
100
AcDbLine
 10
125.621893
 20
571.206267
 11
123.883795
 21
569.467985
  0
LINE
  5
3E6
100
AcDbEntity
  8
M0
 62
     5
100
AcDbLine
 10
124.914786
 20
571.913298
 11
123.176703
 21
570.175261
  0
LINE
  5
3E7
100
AcDbEntity
  8
M0
 62
     5
100
AcDbLine
 10
124.166647
 20
567.770964
 11
123.176688
 21
568.760954
  0
LINE
  5
3E8
100
AcDbEntity
  8
M0
 62
     5
100
AcDbLine
 10
122.186743
 20
571.165251
 11
123.176703
 21
570.175261
  0
LINE
  5
3E9
100
AcDbEntity
  8
M0
 62
     5
100
AcDbLine
 10
93.657568
 20
573.76779
 11
88.6957
 21
573.76779
  0
LINE
  5
3EA
100
AcDbEntity
  8
M0
 62
     5
100
AcDbLine
 10
87.401679
 20
570.768034
 11
87.401679
 21
568.168181
  0
LINE
  5
3EB
100
AcDbEntity
  8
M0
 62
     5
100
AcDbLine
 10
87.401679
 20
568.168181
 11
88.217932
 21
565.52072
  0
LINE
  5
3EC
100
AcDbEntity
  8
M0
 62
     5
100
AcDbLine
 10
87.401679
 20
570.768034
 11
88.217795
 21
573.414763
  0
LINE
  5
3ED
100
AcDbEntity
  8
M0
 62
     5
100
AcDbLine
 10
94.476706
 20
566.627165
 11
94.135504
 21
565.52072
  0
LINE
  5
3EE
100
AcDbEntity
  8
M0
 62
     5
100
AcDbLine
 10
94.476706
 20
572.308073
 11
94.135489
 21
573.414763
  0
ARC
  5
3EF
100
AcDbEntity
  8
M0
 62
     5
100
AcDbCircle
 10
88.6957
 20
565.668181
 40
0.5
100
AcDbArc
 50
197.15252
 51
203.571883
  0
ARC
  5
3F0
100
AcDbEntity
  8
M0
 62
     5
100
AcDbCircle
 10
93.657721
 20
565.668181
 40
0.5
100
AcDbArc
 50
336.427428
 51
342.84793
  0
ARC
  5
3F1
100
AcDbEntity
  8
M0
 62
     5
100
AcDbCircle
 10
93.657568
 20
573.267546
 40
0.5
100
AcDbArc
 50
17.120719
 51
90.0
  0
ARC
  5
3F2
100
AcDbEntity
  8
M0
 62
     5
100
AcDbCircle
 10
88.6957
 20
573.267546
 40
0.5
100
AcDbArc
 50
90.0
 51
162.878799
  0
LINE
  5
3F3
100
AcDbEntity
  8
M0
 62
     5
100
AcDbLine
 10
87.956717
 20
572.568083
 11
89.776679
 21
572.568083
  0
LINE
  5
3F4
100
AcDbEntity
  8
M0
 62
     5
100
AcDbLine
 10
87.956656
 20
566.368132
 11
89.776679
 21
566.368132
  0
LINE
  5
3F5
100
AcDbEntity
  8
M0
 62
     5
100
AcDbLine
 10
87.586691
 20
567.568083
 11
88.855185
 21
567.568083
  0
LINE
  5
3F6
100
AcDbEntity
  8
M0
 62
     5
100
AcDbLine
 10
87.58663
 20
571.367888
 11
88.854773
 21
571.367888
  0
LINE
  5
3F7
100
AcDbEntity
  8
M0
 62
     5
100
AcDbLine
 10
93.498206
 20
567.568083
 11
94.476706
 21
567.568083
  0
LINE
  5
3F8
100
AcDbEntity
  8
M0
 62
     5
100
AcDbLine
 10
93.498618
 20
571.367888
 11
94.476706
 21
571.367888
  0
LINE
  5
3F9
100
AcDbEntity
  8
M0
 62
     5
100
AcDbLine
 10
92.576682
 20
566.368132
 11
92.576682
 21
566.814909
  0
LINE
  5
3FA
100
AcDbEntity
  8
M0
 62
     5
100
AcDbLine
 10
89.776679
 20
566.368132
 11
89.776679
 21
566.814909
  0
LINE
  5
3FB
100
AcDbEntity
  8
M0
 62
     5
100
AcDbLine
 10
89.776679
 20
572.568083
 11
89.776679
 21
572.121306
  0
LINE
  5
3FC
100
AcDbEntity
  8
M0
 62
     5
100
AcDbLine
 10
92.576682
 20
572.568083
 11
92.576682
 21
572.121306
  0
LINE
  5
3FD
100
AcDbEntity
  8
M0
 62
     5
100
AcDbLine
 10
92.576682
 20
566.368132
 11
94.396765
 21
566.368132
  0
LINE
  5
3FE
100
AcDbEntity
  8
M0
 62
     5
100
AcDbLine
 10
92.576682
 20
572.568083
 11
94.396567
 21
572.568083
  0
CIRCLE
  5
3FF
100
AcDbEntity
  8
M0
 62
     5
100
AcDbCircle
 10
91.176703
 20
569.468229
 40
3.0
  0
LINE
  5
400
100
AcDbEntity
  8
M0
 62
     5
100
AcDbLine
 10
92.166647
 20
567.770964
 11
92.873755
 21
568.478239
  0
LINE
  5
401
100
AcDbEntity
  8
M0
 62
     5
100
AcDbLine
 10
92.873755
 20
568.478239
 11
91.883795
 21
569.467985
  0
LINE
  5
402
100
AcDbEntity
  8
M0
 62
     5
100
AcDbLine
 10
90.186743
 20
571.165251
 11
89.479651
 21
570.457976
  0
LINE
  5
403
100
AcDbEntity
  8
M0
 62
     5
100
AcDbLine
 10
89.479651
 20
570.457976
 11
90.469595
 21
569.468229
  0
LINE
  5
404
100
AcDbEntity
  8
M0
 62
     5
100
AcDbLine
 10
88.731482
 20
567.729948
 11
90.469595
 21
569.468229
  0
LINE
  5
405
100
AcDbEntity
  8
M0
 62
     5
100
AcDbLine
 10
89.43859
 20
567.022917
 11
91.176688
 21
568.760954
  0
LINE
  5
406
100
AcDbEntity
  8
M0
 62
     5
100
AcDbLine
 10
93.621893
 20
571.206267
 11
91.883795
 21
569.467985
  0
LINE
  5
407
100
AcDbEntity
  8
M0
 62
     5
100
AcDbLine
 10
92.914786
 20
571.913298
 11
91.176703
 21
570.175261
  0
LINE
  5
408
100
AcDbEntity
  8
M0
 62
     5
100
AcDbLine
 10
92.166647
 20
567.770964
 11
91.176688
 21
568.760954
  0
LINE
  5
409
100
AcDbEntity
  8
M0
 62
     5
100
AcDbLine
 10
90.186743
 20
571.165251
 11
91.176703
 21
570.175261
  0
LINE
  5
40A
100
AcDbEntity
  8
M0
 62
     2
100
AcDbLine
 10
191.026694
 20
476.968229
 11
197.576682
 21
476.968229
  0
LINE
  5
40B
100
AcDbEntity
  8
M0
 62
     2
100
AcDbLine
 10
198.1267
 20
478.868132
 11
198.1267
 21
485.467741
  0
LINE
  5
40C
100
AcDbEntity
  8
M0
 62
     2
100
AcDbLine
 10
197.1267
 20
486.468229
 11
191.226691
 21
486.468229
  0
LINE
  5
40D
100
AcDbEntity
  8
M0
 62
     2
100
AcDbLine
 10
190.226691
 20
485.467985
 11
190.226691
 21
478.868132
  0
ARC
  5
40E
100
AcDbEntity
  8
M0
 62
     2
100
AcDbCircle
 10
197.1267
 20
485.467985
 40
1.0
100
AcDbArc
 50
359.985957
 51
450.0
  0
ARC
  5
40F
100
AcDbEntity
  8
M0
 62
     2
100
AcDbCircle
 10
191.226691
 20
485.467985
 40
1.0
100
AcDbArc
 50
90.0
 51
180.0
  0
LINE
  5
410
100
AcDbEntity
  8
M0
 62
     2
100
AcDbLine
 10
197.326697
 20
477.968229
 11
197.576682
 21
477.968229
  0
LINE
  5
411
100
AcDbEntity
  8
M0
 62
     2
100
AcDbLine
 10
190.426688
 20
478.668181
 11
190.526694
 21
478.668181
  0
LINE
  5
412
100
AcDbEntity
  8
M0
 62
     2
100
AcDbLine
 10
197.326697
 20
478.168181
 11
197.326697
 21
476.968229
  0
LINE
  5
413
100
AcDbEntity
  8
M0
 62
     2
100
AcDbLine
 10
191.026694
 20
478.168181
 11
191.026694
 21
476.968229
  0
LINE
  5
414
100
AcDbEntity
  8
M0
 62
     2
100
AcDbLine
 10
197.826697
 20
478.668181
 11
197.926688
 21
478.668181
  0
ARC
  5
415
100
AcDbEntity
  8
M0
 62
     2
100
AcDbCircle
 10
190.426688
 20
478.868132
 40
0.2
100
AcDbArc
 50
179.999727
 51
270.0
  0
ARC
  5
416
100
AcDbEntity
  8
M0
 62
     2
100
AcDbCircle
 10
197.926688
 20
478.868132
 40
0.2
100
AcDbArc
 50
270.0
 51
360.0
  0
ARC
  5
417
100
AcDbEntity
  8
M0
 62
     2
100
AcDbCircle
 10
197.826697
 20
478.168181
 40
0.5
100
AcDbArc
 50
90.0
 51
179.999891
  0
ARC
  5
418
100
AcDbEntity
  8
M0
 62
     2
100
AcDbCircle
 10
190.526694
 20
478.168181
 40
0.5
100
AcDbArc
 50
0.0
 51
90.0
  0
LINE
  5
419
100
AcDbEntity
  8
M0
 62
     2
100
AcDbLine
 10
197.576682
 20
477.968229
 11
197.576682
 21
476.968229
  0
LINE
  5
41A
100
AcDbEntity
  8
M0
 62
     2
100
AcDbLine
 10
191.026694
 20
486.468229
 11
197.576682
 21
486.468229
  0
LINE
  5
41B
100
AcDbEntity
  8
M0
 62
     2
100
AcDbLine
 10
198.1267
 20
488.368132
 11
198.1267
 21
494.967741
  0
LINE
  5
41C
100
AcDbEntity
  8
M0
 62
     2
100
AcDbLine
 10
197.1267
 20
495.968229
 11
191.226691
 21
495.968229
  0
LINE
  5
41D
100
AcDbEntity
  8
M0
 62
     2
100
AcDbLine
 10
190.226691
 20
494.967985
 11
190.226691
 21
488.368132
  0
ARC
  5
41E
100
AcDbEntity
  8
M0
 62
     2
100
AcDbCircle
 10
197.1267
 20
494.967985
 40
1.0
100
AcDbArc
 50
359.985957
 51
450.0
  0
ARC
  5
41F
100
AcDbEntity
  8
M0
 62
     2
100
AcDbCircle
 10
191.226691
 20
494.967985
 40
1.0
100
AcDbArc
 50
90.0
 51
180.0
  0
LINE
  5
420
100
AcDbEntity
  8
M0
 62
     2
100
AcDbLine
 10
197.326697
 20
487.468229
 11
197.576682
 21
487.468229
  0
LINE
  5
421
100
AcDbEntity
  8
M0
 62
     2
100
AcDbLine
 10
190.426688
 20
488.168181
 11
190.526694
 21
488.168181
  0
LINE
  5
422
100
AcDbEntity
  8
M0
 62
     2
100
AcDbLine
 10
197.326697
 20
487.668181
 11
197.326697
 21
486.468229
  0
LINE
  5
423
100
AcDbEntity
  8
M0
 62
     2
100
AcDbLine
 10
191.026694
 20
487.668181
 11
191.026694
 21
486.468229
  0
LINE
  5
424
100
AcDbEntity
  8
M0
 62
     2
100
AcDbLine
 10
197.826697
 20
488.168181
 11
197.926688
 21
488.168181
  0
ARC
  5
425
100
AcDbEntity
  8
M0
 62
     2
100
AcDbCircle
 10
190.426688
 20
488.368132
 40
0.2
100
AcDbArc
 50
179.999727
 51
270.0
  0
ARC
  5
426
100
AcDbEntity
  8
M0
 62
     2
100
AcDbCircle
 10
197.926688
 20
488.368132
 40
0.2
100
AcDbArc
 50
270.0
 51
360.0
  0
ARC
  5
427
100
AcDbEntity
  8
M0
 62
     2
100
AcDbCircle
 10
197.826697
 20
487.668181
 40
0.5
100
AcDbArc
 50
90.0
 51
179.999891
  0
ARC
  5
428
100
AcDbEntity
  8
M0
 62
     2
100
AcDbCircle
 10
190.526694
 20
487.668181
 40
0.5
100
AcDbArc
 50
0.0
 51
90.0
  0
LINE
  5
429
100
AcDbEntity
  8
M0
 62
     2
100
AcDbLine
 10
197.576682
 20
487.468229
 11
197.576682
 21
486.468229
  0
LINE
  5
42A
100
AcDbEntity
  8
M0
 62
     2
100
AcDbLine
 10
191.026694
 20
517.468229
 11
197.576682
 21
517.468229
  0
LINE
  5
42B
100
AcDbEntity
  8
M0
 62
     2
100
AcDbLine
 10
198.1267
 20
515.568327
 11
198.1267
 21
508.968718
  0
LINE
  5
42C
100
AcDbEntity
  8
M0
 62
     2
100
AcDbLine
 10
197.1267
 20
507.968229
 11
191.226691
 21
507.968229
  0
LINE
  5
42D
100
AcDbEntity
  8
M0
 62
     2
100
AcDbLine
 10
190.226691
 20
508.968474
 11
190.226691
 21
515.568327
  0
ARC
  5
42E
100
AcDbEntity
  8
M0
 62
     2
100
AcDbCircle
 10
197.1267
 20
508.968474
 40
1.0
100
AcDbArc
 50
-90.0
 51
0.013988
  0
ARC
  5
42F
100
AcDbEntity
  8
M0
 62
     2
100
AcDbCircle
 10
191.226691
 20
508.968474
 40
1.0
100
AcDbArc
 50
179.999945
 51
270.0
  0
LINE
  5
430
100
AcDbEntity
  8
M0
 62
     2
100
AcDbLine
 10
197.326697
 20
516.468229
 11
197.576682
 21
516.468229
  0
LINE
  5
431
100
AcDbEntity
  8
M0
 62
     2
100
AcDbLine
 10
190.426688
 20
515.768278
 11
190.526694
 21
515.768278
  0
LINE
  5
432
100
AcDbEntity
  8
M0
 62
     2
100
AcDbLine
 10
197.326697
 20
516.268278
 11
197.326697
 21
517.468229
  0
LINE
  5
433
100
AcDbEntity
  8
M0
 62
     2
100
AcDbLine
 10
191.026694
 20
516.268278
 11
191.026694
 21
517.468229
  0
LINE
  5
434
100
AcDbEntity
  8
M0
 62
     2
100
AcDbLine
 10
197.826697
 20
515.768278
 11
197.926688
 21
515.768278
  0
ARC
  5
435
100
AcDbEntity
  8
M0
 62
     2
100
AcDbCircle
 10
190.426688
 20
515.568327
 40
0.2
100
AcDbArc
 50
90.0
 51
180.0
  0
ARC
  5
436
100
AcDbEntity
  8
M0
 62
     2
100
AcDbCircle
 10
197.926688
 20
515.568327
 40
0.2
100
AcDbArc
 50
0.0
 51
90.0
  0
ARC
  5
437
100
AcDbEntity
  8
M0
 62
     2
100
AcDbCircle
 10
197.826697
 20
516.268278
 40
0.5
100
AcDbArc
 50
180.0
 51
270.0
  0
ARC
  5
438
100
AcDbEntity
  8
M0
 62
     2
100
AcDbCircle
 10
190.526694
 20
516.268278
 40
0.5
100
AcDbArc
 50
-90.0
 51
0.0
  0
LINE
  5
439
100
AcDbEntity
  8
M0
 62
     2
100
AcDbLine
 10
197.576682
 20
516.468229
 11
197.576682
 21
517.468229
  0
LINE
  5
43A
100
AcDbEntity
  8
M0
 62
     2
100
AcDbLine
 10
191.026694
 20
526.968229
 11
197.576682
 21
526.968229
  0
LINE
  5
43B
100
AcDbEntity
  8
M0
 62
     2
100
AcDbLine
 10
198.1267
 20
525.068327
 11
198.1267
 21
518.468718
  0
LINE
  5
43C
100
AcDbEntity
  8
M0
 62
     2
100
AcDbLine
 10
197.1267
 20
517.468229
 11
191.226691
 21
517.468229
  0
LINE
  5
43D
100
AcDbEntity
  8
M0
 62
     2
100
AcDbLine
 10
190.226691
 20
518.468474
 11
190.226691
 21
525.068327
  0
ARC
  5
43E
100
AcDbEntity
  8
M0
 62
     2
100
AcDbCircle
 10
197.1267
 20
518.468474
 40
1.0
100
AcDbArc
 50
-90.0
 51
0.013988
  0
ARC
  5
43F
100
AcDbEntity
  8
M0
 62
     2
100
AcDbCircle
 10
191.226691
 20
518.468474
 40
1.0
100
AcDbArc
 50
179.999945
 51
270.0
  0
LINE
  5
440
100
AcDbEntity
  8
M0
 62
     2
100
AcDbLine
 10
197.326697
 20
525.968229
 11
197.576682
 21
525.968229
  0
LINE
  5
441
100
AcDbEntity
  8
M0
 62
     2
100
AcDbLine
 10
190.426688
 20
525.268278
 11
190.526694
 21
525.268278
  0
LINE
  5
442
100
AcDbEntity
  8
M0
 62
     2
100
AcDbLine
 10
197.326697
 20
525.768278
 11
197.326697
 21
526.968229
  0
LINE
  5
443
100
AcDbEntity
  8
M0
 62
     2
100
AcDbLine
 10
191.026694
 20
525.768278
 11
191.026694
 21
526.968229
  0
LINE
  5
444
100
AcDbEntity
  8
M0
 62
     2
100
AcDbLine
 10
197.826697
 20
525.268278
 11
197.926688
 21
525.268278
  0
ARC
  5
445
100
AcDbEntity
  8
M0
 62
     2
100
AcDbCircle
 10
190.426688
 20
525.068327
 40
0.2
100
AcDbArc
 50
90.0
 51
180.0
  0
ARC
  5
446
100
AcDbEntity
  8
M0
 62
     2
100
AcDbCircle
 10
197.926688
 20
525.068327
 40
0.2
100
AcDbArc
 50
0.0
 51
90.0
  0
ARC
  5
447
100
AcDbEntity
  8
M0
 62
     2
100
AcDbCircle
 10
197.826697
 20
525.768278
 40
0.5
100
AcDbArc
 50
180.0
 51
270.0
  0
ARC
  5
448
100
AcDbEntity
  8
M0
 62
     2
100
AcDbCircle
 10
190.526694
 20
525.768278
 40
0.5
100
AcDbArc
 50
-90.0
 51
0.0
  0
LINE
  5
449
100
AcDbEntity
  8
M0
 62
     2
100
AcDbLine
 10
197.576682
 20
525.968229
 11
197.576682
 21
526.968229
  0
LINE
  5
44A
100
AcDbEntity
  8
M0
 62
     2
100
AcDbLine
 10
93.326745
 20
526.968226
 11
86.776759
 21
526.968231
  0
LINE
  5
44B
100
AcDbEntity
  8
M0
 62
     2
100
AcDbLine
 10
86.22674
 20
525.068329
 11
86.226735
 21
518.468722
  0
LINE
  5
44C
100
AcDbEntity
  8
M0
 62
     2
100
AcDbLine
 10
87.226735
 20
517.468231
 11
93.126742
 21
517.468229
  0
LINE
  5
44D
100
AcDbEntity
  8
M0
 62
     2
100
AcDbLine
 10
94.126742
 20
518.468472
 11
94.126748
 21
525.068323
  0
ARC
  5
44E
100
AcDbEntity
  8
M0
 62
     2
100
AcDbCircle
 10
87.226735
 20
518.468476
 40
1.0
100
AcDbArc
 50
179.985848
 51
270.0
  0
ARC
  5
44F
100
AcDbEntity
  8
M0
 62
     2
100
AcDbCircle
 10
93.126742
 20
518.468474
 40
1.0
100
AcDbArc
 50
270.0
 51
360.0
  0
LINE
  5
450
100
AcDbEntity
  8
M0
 62
     2
100
AcDbLine
 10
87.026743
 20
525.968231
 11
86.776759
 21
525.968231
  0
LINE
  5
451
100
AcDbEntity
  8
M0
 62
     2
100
AcDbLine
 10
93.926751
 20
525.268274
 11
93.826745
 21
525.268274
  0
LINE
  5
452
100
AcDbEntity
  8
M0
 62
     2
100
AcDbLine
 10
87.026743
 20
525.76828
 11
87.026743
 21
526.968231
  0
LINE
  5
453
100
AcDbEntity
  8
M0
 62
     2
100
AcDbLine
 10
93.326745
 20
525.768274
 11
93.326745
 21
526.968226
  0
LINE
  5
454
100
AcDbEntity
  8
M0
 62
     2
100
AcDbLine
 10
86.526743
 20
525.26828
 11
86.426753
 21
525.26828
  0
ARC
  5
455
100
AcDbEntity
  8
M0
 62
     2
100
AcDbCircle
 10
93.926751
 20
525.068323
 40
0.2
100
AcDbArc
 50
0.0
 51
90.0
  0
ARC
  5
456
100
AcDbEntity
  8
M0
 62
     2
100
AcDbCircle
 10
86.426753
 20
525.068329
 40
0.2
100
AcDbArc
 50
90.0
 51
180.0
  0
ARC
  5
457
100
AcDbEntity
  8
M0
 62
     2
100
AcDbCircle
 10
86.526743
 20
525.76828
 40
0.5
100
AcDbArc
 50
270.0
 51
360.0
  0
ARC
  5
458
100
AcDbEntity
  8
M0
 62
     2
100
AcDbCircle
 10
93.826745
 20
525.768274
 40
0.5
100
AcDbArc
 50
180.0
 51
270.0
  0
LINE
  5
459
100
AcDbEntity
  8
M0
 62
     2
100
AcDbLine
 10
86.776759
 20
525.968231
 11
86.776759
 21
526.968231
  0
LINE
  5
45A
100
AcDbEntity
  8
M0
 62
     2
100
AcDbLine
 10
93.326745
 20
517.468226
 11
86.776759
 21
517.468231
  0
LINE
  5
45B
100
AcDbEntity
  8
M0
 62
     2
100
AcDbLine
 10
86.22674
 20
515.568329
 11
86.226735
 21
508.968722
  0
LINE
  5
45C
100
AcDbEntity
  8
M0
 62
     2
100
AcDbLine
 10
87.226735
 20
507.968231
 11
93.126742
 21
507.968229
  0
LINE
  5
45D
100
AcDbEntity
  8
M0
 62
     2
100
AcDbLine
 10
94.126742
 20
508.968472
 11
94.126748
 21
515.568323
  0
ARC
  5
45E
100
AcDbEntity
  8
M0
 62
     2
100
AcDbCircle
 10
87.226735
 20
508.968476
 40
1.0
100
AcDbArc
 50
179.985848
 51
270.0
  0
ARC
  5
45F
100
AcDbEntity
  8
M0
 62
     2
100
AcDbCircle
 10
93.126742
 20
508.968474
 40
1.0
100
AcDbArc
 50
270.0
 51
360.0
  0
LINE
  5
460
100
AcDbEntity
  8
M0
 62
     2
100
AcDbLine
 10
87.026743
 20
516.468231
 11
86.776759
 21
516.468231
  0
LINE
  5
461
100
AcDbEntity
  8
M0
 62
     2
100
AcDbLine
 10
93.926751
 20
515.768274
 11
93.826745
 21
515.768274
  0
LINE
  5
462
100
AcDbEntity
  8
M0
 62
     2
100
AcDbLine
 10
87.026743
 20
516.26828
 11
87.026743
 21
517.468231
  0
LINE
  5
463
100
AcDbEntity
  8
M0
 62
     2
100
AcDbLine
 10
93.326745
 20
516.268274
 11
93.326745
 21
517.468226
  0
LINE
  5
464
100
AcDbEntity
  8
M0
 62
     2
100
AcDbLine
 10
86.526743
 20
515.76828
 11
86.426753
 21
515.76828
  0
ARC
  5
465
100
AcDbEntity
  8
M0
 62
     2
100
AcDbCircle
 10
93.926751
 20
515.568323
 40
0.2
100
AcDbArc
 50
0.0
 51
90.0
  0
ARC
  5
466
100
AcDbEntity
  8
M0
 62
     2
100
AcDbCircle
 10
86.426753
 20
515.568329
 40
0.2
100
AcDbArc
 50
90.0
 51
180.0
  0
ARC
  5
467
100
AcDbEntity
  8
M0
 62
     2
100
AcDbCircle
 10
86.526743
 20
516.26828
 40
0.5
100
AcDbArc
 50
270.0
 51
360.0
  0
ARC
  5
468
100
AcDbEntity
  8
M0
 62
     2
100
AcDbCircle
 10
93.826745
 20
516.268274
 40
0.5
100
AcDbArc
 50
180.0
 51
270.0
  0
LINE
  5
469
100
AcDbEntity
  8
M0
 62
     2
100
AcDbLine
 10
86.776759
 20
516.468231
 11
86.776759
 21
517.468231
  0
LINE
  5
46A
100
AcDbEntity
  8
M0
 62
     2
100
AcDbLine
 10
93.326739
 20
486.468228
 11
86.776753
 21
486.468233
  0
LINE
  5
46B
100
AcDbEntity
  8
M0
 62
     2
100
AcDbLine
 10
86.226735
 20
488.368136
 11
86.22674
 21
494.967743
  0
LINE
  5
46C
100
AcDbEntity
  8
M0
 62
     2
100
AcDbLine
 10
87.22674
 20
495.968229
 11
93.126748
 21
495.968228
  0
LINE
  5
46D
100
AcDbEntity
  8
M0
 62
     2
100
AcDbLine
 10
94.126748
 20
494.967982
 11
94.126742
 21
488.36813
  0
ARC
  5
46E
100
AcDbEntity
  8
M0
 62
     2
100
AcDbCircle
 10
87.22674
 20
494.967985
 40
1.0
100
AcDbArc
 50
90.0
 51
180.013879
  0
ARC
  5
46F
100
AcDbEntity
  8
M0
 62
     2
100
AcDbCircle
 10
93.126748
 20
494.967983
 40
1.0
100
AcDbArc
 50
0.0
 51
90.0
  0
LINE
  5
470
100
AcDbEntity
  8
M0
 62
     2
100
AcDbLine
 10
87.026738
 20
487.468233
 11
86.776753
 21
487.468233
  0
LINE
  5
471
100
AcDbEntity
  8
M0
 62
     2
100
AcDbLine
 10
93.926745
 20
488.168179
 11
93.826739
 21
488.168179
  0
LINE
  5
472
100
AcDbEntity
  8
M0
 62
     2
100
AcDbLine
 10
87.026738
 20
487.668184
 11
87.026738
 21
486.468233
  0
LINE
  5
473
100
AcDbEntity
  8
M0
 62
     2
100
AcDbLine
 10
93.326739
 20
487.668179
 11
93.326739
 21
486.468228
  0
LINE
  5
474
100
AcDbEntity
  8
M0
 62
     2
100
AcDbLine
 10
86.526738
 20
488.168184
 11
86.426747
 21
488.168184
  0
ARC
  5
475
100
AcDbEntity
  8
M0
 62
     2
100
AcDbCircle
 10
93.926745
 20
488.36813
 40
0.2
100
AcDbArc
 50
-90.0
 51
0.0
  0
ARC
  5
476
100
AcDbEntity
  8
M0
 62
     2
100
AcDbCircle
 10
86.426747
 20
488.368136
 40
0.2
100
AcDbArc
 50
179.999727
 51
270.0
  0
ARC
  5
477
100
AcDbEntity
  8
M0
 62
     2
100
AcDbCircle
 10
86.526738
 20
487.668184
 40
0.5
100
AcDbArc
 50
0.0
 51
90.0
  0
ARC
  5
478
100
AcDbEntity
  8
M0
 62
     2
100
AcDbCircle
 10
93.826739
 20
487.668179
 40
0.5
100
AcDbArc
 50
90.0
 51
179.999891
  0
LINE
  5
479
100
AcDbEntity
  8
M0
 62
     2
100
AcDbLine
 10
86.776753
 20
487.468233
 11
86.776753
 21
486.468233
  0
LINE
  5
47A
100
AcDbEntity
  8
M0
 62
     2
100
AcDbLine
 10
93.326708
 20
476.968228
 11
86.776722
 21
476.968233
  0
LINE
  5
47B
100
AcDbEntity
  8
M0
 62
     2
100
AcDbLine
 10
86.226704
 20
478.868136
 11
86.22671
 21
485.467743
  0
LINE
  5
47C
100
AcDbEntity
  8
M0
 62
     2
100
AcDbLine
 10
87.22671
 20
486.468229
 11
93.126717
 21
486.468228
  0
LINE
  5
47D
100
AcDbEntity
  8
M0
 62
     2
100
AcDbLine
 10
94.126717
 20
485.467982
 11
94.126711
 21
478.86813
  0
ARC
  5
47E
100
AcDbEntity
  8
M0
 62
     2
100
AcDbCircle
 10
87.22671
 20
485.467985
 40
1.0
100
AcDbArc
 50
90.0
 51
180.013879
  0
ARC
  5
47F
100
AcDbEntity
  8
M0
 62
     2
100
AcDbCircle
 10
93.126717
 20
485.467983
 40
1.0
100
AcDbArc
 50
0.0
 51
90.0
  0
LINE
  5
480
100
AcDbEntity
  8
M0
 62
     2
100
AcDbLine
 10
87.026707
 20
477.968233
 11
86.776722
 21
477.968233
  0
LINE
  5
481
100
AcDbEntity
  8
M0
 62
     2
100
AcDbLine
 10
93.926714
 20
478.668179
 11
93.826708
 21
478.668179
  0
LINE
  5
482
100
AcDbEntity
  8
M0
 62
     2
100
AcDbLine
 10
87.026707
 20
478.168184
 11
87.026707
 21
476.968233
  0
LINE
  5
483
100
AcDbEntity
  8
M0
 62
     2
100
AcDbLine
 10
93.326708
 20
478.168179
 11
93.326708
 21
476.968228
  0
LINE
  5
484
100
AcDbEntity
  8
M0
 62
     2
100
AcDbLine
 10
86.526707
 20
478.668184
 11
86.426716
 21
478.668184
  0
ARC
  5
485
100
AcDbEntity
  8
M0
 62
     2
100
AcDbCircle
 10
93.926714
 20
478.86813
 40
0.2
100
AcDbArc
 50
-90.0
 51
0.0
  0
ARC
  5
486
100
AcDbEntity
  8
M0
 62
     2
100
AcDbCircle
 10
86.426716
 20
478.868136
 40
0.2
100
AcDbArc
 50
179.999727
 51
270.0
  0
ARC
  5
487
100
AcDbEntity
  8
M0
 62
     2
100
AcDbCircle
 10
86.526707
 20
478.168184
 40
0.5
100
AcDbArc
 50
0.0
 51
90.0
  0
ARC
  5
488
100
AcDbEntity
  8
M0
 62
     2
100
AcDbCircle
 10
93.826708
 20
478.168179
 40
0.5
100
AcDbArc
 50
90.0
 51
179.999891
  0
LINE
  5
489
100
AcDbEntity
  8
M0
 62
     2
100
AcDbLine
 10
86.776722
 20
477.968233
 11
86.776722
 21
476.968233
  0
LINE
  5
48A
100
AcDbEntity
  8
M0
 62
     5
100
AcDbLine
 10
191.6957
 20
477.668181
 11
196.657721
 21
477.668181
  0
LINE
  5
48B
100
AcDbEntity
  8
M0
 62
     5
100
AcDbLine
 10
197.951682
 20
480.667692
 11
197.951682
 21
483.26779
  0
LINE
  5
48C
100
AcDbEntity
  8
M0
 62
     5
100
AcDbLine
 10
196.657568
 20
486.26779
 11
191.6957
 21
486.26779
  0
LINE
  5
48D
100
AcDbEntity
  8
M0
 62
     5
100
AcDbLine
 10
190.401679
 20
483.268034
 11
190.401679
 21
480.668181
  0
LINE
  5
48E
100
AcDbEntity
  8
M0
 62
     5
100
AcDbLine
 10
190.401679
 20
480.668181
 11
191.217932
 21
478.02072
  0
LINE
  5
48F
100
AcDbEntity
  8
M0
 62
     5
100
AcDbLine
 10
190.401679
 20
483.268034
 11
191.217795
 21
485.914763
  0
LINE
  5
490
100
AcDbEntity
  8
M0
 62
     5
100
AcDbLine
 10
197.951697
 20
480.667936
 11
197.135504
 21
478.02072
  0
LINE
  5
491
100
AcDbEntity
  8
M0
 62
     5
100
AcDbLine
 10
197.951697
 20
483.26779
 11
197.135489
 21
485.914763
  0
ARC
  5
492
100
AcDbEntity
  8
M0
 62
     5
100
AcDbCircle
 10
191.6957
 20
478.168181
 40
0.5
100
AcDbArc
 50
197.15252
 51
270.0
  0
ARC
  5
493
100
AcDbEntity
  8
M0
 62
     5
100
AcDbCircle
 10
196.657721
 20
478.168181
 40
0.5
100
AcDbArc
 50
270.0
 51
342.84793
  0
ARC
  5
494
100
AcDbEntity
  8
M0
 62
     5
100
AcDbCircle
 10
196.657568
 20
485.767546
 40
0.5
100
AcDbArc
 50
17.120719
 51
90.0
  0
ARC
  5
495
100
AcDbEntity
  8
M0
 62
     5
100
AcDbCircle
 10
191.6957
 20
485.767546
 40
0.5
100
AcDbArc
 50
90.0
 51
162.878799
  0
LINE
  5
496
100
AcDbEntity
  8
M0
 62
     5
100
AcDbLine
 10
190.956717
 20
485.068083
 11
192.776679
 21
485.068083
  0
LINE
  5
497
100
AcDbEntity
  8
M0
 62
     5
100
AcDbLine
 10
190.956656
 20
478.868132
 11
192.776679
 21
478.868132
  0
LINE
  5
498
100
AcDbEntity
  8
M0
 62
     5
100
AcDbLine
 10
190.586691
 20
480.068083
 11
191.855185
 21
480.068083
  0
LINE
  5
499
100
AcDbEntity
  8
M0
 62
     5
100
AcDbLine
 10
190.58663
 20
483.867888
 11
191.854773
 21
483.867888
  0
LINE
  5
49A
100
AcDbEntity
  8
M0
 62
     5
100
AcDbLine
 10
196.498206
 20
480.068083
 11
197.766745
 21
480.068083
  0
LINE
  5
49B
100
AcDbEntity
  8
M0
 62
     5
100
AcDbLine
 10
196.498618
 20
483.867888
 11
197.766653
 21
483.867888
  0
LINE
  5
49C
100
AcDbEntity
  8
M0
 62
     5
100
AcDbLine
 10
195.576682
 20
478.868132
 11
195.576682
 21
479.314909
  0
LINE
  5
49D
100
AcDbEntity
  8
M0
 62
     5
100
AcDbLine
 10
192.776679
 20
478.868132
 11
192.776679
 21
479.314909
  0
LINE
  5
49E
100
AcDbEntity
  8
M0
 62
     5
100
AcDbLine
 10
192.776679
 20
485.068083
 11
192.776679
 21
484.621306
  0
LINE
  5
49F
100
AcDbEntity
  8
M0
 62
     5
100
AcDbLine
 10
195.576682
 20
485.068083
 11
195.576682
 21
484.621306
  0
LINE
  5
4A0
100
AcDbEntity
  8
M0
 62
     5
100
AcDbLine
 10
195.576682
 20
478.868132
 11
197.396765
 21
478.868132
  0
LINE
  5
4A1
100
AcDbEntity
  8
M0
 62
     5
100
AcDbLine
 10
195.576682
 20
485.068083
 11
197.396567
 21
485.068083
  0
CIRCLE
  5
4A2
100
AcDbEntity
  8
M0
 62
     5
100
AcDbCircle
 10
194.176703
 20
481.968229
 40
3.0
  0
LINE
  5
4A3
100
AcDbEntity
  8
M0
 62
     5
100
AcDbLine
 10
195.166647
 20
480.270964
 11
195.873755
 21
480.978239
  0
LINE
  5
4A4
100
AcDbEntity
  8
M0
 62
     5
100
AcDbLine
 10
195.873755
 20
480.978239
 11
194.883795
 21
481.967985
  0
LINE
  5
4A5
100
AcDbEntity
  8
M0
 62
     5
100
AcDbLine
 10
193.186743
 20
483.665251
 11
192.479651
 21
482.957976
  0
LINE
  5
4A6
100
AcDbEntity
  8
M0
 62
     5
100
AcDbLine
 10
192.479651
 20
482.957976
 11
193.469595
 21
481.968229
  0
LINE
  5
4A7
100
AcDbEntity
  8
M0
 62
     5
100
AcDbLine
 10
191.731482
 20
480.229948
 11
193.469595
 21
481.968229
  0
LINE
  5
4A8
100
AcDbEntity
  8
M0
 62
     5
100
AcDbLine
 10
192.43859
 20
479.522917
 11
194.176688
 21
481.260954
  0
LINE
  5
4A9
100
AcDbEntity
  8
M0
 62
     5
100
AcDbLine
 10
196.621893
 20
483.706267
 11
194.883795
 21
481.967985
  0
LINE
  5
4AA
100
AcDbEntity
  8
M0
 62
     5
100
AcDbLine
 10
195.914786
 20
484.413298
 11
194.176703
 21
482.675261
  0
LINE
  5
4AB
100
AcDbEntity
  8
M0
 62
     5
100
AcDbLine
 10
195.166647
 20
480.270964
 11
194.176688
 21
481.260954
  0
LINE
  5
4AC
100
AcDbEntity
  8
M0
 62
     5
100
AcDbLine
 10
193.186743
 20
483.665251
 11
194.176703
 21
482.675261
  0
LINE
  5
4AD
100
AcDbEntity
  8
M0
 62
     5
100
AcDbLine
 10
191.6957
 20
487.168181
 11
196.657721
 21
487.168181
  0
LINE
  5
4AE
100
AcDbEntity
  8
M0
 62
     5
100
AcDbLine
 10
197.951682
 20
490.167692
 11
197.951682
 21
492.76779
  0
LINE
  5
4AF
100
AcDbEntity
  8
M0
 62
     5
100
AcDbLine
 10
196.657568
 20
495.76779
 11
191.6957
 21
495.76779
  0
LINE
  5
4B0
100
AcDbEntity
  8
M0
 62
     5
100
AcDbLine
 10
190.401679
 20
492.768034
 11
190.401679
 21
490.168181
  0
LINE
  5
4B1
100
AcDbEntity
  8
M0
 62
     5
100
AcDbLine
 10
190.401679
 20
490.168181
 11
191.217932
 21
487.52072
  0
LINE
  5
4B2
100
AcDbEntity
  8
M0
 62
     5
100
AcDbLine
 10
190.401679
 20
492.768034
 11
191.217795
 21
495.414763
  0
LINE
  5
4B3
100
AcDbEntity
  8
M0
 62
     5
100
AcDbLine
 10
197.951697
 20
490.167936
 11
197.135504
 21
487.52072
  0
LINE
  5
4B4
100
AcDbEntity
  8
M0
 62
     5
100
AcDbLine
 10
197.951697
 20
492.76779
 11
197.135489
 21
495.414763
  0
ARC
  5
4B5
100
AcDbEntity
  8
M0
 62
     5
100
AcDbCircle
 10
191.6957
 20
487.668181
 40
0.5
100
AcDbArc
 50
197.15252
 51
270.0
  0
ARC
  5
4B6
100
AcDbEntity
  8
M0
 62
     5
100
AcDbCircle
 10
196.657721
 20
487.668181
 40
0.5
100
AcDbArc
 50
270.0
 51
342.84793
  0
ARC
  5
4B7
100
AcDbEntity
  8
M0
 62
     5
100
AcDbCircle
 10
196.657568
 20
495.267546
 40
0.5
100
AcDbArc
 50
17.120719
 51
90.0
  0
ARC
  5
4B8
100
AcDbEntity
  8
M0
 62
     5
100
AcDbCircle
 10
191.6957
 20
495.267546
 40
0.5
100
AcDbArc
 50
90.0
 51
162.878799
  0
LINE
  5
4B9
100
AcDbEntity
  8
M0
 62
     5
100
AcDbLine
 10
190.956717
 20
494.568083
 11
192.776679
 21
494.568083
  0
LINE
  5
4BA
100
AcDbEntity
  8
M0
 62
     5
100
AcDbLine
 10
190.956656
 20
488.368132
 11
192.776679
 21
488.368132
  0
LINE
  5
4BB
100
AcDbEntity
  8
M0
 62
     5
100
AcDbLine
 10
190.586691
 20
489.568083
 11
191.855185
 21
489.568083
  0
LINE
  5
4BC
100
AcDbEntity
  8
M0
 62
     5
100
AcDbLine
 10
190.58663
 20
493.367888
 11
191.854773
 21
493.367888
  0
LINE
  5
4BD
100
AcDbEntity
  8
M0
 62
     5
100
AcDbLine
 10
196.498206
 20
489.568083
 11
197.766745
 21
489.568083
  0
LINE
  5
4BE
100
AcDbEntity
  8
M0
 62
     5
100
AcDbLine
 10
196.498618
 20
493.367888
 11
197.766653
 21
493.367888
  0
LINE
  5
4BF
100
AcDbEntity
  8
M0
 62
     5
100
AcDbLine
 10
195.576682
 20
488.368132
 11
195.576682
 21
488.814909
  0
LINE
  5
4C0
100
AcDbEntity
  8
M0
 62
     5
100
AcDbLine
 10
192.776679
 20
488.368132
 11
192.776679
 21
488.814909
  0
LINE
  5
4C1
100
AcDbEntity
  8
M0
 62
     5
100
AcDbLine
 10
192.776679
 20
494.568083
 11
192.776679
 21
494.121306
  0
LINE
  5
4C2
100
AcDbEntity
  8
M0
 62
     5
100
AcDbLine
 10
195.576682
 20
494.568083
 11
195.576682
 21
494.121306
  0
LINE
  5
4C3
100
AcDbEntity
  8
M0
 62
     5
100
AcDbLine
 10
195.576682
 20
488.368132
 11
197.396765
 21
488.368132
  0
LINE
  5
4C4
100
AcDbEntity
  8
M0
 62
     5
100
AcDbLine
 10
195.576682
 20
494.568083
 11
197.396567
 21
494.568083
  0
CIRCLE
  5
4C5
100
AcDbEntity
  8
M0
 62
     5
100
AcDbCircle
 10
194.176703
 20
491.468229
 40
3.0
  0
LINE
  5
4C6
100
AcDbEntity
  8
M0
 62
     5
100
AcDbLine
 10
195.166647
 20
489.770964
 11
195.873755
 21
490.478239
  0
LINE
  5
4C7
100
AcDbEntity
  8
M0
 62
     5
100
AcDbLine
 10
195.873755
 20
490.478239
 11
194.883795
 21
491.467985
  0
LINE
  5
4C8
100
AcDbEntity
  8
M0
 62
     5
100
AcDbLine
 10
193.186743
 20
493.165251
 11
192.479651
 21
492.457976
  0
LINE
  5
4C9
100
AcDbEntity
  8
M0
 62
     5
100
AcDbLine
 10
192.479651
 20
492.457976
 11
193.469595
 21
491.468229
  0
LINE
  5
4CA
100
AcDbEntity
  8
M0
 62
     5
100
AcDbLine
 10
191.731482
 20
489.729948
 11
193.469595
 21
491.468229
  0
LINE
  5
4CB
100
AcDbEntity
  8
M0
 62
     5
100
AcDbLine
 10
192.43859
 20
489.022917
 11
194.176688
 21
490.760954
  0
LINE
  5
4CC
100
AcDbEntity
  8
M0
 62
     5
100
AcDbLine
 10
196.621893
 20
493.206267
 11
194.883795
 21
491.467985
  0
LINE
  5
4CD
100
AcDbEntity
  8
M0
 62
     5
100
AcDbLine
 10
195.914786
 20
493.913298
 11
194.176703
 21
492.175261
  0
LINE
  5
4CE
100
AcDbEntity
  8
M0
 62
     5
100
AcDbLine
 10
195.166647
 20
489.770964
 11
194.176688
 21
490.760954
  0
LINE
  5
4CF
100
AcDbEntity
  8
M0
 62
     5
100
AcDbLine
 10
193.186743
 20
493.165251
 11
194.176703
 21
492.175261
  0
LINE
  5
4D0
100
AcDbEntity
  8
M0
 62
     5
100
AcDbLine
 10
191.6957
 20
517.668181
 11
196.657721
 21
517.668181
  0
LINE
  5
4D1
100
AcDbEntity
  8
M0
 62
     5
100
AcDbLine
 10
197.951682
 20
520.667692
 11
197.951682
 21
523.26779
  0
LINE
  5
4D2
100
AcDbEntity
  8
M0
 62
     5
100
AcDbLine
 10
196.657568
 20
526.26779
 11
191.6957
 21
526.26779
  0
LINE
  5
4D3
100
AcDbEntity
  8
M0
 62
     5
100
AcDbLine
 10
190.401679
 20
523.268034
 11
190.401679
 21
520.668181
  0
LINE
  5
4D4
100
AcDbEntity
  8
M0
 62
     5
100
AcDbLine
 10
190.401679
 20
520.668181
 11
191.217932
 21
518.02072
  0
LINE
  5
4D5
100
AcDbEntity
  8
M0
 62
     5
100
AcDbLine
 10
190.401679
 20
523.268034
 11
191.217795
 21
525.914763
  0
LINE
  5
4D6
100
AcDbEntity
  8
M0
 62
     5
100
AcDbLine
 10
197.951697
 20
520.667936
 11
197.135504
 21
518.02072
  0
LINE
  5
4D7
100
AcDbEntity
  8
M0
 62
     5
100
AcDbLine
 10
197.951697
 20
523.26779
 11
197.135489
 21
525.914763
  0
ARC
  5
4D8
100
AcDbEntity
  8
M0
 62
     5
100
AcDbCircle
 10
191.6957
 20
518.168181
 40
0.5
100
AcDbArc
 50
197.15252
 51
270.0
  0
ARC
  5
4D9
100
AcDbEntity
  8
M0
 62
     5
100
AcDbCircle
 10
196.657721
 20
518.168181
 40
0.5
100
AcDbArc
 50
270.0
 51
342.84793
  0
ARC
  5
4DA
100
AcDbEntity
  8
M0
 62
     5
100
AcDbCircle
 10
196.657568
 20
525.767546
 40
0.5
100
AcDbArc
 50
17.120719
 51
90.0
  0
ARC
  5
4DB
100
AcDbEntity
  8
M0
 62
     5
100
AcDbCircle
 10
191.6957
 20
525.767546
 40
0.5
100
AcDbArc
 50
90.0
 51
162.878799
  0
LINE
  5
4DC
100
AcDbEntity
  8
M0
 62
     5
100
AcDbLine
 10
190.956717
 20
525.068083
 11
192.776679
 21
525.068083
  0
LINE
  5
4DD
100
AcDbEntity
  8
M0
 62
     5
100
AcDbLine
 10
190.956656
 20
518.868132
 11
192.776679
 21
518.868132
  0
LINE
  5
4DE
100
AcDbEntity
  8
M0
 62
     5
100
AcDbLine
 10
190.586691
 20
520.068083
 11
191.855185
 21
520.068083
  0
LINE
  5
4DF
100
AcDbEntity
  8
M0
 62
     5
100
AcDbLine
 10
190.58663
 20
523.867888
 11
191.854773
 21
523.867888
  0
LINE
  5
4E0
100
AcDbEntity
  8
M0
 62
     5
100
AcDbLine
 10
196.498206
 20
520.068083
 11
197.766745
 21
520.068083
  0
LINE
  5
4E1
100
AcDbEntity
  8
M0
 62
     5
100
AcDbLine
 10
196.498618
 20
523.867888
 11
197.766653
 21
523.867888
  0
LINE
  5
4E2
100
AcDbEntity
  8
M0
 62
     5
100
AcDbLine
 10
195.576682
 20
518.868132
 11
195.576682
 21
519.314909
  0
LINE
  5
4E3
100
AcDbEntity
  8
M0
 62
     5
100
AcDbLine
 10
192.776679
 20
518.868132
 11
192.776679
 21
519.314909
  0
LINE
  5
4E4
100
AcDbEntity
  8
M0
 62
     5
100
AcDbLine
 10
192.776679
 20
525.068083
 11
192.776679
 21
524.621306
  0
LINE
  5
4E5
100
AcDbEntity
  8
M0
 62
     5
100
AcDbLine
 10
195.576682
 20
525.068083
 11
195.576682
 21
524.621306
  0
LINE
  5
4E6
100
AcDbEntity
  8
M0
 62
     5
100
AcDbLine
 10
195.576682
 20
518.868132
 11
197.396765
 21
518.868132
  0
LINE
  5
4E7
100
AcDbEntity
  8
M0
 62
     5
100
AcDbLine
 10
195.576682
 20
525.068083
 11
197.396567
 21
525.068083
  0
CIRCLE
  5
4E8
100
AcDbEntity
  8
M0
 62
     5
100
AcDbCircle
 10
194.176703
 20
521.968229
 40
3.0
  0
LINE
  5
4E9
100
AcDbEntity
  8
M0
 62
     5
100
AcDbLine
 10
195.166647
 20
520.270964
 11
195.873755
 21
520.978239
  0
LINE
  5
4EA
100
AcDbEntity
  8
M0
 62
     5
100
AcDbLine
 10
195.873755
 20
520.978239
 11
194.883795
 21
521.967985
  0
LINE
  5
4EB
100
AcDbEntity
  8
M0
 62
     5
100
AcDbLine
 10
193.186743
 20
523.665251
 11
192.479651
 21
522.957976
  0
LINE
  5
4EC
100
AcDbEntity
  8
M0
 62
     5
100
AcDbLine
 10
192.479651
 20
522.957976
 11
193.469595
 21
521.968229
  0
LINE
  5
4ED
100
AcDbEntity
  8
M0
 62
     5
100
AcDbLine
 10
191.731482
 20
520.229948
 11
193.469595
 21
521.968229
  0
LINE
  5
4EE
100
AcDbEntity
  8
M0
 62
     5
100
AcDbLine
 10
192.43859
 20
519.522917
 11
194.176688
 21
521.260954
  0
LINE
  5
4EF
100
AcDbEntity
  8
M0
 62
     5
100
AcDbLine
 10
196.621893
 20
523.706267
 11
194.883795
 21
521.967985
  0
LINE
  5
4F0
100
AcDbEntity
  8
M0
 62
     5
100
AcDbLine
 10
195.914786
 20
524.413298
 11
194.176703
 21
522.675261
  0
LINE
  5
4F1
100
AcDbEntity
  8
M0
 62
     5
100
AcDbLine
 10
195.166647
 20
520.270964
 11
194.176688
 21
521.260954
  0
LINE
  5
4F2
100
AcDbEntity
  8
M0
 62
     5
100
AcDbLine
 10
193.186743
 20
523.665251
 11
194.176703
 21
522.675261
  0
LINE
  5
4F3
100
AcDbEntity
  8
M0
 62
     5
100
AcDbLine
 10
191.6957
 20
508.168181
 11
196.657721
 21
508.168181
  0
LINE
  5
4F4
100
AcDbEntity
  8
M0
 62
     5
100
AcDbLine
 10
197.951682
 20
511.167692
 11
197.951682
 21
513.76779
  0
LINE
  5
4F5
100
AcDbEntity
  8
M0
 62
     5
100
AcDbLine
 10
196.657568
 20
516.76779
 11
191.6957
 21
516.76779
  0
LINE
  5
4F6
100
AcDbEntity
  8
M0
 62
     5
100
AcDbLine
 10
190.401679
 20
513.768034
 11
190.401679
 21
511.168181
  0
LINE
  5
4F7
100
AcDbEntity
  8
M0
 62
     5
100
AcDbLine
 10
190.401679
 20
511.168181
 11
191.217932
 21
508.52072
  0
LINE
  5
4F8
100
AcDbEntity
  8
M0
 62
     5
100
AcDbLine
 10
190.401679
 20
513.768034
 11
191.217795
 21
516.414763
  0
LINE
  5
4F9
100
AcDbEntity
  8
M0
 62
     5
100
AcDbLine
 10
197.951697
 20
511.167936
 11
197.135504
 21
508.52072
  0
LINE
  5
4FA
100
AcDbEntity
  8
M0
 62
     5
100
AcDbLine
 10
197.951697
 20
513.76779
 11
197.135489
 21
516.414763
  0
ARC
  5
4FB
100
AcDbEntity
  8
M0
 62
     5
100
AcDbCircle
 10
191.6957
 20
508.668181
 40
0.5
100
AcDbArc
 50
197.15252
 51
270.0
  0
ARC
  5
4FC
100
AcDbEntity
  8
M0
 62
     5
100
AcDbCircle
 10
196.657721
 20
508.668181
 40
0.5
100
AcDbArc
 50
270.0
 51
342.84793
  0
ARC
  5
4FD
100
AcDbEntity
  8
M0
 62
     5
100
AcDbCircle
 10
196.657568
 20
516.267546
 40
0.5
100
AcDbArc
 50
17.120719
 51
90.0
  0
ARC
  5
4FE
100
AcDbEntity
  8
M0
 62
     5
100
AcDbCircle
 10
191.6957
 20
516.267546
 40
0.5
100
AcDbArc
 50
90.0
 51
162.878799
  0
LINE
  5
4FF
100
AcDbEntity
  8
M0
 62
     5
100
AcDbLine
 10
190.956717
 20
515.568083
 11
192.776679
 21
515.568083
  0
LINE
  5
500
100
AcDbEntity
  8
M0
 62
     5
100
AcDbLine
 10
190.956656
 20
509.368132
 11
192.776679
 21
509.368132
  0
LINE
  5
501
100
AcDbEntity
  8
M0
 62
     5
100
AcDbLine
 10
190.586691
 20
510.568083
 11
191.855185
 21
510.568083
  0
LINE
  5
502
100
AcDbEntity
  8
M0
 62
     5
100
AcDbLine
 10
190.58663
 20
514.367888
 11
191.854773
 21
514.367888
  0
LINE
  5
503
100
AcDbEntity
  8
M0
 62
     5
100
AcDbLine
 10
196.498206
 20
510.568083
 11
197.766745
 21
510.568083
  0
LINE
  5
504
100
AcDbEntity
  8
M0
 62
     5
100
AcDbLine
 10
196.498618
 20
514.367888
 11
197.766653
 21
514.367888
  0
LINE
  5
505
100
AcDbEntity
  8
M0
 62
     5
100
AcDbLine
 10
195.576682
 20
509.368132
 11
195.576682
 21
509.814909
  0
LINE
  5
506
100
AcDbEntity
  8
M0
 62
     5
100
AcDbLine
 10
192.776679
 20
509.368132
 11
192.776679
 21
509.814909
  0
LINE
  5
507
100
AcDbEntity
  8
M0
 62
     5
100
AcDbLine
 10
192.776679
 20
515.568083
 11
192.776679
 21
515.121306
  0
LINE
  5
508
100
AcDbEntity
  8
M0
 62
     5
100
AcDbLine
 10
195.576682
 20
515.568083
 11
195.576682
 21
515.121306
  0
LINE
  5
509
100
AcDbEntity
  8
M0
 62
     5
100
AcDbLine
 10
195.576682
 20
509.368132
 11
197.396765
 21
509.368132
  0
LINE
  5
50A
100
AcDbEntity
  8
M0
 62
     5
100
AcDbLine
 10
195.576682
 20
515.568083
 11
197.396567
 21
515.568083
  0
CIRCLE
  5
50B
100
AcDbEntity
  8
M0
 62
     5
100
AcDbCircle
 10
194.176703
 20
512.468229
 40
3.0
  0
LINE
  5
50C
100
AcDbEntity
  8
M0
 62
     5
100
AcDbLine
 10
195.166647
 20
510.770964
 11
195.873755
 21
511.478239
  0
LINE
  5
50D
100
AcDbEntity
  8
M0
 62
     5
100
AcDbLine
 10
195.873755
 20
511.478239
 11
194.883795
 21
512.467985
  0
LINE
  5
50E
100
AcDbEntity
  8
M0
 62
     5
100
AcDbLine
 10
193.186743
 20
514.165251
 11
192.479651
 21
513.457976
  0
LINE
  5
50F
100
AcDbEntity
  8
M0
 62
     5
100
AcDbLine
 10
192.479651
 20
513.457976
 11
193.469595
 21
512.468229
  0
LINE
  5
510
100
AcDbEntity
  8
M0
 62
     5
100
AcDbLine
 10
191.731482
 20
510.729948
 11
193.469595
 21
512.468229
  0
LINE
  5
511
100
AcDbEntity
  8
M0
 62
     5
100
AcDbLine
 10
192.43859
 20
510.022917
 11
194.176688
 21
511.760954
  0
LINE
  5
512
100
AcDbEntity
  8
M0
 62
     5
100
AcDbLine
 10
196.621893
 20
514.206267
 11
194.883795
 21
512.467985
  0
LINE
  5
513
100
AcDbEntity
  8
M0
 62
     5
100
AcDbLine
 10
195.914786
 20
514.913298
 11
194.176703
 21
513.175261
  0
LINE
  5
514
100
AcDbEntity
  8
M0
 62
     5
100
AcDbLine
 10
195.166647
 20
510.770964
 11
194.176688
 21
511.760954
  0
LINE
  5
515
100
AcDbEntity
  8
M0
 62
     5
100
AcDbLine
 10
193.186743
 20
514.165251
 11
194.176703
 21
513.175261
  0
LINE
  5
516
100
AcDbEntity
  8
M0
 62
     5
100
AcDbLine
 10
87.6957
 20
487.168181
 11
92.657721
 21
487.168181
  0
LINE
  5
517
100
AcDbEntity
  8
M0
 62
     5
100
AcDbLine
 10
93.951682
 20
490.167692
 11
93.951682
 21
492.76779
  0
LINE
  5
518
100
AcDbEntity
  8
M0
 62
     5
100
AcDbLine
 10
92.657568
 20
495.76779
 11
87.6957
 21
495.76779
  0
LINE
  5
519
100
AcDbEntity
  8
M0
 62
     5
100
AcDbLine
 10
86.401679
 20
492.768034
 11
86.401679
 21
490.168181
  0
LINE
  5
51A
100
AcDbEntity
  8
M0
 62
     5
100
AcDbLine
 10
86.401679
 20
490.168181
 11
87.217932
 21
487.52072
  0
LINE
  5
51B
100
AcDbEntity
  8
M0
 62
     5
100
AcDbLine
 10
86.401679
 20
492.768034
 11
87.217795
 21
495.414763
  0
LINE
  5
51C
100
AcDbEntity
  8
M0
 62
     5
100
AcDbLine
 10
93.951697
 20
490.167936
 11
93.135504
 21
487.52072
  0
LINE
  5
51D
100
AcDbEntity
  8
M0
 62
     5
100
AcDbLine
 10
93.951697
 20
492.76779
 11
93.135489
 21
495.414763
  0
ARC
  5
51E
100
AcDbEntity
  8
M0
 62
     5
100
AcDbCircle
 10
87.6957
 20
487.668181
 40
0.5
100
AcDbArc
 50
197.15252
 51
270.0
  0
ARC
  5
51F
100
AcDbEntity
  8
M0
 62
     5
100
AcDbCircle
 10
92.657721
 20
487.668181
 40
0.5
100
AcDbArc
 50
270.0
 51
342.84793
  0
ARC
  5
520
100
AcDbEntity
  8
M0
 62
     5
100
AcDbCircle
 10
92.657568
 20
495.267546
 40
0.5
100
AcDbArc
 50
17.120719
 51
90.0
  0
ARC
  5
521
100
AcDbEntity
  8
M0
 62
     5
100
AcDbCircle
 10
87.6957
 20
495.267546
 40
0.5
100
AcDbArc
 50
90.0
 51
162.878799
  0
LINE
  5
522
100
AcDbEntity
  8
M0
 62
     5
100
AcDbLine
 10
86.956717
 20
494.568083
 11
88.776679
 21
494.568083
  0
LINE
  5
523
100
AcDbEntity
  8
M0
 62
     5
100
AcDbLine
 10
86.956656
 20
488.368132
 11
88.776679
 21
488.368132
  0
LINE
  5
524
100
AcDbEntity
  8
M0
 62
     5
100
AcDbLine
 10
86.586691
 20
489.568083
 11
87.855185
 21
489.568083
  0
LINE
  5
525
100
AcDbEntity
  8
M0
 62
     5
100
AcDbLine
 10
86.58663
 20
493.367888
 11
87.854773
 21
493.367888
  0
LINE
  5
526
100
AcDbEntity
  8
M0
 62
     5
100
AcDbLine
 10
92.498206
 20
489.568083
 11
93.766745
 21
489.568083
  0
LINE
  5
527
100
AcDbEntity
  8
M0
 62
     5
100
AcDbLine
 10
92.498618
 20
493.367888
 11
93.766653
 21
493.367888
  0
LINE
  5
528
100
AcDbEntity
  8
M0
 62
     5
100
AcDbLine
 10
91.576682
 20
488.368132
 11
91.576682
 21
488.814909
  0
LINE
  5
529
100
AcDbEntity
  8
M0
 62
     5
100
AcDbLine
 10
88.776679
 20
488.368132
 11
88.776679
 21
488.814909
  0
LINE
  5
52A
100
AcDbEntity
  8
M0
 62
     5
100
AcDbLine
 10
88.776679
 20
494.568083
 11
88.776679
 21
494.121306
  0
LINE
  5
52B
100
AcDbEntity
  8
M0
 62
     5
100
AcDbLine
 10
91.576682
 20
494.568083
 11
91.576682
 21
494.121306
  0
LINE
  5
52C
100
AcDbEntity
  8
M0
 62
     5
100
AcDbLine
 10
91.576682
 20
488.368132
 11
93.396765
 21
488.368132
  0
LINE
  5
52D
100
AcDbEntity
  8
M0
 62
     5
100
AcDbLine
 10
91.576682
 20
494.568083
 11
93.396567
 21
494.568083
  0
CIRCLE
  5
52E
100
AcDbEntity
  8
M0
 62
     5
100
AcDbCircle
 10
90.176703
 20
491.468229
 40
3.0
  0
LINE
  5
52F
100
AcDbEntity
  8
M0
 62
     5
100
AcDbLine
 10
91.166647
 20
489.770964
 11
91.873755
 21
490.478239
  0
LINE
  5
530
100
AcDbEntity
  8
M0
 62
     5
100
AcDbLine
 10
91.873755
 20
490.478239
 11
90.883795
 21
491.467985
  0
LINE
  5
531
100
AcDbEntity
  8
M0
 62
     5
100
AcDbLine
 10
89.186743
 20
493.165251
 11
88.479651
 21
492.457976
  0
LINE
  5
532
100
AcDbEntity
  8
M0
 62
     5
100
AcDbLine
 10
88.479651
 20
492.457976
 11
89.469595
 21
491.468229
  0
LINE
  5
533
100
AcDbEntity
  8
M0
 62
     5
100
AcDbLine
 10
87.731482
 20
489.729948
 11
89.469595
 21
491.468229
  0
LINE
  5
534
100
AcDbEntity
  8
M0
 62
     5
100
AcDbLine
 10
88.43859
 20
489.022917
 11
90.176688
 21
490.760954
  0
LINE
  5
535
100
AcDbEntity
  8
M0
 62
     5
100
AcDbLine
 10
92.621893
 20
493.206267
 11
90.883795
 21
491.467985
  0
LINE
  5
536
100
AcDbEntity
  8
M0
 62
     5
100
AcDbLine
 10
91.914786
 20
493.913298
 11
90.176703
 21
492.175261
  0
LINE
  5
537
100
AcDbEntity
  8
M0
 62
     5
100
AcDbLine
 10
91.166647
 20
489.770964
 11
90.176688
 21
490.760954
  0
LINE
  5
538
100
AcDbEntity
  8
M0
 62
     5
100
AcDbLine
 10
89.186743
 20
493.165251
 11
90.176703
 21
492.175261
  0
LINE
  5
539
100
AcDbEntity
  8
M0
 62
     5
100
AcDbLine
 10
87.6957
 20
508.168181
 11
92.657721
 21
508.168181
  0
LINE
  5
53A
100
AcDbEntity
  8
M0
 62
     5
100
AcDbLine
 10
93.951682
 20
511.167692
 11
93.951682
 21
513.76779
  0
LINE
  5
53B
100
AcDbEntity
  8
M0
 62
     5
100
AcDbLine
 10
92.657568
 20
516.76779
 11
87.6957
 21
516.76779
  0
LINE
  5
53C
100
AcDbEntity
  8
M0
 62
     5
100
AcDbLine
 10
86.401679
 20
513.768034
 11
86.401679
 21
511.168181
  0
LINE
  5
53D
100
AcDbEntity
  8
M0
 62
     5
100
AcDbLine
 10
86.401679
 20
511.168181
 11
87.217932
 21
508.52072
  0
LINE
  5
53E
100
AcDbEntity
  8
M0
 62
     5
100
AcDbLine
 10
86.401679
 20
513.768034
 11
87.217795
 21
516.414763
  0
LINE
  5
53F
100
AcDbEntity
  8
M0
 62
     5
100
AcDbLine
 10
93.951697
 20
511.167936
 11
93.135504
 21
508.52072
  0
LINE
  5
540
100
AcDbEntity
  8
M0
 62
     5
100
AcDbLine
 10
93.951697
 20
513.76779
 11
93.135489
 21
516.414763
  0
ARC
  5
541
100
AcDbEntity
  8
M0
 62
     5
100
AcDbCircle
 10
87.6957
 20
508.668181
 40
0.5
100
AcDbArc
 50
197.15252
 51
270.0
  0
ARC
  5
542
100
AcDbEntity
  8
M0
 62
     5
100
AcDbCircle
 10
92.657721
 20
508.668181
 40
0.5
100
AcDbArc
 50
270.0
 51
342.84793
  0
ARC
  5
543
100
AcDbEntity
  8
M0
 62
     5
100
AcDbCircle
 10
92.657568
 20
516.267546
 40
0.5
100
AcDbArc
 50
17.120719
 51
90.0
  0
ARC
  5
544
100
AcDbEntity
  8
M0
 62
     5
100
AcDbCircle
 10
87.6957
 20
516.267546
 40
0.5
100
AcDbArc
 50
90.0
 51
162.878799
  0
LINE
  5
545
100
AcDbEntity
  8
M0
 62
     5
100
AcDbLine
 10
86.956717
 20
515.568083
 11
88.776679
 21
515.568083
  0
LINE
  5
546
100
AcDbEntity
  8
M0
 62
     5
100
AcDbLine
 10
86.956656
 20
509.368132
 11
88.776679
 21
509.368132
  0
LINE
  5
547
100
AcDbEntity
  8
M0
 62
     5
100
AcDbLine
 10
86.586691
 20
510.568083
 11
87.855185
 21
510.568083
  0
LINE
  5
548
100
AcDbEntity
  8
M0
 62
     5
100
AcDbLine
 10
86.58663
 20
514.367888
 11
87.854773
 21
514.367888
  0
LINE
  5
549
100
AcDbEntity
  8
M0
 62
     5
100
AcDbLine
 10
92.498206
 20
510.568083
 11
93.766745
 21
510.568083
  0
LINE
  5
54A
100
AcDbEntity
  8
M0
 62
     5
100
AcDbLine
 10
92.498618
 20
514.367888
 11
93.766653
 21
514.367888
  0
LINE
  5
54B
100
AcDbEntity
  8
M0
 62
     5
100
AcDbLine
 10
91.576682
 20
509.368132
 11
91.576682
 21
509.814909
  0
LINE
  5
54C
100
AcDbEntity
  8
M0
 62
     5
100
AcDbLine
 10
88.776679
 20
509.368132
 11
88.776679
 21
509.814909
  0
LINE
  5
54D
100
AcDbEntity
  8
M0
 62
     5
100
AcDbLine
 10
88.776679
 20
515.568083
 11
88.776679
 21
515.121306
  0
LINE
  5
54E
100
AcDbEntity
  8
M0
 62
     5
100
AcDbLine
 10
91.576682
 20
515.568083
 11
91.576682
 21
515.121306
  0
LINE
  5
54F
100
AcDbEntity
  8
M0
 62
     5
100
AcDbLine
 10
91.576682
 20
509.368132
 11
93.396765
 21
509.368132
  0
LINE
  5
550
100
AcDbEntity
  8
M0
 62
     5
100
AcDbLine
 10
91.576682
 20
515.568083
 11
93.396567
 21
515.568083
  0
CIRCLE
  5
551
100
AcDbEntity
  8
M0
 62
     5
100
AcDbCircle
 10
90.176703
 20
512.468229
 40
3.0
  0
LINE
  5
552
100
AcDbEntity
  8
M0
 62
     5
100
AcDbLine
 10
91.166647
 20
510.770964
 11
91.873755
 21
511.478239
  0
LINE
  5
553
100
AcDbEntity
  8
M0
 62
     5
100
AcDbLine
 10
91.873755
 20
511.478239
 11
90.883795
 21
512.467985
  0
LINE
  5
554
100
AcDbEntity
  8
M0
 62
     5
100
AcDbLine
 10
89.186743
 20
514.165251
 11
88.479651
 21
513.457976
  0
LINE
  5
555
100
AcDbEntity
  8
M0
 62
     5
100
AcDbLine
 10
88.479651
 20
513.457976
 11
89.469595
 21
512.468229
  0
LINE
  5
556
100
AcDbEntity
  8
M0
 62
     5
100
AcDbLine
 10
87.731482
 20
510.729948
 11
89.469595
 21
512.468229
  0
LINE
  5
557
100
AcDbEntity
  8
M0
 62
     5
100
AcDbLine
 10
88.43859
 20
510.022917
 11
90.176688
 21
511.760954
  0
LINE
  5
558
100
AcDbEntity
  8
M0
 62
     5
100
AcDbLine
 10
92.621893
 20
514.206267
 11
90.883795
 21
512.467985
  0
LINE
  5
559
100
AcDbEntity
  8
M0
 62
     5
100
AcDbLine
 10
91.914786
 20
514.913298
 11
90.176703
 21
513.175261
  0
LINE
  5
55A
100
AcDbEntity
  8
M0
 62
     5
100
AcDbLine
 10
91.166647
 20
510.770964
 11
90.176688
 21
511.760954
  0
LINE
  5
55B
100
AcDbEntity
  8
M0
 62
     5
100
AcDbLine
 10
89.186743
 20
514.165251
 11
90.176703
 21
513.175261
  0
LINE
  5
55C
100
AcDbEntity
  8
M0
 62
     5
100
AcDbLine
 10
87.6957
 20
517.668181
 11
92.657721
 21
517.668181
  0
LINE
  5
55D
100
AcDbEntity
  8
M0
 62
     5
100
AcDbLine
 10
93.951682
 20
520.667692
 11
93.951682
 21
523.26779
  0
LINE
  5
55E
100
AcDbEntity
  8
M0
 62
     5
100
AcDbLine
 10
92.657568
 20
526.26779
 11
87.6957
 21
526.26779
  0
LINE
  5
55F
100
AcDbEntity
  8
M0
 62
     5
100
AcDbLine
 10
86.401679
 20
523.268034
 11
86.401679
 21
520.668181
  0
LINE
  5
560
100
AcDbEntity
  8
M0
 62
     5
100
AcDbLine
 10
86.401679
 20
520.668181
 11
87.217932
 21
518.02072
  0
LINE
  5
561
100
AcDbEntity
  8
M0
 62
     5
100
AcDbLine
 10
86.401679
 20
523.268034
 11
87.217795
 21
525.914763
  0
LINE
  5
562
100
AcDbEntity
  8
M0
 62
     5
100
AcDbLine
 10
93.951697
 20
520.667936
 11
93.135504
 21
518.02072
  0
LINE
  5
563
100
AcDbEntity
  8
M0
 62
     5
100
AcDbLine
 10
93.951697
 20
523.26779
 11
93.135489
 21
525.914763
  0
ARC
  5
564
100
AcDbEntity
  8
M0
 62
     5
100
AcDbCircle
 10
87.6957
 20
518.168181
 40
0.5
100
AcDbArc
 50
197.15252
 51
270.0
  0
ARC
  5
565
100
AcDbEntity
  8
M0
 62
     5
100
AcDbCircle
 10
92.657721
 20
518.168181
 40
0.5
100
AcDbArc
 50
270.0
 51
342.84793
  0
ARC
  5
566
100
AcDbEntity
  8
M0
 62
     5
100
AcDbCircle
 10
92.657568
 20
525.767546
 40
0.5
100
AcDbArc
 50
17.120719
 51
90.0
  0
ARC
  5
567
100
AcDbEntity
  8
M0
 62
     5
100
AcDbCircle
 10
87.6957
 20
525.767546
 40
0.5
100
AcDbArc
 50
90.0
 51
162.878799
  0
LINE
  5
568
100
AcDbEntity
  8
M0
 62
     5
100
AcDbLine
 10
86.956717
 20
525.068083
 11
88.776679
 21
525.068083
  0
LINE
  5
569
100
AcDbEntity
  8
M0
 62
     5
100
AcDbLine
 10
86.956656
 20
518.868132
 11
88.776679
 21
518.868132
  0
LINE
  5
56A
100
AcDbEntity
  8
M0
 62
     5
100
AcDbLine
 10
86.586691
 20
520.068083
 11
87.855185
 21
520.068083
  0
LINE
  5
56B
100
AcDbEntity
  8
M0
 62
     5
100
AcDbLine
 10
86.58663
 20
523.867888
 11
87.854773
 21
523.867888
  0
LINE
  5
56C
100
AcDbEntity
  8
M0
 62
     5
100
AcDbLine
 10
92.498206
 20
520.068083
 11
93.766745
 21
520.068083
  0
LINE
  5
56D
100
AcDbEntity
  8
M0
 62
     5
100
AcDbLine
 10
92.498618
 20
523.867888
 11
93.766653
 21
523.867888
  0
LINE
  5
56E
100
AcDbEntity
  8
M0
 62
     5
100
AcDbLine
 10
91.576682
 20
518.868132
 11
91.576682
 21
519.314909
  0
LINE
  5
56F
100
AcDbEntity
  8
M0
 62
     5
100
AcDbLine
 10
88.776679
 20
518.868132
 11
88.776679
 21
519.314909
  0
LINE
  5
570
100
AcDbEntity
  8
M0
 62
     5
100
AcDbLine
 10
88.776679
 20
525.068083
 11
88.776679
 21
524.621306
  0
LINE
  5
571
100
AcDbEntity
  8
M0
 62
     5
100
AcDbLine
 10
91.576682
 20
525.068083
 11
91.576682
 21
524.621306
  0
LINE
  5
572
100
AcDbEntity
  8
M0
 62
     5
100
AcDbLine
 10
91.576682
 20
518.868132
 11
93.396765
 21
518.868132
  0
LINE
  5
573
100
AcDbEntity
  8
M0
 62
     5
100
AcDbLine
 10
91.576682
 20
525.068083
 11
93.396567
 21
525.068083
  0
CIRCLE
  5
574
100
AcDbEntity
  8
M0
 62
     5
100
AcDbCircle
 10
90.176703
 20
521.968229
 40
3.0
  0
LINE
  5
575
100
AcDbEntity
  8
M0
 62
     5
100
AcDbLine
 10
91.166647
 20
520.270964
 11
91.873755
 21
520.978239
  0
LINE
  5
576
100
AcDbEntity
  8
M0
 62
     5
100
AcDbLine
 10
91.873755
 20
520.978239
 11
90.883795
 21
521.967985
  0
LINE
  5
577
100
AcDbEntity
  8
M0
 62
     5
100
AcDbLine
 10
89.186743
 20
523.665251
 11
88.479651
 21
522.957976
  0
LINE
  5
578
100
AcDbEntity
  8
M0
 62
     5
100
AcDbLine
 10
88.479651
 20
522.957976
 11
89.469595
 21
521.968229
  0
LINE
  5
579
100
AcDbEntity
  8
M0
 62
     5
100
AcDbLine
 10
87.731482
 20
520.229948
 11
89.469595
 21
521.968229
  0
LINE
  5
57A
100
AcDbEntity
  8
M0
 62
     5
100
AcDbLine
 10
88.43859
 20
519.522917
 11
90.176688
 21
521.260954
  0
LINE
  5
57B
100
AcDbEntity
  8
M0
 62
     5
100
AcDbLine
 10
92.621893
 20
523.706267
 11
90.883795
 21
521.967985
  0
LINE
  5
57C
100
AcDbEntity
  8
M0
 62
     5
100
AcDbLine
 10
91.914786
 20
524.413298
 11
90.176703
 21
522.675261
  0
LINE
  5
57D
100
AcDbEntity
  8
M0
 62
     5
100
AcDbLine
 10
91.166647
 20
520.270964
 11
90.176688
 21
521.260954
  0
LINE
  5
57E
100
AcDbEntity
  8
M0
 62
     5
100
AcDbLine
 10
89.186743
 20
523.665251
 11
90.176703
 21
522.675261
  0
LINE
  5
57F
100
AcDbEntity
  8
M0
 62
     5
100
AcDbLine
 10
87.6957
 20
477.668181
 11
92.657721
 21
477.668181
  0
LINE
  5
580
100
AcDbEntity
  8
M0
 62
     5
100
AcDbLine
 10
93.951682
 20
480.667692
 11
93.951682
 21
483.26779
  0
LINE
  5
581
100
AcDbEntity
  8
M0
 62
     5
100
AcDbLine
 10
92.657568
 20
486.26779
 11
87.6957
 21
486.26779
  0
LINE
  5
582
100
AcDbEntity
  8
M0
 62
     5
100
AcDbLine
 10
86.401679
 20
483.268034
 11
86.401679
 21
480.668181
  0
LINE
  5
583
100
AcDbEntity
  8
M0
 62
     5
100
AcDbLine
 10
86.401679
 20
480.668181
 11
87.217932
 21
478.02072
  0
LINE
  5
584
100
AcDbEntity
  8
M0
 62
     5
100
AcDbLine
 10
86.401679
 20
483.268034
 11
87.217795
 21
485.914763
  0
LINE
  5
585
100
AcDbEntity
  8
M0
 62
     5
100
AcDbLine
 10
93.951697
 20
480.667936
 11
93.135504
 21
478.02072
  0
LINE
  5
586
100
AcDbEntity
  8
M0
 62
     5
100
AcDbLine
 10
93.951697
 20
483.26779
 11
93.135489
 21
485.914763
  0
ARC
  5
587
100
AcDbEntity
  8
M0
 62
     5
100
AcDbCircle
 10
87.6957
 20
478.168181
 40
0.5
100
AcDbArc
 50
197.15252
 51
270.0
  0
ARC
  5
588
100
AcDbEntity
  8
M0
 62
     5
100
AcDbCircle
 10
92.657721
 20
478.168181
 40
0.5
100
AcDbArc
 50
270.0
 51
342.84793
  0
ARC
  5
589
100
AcDbEntity
  8
M0
 62
     5
100
AcDbCircle
 10
92.657568
 20
485.767546
 40
0.5
100
AcDbArc
 50
17.120719
 51
90.0
  0
ARC
  5
58A
100
AcDbEntity
  8
M0
 62
     5
100
AcDbCircle
 10
87.6957
 20
485.767546
 40
0.5
100
AcDbArc
 50
90.0
 51
162.878799
  0
LINE
  5
58B
100
AcDbEntity
  8
M0
 62
     5
100
AcDbLine
 10
86.956717
 20
485.068083
 11
88.776679
 21
485.068083
  0
LINE
  5
58C
100
AcDbEntity
  8
M0
 62
     5
100
AcDbLine
 10
86.956656
 20
478.868132
 11
88.776679
 21
478.868132
  0
LINE
  5
58D
100
AcDbEntity
  8
M0
 62
     5
100
AcDbLine
 10
86.586691
 20
480.068083
 11
87.855185
 21
480.068083
  0
LINE
  5
58E
100
AcDbEntity
  8
M0
 62
     5
100
AcDbLine
 10
86.58663
 20
483.867888
 11
87.854773
 21
483.867888
  0
LINE
  5
58F
100
AcDbEntity
  8
M0
 62
     5
100
AcDbLine
 10
92.498206
 20
480.068083
 11
93.766745
 21
480.068083
  0
LINE
  5
590
100
AcDbEntity
  8
M0
 62
     5
100
AcDbLine
 10
92.498618
 20
483.867888
 11
93.766653
 21
483.867888
  0
LINE
  5
591
100
AcDbEntity
  8
M0
 62
     5
100
AcDbLine
 10
91.576682
 20
478.868132
 11
91.576682
 21
479.314909
  0
LINE
  5
592
100
AcDbEntity
  8
M0
 62
     5
100
AcDbLine
 10
88.776679
 20
478.868132
 11
88.776679
 21
479.314909
  0
LINE
  5
593
100
AcDbEntity
  8
M0
 62
     5
100
AcDbLine
 10
88.776679
 20
485.068083
 11
88.776679
 21
484.621306
  0
LINE
  5
594
100
AcDbEntity
  8
M0
 62
     5
100
AcDbLine
 10
91.576682
 20
485.068083
 11
91.576682
 21
484.621306
  0
LINE
  5
595
100
AcDbEntity
  8
M0
 62
     5
100
AcDbLine
 10
91.576682
 20
478.868132
 11
93.396765
 21
478.868132
  0
LINE
  5
596
100
AcDbEntity
  8
M0
 62
     5
100
AcDbLine
 10
91.576682
 20
485.068083
 11
93.396567
 21
485.068083
  0
CIRCLE
  5
597
100
AcDbEntity
  8
M0
 62
     5
100
AcDbCircle
 10
90.176703
 20
481.968229
 40
3.0
  0
LINE
  5
598
100
AcDbEntity
  8
M0
 62
     5
100
AcDbLine
 10
91.166647
 20
480.270964
 11
91.873755
 21
480.978239
  0
LINE
  5
599
100
AcDbEntity
  8
M0
 62
     5
100
AcDbLine
 10
91.873755
 20
480.978239
 11
90.883795
 21
481.967985
  0
LINE
  5
59A
100
AcDbEntity
  8
M0
 62
     5
100
AcDbLine
 10
89.186743
 20
483.665251
 11
88.479651
 21
482.957976
  0
LINE
  5
59B
100
AcDbEntity
  8
M0
 62
     5
100
AcDbLine
 10
88.479651
 20
482.957976
 11
89.469595
 21
481.968229
  0
LINE
  5
59C
100
AcDbEntity
  8
M0
 62
     5
100
AcDbLine
 10
87.731482
 20
480.229948
 11
89.469595
 21
481.968229
  0
LINE
  5
59D
100
AcDbEntity
  8
M0
 62
     5
100
AcDbLine
 10
88.43859
 20
479.522917
 11
90.176688
 21
481.260954
  0
LINE
  5
59E
100
AcDbEntity
  8
M0
 62
     5
100
AcDbLine
 10
92.621893
 20
483.706267
 11
90.883795
 21
481.967985
  0
LINE
  5
59F
100
AcDbEntity
  8
M0
 62
     5
100
AcDbLine
 10
91.914786
 20
484.413298
 11
90.176703
 21
482.675261
  0
LINE
  5
5A0
100
AcDbEntity
  8
M0
 62
     5
100
AcDbLine
 10
91.166647
 20
480.270964
 11
90.176688
 21
481.260954
  0
LINE
  5
5A1
100
AcDbEntity
  8
M0
 62
     5
100
AcDbLine
 10
89.186743
 20
483.665251
 11
90.176703
 21
482.675261
  0
LINE
  5
5A2
100
AcDbEntity
  8
M0
 62
     7
100
AcDbLine
 10
134.826697
 20
491.668181
 11
149.526694
 21
491.668181
  0
LINE
  5
5A3
100
AcDbEntity
  8
M0
 62
     7
100
AcDbLine
 10
153.176703
 20
499.26779
 11
153.176703
 21
508.967741
  0
LINE
  5
5A4
100
AcDbEntity
  8
M0
 62
     7
100
AcDbLine
 10
131.176703
 20
508.967985
 11
131.176703
 21
499.268034
  0
LINE
  5
5A5
100
AcDbEntity
  8
M0
 62
     7
100
AcDbLine
 10
150.176688
 20
511.968229
 11
145.926703
 21
511.967985
  0
LINE
  5
5A6
100
AcDbEntity
  8
M0
 62
     7
100
AcDbLine
 10
134.176703
 20
496.268034
 11
134.326697
 21
496.268034
  0
ARC
  5
5A7
100
AcDbEntity
  8
M0
 62
     7
100
AcDbCircle
 10
150.176703
 20
499.268034
 40
3.0
100
AcDbArc
 50
270.0
 51
360.0
  0
ARC
  5
5A8
100
AcDbEntity
  8
M0
 62
     7
100
AcDbCircle
 10
150.176703
 20
508.967985
 40
3.0
100
AcDbArc
 50
0.0
 51
90.0
  0
ARC
  5
5A9
100
AcDbEntity
  8
M0
 62
     7
100
AcDbCircle
 10
134.176703
 20
508.967985
 40
3.0
100
AcDbArc
 50
90.0
 51
179.999982
  0
ARC
  5
5AA
100
AcDbEntity
  8
M0
 62
     7
100
AcDbCircle
 10
134.176703
 20
499.268034
 40
3.0
100
AcDbArc
 50
179.999964
 51
270.0
  0
LINE
  5
5AB
100
AcDbEntity
  8
M0
 62
     7
100
AcDbLine
 10
150.026694
 20
496.268034
 11
150.026694
 21
492.168181
  0
LINE
  5
5AC
100
AcDbEntity
  8
M0
 62
     7
100
AcDbLine
 10
134.326697
 20
496.268034
 11
134.326697
 21
492.168181
  0
LINE
  5
5AD
100
AcDbEntity
  8
M0
 62
     7
100
AcDbLine
 10
150.026694
 20
496.268034
 11
150.176703
 21
496.268034
  0
ARC
  5
5AE
100
AcDbEntity
  8
M0
 62
     7
100
AcDbCircle
 10
134.826697
 20
492.168181
 40
0.5
100
AcDbArc
 50
179.999891
 51
270.0
  0
ARC
  5
5AF
100
AcDbEntity
  8
M0
 62
     7
100
AcDbCircle
 10
149.526694
 20
492.168181
 40
0.5
100
AcDbArc
 50
270.0
 51
360.0
  0
LINE
  5
5B0
100
AcDbEntity
  8
M0
 62
     7
100
AcDbLine
 10
145.926703
 20
514.668181
 11
145.926703
 21
511.968229
  0
LINE
  5
5B1
100
AcDbEntity
  8
M0
 62
     7
100
AcDbLine
 10
138.426703
 20
514.668181
 11
138.426703
 21
511.968229
  0
LINE
  5
5B2
100
AcDbEntity
  8
M0
 62
     7
100
AcDbLine
 10
138.426703
 20
511.967985
 11
134.176688
 21
511.968229
  0
LINE
  5
5B3
100
AcDbEntity
  8
M0
 62
     7
100
AcDbLine
 10
139.176703
 20
501.968229
 11
145.176703
 21
501.968229
  0
LINE
  5
5B4
100
AcDbEntity
  8
M0
 62
     7
100
AcDbLine
 10
139.176703
 20
506.468229
 11
145.176703
 21
506.468229
  0
LINE
  5
5B5
100
AcDbEntity
  8
M0
 62
     7
100
AcDbLine
 10
145.176703
 20
506.468229
 11
145.176703
 21
501.968229
  0
LINE
  5
5B6
100
AcDbEntity
  8
M0
 62
     7
100
AcDbLine
 10
139.176703
 20
506.468229
 11
139.176703
 21
501.968229
  0
LINE
  5
5B7
100
AcDbEntity
  8
M0
 62
     7
100
AcDbLine
 10
138.426704
 20
514.668229
 11
139.926704
 21
514.668229
  0
LINE
  5
5B8
100
AcDbEntity
  8
M0
 62
     7
100
AcDbLine
 10
139.926704
 20
515.168229
 11
144.426703
 21
515.168229
  0
LINE
  5
5B9
100
AcDbEntity
  8
M0
 62
     7
100
AcDbLine
 10
138.426704
 20
513.668229
 11
145.926703
 21
513.668229
  0
LINE
  5
5BA
100
AcDbEntity
  8
M0
 62
     7
100
AcDbLine
 10
144.426703
 20
515.168229
 11
144.426703
 21
513.668229
  0
LINE
  5
5BB
100
AcDbEntity
  8
M0
 62
     7
100
AcDbLine
 10
139.926704
 20
515.168229
 11
139.926704
 21
513.668229
  0
LINE
  5
5BC
100
AcDbEntity
  8
M0
 62
     7
100
AcDbLine
 10
144.426703
 20
514.668229
 11
145.926703
 21
514.668229
  0
LINE
  5
5BD
100
AcDbEntity
  8
M0
100
AcDbLine
 10
82.176703
 20
420.468229
 11
202.176703
 21
420.468229
  0
LINE
  5
5BE
100
AcDbEntity
  8
M0
100
AcDbLine
 10
202.176703
 20
420.468229
 11
202.176703
 21
434.968214
  0
LINE
  5
5BF
100
AcDbEntity
  8
M0
100
AcDbLine
 10
202.176703
 20
583.468229
 11
82.176703
 21
583.468229
  0
LINE
  5
5C0
100
AcDbEntity
  8
M0
100
AcDbLine
 10
82.176703
 20
583.468229
 11
82.176703
 21
568.967741
  0
LINE
  5
5C1
100
AcDbEntity
  8
M0
100
AcDbLine
 10
82.176703
 20
434.968229
 11
82.176703
 21
420.468229
  0
LINE
  5
5C2
100
AcDbEntity
  8
M0
100
AcDbLine
 10
202.176703
 20
568.967741
 11
202.176703
 21
583.468229
  0
LINE
  5
5C3
100
AcDbEntity
  8
M0
 62
     6
100
AcDbLine
 10
82.176703
 20
418.368239
 11
124.515524
 21
418.368239
  0
LINE
  5
5C4
100
AcDbEntity
  8
M0
 62
     6
100
AcDbLine
 10
215.676703
 20
585.568083
 11
82.176703
 21
585.568083
  0
LINE
  5
5C5
100
AcDbEntity
  8
M0
 62
     6
100
AcDbLine
 10
82.176703
 20
585.568083
 11
82.176703
 21
583.467985
  0
LINE
  5
5C6
100
AcDbEntity
  8
M0
  6
DASHDOT
 62
     6
100
AcDbLine
 10
77.176703
 20
501.968229
 11
220.676703
 21
501.968229
  0
LINE
  5
5C7
100
AcDbEntity
  8
M0
  6
DASHDOT
 62
     6
100
AcDbLine
 10
142.176703
 20
413.368239
 11
142.176703
 21
606.548369
  0
LINE
  5
5C8
100
AcDbEntity
  8
M0
 62
     6
100
AcDbLine
 10
82.176703
 20
419.968229
 11
124.543585
 21
419.968229
  0
LINE
  5
5C9
100
AcDbEntity
  8
M0
 62
     6
100
AcDbLine
 10
215.676703
 20
583.967985
 11
82.176703
 21
583.967985
  0
LINE
  5
5CA
100
AcDbEntity
  8
M0
 62
     6
100
AcDbLine
 10
213.676703
 20
419.968229
 11
213.676703
 21
418.368239
  0
LINE
  5
5CB
100
AcDbEntity
  8
M0
 62
     6
100
AcDbLine
 10
213.676703
 20
585.568083
 11
213.676703
 21
583.967985
  0
LINE
  5
5CC
100
AcDbEntity
  8
M0
 62
     6
100
AcDbLine
 10
84.176703
 20
585.568083
 11
84.176703
 21
583.967985
  0
LINE
  5
5CD
100
AcDbEntity
  8
M0
 62
     6
100
AcDbLine
 10
84.176703
 20
419.968229
 11
84.176703
 21
418.368239
  0
LINE
  5
5CE
100
AcDbEntity
  8
M0
 62
     6
100
AcDbLine
 10
172.176703
 20
585.568083
 11
172.176703
 21
583.967985
  0
LINE
  5
5CF
100
AcDbEntity
  8
M0
 62
     6
100
AcDbLine
 10
112.176703
 20
585.568083
 11
112.176703
 21
583.967985
  0
LINE
  5
5D0
100
AcDbEntity
  8
M0
 62
     6
100
AcDbLine
 10
110.176703
 20
418.368239
 11
110.176703
 21
419.968229
  0
LINE
  5
5D1
100
AcDbEntity
  8
M0
 62
     6
100
AcDbLine
 10
142.176703
 20
418.368239
 11
142.176703
 21
419.968229
  0
LINE
  5
5D2
100
AcDbEntity
  8
M0
 62
     6
100
AcDbLine
 10
82.176703
 20
420.468229
 11
82.176703
 21
418.368239
  0
LINE
  5
5D3
100
AcDbEntity
  8
M0
 62
     6
100
AcDbLine
 10
135.517211
 20
418.368239
 11
215.676703
 21
418.368239
  0
LINE
  5
5D4
100
AcDbEntity
  8
M0
 62
     6
100
AcDbLine
 10
135.545262
 20
419.968229
 11
215.676703
 21
419.968229
  0
LINE
  5
5D5
100
AcDbEntity
  8
M0
 62
     6
100
AcDbLine
 10
215.676703
 20
418.368239
 11
215.676703
 21
585.568083
  0
LINE
  5
5D6
100
AcDbEntity
  8
M0
100
AcDbLine
 10
110.676703
 20
469.968229
 11
173.676703
 21
469.968229
  0
LINE
  5
5D7
100
AcDbEntity
  8
M0
100
AcDbLine
 10
173.676703
 20
469.968229
 11
173.676703
 21
533.968229
  0
LINE
  5
5D8
100
AcDbEntity
  8
M0
100
AcDbLine
 10
173.676703
 20
533.968229
 11
110.676703
 21
533.968229
  0
LINE
  5
5D9
100
AcDbEntity
  8
M0
100
AcDbLine
 10
110.676703
 20
533.968229
 11
110.676703
 21
469.968229
  0
LINE
  5
5DA
100
AcDbEntity
  8
M0
100
AcDbLine
 10
130.426703
 20
518.968229
 11
153.926703
 21
518.968229
  0
LINE
  5
5DB
100
AcDbEntity
  8
M0
100
AcDbLine
 10
130.426703
 20
484.968229
 11
153.926703
 21
484.968229
  0
LINE
  5
5DC
100
AcDbEntity
  8
M0
100
AcDbLine
 10
153.926703
 20
518.968229
 11
153.926703
 21
484.968229
  0
LINE
  5
5DD
100
AcDbEntity
  8
M0
100
AcDbLine
 10
130.426703
 20
518.968229
 11
130.426703
 21
484.968229
  0
LINE
  5
5DE
100
AcDbEntity
  8
M0
100
AcDbLine
 10
112.176703
 20
585.867888
 11
172.176505
 21
585.867888
  0
LINE
  5
5DF
100
AcDbEntity
  8
M0
100
AcDbLine
 10
172.176505
 20
585.867888
 11
172.176505
 21
601.867888
  0
LINE
  5
5E0
100
AcDbEntity
  8
M0
100
AcDbLine
 10
172.176505
 20
601.867888
 11
161.676505
 21
601.867644
  0
LINE
  5
5E1
100
AcDbEntity
  8
M0
100
AcDbLine
 10
112.176703
 20
601.867888
 11
112.176703
 21
585.867888
  0
LINE
  5
5E2
100
AcDbEntity
  8
M0
100
AcDbLine
 10
118.176703
 20
586.867888
 11
121.176703
 21
586.867888
  0
LINE
  5
5E3
100
AcDbEntity
  8
M0
100
AcDbLine
 10
148.176703
 20
601.867888
 11
148.176703
 21
586.867888
  0
LINE
  5
5E4
100
AcDbEntity
  8
M0
100
AcDbLine
 10
136.176703
 20
601.867888
 11
136.176703
 21
586.867888
  0
LINE
  5
5E5
100
AcDbEntity
  8
M0
100
AcDbLine
 10
133.176703
 20
601.867888
 11
133.176703
 21
586.867888
  0
LINE
  5
5E6
100
AcDbEntity
  8
M0
100
AcDbLine
 10
121.176703
 20
601.867888
 11
121.176703
 21
586.867888
  0
LINE
  5
5E7
100
AcDbEntity
  8
M0
100
AcDbLine
 10
151.176505
 20
601.867888
 11
151.176505
 21
586.867888
  0
LINE
  5
5E8
100
AcDbEntity
  8
M0
100
AcDbLine
 10
163.176505
 20
601.867888
 11
163.176505
 21
586.867888
  0
LINE
  5
5E9
100
AcDbEntity
  8
M0
100
AcDbLine
 10
166.176505
 20
601.867888
 11
166.176505
 21
586.867888
  0
LINE
  5
5EA
100
AcDbEntity
  8
M0
100
AcDbLine
 10
118.176703
 20
601.867888
 11
118.176703
 21
586.867888
  0
LINE
  5
5EB
100
AcDbEntity
  8
M0
100
AcDbLine
 10
133.176703
 20
586.867888
 11
136.176703
 21
586.867888
  0
LINE
  5
5EC
100
AcDbEntity
  8
M0
100
AcDbLine
 10
148.176703
 20
586.867888
 11
151.176505
 21
586.867888
  0
LINE
  5
5ED
100
AcDbEntity
  8
M0
100
AcDbLine
 10
163.176505
 20
586.867888
 11
166.176505
 21
586.867888
  0
LINE
  5
5EE
100
AcDbEntity
  8
M0
100
AcDbLine
 10
161.676505
 20
599.867644
 11
161.426505
 21
599.867399
  0
LINE
  5
5EF
100
AcDbEntity
  8
M0
100
AcDbLine
 10
131.676703
 20
601.867888
 11
131.676703
 21
599.867888
  0
LINE
  5
5F0
100
AcDbEntity
  8
M0
100
AcDbLine
 10
122.676703
 20
601.867888
 11
122.676703
 21
599.867888
  0
LINE
  5
5F1
100
AcDbEntity
  8
M0
100
AcDbLine
 10
146.676703
 20
601.867888
 11
146.676703
 21
599.867888
  0
LINE
  5
5F2
100
AcDbEntity
  8
M0
100
AcDbLine
 10
137.676703
 20
601.867888
 11
137.676703
 21
597.367776
  0
LINE
  5
5F3
100
AcDbEntity
  8
M0
100
AcDbLine
 10
161.676505
 20
601.867888
 11
161.676505
 21
599.867888
  0
LINE
  5
5F4
100
AcDbEntity
  8
M0
100
AcDbLine
 10
152.676505
 20
601.867888
 11
152.676505
 21
599.867888
  0
LINE
  5
5F5
100
AcDbEntity
  8
M0
100
AcDbLine
 10
131.676703
 20
599.867399
 11
131.426901
 21
599.867155
  0
LINE
  5
5F6
100
AcDbEntity
  8
M0
100
AcDbLine
 10
146.676703
 20
599.867399
 11
146.426703
 21
599.867155
  0
LINE
  5
5F7
100
AcDbEntity
  8
M0
100
AcDbLine
 10
122.676703
 20
601.867644
 11
112.176703
 21
601.867888
  0
LINE
  5
5F8
100
AcDbEntity
  8
M0
100
AcDbLine
 10
137.676703
 20
601.867644
 11
131.676703
 21
601.867644
  0
LINE
  5
5F9
100
AcDbEntity
  8
M0
100
AcDbLine
 10
152.676505
 20
601.867644
 11
146.676703
 21
601.867644
  0
LINE
  5
5FA
100
AcDbEntity
  8
M0
100
AcDbLine
 10
121.176703
 20
589.867888
 11
122.926886
 21
589.867888
  0
LINE
  5
5FB
100
AcDbEntity
  8
M0
100
AcDbLine
 10
131.426901
 20
589.867888
 11
133.176703
 21
589.867888
  0
LINE
  5
5FC
100
AcDbEntity
  8
M0
100
AcDbLine
 10
136.176703
 20
589.867888
 11
137.926688
 21
589.867888
  0
LINE
  5
5FD
100
AcDbEntity
  8
M0
100
AcDbLine
 10
146.426703
 20
589.867888
 11
148.176703
 21
589.867888
  0
LINE
  5
5FE
100
AcDbEntity
  8
M0
100
AcDbLine
 10
151.176505
 20
589.867888
 11
152.926505
 21
589.867888
  0
LINE
  5
5FF
100
AcDbEntity
  8
M0
100
AcDbLine
 10
161.426505
 20
589.867888
 11
163.176505
 21
589.867888
  0
LINE
  5
600
100
AcDbEntity
  8
M0
100
AcDbLine
 10
122.926886
 20
599.867155
 11
122.676703
 21
599.867644
  0
LINE
  5
601
100
AcDbEntity
  8
M0
100
AcDbLine
 10
137.926688
 20
599.867155
 11
137.676703
 21
599.867399
  0
LINE
  5
602
100
AcDbEntity
  8
M0
100
AcDbLine
 10
152.926505
 20
599.867399
 11
152.676505
 21
599.867399
  0
LINE
  5
603
100
AcDbEntity
  8
M0
 62
     7
100
AcDbLine
 10
152.926505
 20
586.867644
 11
161.426505
 21
586.867644
  0
LINE
  5
604
100
AcDbEntity
  8
M0
 62
     7
100
AcDbLine
 10
161.426505
 20
586.867644
 11
161.426505
 21
592.335661
  0
LINE
  5
605
100
AcDbEntity
  8
M0
 62
     7
100
AcDbLine
 10
161.426505
 20
600.867644
 11
152.926505
 21
600.867644
  0
LINE
  5
606
100
AcDbEntity
  8
M0
 62
     7
100
AcDbLine
 10
152.926505
 20
600.867644
 11
152.926505
 21
597.367399
  0
LINE
  5
607
100
AcDbEntity
  8
M0
 62
     7
100
AcDbLine
 10
152.926505
 20
587.867644
 11
161.426505
 21
587.867644
  0
LINE
  5
608
100
AcDbEntity
  8
M0
 62
     7
100
AcDbLine
 10
159.676505
 20
587.867644
 11
159.676505
 21
586.867644
  0
LINE
  5
609
100
AcDbEntity
  8
M0
 62
     7
100
AcDbLine
 10
154.676505
 20
587.867644
 11
154.676505
 21
586.867644
  0
LINE
  5
60A
100
AcDbEntity
  8
M0
 62
     7
100
AcDbLine
 10
152.926505
 20
592.335661
 11
152.926505
 21
586.867644
  0
LINE
  5
60B
100
AcDbEntity
  8
M0
 62
     7
100
AcDbLine
 10
161.426505
 20
597.367155
 11
161.426505
 21
600.867644
  0
LINE
  5
60C
100
AcDbEntity
  8
M0
 62
     7
100
AcDbLine
 10
131.426886
 20
586.867644
 11
122.926886
 21
586.867644
  0
LINE
  5
60D
100
AcDbEntity
  8
M0
 62
     7
100
AcDbLine
 10
122.926886
 20
586.867644
 11
122.926886
 21
592.335417
  0
LINE
  5
60E
100
AcDbEntity
  8
M0
 62
     7
100
AcDbLine
 10
122.926901
 20
600.867644
 11
131.426901
 21
600.867399
  0
LINE
  5
60F
100
AcDbEntity
  8
M0
 62
     7
100
AcDbLine
 10
131.426901
 20
600.867399
 11
131.426901
 21
597.366911
  0
LINE
  5
610
100
AcDbEntity
  8
M0
 62
     7
100
AcDbLine
 10
131.426886
 20
587.867644
 11
122.926886
 21
587.867644
  0
LINE
  5
611
100
AcDbEntity
  8
M0
 62
     7
100
AcDbLine
 10
124.676886
 20
587.867644
 11
124.676886
 21
586.867644
  0
LINE
  5
612
100
AcDbEntity
  8
M0
 62
     7
100
AcDbLine
 10
129.676886
 20
587.867644
 11
129.676886
 21
586.867644
  0
LINE
  5
613
100
AcDbEntity
  8
M0
 62
     7
100
AcDbLine
 10
122.926886
 20
597.367155
 11
122.926901
 21
600.867644
  0
LINE
  5
614
100
AcDbEntity
  8
M0
 62
     7
100
AcDbLine
 10
131.426901
 20
592.335417
 11
131.426886
 21
586.867399
  0
LINE
  5
615
100
AcDbEntity
  8
M0
 62
     7
100
AcDbLine
 10
146.426688
 20
586.867644
 11
137.926688
 21
586.867644
  0
LINE
  5
616
100
AcDbEntity
  8
M0
 62
     7
100
AcDbLine
 10
137.926688
 20
586.867644
 11
137.926688
 21
592.335417
  0
LINE
  5
617
100
AcDbEntity
  8
M0
 62
     7
100
AcDbLine
 10
137.926703
 20
600.867644
 11
146.426703
 21
600.867399
  0
LINE
  5
618
100
AcDbEntity
  8
M0
 62
     7
100
AcDbLine
 10
146.426703
 20
600.867399
 11
146.426703
 21
597.366911
  0
LINE
  5
619
100
AcDbEntity
  8
M0
 62
     7
100
AcDbLine
 10
146.426688
 20
587.867644
 11
137.926688
 21
587.867644
  0
LINE
  5
61A
100
AcDbEntity
  8
M0
 62
     7
100
AcDbLine
 10
139.676688
 20
587.867644
 11
139.676688
 21
586.867644
  0
LINE
  5
61B
100
AcDbEntity
  8
M0
 62
     7
100
AcDbLine
 10
144.676688
 20
587.867644
 11
144.676688
 21
586.867644
  0
LINE
  5
61C
100
AcDbEntity
  8
M0
 62
     7
100
AcDbLine
 10
137.926688
 20
597.367155
 11
137.926703
 21
600.867644
  0
LINE
  5
61D
100
AcDbEntity
  8
M0
 62
     7
100
AcDbLine
 10
146.426703
 20
592.335173
 11
146.426688
 21
586.867399
  0
LINE
  5
61E
100
AcDbEntity
  8
M0
100
AcDbLine
 10
123.676703
 20
590.367888
 11
130.676703
 21
590.367888
  0
LINE
  5
61F
100
AcDbEntity
  8
M0
100
AcDbLine
 10
132.926703
 20
592.367888
 11
132.926703
 21
597.367644
  0
LINE
  5
620
100
AcDbEntity
  8
M0
100
AcDbLine
 10
128.676703
 20
599.367644
 11
125.676703
 21
599.367644
  0
LINE
  5
621
100
AcDbEntity
  8
M0
100
AcDbLine
 10
121.426703
 20
597.367399
 11
121.426703
 21
592.367888
  0
LINE
  5
622
100
AcDbEntity
  8
M0
100
AcDbLine
 10
132.926703
 20
597.367888
 11
130.176703
 21
597.367888
  0
LINE
  5
623
100
AcDbEntity
  8
M0
100
AcDbLine
 10
128.676703
 20
599.367888
 11
128.676703
 21
598.867644
  0
LINE
  5
624
100
AcDbEntity
  8
M0
100
AcDbLine
 10
125.676703
 20
599.367888
 11
125.676703
 21
598.867399
  0
LINE
  5
625
100
AcDbEntity
  8
M0
100
AcDbLine
 10
124.176703
 20
597.367644
 11
121.426703
 21
597.367888
  0
LINE
  5
626
100
AcDbEntity
  8
M0
100
AcDbLine
 10
128.676703
 20
597.367644
 11
125.676703
 21
597.367644
  0
LINE
  5
627
100
AcDbEntity
  8
M0
100
AcDbLine
 10
121.426703
 20
592.367888
 11
122.676703
 21
592.367888
  0
LINE
  5
628
100
AcDbEntity
  8
M0
100
AcDbLine
 10
130.676703
 20
591.367888
 11
130.676703
 21
590.367888
  0
LINE
  5
629
100
AcDbEntity
  8
M0
100
AcDbLine
 10
123.676703
 20
591.367888
 11
123.676703
 21
590.367888
  0
LINE
  5
62A
100
AcDbEntity
  8
M0
100
AcDbLine
 10
131.676703
 20
592.367888
 11
132.926703
 21
592.367888
  0
ARC
  5
62B
100
AcDbEntity
  8
M0
100
AcDbCircle
 10
130.176703
 20
598.867644
 40
1.5
100
AcDbArc
 50
180.0
 51
270.0
  0
ARC
  5
62C
100
AcDbEntity
  8
M0
100
AcDbCircle
 10
124.176703
 20
598.867399
 40
1.5
100
AcDbArc
 50
270.0
 51
360.0
  0
ARC
  5
62D
100
AcDbEntity
  8
M0
100
AcDbCircle
 10
131.676703
 20
591.367888
 40
1.0
100
AcDbArc
 50
90.0
 51
180.0
  0
ARC
  5
62E
100
AcDbEntity
  8
M0
100
AcDbCircle
 10
122.676703
 20
591.367888
 40
1.0
100
AcDbArc
 50
0.0
 51
89.999126
  0
LINE
  5
62F
100
AcDbEntity
  8
M0
100
AcDbLine
 10
160.67626
 20
590.367399
 11
153.676505
 21
590.367399
  0
LINE
  5
630
100
AcDbEntity
  8
M0
100
AcDbLine
 10
151.426505
 20
592.367399
 11
151.426505
 21
597.367155
  0
LINE
  5
631
100
AcDbEntity
  8
M0
100
AcDbLine
 10
155.676505
 20
599.367155
 11
158.676505
 21
599.366911
  0
LINE
  5
632
100
AcDbEntity
  8
M0
100
AcDbLine
 10
162.926505
 20
597.366667
 11
162.92626
 21
592.367399
  0
LINE
  5
633
100
AcDbEntity
  8
M0
100
AcDbLine
 10
151.426505
 20
597.367399
 11
154.176505
 21
597.367399
  0
LINE
  5
634
100
AcDbEntity
  8
M0
100
AcDbLine
 10
155.676505
 20
599.367399
 11
155.676505
 21
598.867155
  0
LINE
  5
635
100
AcDbEntity
  8
M0
100
AcDbLine
 10
158.676505
 20
599.367155
 11
158.676505
 21
598.866667
  0
LINE
  5
636
100
AcDbEntity
  8
M0
100
AcDbLine
 10
160.176505
 20
597.366911
 11
162.926505
 21
597.367155
  0
LINE
  5
637
100
AcDbEntity
  8
M0
100
AcDbLine
 10
155.676505
 20
597.367155
 11
158.676505
 21
597.366911
  0
LINE
  5
638
100
AcDbEntity
  8
M0
100
AcDbLine
 10
162.92626
 20
592.367399
 11
161.67626
 21
592.367399
  0
LINE
  5
639
100
AcDbEntity
  8
M0
100
AcDbLine
 10
153.676505
 20
591.367399
 11
153.676505
 21
590.367399
  0
LINE
  5
63A
100
AcDbEntity
  8
M0
100
AcDbLine
 10
160.67626
 20
591.367399
 11
160.67626
 21
590.367399
  0
LINE
  5
63B
100
AcDbEntity
  8
M0
100
AcDbLine
 10
152.676505
 20
592.367399
 11
151.426505
 21
592.367399
  0
ARC
  5
63C
100
AcDbEntity
  8
M0
100
AcDbCircle
 10
154.176505
 20
598.867155
 40
1.5
100
AcDbArc
 50
-90.0
 51
0.0
  0
ARC
  5
63D
100
AcDbEntity
  8
M0
100
AcDbCircle
 10
160.176505
 20
598.866667
 40
1.5
100
AcDbArc
 50
180.0
 51
269.999417
  0
ARC
  5
63E
100
AcDbEntity
  8
M0
100
AcDbCircle
 10
152.676505
 20
591.367399
 40
1.0
100
AcDbArc
 50
0.0
 51
90.0
  0
ARC
  5
63F
100
AcDbEntity
  8
M0
100
AcDbCircle
 10
161.67626
 20
591.367399
 40
1.0
100
AcDbArc
 50
90.0
 51
180.0
  0
LINE
  5
640
100
AcDbEntity
  8
M0
100
AcDbLine
 10
138.676703
 20
590.367888
 11
145.676703
 21
590.367888
  0
LINE
  5
641
100
AcDbEntity
  8
M0
100
AcDbLine
 10
147.926703
 20
592.367888
 11
147.926703
 21
597.367644
  0
LINE
  5
642
100
AcDbEntity
  8
M0
100
AcDbLine
 10
143.676703
 20
599.367644
 11
140.676703
 21
599.367644
  0
LINE
  5
643
100
AcDbEntity
  8
M0
100
AcDbLine
 10
136.426703
 20
597.367399
 11
136.426703
 21
592.367888
  0
LINE
  5
644
100
AcDbEntity
  8
M0
100
AcDbLine
 10
147.926703
 20
597.367888
 11
145.176703
 21
597.367888
  0
LINE
  5
645
100
AcDbEntity
  8
M0
100
AcDbLine
 10
143.676703
 20
599.367888
 11
143.676703
 21
598.867644
  0
LINE
  5
646
100
AcDbEntity
  8
M0
100
AcDbLine
 10
140.676703
 20
599.367888
 11
140.676703
 21
598.867399
  0
LINE
  5
647
100
AcDbEntity
  8
M0
100
AcDbLine
 10
139.176703
 20
597.367644
 11
136.426703
 21
597.367888
  0
LINE
  5
648
100
AcDbEntity
  8
M0
100
AcDbLine
 10
143.676703
 20
597.367644
 11
140.676703
 21
597.367644
  0
LINE
  5
649
100
AcDbEntity
  8
M0
100
AcDbLine
 10
136.426703
 20
592.367888
 11
137.676703
 21
592.367888
  0
LINE
  5
64A
100
AcDbEntity
  8
M0
100
AcDbLine
 10
145.676703
 20
591.367888
 11
145.676703
 21
590.367888
  0
LINE
  5
64B
100
AcDbEntity
  8
M0
100
AcDbLine
 10
138.676703
 20
591.367888
 11
138.676703
 21
590.367888
  0
LINE
  5
64C
100
AcDbEntity
  8
M0
100
AcDbLine
 10
146.676703
 20
592.367888
 11
147.926703
 21
592.367888
  0
ARC
  5
64D
100
AcDbEntity
  8
M0
100
AcDbCircle
 10
145.176703
 20
598.867644
 40
1.5
100
AcDbArc
 50
180.0
 51
270.0
  0
ARC
  5
64E
100
AcDbEntity
  8
M0
100
AcDbCircle
 10
139.176703
 20
598.867399
 40
1.5
100
AcDbArc
 50
270.0
 51
360.0
  0
ARC
  5
64F
100
AcDbEntity
  8
M0
100
AcDbCircle
 10
146.676703
 20
591.367888
 40
1.0
100
AcDbArc
 50
90.0
 51
180.0
  0
ARC
  5
650
100
AcDbEntity
  8
M0
100
AcDbCircle
 10
137.676703
 20
591.367888
 40
1.0
100
AcDbArc
 50
0.0
 51
90.0
  0
CIRCLE
  5
651
100
AcDbEntity
  8
M0
 62
     5
100
AcDbCircle
 10
127.176703
 20
593.867399
 40
3.299995
  0
CIRCLE
  5
652
100
AcDbEntity
  8
M0
 62
     5
100
AcDbCircle
 10
142.176703
 20
593.867399
 40
3.299995
  0
CIRCLE
  5
653
100
AcDbEntity
  8
M0
 62
     5
100
AcDbCircle
 10
157.176505
 20
593.866667
 40
3.299995
  0
CIRCLE
  5
654
100
AcDbEntity
  8
M0
100
AcDbCircle
 10
127.176718
 20
593.867399
 40
3.0
  0
LINE
  5
655
100
AcDbEntity
  8
M0
100
AcDbLine
 10
128.166663
 20
592.170134
 11
128.87377
 21
592.877409
  0
LINE
  5
656
100
AcDbEntity
  8
M0
100
AcDbLine
 10
128.87377
 20
592.877409
 11
127.88381
 21
593.867155
  0
LINE
  5
657
100
AcDbEntity
  8
M0
100
AcDbLine
 10
126.186758
 20
595.564421
 11
125.479666
 21
594.857145
  0
LINE
  5
658
100
AcDbEntity
  8
M0
100
AcDbLine
 10
125.479666
 20
594.857145
 11
126.469611
 21
593.867399
  0
LINE
  5
659
100
AcDbEntity
  8
M0
100
AcDbLine
 10
124.731497
 20
592.129118
 11
126.469611
 21
593.867399
  0
LINE
  5
65A
100
AcDbEntity
  8
M0
100
AcDbLine
 10
125.438605
 20
591.422087
 11
127.176703
 21
593.160124
  0
LINE
  5
65B
100
AcDbEntity
  8
M0
100
AcDbLine
 10
129.621909
 20
595.605436
 11
127.88381
 21
593.867155
  0
LINE
  5
65C
100
AcDbEntity
  8
M0
100
AcDbLine
 10
128.914801
 20
596.312468
 11
127.176718
 21
594.574431
  0
LINE
  5
65D
100
AcDbEntity
  8
M0
100
AcDbLine
 10
128.166663
 20
592.170134
 11
127.176703
 21
593.160124
  0
LINE
  5
65E
100
AcDbEntity
  8
M0
100
AcDbLine
 10
126.186758
 20
595.564421
 11
127.176718
 21
594.574431
  0
LINE
  5
65F
100
AcDbEntity
  8
M0
  6
DASHDOT
100
AcDbLine
 10
121.976569
 20
593.867399
 11
132.376852
 21
593.867155
  0
LINE
  5
660
100
AcDbEntity
  8
M0
  6
DASHDOT
100
AcDbLine
 10
127.176703
 20
588.667204
 11
127.176718
 21
599.067351
  0
CIRCLE
  5
661
100
AcDbEntity
  8
M0
100
AcDbCircle
 10
142.176718
 20
593.867399
 40
3.0
  0
LINE
  5
662
100
AcDbEntity
  8
M0
100
AcDbLine
 10
143.166663
 20
592.170134
 11
143.87377
 21
592.877409
  0
LINE
  5
663
100
AcDbEntity
  8
M0
100
AcDbLine
 10
143.87377
 20
592.877409
 11
142.88381
 21
593.867155
  0
LINE
  5
664
100
AcDbEntity
  8
M0
100
AcDbLine
 10
141.186758
 20
595.564421
 11
140.479666
 21
594.857145
  0
LINE
  5
665
100
AcDbEntity
  8
M0
100
AcDbLine
 10
140.479666
 20
594.857145
 11
141.469611
 21
593.867399
  0
LINE
  5
666
100
AcDbEntity
  8
M0
100
AcDbLine
 10
139.731497
 20
592.129118
 11
141.469611
 21
593.867399
  0
LINE
  5
667
100
AcDbEntity
  8
M0
100
AcDbLine
 10
140.438605
 20
591.422087
 11
142.176703
 21
593.160124
  0
LINE
  5
668
100
AcDbEntity
  8
M0
100
AcDbLine
 10
144.621909
 20
595.605436
 11
142.88381
 21
593.867155
  0
LINE
  5
669
100
AcDbEntity
  8
M0
100
AcDbLine
 10
143.914801
 20
596.312468
 11
142.176718
 21
594.574431
  0
LINE
  5
66A
100
AcDbEntity
  8
M0
100
AcDbLine
 10
143.166663
 20
592.170134
 11
142.176703
 21
593.160124
  0
LINE
  5
66B
100
AcDbEntity
  8
M0
100
AcDbLine
 10
141.186758
 20
595.564421
 11
142.176718
 21
594.574431
  0
LINE
  5
66C
100
AcDbEntity
  8
M0
  6
DASHDOT
100
AcDbLine
 10
136.976569
 20
593.867399
 11
147.376852
 21
593.867155
  0
CIRCLE
  5
66D
100
AcDbEntity
  8
M0
100
AcDbCircle
 10
157.176505
 20
593.866667
 40
3.0
  0
LINE
  5
66E
100
AcDbEntity
  8
M0
100
AcDbLine
 10
158.166251
 20
592.169401
 11
158.873526
 21
592.876677
  0
LINE
  5
66F
100
AcDbEntity
  8
M0
100
AcDbLine
 10
158.873526
 20
592.876677
 11
157.883536
 21
593.866423
  0
LINE
  5
670
100
AcDbEntity
  8
M0
100
AcDbLine
 10
156.186514
 20
595.563688
 11
155.479239
 21
594.856413
  0
LINE
  5
671
100
AcDbEntity
  8
M0
100
AcDbLine
 10
155.479239
 20
594.856413
 11
156.469229
 21
593.866667
  0
LINE
  5
672
100
AcDbEntity
  8
M0
100
AcDbLine
 10
154.731192
 20
592.128386
 11
156.469229
 21
593.866667
  0
LINE
  5
673
100
AcDbEntity
  8
M0
100
AcDbLine
 10
155.438223
 20
591.421354
 11
157.176505
 21
593.159392
  0
LINE
  5
674
100
AcDbEntity
  8
M0
100
AcDbLine
 10
159.621573
 20
595.604704
 11
157.883536
 21
593.866423
  0
LINE
  5
675
100
AcDbEntity
  8
M0
100
AcDbLine
 10
158.914542
 20
596.311735
 11
157.176505
 21
594.573698
  0
LINE
  5
676
100
AcDbEntity
  8
M0
100
AcDbLine
 10
158.166251
 20
592.169401
 11
157.176505
 21
593.159392
  0
LINE
  5
677
100
AcDbEntity
  8
M0
100
AcDbLine
 10
156.186514
 20
595.563688
 11
157.176505
 21
594.573698
  0
LINE
  5
678
100
AcDbEntity
  8
M0
  6
DASHDOT
100
AcDbLine
 10
151.976309
 20
593.866667
 11
162.376456
 21
593.866423
  0
LINE
  5
679
100
AcDbEntity
  8
M0
  6
DASHDOT
100
AcDbLine
 10
157.176505
 20
588.666472
 11
157.176505
 21
599.066618
  0
LINE
  5
67A
100
AcDbEntity
  8
M0
100
AcDbLine
 10
112.176703
 20
585.568229
 11
172.176703
 21
585.568229
  0
LINE
  5
67B
100
AcDbEntity
  8
M0
100
AcDbLine
 10
172.176703
 20
585.568229
 11
172.176703
 21
585.868229
  0
LINE
  5
67C
100
AcDbEntity
  8
M0
100
AcDbLine
 10
172.176703
 20
585.868229
 11
112.176703
 21
585.868229
  0
LINE
  5
67D
100
AcDbEntity
  8
M0
100
AcDbLine
 10
112.176703
 20
585.868229
 11
112.176703
 21
585.568229
  0
LINE
  5
67E
100
AcDbEntity
  8
M0
 62
     2
100
AcDbLine
 10
135.547705
 20
420.468256
 11
135.411908
 21
412.722223
  0
LINE
  5
67F
100
AcDbEntity
  8
M0
 62
     2
100
AcDbLine
 10
124.413604
 20
412.915044
 11
124.546014
 21
420.468269
  0
ARC
  5
680
100
AcDbEntity
  8
M0
 62
     2
100
AcDbCircle
 10
126.413147
 20
412.871641
 40
2.0
100
AcDbArc
 50
178.995754
 51
268.99577
  0
LINE
  5
681
100
AcDbEntity
  8
M0
 62
     2
100
AcDbLine
 10
133.377012
 20
410.74924
 11
126.378094
 21
410.87194
  0
ARC
  5
682
100
AcDbEntity
  8
M0
 62
     2
100
AcDbCircle
 10
133.412069
 20
412.748941
 40
2.0
100
AcDbArc
 50
268.99566
 51
358.995325
  0
ARC
  5
683
100
AcDbEntity
  8
M0
 62
     6
100
AcDbCircle
 10
465.02558
 20
570.968229
 40
0.5
100
AcDbArc
 50
-90.0
 51
0.0
  0
LINE
  5
684
100
AcDbEntity
  8
M0
 62
     6
100
AcDbLine
 10
465.52558
 20
570.968229
 11
465.52558
 21
581.968229
  0
ARC
  5
685
100
AcDbEntity
  8
M0
 62
     6
100
AcDbCircle
 10
465.02558
 20
581.968229
 40
0.5
100
AcDbArc
 50
0.0
 51
89.998251
  0
LINE
  5
686
100
AcDbEntity
  8
M0
 62
     6
100
AcDbLine
 10
465.02558
 20
582.468229
 11
464.52558
 21
582.468229
  0
LINE
  5
687
100
AcDbEntity
  8
M0
  6
DASHDOT
 62
     6
100
AcDbLine
 10
479.422217
 20
495.468229
 11
448.810172
 21
495.468229
  0
LINE
  5
688
100
AcDbEntity
  8
M0
 62
     6
100
AcDbLine
 10
429.425565
 20
418.368223
 11
463.525565
 21
418.368223
  0
LINE
  5
689
100
AcDbEntity
  8
M0
 62
     6
100
AcDbLine
 10
464.525565
 20
419.368223
 11
464.525565
 21
584.56822
  0
LINE
  5
68A
100
AcDbEntity
  8
M0
 62
     6
100
AcDbLine
 10
386.925565
 20
585.56822
 11
386.925565
 21
583.968214
  0
LINE
  5
68B
100
AcDbEntity
  8
M0
 62
     6
100
AcDbLine
 10
462.925559
 20
583.468214
 11
462.925559
 21
420.468229
  0
LINE
  5
68C
100
AcDbEntity
  8
M0
 62
     6
100
AcDbLine
 10
462.425559
 20
419.968229
 11
429.425565
 21
419.968229
  0
LINE
  5
68D
100
AcDbEntity
  8
M0
 62
     6
100
AcDbLine
 10
429.425565
 20
419.968229
 11
429.425565
 21
418.368223
  0
ARC
  5
68E
100
AcDbEntity
  8
M0
 62
     6
100
AcDbCircle
 10
462.425559
 20
420.468229
 40
0.5
100
AcDbArc
 50
270.0
 51
360.0
  0
ARC
  5
68F
100
AcDbEntity
  8
M0
 62
     6
100
AcDbCircle
 10
462.425559
 20
583.468214
 40
0.5
100
AcDbArc
 50
359.998251
 51
450.0
  0
ARC
  5
690
100
AcDbEntity
  8
M0
 62
     6
100
AcDbCircle
 10
463.525565
 20
419.368223
 40
1.0
100
AcDbArc
 50
270.0
 51
360.0
  0
ARC
  5
691
100
AcDbEntity
  8
M0
 62
     6
100
AcDbCircle
 10
463.525565
 20
584.56822
 40
1.0
100
AcDbArc
 50
359.999126
 51
450.0
  0
LINE
  5
692
100
AcDbEntity
  8
M0
 62
     6
100
AcDbLine
 10
463.525565
 20
585.56822
 11
386.925565
 21
585.56822
  0
LINE
  5
693
100
AcDbEntity
  8
M0
 62
     6
100
AcDbLine
 10
465.52555
 20
581.968214
 11
465.52555
 21
570.96822
  0
LINE
  5
694
100
AcDbEntity
  8
M0
 62
     6
100
AcDbLine
 10
465.02555
 20
582.468214
 11
464.525565
 21
582.468214
  0
LINE
  5
695
100
AcDbEntity
  8
M0
 62
     6
100
AcDbLine
 10
465.02555
 20
570.46822
 11
464.525565
 21
570.46822
  0
ARC
  5
696
100
AcDbEntity
  8
M0
 62
     6
100
AcDbCircle
 10
465.02555
 20
581.968214
 40
0.5
100
AcDbArc
 50
359.998251
 51
450.0
  0
ARC
  5
697
100
AcDbEntity
  8
M0
 62
     6
100
AcDbCircle
 10
465.02555
 20
432.968229
 40
0.5
100
AcDbArc
 50
0.0
 51
90.0
  0
LINE
  5
698
100
AcDbEntity
  8
M0
 62
     6
100
AcDbLine
 10
465.52555
 20
421.968229
 11
465.52555
 21
432.968229
  0
ARC
  5
699
100
AcDbEntity
  8
M0
 62
     6
100
AcDbCircle
 10
465.02555
 20
421.968229
 40
0.5
100
AcDbArc
 50
-90.0
 51
0.0
  0
LINE
  5
69A
100
AcDbEntity
  8
M0
 62
     6
100
AcDbLine
 10
465.02555
 20
421.468229
 11
464.525565
 21
421.468229
  0
LINE
  5
69B
100
AcDbEntity
  8
M0
 62
     6
100
AcDbLine
 10
465.02555
 20
433.468229
 11
464.525565
 21
433.468229
  0
LINE
  5
69C
100
AcDbEntity
  8
M0
 62
     6
100
AcDbLine
 10
386.925565
 20
583.968214
 11
462.425559
 21
583.968214
  0
LINE
  5
69D
100
AcDbEntity
  8
M0
100
AcDbLine
 10
462.925467
 20
420.468229
 11
462.925467
 21
583.468229
  0
LINE
  5
69E
100
AcDbEntity
  8
M0
100
AcDbLine
 10
462.925467
 20
583.468229
 11
460.625418
 21
583.468214
  0
LINE
  5
69F
100
AcDbEntity
  8
M0
  6
DASHDOT
100
AcDbLine
 10
424.325614
 20
495.468229
 11
467.925467
 21
495.468229
  0
LINE
  5
6A0
100
AcDbEntity
  8
M0
100
AcDbLine
 10
429.325614
 20
420.468229
 11
462.925467
 21
420.468229
  0
LINE
  5
6A1
100
AcDbEntity
  8
M0
100
AcDbLine
 10
429.325614
 20
583.468229
 11
429.325614
 21
420.468229
  0
LINE
  5
6A2
100
AcDbEntity
  8
M0
100
AcDbLine
 10
460.625418
 20
583.468199
 11
429.325614
 21
583.468229
  0
LINE
  5
6A3
100
AcDbEntity
  8
M0
 62
     2
100
AcDbLine
 10
448.875076
 20
410.468016
 11
448.875076
 21
418.368223
  0
LINE
  5
6A4
100
AcDbEntity
  8
M0
 62
     2
100
AcDbLine
 10
446.375028
 20
418.368223
 11
446.375028
 21
410.468016
  0
LINE
  5
6A5
100
AcDbEntity
  8
M0
 62
     2
100
AcDbLine
 10
448.875076
 20
410.468016
 11
446.375028
 21
410.468016
  0
LINE
  5
6A6
100
AcDbEntity
  8
M0
 62
     7
100
AcDbLine
 10
354.32537
 20
552.467451
 11
366.325614
 21
552.467451
  0
LINE
  5
6A7
100
AcDbEntity
  8
M0
 62
     7
100
AcDbLine
 10
326.32537
 20
550.967451
 11
333.125418
 21
550.967451
  0
LINE
  5
6A8
100
AcDbEntity
  8
M0
 62
     7
100
AcDbLine
 10
334.225272
 20
540.967451
 11
336.32537
 21
540.967451
  0
LINE
  5
6A9
100
AcDbEntity
  8
M0
 62
     7
100
AcDbLine
 10
326.32537
 20
536.967451
 11
333.225272
 21
536.967451
  0
LINE
  5
6AA
100
AcDbEntity
  8
M0
 62
     7
100
AcDbLine
 10
340.32537
 20
525.467451
 11
350.32537
 21
525.467451
  0
LINE
  5
6AB
100
AcDbEntity
  8
M0
 62
     7
100
AcDbLine
 10
319.32537
 20
522.967451
 11
329.82537
 21
522.967451
  0
LINE
  5
6AC
100
AcDbEntity
  8
M0
 62
     7
100
AcDbLine
 10
291.32537
 20
512.96765
 11
309.32537
 21
512.96765
  0
LINE
  5
6AD
100
AcDbEntity
  8
M0
 62
     7
100
AcDbLine
 10
289.32537
 20
499.217695
 11
295.82537
 21
499.217695
  0
LINE
  5
6AE
100
AcDbEntity
  8
M0
 62
     7
100
AcDbLine
 10
294.32537
 20
498.217695
 11
295.82537
 21
498.217695
  0
LINE
  5
6AF
100
AcDbEntity
  8
M0
 62
     7
100
AcDbLine
 10
366.32537
 20
570.467451
 11
366.32537
 21
515.367552
  0
LINE
  5
6B0
100
AcDbEntity
  8
M0
 62
     7
100
AcDbLine
 10
353.32537
 20
560.602217
 11
353.32537
 21
528.467451
  0
ARC
  5
6B1
100
AcDbEntity
  8
M0
 62
     7
100
AcDbCircle
 10
354.32537
 20
551.467451
 40
1.0
100
AcDbArc
 50
90.0
 51
180.0
  0
ARC
  5
6B2
100
AcDbEntity
  8
M0
 62
     7
100
AcDbCircle
 10
352.32537
 20
551.967451
 40
1.0
100
AcDbArc
 50
269.999126
 51
360.0
  0
LINE
  5
6B3
100
AcDbEntity
  8
M0
 62
     7
100
AcDbLine
 10
336.32537
 20
549.967451
 11
336.32537
 21
540.967451
  0
LINE
  5
6B4
100
AcDbEntity
  8
M0
 62
     7
100
AcDbLine
 10
325.32537
 20
549.967451
 11
325.32537
 21
522.967451
  0
ARC
  5
6B5
100
AcDbEntity
  8
M0
 62
     7
100
AcDbCircle
 10
326.32537
 20
549.967451
 40
1.0
100
AcDbArc
 50
90.0
 51
180.0
  0
ARC
  5
6B6
100
AcDbEntity
  8
M0
 62
     7
100
AcDbCircle
 10
337.32537
 20
549.967451
 40
1.0
100
AcDbArc
 50
90.0
 51
180.0
  0
LINE
  5
6B7
100
AcDbEntity
  8
M0
 62
     7
100
AcDbLine
 10
333.225272
 20
539.967451
 11
333.225272
 21
521.967451
  0
ARC
  5
6B8
100
AcDbEntity
  8
M0
 62
     7
100
AcDbCircle
 10
334.225272
 20
539.967451
 40
1.0
100
AcDbArc
 50
90.0
 51
180.0
  0
ARC
  5
6B9
100
AcDbEntity
  8
M0
 62
     7
100
AcDbCircle
 10
326.32537
 20
535.967451
 40
1.0
100
AcDbArc
 50
90.0
 51
180.0
  0
ARC
  5
6BA
100
AcDbEntity
  8
M0
 62
     7
100
AcDbCircle
 10
350.32537
 20
528.467451
 40
3.0
100
AcDbArc
 50
269.999709
 51
360.0
  0
LINE
  5
6BB
100
AcDbEntity
  8
M0
 62
     7
100
AcDbLine
 10
339.32537
 20
524.467451
 11
339.32537
 21
521.967451
  0
ARC
  5
6BC
100
AcDbEntity
  8
M0
 62
     7
100
AcDbCircle
 10
340.32537
 20
524.467451
 40
1.0
100
AcDbArc
 50
90.0
 51
180.0
  0
LINE
  5
6BD
100
AcDbEntity
  8
M0
 62
     7
100
AcDbLine
 10
330.32537
 20
521.967451
 11
339.32537
 21
521.967451
  0
LINE
  5
6BE
100
AcDbEntity
  8
M0
 62
     7
100
AcDbLine
 10
330.32537
 20
522.467451
 11
330.32537
 21
521.967451
  0
ARC
  5
6BF
100
AcDbEntity
  8
M0
 62
     7
100
AcDbCircle
 10
329.82537
 20
522.467451
 40
0.5
100
AcDbArc
 50
0.0
 51
90.0
  0
LINE
  5
6C0
100
AcDbEntity
  8
M0
 62
     7
100
AcDbLine
 10
289.32537
 20
510.967695
 11
289.32537
 21
495.467695
  0
LINE
  5
6C1
100
AcDbEntity
  8
M0
 62
     7
100
AcDbLine
 10
295.82537
 20
499.217695
 11
295.82537
 21
495.467695
  0
LINE
  5
6C2
100
AcDbEntity
  8
M0
 62
     7
100
AcDbLine
 10
313.32537
 20
512.96765
 11
313.32537
 21
510.467695
  0
LINE
  5
6C3
100
AcDbEntity
  8
M0
 62
     7
100
AcDbLine
 10
317.32537
 20
520.96765
 11
317.32537
 21
516.96765
  0
ARC
  5
6C4
100
AcDbEntity
  8
M0
 62
     7
100
AcDbCircle
 10
319.32537
 20
520.96765
 40
2.0
100
AcDbArc
 50
90.0
 51
180.0
  0
LINE
  5
6C5
100
AcDbEntity
  8
M0
 62
     7
100
AcDbLine
 10
309.32537
 20
512.96765
 11
309.32537
 21
510.467695
  0
LINE
  5
6C6
100
AcDbEntity
  8
M0
 62
     7
100
AcDbLine
 10
291.32537
 20
512.96765
 11
309.32537
 21
512.96765
  0
ARC
  5
6C7
100
AcDbEntity
  8
M0
 62
     7
100
AcDbCircle
 10
313.32537
 20
516.96765
 40
4.0
100
AcDbArc
 50
269.999781
 51
360.0
  0
LINE
  5
6C8
100
AcDbEntity
  8
M0
 62
     7
100
AcDbLine
 10
309.32537
 20
510.467695
 11
313.32537
 21
510.467695
  0
ARC
  5
6C9
100
AcDbEntity
  8
M0
 62
     7
100
AcDbCircle
 10
291.32537
 20
510.967695
 40
2.0
100
AcDbArc
 50
90.0
 51
180.0
  0
LINE
  5
6CA
100
AcDbEntity
  8
M0
 62
     7
100
AcDbLine
 10
294.32537
 20
499.217695
 11
294.32537
 21
498.217695
  0
LINE
  5
6CB
100
AcDbEntity
  8
M0
 62
     7
100
AcDbLine
 10
309.32537
 20
511.967695
 11
313.32537
 21
511.967695
  0
LINE
  5
6CC
100
AcDbEntity
  8
M0
 62
     7
100
AcDbLine
 10
343.325125
 20
502.467695
 11
355.325125
 21
502.467695
  0
LINE
  5
6CD
100
AcDbEntity
  8
M0
 62
     7
100
AcDbLine
 10
355.32537
 20
517.21765
 11
355.32537
 21
502.467695
  0
LINE
  5
6CE
100
AcDbEntity
  8
M0
 62
     7
100
AcDbLine
 10
341.325125
 20
500.467695
 11
341.325125
 21
497.467695
  0
LINE
  5
6CF
100
AcDbEntity
  8
M0
 62
     7
100
AcDbLine
 10
342.32537
 20
496.467695
 11
342.32537
 21
495.467695
  0
LINE
  5
6D0
100
AcDbEntity
  8
M0
 62
     7
100
AcDbLine
 10
342.32537
 20
496.467695
 11
341.32537
 21
497.467695
  0
LINE
  5
6D1
100
AcDbEntity
  8
M0
 62
     7
100
AcDbLine
 10
352.82537
 20
518.21765
 11
366.32537
 21
518.21765
  0
ARC
  5
6D2
100
AcDbEntity
  8
M0
 62
     7
100
AcDbCircle
 10
352.82537
 20
515.71765
 40
2.5
100
AcDbArc
 50
90.0
 51
180.0
  0
LINE
  5
6D3
100
AcDbEntity
  8
M0
 62
     7
100
AcDbLine
 10
352.825125
 20
513.21765
 11
355.32537
 21
513.21765
  0
ARC
  5
6D4
100
AcDbEntity
  8
M0
 62
     7
100
AcDbCircle
 10
352.82537
 20
515.71765
 40
2.5
100
AcDbArc
 50
180.0
 51
269.99965
  0
LINE
  5
6D5
100
AcDbEntity
  8
M0
 62
     7
100
AcDbLine
 10
356.32537
 20
472.967695
 11
366.325614
 21
472.967695
  0
LINE
  5
6D6
100
AcDbEntity
  8
M0
 62
     7
100
AcDbLine
 10
356.32537
 20
517.967405
 11
366.325614
 21
517.967405
  0
LINE
  5
6D7
100
AcDbEntity
  8
M0
 62
     7
100
AcDbLine
 10
354.32537
 20
447.467695
 11
366.32537
 21
447.467695
  0
LINE
  5
6D8
100
AcDbEntity
  8
M0
 62
     7
100
AcDbLine
 10
366.32537
 20
476.26779
 11
366.32537
 21
439.967695
  0
ARC
  5
6D9
100
AcDbEntity
  8
M0
 62
     7
100
AcDbCircle
 10
343.325125
 20
500.467695
 40
2.0
100
AcDbArc
 50
90.0
 51
180.0
  0
LINE
  5
6DA
100
AcDbEntity
  8
M0
 62
     7
100
AcDbLine
 10
343.32537
 20
488.467695
 11
355.32537
 21
488.467695
  0
LINE
  5
6DB
100
AcDbEntity
  8
M0
 62
     7
100
AcDbLine
 10
355.325614
 20
473.967695
 11
355.325614
 21
488.467695
  0
LINE
  5
6DC
100
AcDbEntity
  8
M0
 62
     7
100
AcDbLine
 10
341.32537
 20
490.467695
 11
341.32537
 21
493.467695
  0
LINE
  5
6DD
100
AcDbEntity
  8
M0
 62
     7
100
AcDbLine
 10
342.325614
 20
494.467695
 11
342.325614
 21
495.467695
  0
LINE
  5
6DE
100
AcDbEntity
  8
M0
 62
     7
100
AcDbLine
 10
342.325614
 20
494.467695
 11
341.325614
 21
493.467695
  0
LINE
  5
6DF
100
AcDbEntity
  8
M0
 62
     7
100
AcDbLine
 10
352.825614
 20
472.717695
 11
366.325614
 21
472.717695
  0
ARC
  5
6E0
100
AcDbEntity
  8
M0
 62
     7
100
AcDbCircle
 10
352.825614
 20
475.217695
 40
2.5
100
AcDbArc
 50
180.0
 51
269.99965
  0
LINE
  5
6E1
100
AcDbEntity
  8
M0
 62
     7
100
AcDbLine
 10
352.82537
 20
477.717695
 11
355.325614
 21
477.717695
  0
ARC
  5
6E2
100
AcDbEntity
  8
M0
 62
     7
100
AcDbCircle
 10
352.825614
 20
475.217695
 40
2.5
100
AcDbArc
 50
90.0
 51
180.0
  0
ARC
  5
6E3
100
AcDbEntity
  8
M0
 62
     7
100
AcDbCircle
 10
356.325614
 20
473.967695
 40
1.0
100
AcDbArc
 50
180.0
 51
269.999126
  0
ARC
  5
6E4
100
AcDbEntity
  8
M0
 62
     7
100
AcDbCircle
 10
356.325614
 20
516.967405
 40
1.0
100
AcDbArc
 50
90.0
 51
180.0
  0
ARC
  5
6E5
100
AcDbEntity
  8
M0
 62
     7
100
AcDbCircle
 10
343.32537
 20
490.467695
 40
2.0
100
AcDbArc
 50
180.0
 51
269.999563
  0
LINE
  5
6E6
100
AcDbEntity
  8
M0
 62
     7
100
AcDbLine
 10
326.325614
 20
439.967695
 11
333.12493
 21
439.967695
  0
LINE
  5
6E7
100
AcDbEntity
  8
M0
 62
     7
100
AcDbLine
 10
334.225516
 20
449.967695
 11
336.325614
 21
449.967695
  0
LINE
  5
6E8
100
AcDbEntity
  8
M0
 62
     7
100
AcDbLine
 10
326.325614
 20
453.967695
 11
333.225516
 21
453.967695
  0
LINE
  5
6E9
100
AcDbEntity
  8
M0
 62
     7
100
AcDbLine
 10
340.325614
 20
465.467695
 11
350.325614
 21
465.467695
  0
LINE
  5
6EA
100
AcDbEntity
  8
M0
 62
     7
100
AcDbLine
 10
319.325614
 20
467.967695
 11
329.825614
 21
467.967695
  0
LINE
  5
6EB
100
AcDbEntity
  8
M0
 62
     7
100
AcDbLine
 10
291.325614
 20
477.967695
 11
309.325614
 21
477.967695
  0
LINE
  5
6EC
100
AcDbEntity
  8
M0
 62
     7
100
AcDbLine
 10
289.325614
 20
491.717695
 11
295.825614
 21
491.717695
  0
LINE
  5
6ED
100
AcDbEntity
  8
M0
 62
     7
100
AcDbLine
 10
294.325614
 20
492.717695
 11
295.825614
 21
492.717695
  0
LINE
  5
6EE
100
AcDbEntity
  8
M0
 62
     7
100
AcDbLine
 10
353.325614
 20
448.467695
 11
353.325614
 21
462.467695
  0
LINE
  5
6EF
100
AcDbEntity
  8
M0
 62
     7
100
AcDbLine
 10
336.325614
 20
440.967695
 11
336.325614
 21
449.967695
  0
LINE
  5
6F0
100
AcDbEntity
  8
M0
 62
     7
100
AcDbLine
 10
325.325614
 20
440.967695
 11
325.325614
 21
467.967695
  0
ARC
  5
6F1
100
AcDbEntity
  8
M0
 62
     7
100
AcDbCircle
 10
326.325614
 20
440.967695
 40
1.0
100
AcDbArc
 50
180.0
 51
269.999126
  0
ARC
  5
6F2
100
AcDbEntity
  8
M0
 62
     7
100
AcDbCircle
 10
337.325614
 20
440.967695
 40
1.0
100
AcDbArc
 50
180.0
 51
269.999126
  0
LINE
  5
6F3
100
AcDbEntity
  8
M0
 62
     7
100
AcDbLine
 10
333.225516
 20
450.967695
 11
333.225516
 21
468.967695
  0
ARC
  5
6F4
100
AcDbEntity
  8
M0
 62
     7
100
AcDbCircle
 10
334.225516
 20
450.967695
 40
1.0
100
AcDbArc
 50
180.0
 51
269.999126
  0
ARC
  5
6F5
100
AcDbEntity
  8
M0
 62
     7
100
AcDbCircle
 10
326.325614
 20
454.967695
 40
1.0
100
AcDbArc
 50
180.0
 51
269.999126
  0
ARC
  5
6F6
100
AcDbEntity
  8
M0
 62
     7
100
AcDbCircle
 10
350.325614
 20
462.467695
 40
3.0
100
AcDbArc
 50
0.0
 51
90.0
  0
LINE
  5
6F7
100
AcDbEntity
  8
M0
 62
     7
100
AcDbLine
 10
339.325614
 20
466.467695
 11
339.325614
 21
468.967695
  0
ARC
  5
6F8
100
AcDbEntity
  8
M0
 62
     7
100
AcDbCircle
 10
340.325614
 20
466.467695
 40
1.0
100
AcDbArc
 50
180.0
 51
269.999126
  0
LINE
  5
6F9
100
AcDbEntity
  8
M0
 62
     7
100
AcDbLine
 10
331.32537
 20
468.967695
 11
339.32537
 21
468.967695
  0
LINE
  5
6FA
100
AcDbEntity
  8
M0
 62
     7
100
AcDbLine
 10
330.32537
 20
468.467695
 11
330.32537
 21
467.967695
  0
ARC
  5
6FB
100
AcDbEntity
  8
M0
 62
     7
100
AcDbCircle
 10
329.825614
 20
468.467695
 40
0.5
100
AcDbArc
 50
-90.001749
 51
0.0
  0
LINE
  5
6FC
100
AcDbEntity
  8
M0
 62
     7
100
AcDbLine
 10
289.325614
 20
479.967695
 11
289.325614
 21
495.467695
  0
LINE
  5
6FD
100
AcDbEntity
  8
M0
 62
     7
100
AcDbLine
 10
295.825614
 20
491.717695
 11
295.825614
 21
495.467695
  0
LINE
  5
6FE
100
AcDbEntity
  8
M0
 62
     7
100
AcDbLine
 10
313.325614
 20
477.967695
 11
313.325614
 21
480.467695
  0
LINE
  5
6FF
100
AcDbEntity
  8
M0
 62
     7
100
AcDbLine
 10
317.325614
 20
469.967695
 11
317.325614
 21
473.967695
  0
ARC
  5
700
100
AcDbEntity
  8
M0
 62
     7
100
AcDbCircle
 10
319.325614
 20
469.967695
 40
2.0
100
AcDbArc
 50
180.0
 51
269.999563
  0
LINE
  5
701
100
AcDbEntity
  8
M0
 62
     7
100
AcDbLine
 10
309.325614
 20
477.967695
 11
309.325614
 21
480.467695
  0
LINE
  5
702
100
AcDbEntity
  8
M0
 62
     7
100
AcDbLine
 10
291.325614
 20
477.967695
 11
309.325614
 21
477.967695
  0
ARC
  5
703
100
AcDbEntity
  8
M0
 62
     7
100
AcDbCircle
 10
313.325614
 20
473.967695
 40
4.0
100
AcDbArc
 50
0.0
 51
90.0
  0
LINE
  5
704
100
AcDbEntity
  8
M0
 62
     7
100
AcDbLine
 10
309.325614
 20
480.467695
 11
313.325614
 21
480.467695
  0
ARC
  5
705
100
AcDbEntity
  8
M0
 62
     7
100
AcDbCircle
 10
291.325614
 20
479.967695
 40
2.0
100
AcDbArc
 50
180.006994
 51
270.0
  0
LINE
  5
706
100
AcDbEntity
  8
M0
 62
     7
100
AcDbLine
 10
294.325614
 20
491.717695
 11
294.325614
 21
492.717695
  0
LINE
  5
707
100
AcDbEntity
  8
M0
 62
     7
100
AcDbLine
 10
309.325614
 20
478.967695
 11
313.325614
 21
478.967695
  0
ARC
  5
708
100
AcDbEntity
  8
M0
 62
     7
100
AcDbCircle
 10
354.325614
 20
448.467695
 40
1.0
100
AcDbArc
 50
180.0
 51
269.999126
  0
ARC
  5
709
100
AcDbEntity
  8
M0
 62
     7
100
AcDbCircle
 10
331.32537
 20
467.967695
 40
1.0
100
AcDbArc
 50
90.0
 51
180.0
  0
LINE
  5
70A
100
AcDbEntity
  8
M0
 62
     7
100
AcDbLine
 10
354.32537
 20
558.967451
 11
366.32537
 21
558.967451
  0
LINE
  5
70B
100
AcDbEntity
  8
M0
 62
     7
100
AcDbLine
 10
361.790702
 20
570.467451
 11
366.32537
 21
570.467451
  0
LINE
  5
70C
100
AcDbEntity
  8
M0
 62
     7
100
AcDbLine
 10
353.560233
 20
561.24626
 11
361.025565
 21
570.111494
  0
ARC
  5
70D
100
AcDbEntity
  8
M0
 62
     7
100
AcDbCircle
 10
354.32537
 20
557.967451
 40
1.0
100
AcDbArc
 50
90.0
 51
180.0
  0
ARC
  5
70E
100
AcDbEntity
  8
M0
 62
     7
100
AcDbCircle
 10
361.790702
 20
569.467451
 40
1.0
100
AcDbArc
 50
90.0
 51
139.919368
  0
ARC
  5
70F
100
AcDbEntity
  8
M0
 62
     7
100
AcDbCircle
 10
354.32537
 20
560.602217
 40
1.0
100
AcDbArc
 50
139.919368
 51
180.0
  0
LINE
  5
710
100
AcDbEntity
  8
M0
 62
     7
100
AcDbLine
 10
336.325125
 20
550.967451
 11
352.32537
 21
550.967451
  0
LINE
  5
711
100
AcDbEntity
  8
M0
 62
     7
100
AcDbLine
 10
336.32537
 20
439.967695
 11
366.325614
 21
439.967695
  0
LINE
  5
712
100
AcDbEntity
  8
M0
 62
     6
100
AcDbLine
 10
266.325339
 20
553.468229
 11
304.325339
 21
553.468229
  0
LINE
  5
713
100
AcDbEntity
  8
M0
 62
     6
100
AcDbLine
 10
266.325339
 20
540.968229
 11
333.125144
 21
540.968229
  0
LINE
  5
714
100
AcDbEntity
  8
M0
 62
     6
100
AcDbLine
 10
266.325339
 20
449.968229
 11
333.125144
 21
449.968229
  0
LINE
  5
715
100
AcDbEntity
  8
M0
 62
     6
100
AcDbLine
 10
266.325339
 20
437.468229
 11
304.325339
 21
437.468229
  0
LINE
  5
716
100
AcDbEntity
  8
M0
 62
     6
100
AcDbLine
 10
264.325339
 20
551.468229
 11
264.325339
 21
439.468229
  0
LINE
  5
717
100
AcDbEntity
  8
M0
 62
     6
100
AcDbLine
 10
325.325339
 20
555.468718
 11
325.325339
 21
540.968229
  0
LINE
  5
718
100
AcDbEntity
  8
M0
 62
     6
100
AcDbLine
 10
333.125144
 20
540.968229
 11
333.1249
 21
539.967497
  0
ARC
  5
719
100
AcDbEntity
  8
M0
 62
     6
100
AcDbCircle
 10
266.325339
 20
551.468229
 40
2.0
100
AcDbArc
 50
90.0
 51
180.0
  0
ARC
  5
71A
100
AcDbEntity
  8
M0
 62
     6
100
AcDbCircle
 10
266.325339
 20
439.468229
 40
2.0
100
AcDbArc
 50
180.0
 51
269.999563
  0
ARC
  5
71B
100
AcDbEntity
  8
M0
 62
     6
100
AcDbCircle
 10
266.325339
 20
538.968229
 40
2.0
100
AcDbArc
 50
90.0
 51
180.0
  0
ARC
  5
71C
100
AcDbEntity
  8
M0
 62
     6
100
AcDbCircle
 10
266.325339
 20
451.968229
 40
2.0
100
AcDbArc
 50
180.0
 51
269.999563
  0
LINE
  5
71D
100
AcDbEntity
  8
M0
 62
     6
100
AcDbLine
 10
325.325339
 20
449.968229
 11
325.325339
 21
435.467695
  0
LINE
  5
71E
100
AcDbEntity
  8
M0
  6
DASHDOT
 62
     6
100
AcDbLine
 10
253.854178
 20
495.468229
 11
444.306815
 21
495.468229
  0
LINE
  5
71F
100
AcDbEntity
  8
M0
 62
     6
100
AcDbLine
 10
316.825339
 20
521.468229
 11
317.388571
 21
521.468229
  0
LINE
  5
720
100
AcDbEntity
  8
M0
 62
     6
100
AcDbLine
 10
316.825339
 20
469.468229
 11
317.388571
 21
469.468229
  0
LINE
  5
721
100
AcDbEntity
  8
M0
 62
     6
100
AcDbLine
 10
315.825339
 20
520.468229
 11
315.825339
 21
517.068083
  0
LINE
  5
722
100
AcDbEntity
  8
M0
 62
     6
100
AcDbLine
 10
288.825339
 20
512.068083
 11
289.654929
 21
512.068083
  0
LINE
  5
723
100
AcDbEntity
  8
M0
 62
     6
100
AcDbLine
 10
288.825339
 20
478.868132
 11
289.654685
 21
478.868132
  0
LINE
  5
724
100
AcDbEntity
  8
M0
 62
     6
100
AcDbLine
 10
286.825339
 20
510.068083
 11
286.825339
 21
480.868132
  0
ARC
  5
725
100
AcDbEntity
  8
M0
 62
     6
100
AcDbCircle
 10
288.825339
 20
510.068083
 40
2.0
100
AcDbArc
 50
90.0
 51
180.0
  0
ARC
  5
726
100
AcDbEntity
  8
M0
 62
     6
100
AcDbCircle
 10
288.825339
 20
480.868132
 40
2.0
100
AcDbArc
 50
180.0
 51
269.999563
  0
LINE
  5
727
100
AcDbEntity
  8
M0
 62
     6
100
AcDbLine
 10
315.825339
 20
473.868132
 11
315.825339
 21
470.468229
  0
ARC
  5
728
100
AcDbEntity
  8
M0
 62
     6
100
AcDbCircle
 10
310.825339
 20
473.868132
 40
5.0
100
AcDbArc
 50
0.0
 51
90.0
  0
ARC
  5
729
100
AcDbEntity
  8
M0
 62
     6
100
AcDbCircle
 10
310.825339
 20
517.068083
 40
5.0
100
AcDbArc
 50
269.999825
 51
360.0
  0
ARC
  5
72A
100
AcDbEntity
  8
M0
 62
     6
100
AcDbCircle
 10
316.825339
 20
520.468229
 40
1.0
100
AcDbArc
 50
90.0
 51
180.0
  0
ARC
  5
72B
100
AcDbEntity
  8
M0
 62
     6
100
AcDbCircle
 10
316.825339
 20
470.468229
 40
1.0
100
AcDbArc
 50
180.0
 51
269.999126
  0
LINE
  5
72C
100
AcDbEntity
  8
M0
 62
     6
100
AcDbLine
 10
333.1249
 20
450.967772
 11
333.125144
 21
449.968229
  0
LINE
  5
72D
100
AcDbEntity
  8
M0
 62
     6
100
AcDbLine
 10
304.325339
 20
431.968229
 11
315.324118
 21
431.968229
  0
LINE
  5
72E
100
AcDbEntity
  8
M0
 62
     6
100
AcDbLine
 10
304.325339
 20
558.968229
 11
325.325339
 21
558.968229
  0
LINE
  5
72F
100
AcDbEntity
  8
M0
 62
     6
100
AcDbLine
 10
304.325339
 20
550.968229
 11
325.325339
 21
550.968229
  0
LINE
  5
730
100
AcDbEntity
  8
M0
 62
     6
100
AcDbLine
 10
304.325339
 20
439.968229
 11
325.325339
 21
439.968229
  0
LINE
  5
731
100
AcDbEntity
  8
M0
 62
     6
100
AcDbLine
 10
304.325339
 20
558.968229
 11
304.325339
 21
550.968229
  0
LINE
  5
732
100
AcDbEntity
  8
M0
 62
     6
100
AcDbLine
 10
304.325339
 20
439.968229
 11
304.325339
 21
431.968229
  0
LINE
  5
733
100
AcDbEntity
  8
M0
 62
     4
100
AcDbLine
 10
429.325614
 20
455.467741
 11
429.325614
 21
445.467741
  0
LINE
  5
734
100
AcDbEntity
  8
M0
 62
     4
100
AcDbLine
 10
428.825614
 20
445.467741
 11
429.325614
 21
445.467741
  0
LINE
  5
735
100
AcDbEntity
  8
M0
 62
     4
100
AcDbLine
 10
428.825614
 20
455.467741
 11
429.325614
 21
455.467741
  0
LINE
  5
736
100
AcDbEntity
  8
M0
 62
     4
100
AcDbLine
 10
414.325614
 20
420.467741
 11
428.824393
 21
420.467741
  0
LINE
  5
737
100
AcDbEntity
  8
M0
 62
     4
100
AcDbLine
 10
366.325614
 20
439.967741
 11
411.325614
 21
439.967741
  0
LINE
  5
738
100
AcDbEntity
  8
M0
 62
     4
100
AcDbLine
 10
366.325614
 20
447.467741
 11
410.325614
 21
447.467741
  0
LINE
  5
739
100
AcDbEntity
  8
M0
 62
     4
100
AcDbLine
 10
356.325614
 20
473.217741
 11
366.325614
 21
473.217741
  0
LINE
  5
73A
100
AcDbEntity
  8
M0
 62
     4
100
AcDbLine
 10
355.325614
 20
488.467741
 11
369.325614
 21
488.467741
  0
LINE
  5
73B
100
AcDbEntity
  8
M0
 62
     4
100
AcDbLine
 10
428.825614
 20
420.467741
 11
428.825614
 21
570.467497
  0
LINE
  5
73C
100
AcDbEntity
  8
M0
 62
     4
100
AcDbLine
 10
366.325614
 20
439.967741
 11
366.325614
 21
488.467741
  0
LINE
  5
73D
100
AcDbEntity
  8
M0
 62
     4
100
AcDbLine
 10
355.325614
 20
474.217741
 11
355.325614
 21
488.467741
  0
ARC
  5
73E
100
AcDbEntity
  8
M0
 62
     4
100
AcDbCircle
 10
356.325614
 20
474.217741
 40
1.0
100
AcDbArc
 50
180.0
 51
270.0
  0
LINE
  5
73F
100
AcDbEntity
  8
M0
 62
     4
100
AcDbLine
 10
371.325614
 20
493.467741
 11
371.325614
 21
490.467741
  0
LINE
  5
740
100
AcDbEntity
  8
M0
 62
     4
100
AcDbLine
 10
370.325614
 20
496.467741
 11
370.325614
 21
494.467741
  0
LINE
  5
741
100
AcDbEntity
  8
M0
 62
     4
100
AcDbLine
 10
370.325614
 20
494.467741
 11
371.325614
 21
493.467741
  0
LINE
  5
742
100
AcDbEntity
  8
M0
 62
     4
100
AcDbLine
 10
366.325125
 20
570.467253
 11
428.824393
 21
570.467253
  0
LINE
  5
743
100
AcDbEntity
  8
M0
 62
     4
100
AcDbLine
 10
366.325614
 20
558.967253
 11
406.206229
 21
558.967253
  0
LINE
  5
744
100
AcDbEntity
  8
M0
 62
     4
100
AcDbLine
 10
366.325614
 20
552.467253
 11
410.325614
 21
552.467253
  0
LINE
  5
745
100
AcDbEntity
  8
M0
 62
     4
100
AcDbLine
 10
356.325614
 20
517.717543
 11
366.325614
 21
517.717543
  0
LINE
  5
746
100
AcDbEntity
  8
M0
 62
     4
100
AcDbLine
 10
355.325614
 20
502.467543
 11
369.325614
 21
502.467543
  0
LINE
  5
747
100
AcDbEntity
  8
M0
 62
     4
100
AcDbLine
 10
366.325614
 20
558.967497
 11
366.325614
 21
502.467543
  0
LINE
  5
748
100
AcDbEntity
  8
M0
 62
     4
100
AcDbLine
 10
355.325614
 20
516.717543
 11
355.325614
 21
502.467543
  0
ARC
  5
749
100
AcDbEntity
  8
M0
 62
     4
100
AcDbCircle
 10
356.325614
 20
516.717543
 40
1.0
100
AcDbArc
 50
90.0
 51
180.0
  0
LINE
  5
74A
100
AcDbEntity
  8
M0
 62
     4
100
AcDbLine
 10
371.325614
 20
497.467741
 11
371.325614
 21
500.467528
  0
LINE
  5
74B
100
AcDbEntity
  8
M0
 62
     4
100
AcDbLine
 10
370.325614
 20
496.467741
 11
371.325614
 21
497.467741
  0
LINE
  5
74C
100
AcDbEntity
  8
M0
 62
     4
100
AcDbLine
 10
370.325614
 20
558.967497
 11
370.325614
 21
564.967253
  0
LINE
  5
74D
100
AcDbEntity
  8
M0
 62
     4
100
AcDbLine
 10
381.325614
 20
568.467253
 11
381.325614
 21
570.467497
  0
LINE
  5
74E
100
AcDbEntity
  8
M0
 62
     4
100
AcDbLine
 10
372.825614
 20
568.467253
 11
381.325614
 21
568.467253
  0
LINE
  5
74F
100
AcDbEntity
  8
M0
 62
     4
100
AcDbLine
 10
369.325614
 20
568.967253
 11
381.325614
 21
568.967253
  0
LINE
  5
750
100
AcDbEntity
  8
M0
 62
     4
100
AcDbLine
 10
370.825614
 20
558.967497
 11
370.825614
 21
566.467253
  0
ARC
  5
751
100
AcDbEntity
  8
M0
 62
     4
100
AcDbCircle
 10
372.825614
 20
566.467253
 40
2.0
100
AcDbArc
 50
90.0
 51
180.0
  0
LINE
  5
752
100
AcDbEntity
  8
M0
 62
     4
100
AcDbLine
 10
369.325614
 20
564.967253
 11
370.325614
 21
564.967253
  0
LINE
  5
753
100
AcDbEntity
  8
M0
 62
     4
100
AcDbLine
 10
368.325614
 20
567.967253
 11
368.325614
 21
565.967253
  0
ARC
  5
754
100
AcDbEntity
  8
M0
 62
     4
100
AcDbCircle
 10
369.325614
 20
567.967253
 40
1.0
100
AcDbArc
 50
90.0
 51
180.0
  0
ARC
  5
755
100
AcDbEntity
  8
M0
 62
     4
100
AcDbCircle
 10
369.325614
 20
565.967253
 40
1.0
100
AcDbArc
 50
180.0
 51
269.999126
  0
LINE
  5
756
100
AcDbEntity
  8
M0
 62
     4
100
AcDbLine
 10
428.825614
 20
567.467253
 11
429.325614
 21
567.467253
  0
LINE
  5
757
100
AcDbEntity
  8
M0
 62
     4
100
AcDbLine
 10
428.825614
 20
553.467253
 11
429.325614
 21
553.467253
  0
LINE
  5
758
100
AcDbEntity
  8
M0
 62
     4
100
AcDbLine
 10
429.32537
 20
437.468046
 11
429.32537
 21
423.468092
  0
LINE
  5
759
100
AcDbEntity
  8
M0
 62
     4
100
AcDbLine
 10
428.82537
 20
423.468092
 11
429.32537
 21
423.468092
  0
LINE
  5
75A
100
AcDbEntity
  8
M0
 62
     4
100
AcDbLine
 10
428.82537
 20
437.468046
 11
429.32537
 21
437.468046
  0
ARC
  5
75B
100
AcDbEntity
  8
M0
 62
     4
100
AcDbCircle
 10
369.325614
 20
500.467543
 40
2.0
100
AcDbArc
 50
0.0
 51
90.0
  0
ARC
  5
75C
100
AcDbEntity
  8
M0
 62
     4
100
AcDbCircle
 10
369.325614
 20
490.467741
 40
2.0
100
AcDbArc
 50
269.999563
 51
360.0
  0
LINE
  5
75D
100
AcDbEntity
  8
M0
 62
     4
100
AcDbLine
 10
412.325614
 20
422.467741
 11
412.325614
 21
445.467741
  0
ARC
  5
75E
100
AcDbEntity
  8
M0
 62
     4
100
AcDbCircle
 10
410.325614
 20
445.467741
 40
2.0
100
AcDbArc
 50
0.0
 51
90.0
  0
ARC
  5
75F
100
AcDbEntity
  8
M0
 62
     4
100
AcDbCircle
 10
414.325614
 20
422.467741
 40
2.0
100
AcDbArc
 50
180.0
 51
269.999563
  0
ARC
  5
760
100
AcDbEntity
  8
M0
 62
     4
100
AcDbCircle
 10
411.325614
 20
438.967741
 40
1.0
100
AcDbArc
 50
0.0
 51
90.0
  0
LINE
  5
761
100
AcDbEntity
  8
M0
 62
     4
100
AcDbLine
 10
412.325614
 20
568.467009
 11
412.325614
 21
554.467253
  0
ARC
  5
762
100
AcDbEntity
  8
M0
 62
     4
100
AcDbCircle
 10
414.325614
 20
568.467009
 40
2.0
100
AcDbArc
 50
90.0
 51
180.0
  0
ARC
  5
763
100
AcDbEntity
  8
M0
 62
     4
100
AcDbCircle
 10
410.325614
 20
554.467253
 40
2.0
100
AcDbArc
 50
269.999563
 51
360.0
  0
LINE
  5
764
100
AcDbEntity
  8
M0
 62
     5
100
AcDbLine
 10
336.325125
 20
555.466719
 11
336.325125
 21
570.466719
  0
LINE
  5
765
100
AcDbEntity
  8
M0
 62
     5
100
AcDbLine
 10
315.325125
 20
558.966719
 11
333.125418
 21
558.966719
  0
LINE
  5
766
100
AcDbEntity
  8
M0
  6
DASHDOT
 62
     5
100
AcDbLine
 10
346.325125
 20
562.966719
 11
306.325125
 21
562.966719
  0
LINE
  5
767
100
AcDbEntity
  8
M0
 62
     5
100
AcDbLine
 10
315.325125
 20
559.466719
 11
333.125418
 21
559.466719
  0
LINE
  5
768
100
AcDbEntity
  8
M0
 62
     5
100
AcDbLine
 10
333.125418
 20
566.466231
 11
315.325125
 21
566.465986
  0
LINE
  5
769
100
AcDbEntity
  8
M0
 62
     5
100
AcDbLine
 10
333.125418
 20
566.966231
 11
315.325125
 21
566.965986
  0
LINE
  5
76A
100
AcDbEntity
  8
M0
 62
     5
100
AcDbLine
 10
336.32537
 20
549.966704
 11
336.32537
 21
570.966719
  0
LINE
  5
76B
100
AcDbEntity
  8
M0
 62
     5
100
AcDbLine
 10
336.32537
 20
552.966719
 11
333.125418
 21
552.966719
  0
LINE
  5
76C
100
AcDbEntity
  8
M0
 62
     5
100
AcDbLine
 10
336.32537
 20
540.966719
 11
333.125418
 21
540.966719
  0
LINE
  5
76D
100
AcDbEntity
  8
M0
 62
     5
100
AcDbLine
 10
336.32537
 20
570.966719
 11
333.125418
 21
570.966719
  0
LINE
  5
76E
100
AcDbEntity
  8
M0
 62
     5
100
AcDbLine
 10
333.125418
 20
570.966719
 11
333.125418
 21
540.966704
  0
LINE
  5
76F
100
AcDbEntity
  8
M0
 62
     5
100
AcDbLine
 10
340.132743
 20
570.466231
 11
336.325125
 21
570.465986
  0
LINE
  5
770
100
AcDbEntity
  8
M0
 62
     5
100
AcDbLine
 10
336.325125
 20
555.46649
 11
340.132254
 21
555.466475
  0
LINE
  5
771
100
AcDbEntity
  8
M0
 62
     5
100
AcDbLine
 10
340.825125
 20
556.666487
 11
340.825125
 21
569.266279
  0
LINE
  5
772
100
AcDbEntity
  8
M0
 62
     5
100
AcDbLine
 10
340.132498
 20
559.206465
 11
336.325125
 21
559.20645
  0
LINE
  5
773
100
AcDbEntity
  8
M0
 62
     5
100
AcDbLine
 10
340.132743
 20
566.72624
 11
336.325125
 21
566.725996
  0
LINE
  5
774
100
AcDbEntity
  8
M0
 62
     5
100
AcDbLine
 10
340.82537
 20
556.666487
 11
340.132498
 21
555.46649
  0
LINE
  5
775
100
AcDbEntity
  8
M0
 62
     5
100
AcDbLine
 10
340.82537
 20
569.266279
 11
340.132498
 21
570.466475
  0
ARC
  5
776
100
AcDbEntity
  8
M0
 62
     5
100
AcDbCircle
 10
330.269706
 20
562.966475
 40
10.555579
100
AcDbArc
 50
339.132517
 51
380.867513
  0
ARC
  5
777
100
AcDbEntity
  8
M0
 62
     5
100
AcDbCircle
 10
335.819998
 20
569.266279
 40
5.005172
100
AcDbArc
 50
329.507337
 51
360.0
  0
ARC
  5
778
100
AcDbEntity
  8
M0
 62
     5
100
AcDbCircle
 10
335.819998
 20
556.666487
 40
5.005145
100
AcDbArc
 50
0.0
 51
30.494576
  0
LINE
  5
779
100
AcDbEntity
  8
M0
 62
     5
100
AcDbLine
 10
315.325125
 20
566.966719
 11
315.325125
 21
558.966719
  0
LINE
  5
77A
100
AcDbEntity
  8
M0
 62
     5
100
AcDbLine
 10
336.324881
 20
435.467695
 11
336.324851
 21
420.467695
  0
LINE
  5
77B
100
AcDbEntity
  8
M0
 62
     5
100
AcDbLine
 10
315.324637
 20
431.967726
 11
323.02529
 21
431.967726
  0
LINE
  5
77C
100
AcDbEntity
  8
M0
  6
DASHDOT
 62
     5
100
AcDbLine
 10
346.324851
 20
427.96768
 11
306.324881
 21
427.967741
  0
LINE
  5
77D
100
AcDbEntity
  8
M0
 62
     5
100
AcDbLine
 10
315.324637
 20
431.467726
 11
323.02529
 21
431.467726
  0
LINE
  5
77E
100
AcDbEntity
  8
M0
 62
     5
100
AcDbLine
 10
323.02529
 20
424.468168
 11
315.324637
 21
424.468168
  0
LINE
  5
77F
100
AcDbEntity
  8
M0
 62
     5
100
AcDbLine
 10
323.02529
 20
423.968168
 11
315.324637
 21
423.968168
  0
LINE
  5
780
100
AcDbEntity
  8
M0
 62
     5
100
AcDbLine
 10
336.325125
 20
440.967711
 11
336.325095
 21
419.967695
  0
LINE
  5
781
100
AcDbEntity
  8
M0
 62
     5
100
AcDbLine
 10
336.325125
 20
437.967695
 11
333.125174
 21
437.967695
  0
LINE
  5
782
100
AcDbEntity
  8
M0
 62
     5
100
AcDbLine
 10
336.325125
 20
449.96768
 11
333.125174
 21
449.96768
  0
LINE
  5
783
100
AcDbEntity
  8
M0
 62
     5
100
AcDbLine
 10
336.325095
 20
419.967695
 11
333.125144
 21
419.967695
  0
LINE
  5
784
100
AcDbEntity
  8
M0
 62
     5
100
AcDbLine
 10
333.125144
 20
419.967695
 11
333.125174
 21
449.967695
  0
LINE
  5
785
100
AcDbEntity
  8
M0
 62
     5
100
AcDbLine
 10
340.132468
 20
420.468184
 11
336.324851
 21
420.468428
  0
LINE
  5
786
100
AcDbEntity
  8
M0
 62
     5
100
AcDbLine
 10
336.324881
 20
435.467924
 11
340.13201
 21
435.46794
  0
LINE
  5
787
100
AcDbEntity
  8
M0
 62
     5
100
AcDbLine
 10
340.824881
 20
434.267927
 11
340.824851
 21
421.668135
  0
LINE
  5
788
100
AcDbEntity
  8
M0
 62
     5
100
AcDbLine
 10
340.132254
 20
431.727949
 11
336.324881
 21
431.727965
  0
LINE
  5
789
100
AcDbEntity
  8
M0
 62
     5
100
AcDbLine
 10
340.132468
 20
424.208174
 11
336.324851
 21
424.208418
  0
LINE
  5
78A
100
AcDbEntity
  8
M0
 62
     5
100
AcDbLine
 10
340.825125
 20
434.267927
 11
340.132254
 21
435.467924
  0
LINE
  5
78B
100
AcDbEntity
  8
M0
 62
     5
100
AcDbLine
 10
340.825095
 20
421.668135
 11
340.132224
 21
420.46794
  0
ARC
  5
78C
100
AcDbEntity
  8
M0
 62
     5
100
AcDbCircle
 10
330.269461
 20
427.967955
 40
10.555579
100
AcDbArc
 50
-20.867745
 51
20.867328
  0
ARC
  5
78D
100
AcDbEntity
  8
M0
 62
     5
100
AcDbCircle
 10
335.819724
 20
421.668135
 40
5.005172
100
AcDbArc
 50
0.0
 51
30.492512
  0
ARC
  5
78E
100
AcDbEntity
  8
M0
 62
     5
100
AcDbCircle
 10
335.819754
 20
434.267927
 40
5.005145
100
AcDbArc
 50
-30.494726
 51
0.0
  0
LINE
  5
78F
100
AcDbEntity
  8
M0
 62
     5
100
AcDbLine
 10
315.324637
 20
423.967726
 11
315.324637
 21
431.967726
  0
LINE
  5
790
100
AcDbEntity
  8
M0
100
AcDbLine
 10
329.525321
 20
420.267714
 11
331.525321
 21
420.267714
  0
LINE
  5
791
100
AcDbEntity
  8
M0
100
AcDbLine
 10
331.525321
 20
420.267714
 11
331.525321
 21
435.667723
  0
LINE
  5
792
100
AcDbEntity
  8
M0
100
AcDbLine
 10
331.525321
 20
435.667723
 11
329.525321
 21
435.667723
  0
LINE
  5
793
100
AcDbEntity
  8
M0
100
AcDbLine
 10
329.525321
 20
435.667723
 11
329.525321
 21
420.267714
  0
LINE
  5
794
100
AcDbEntity
  8
M0
100
AcDbLine
 10
331.525321
 20
428.467726
 11
329.525321
 21
429.003615
  0
LINE
  5
795
100
AcDbEntity
  8
M0
100
AcDbLine
 10
329.525321
 20
427.467726
 11
331.525321
 21
426.931822
  0
LINE
  5
796
100
AcDbEntity
  8
M0
100
AcDbLine
 10
331.525077
 20
418.967711
 11
333.12493
 21
418.967711
  0
LINE
  5
797
100
AcDbEntity
  8
M0
100
AcDbLine
 10
333.12493
 20
418.967711
 11
333.12493
 21
436.967711
  0
LINE
  5
798
100
AcDbEntity
  8
M0
100
AcDbLine
 10
333.12493
 20
436.967711
 11
331.525077
 21
436.967711
  0
LINE
  5
799
100
AcDbEntity
  8
M0
100
AcDbLine
 10
331.525077
 20
436.967711
 11
331.525077
 21
418.967711
  0
LINE
  5
79A
100
AcDbEntity
  8
M0
100
AcDbLine
 10
323.746268
 20
420.467726
 11
329.525077
 21
420.467726
  0
LINE
  5
79B
100
AcDbEntity
  8
M0
100
AcDbLine
 10
329.525077
 20
420.467726
 11
329.525077
 21
435.467726
  0
LINE
  5
79C
100
AcDbEntity
  8
M0
100
AcDbLine
 10
329.525077
 20
435.467726
 11
323.746756
 21
435.467711
  0
LINE
  5
79D
100
AcDbEntity
  8
M0
100
AcDbLine
 10
323.025077
 20
434.217726
 11
323.025077
 21
421.717726
  0
LINE
  5
79E
100
AcDbEntity
  8
M0
100
AcDbLine
 10
323.745047
 20
431.72772
 11
329.525077
 21
431.72772
  0
LINE
  5
79F
100
AcDbEntity
  8
M0
100
AcDbLine
 10
323.745047
 20
424.207716
 11
329.525077
 21
424.207716
  0
LINE
  5
7A0
100
AcDbEntity
  8
M0
100
AcDbLine
 10
323.024832
 20
434.217726
 11
323.746756
 21
435.467711
  0
LINE
  5
7A1
100
AcDbEntity
  8
M0
100
AcDbLine
 10
323.746512
 20
420.467726
 11
323.024832
 21
421.717726
  0
ARC
  5
7A2
100
AcDbEntity
  8
M0
100
AcDbCircle
 10
333.203055
 20
427.967711
 40
10.178164
100
AcDbArc
 50
158.320389
 51
201.679611
  0
ARC
  5
7A3
100
AcDbEntity
  8
M0
100
AcDbCircle
 10
327.690848
 20
434.217711
 40
4.665769
100
AcDbArc
 50
180.0
 51
212.252289
  0
ARC
  5
7A4
100
AcDbEntity
  8
M0
100
AcDbCircle
 10
327.690848
 20
421.717711
 40
4.665769
100
AcDbArc
 50
147.746102
 51
180.0
  0
LINE
  5
7A5
100
AcDbEntity
  8
M0
100
AcDbLine
 10
329.525974
 20
570.668927
 11
331.525974
 21
570.668928
  0
LINE
  5
7A6
100
AcDbEntity
  8
M0
100
AcDbLine
 10
331.525974
 20
570.668928
 11
331.525983
 21
555.268782
  0
LINE
  5
7A7
100
AcDbEntity
  8
M0
100
AcDbLine
 10
331.525983
 20
555.268782
 11
329.525983
 21
555.268781
  0
LINE
  5
7A8
100
AcDbEntity
  8
M0
100
AcDbLine
 10
329.525983
 20
555.268781
 11
329.525974
 21
570.668927
  0
LINE
  5
7A9
100
AcDbEntity
  8
M0
100
AcDbLine
 10
331.525979
 20
562.468733
 11
329.525979
 21
561.932843
  0
LINE
  5
7AA
100
AcDbEntity
  8
M0
100
AcDbLine
 10
329.525978
 20
563.468732
 11
331.525978
 21
564.004866
  0
LINE
  5
7AB
100
AcDbEntity
  8
M0
100
AcDbLine
 10
331.525729
 20
571.968977
 11
333.125582
 21
571.968978
  0
LINE
  5
7AC
100
AcDbEntity
  8
M0
100
AcDbLine
 10
333.125582
 20
571.968978
 11
333.125594
 21
553.968978
  0
LINE
  5
7AD
100
AcDbEntity
  8
M0
100
AcDbLine
 10
333.125594
 20
553.968978
 11
331.52574
 21
553.968977
  0
LINE
  5
7AE
100
AcDbEntity
  8
M0
100
AcDbLine
 10
331.52574
 20
553.968977
 11
331.525729
 21
571.968977
  0
LINE
  5
7AF
100
AcDbEntity
  8
M0
100
AcDbLine
 10
323.746921
 20
570.468728
 11
329.52573
 21
570.468732
  0
LINE
  5
7B0
100
AcDbEntity
  8
M0
100
AcDbLine
 10
329.52573
 20
570.468732
 11
329.525739
 21
555.468732
  0
LINE
  5
7B1
100
AcDbEntity
  8
M0
100
AcDbLine
 10
329.525739
 20
555.468732
 11
323.747419
 21
555.468972
  0
LINE
  5
7B2
100
AcDbEntity
  8
M0
100
AcDbLine
 10
323.025738
 20
556.718728
 11
323.02573
 21
569.218728
  0
LINE
  5
7B3
100
AcDbEntity
  8
M0
100
AcDbLine
 10
323.745707
 20
559.208962
 11
329.525737
 21
559.208966
  0
LINE
  5
7B4
100
AcDbEntity
  8
M0
100
AcDbLine
 10
323.745703
 20
566.728738
 11
329.525732
 21
566.728741
  0
LINE
  5
7B5
100
AcDbEntity
  8
M0
100
AcDbLine
 10
323.025494
 20
556.718728
 11
323.747419
 21
555.468972
  0
LINE
  5
7B6
100
AcDbEntity
  8
M0
100
AcDbLine
 10
323.747165
 20
570.468728
 11
323.025486
 21
569.218728
  0
ARC
  5
7B7
100
AcDbEntity
  8
M0
100
AcDbCircle
 10
333.203713
 20
562.968978
 40
10.178164
100
AcDbArc
 50
158.320424
 51
201.67853
  0
ARC
  5
7B8
100
AcDbEntity
  8
M0
100
AcDbCircle
 10
327.69151
 20
556.718975
 40
4.665769
100
AcDbArc
 50
147.746638
 51
180.003034
  0
ARC
  5
7B9
100
AcDbEntity
  8
M0
100
AcDbCircle
 10
327.691502
 20
569.218975
 40
4.665769
100
AcDbArc
 50
180.000036
 51
212.254634
  0
LINE
  5
7BA
100
AcDbEntity
  8
M0
  6
DIVIDE
 62
     5
100
AcDbLine
 10
124.413458
 20
142.094858
 11
135.411762
 21
142.094858
  0
LINE
  5
7BB
100
AcDbEntity
  8
M0
  6
DIVIDE
 62
     5
100
AcDbLine
 10
124.413458
 20
149.5561
 11
124.413458
 21
142.094858
  0
LINE
  5
7BC
100
AcDbEntity
  8
M0
  6
DIVIDE
 62
     5
100
AcDbLine
 10
135.411762
 20
142.094858
 11
135.411762
 21
149.5561
  0
LINE
  5
7BD
100
AcDbEntity
  8
M0
  6
DIVIDE
 62
     5
100
AcDbLine
 10
82.176688
 20
149.5561
 11
124.413458
 21
149.5561
  0
LINE
  5
7BE
100
AcDbEntity
  8
M0
  6
DIVIDE
 62
     5
100
AcDbLine
 10
215.676703
 20
333.755944
 11
82.176688
 21
333.755944
  0
LINE
  5
7BF
100
AcDbEntity
  8
M0
  6
DIVIDE
 62
     5
100
AcDbLine
 10
82.176688
 20
333.755944
 11
82.176688
 21
149.5561
  0
LINE
  5
7C0
100
AcDbEntity
  8
M0
  6
DIVIDE
 62
     5
100
AcDbLine
 10
215.676703
 20
149.5561
 11
215.676703
 21
333.755944
  0
LINE
  5
7C1
100
AcDbEntity
  8
M0
  6
DASHDOT
 62
     5
100
AcDbLine
 10
203.676703
 20
298.756091
 11
179.676703
 21
298.756091
  0
LINE
  5
7C2
100
AcDbEntity
  8
M0
  6
DASHDOT
 62
     5
100
AcDbLine
 10
191.676703
 20
286.756091
 11
191.676703
 21
310.756091
  0
LINE
  5
7C3
100
AcDbEntity
  8
M0
  6
DASHDOT
 62
     5
100
AcDbLine
 10
79.676703
 20
168.756091
 11
103.676703
 21
168.756091
  0
LINE
  5
7C4
100
AcDbEntity
  8
M0
  6
DASHDOT
 62
     5
100
AcDbLine
 10
91.676703
 20
156.756091
 11
91.676703
 21
180.756091
  0
LINE
  5
7C5
100
AcDbEntity
  8
M0
  6
DIVIDE
 62
     5
100
AcDbLine
 10
135.411762
 20
149.5561
 11
215.676703
 21
149.5561
  0
CIRCLE
  5
7C6
100
AcDbEntity
  8
M0
 62
     5
100
AcDbCircle
 10
91.676703
 20
168.756091
 40
4.8
  0
CIRCLE
  5
7C7
100
AcDbEntity
  8
M0
 62
     5
100
AcDbCircle
 10
91.676703
 20
168.756091
 40
3.359999
  0
CIRCLE
  5
7C8
100
AcDbEntity
  8
M0
 62
     5
100
AcDbCircle
 10
191.676703
 20
298.756091
 40
3.359999
  0
CIRCLE
  5
7C9
100
AcDbEntity
  8
M0
 62
     5
100
AcDbCircle
 10
191.676703
 20
298.756091
 40
4.8
  0
LINE
  5
7CA
100
AcDbEntity
  8
M1
 62
     2
100
AcDbLine
 10
25.0
 20
25.0
 11
25.0
 21
712.499989
  0
LINE
  5
7CB
100
AcDbEntity
  8
M1
 62
     2
100
AcDbLine
 10
25.0
 20
712.499989
 11
499.999993
 21
712.499989
  0
LINE
  5
7CC
100
AcDbEntity
  8
M1
 62
     2
100
AcDbLine
 10
499.999993
 20
712.499989
 11
499.999993
 21
25.0
  0
LINE
  5
7CD
100
AcDbEntity
  8
M1
 62
     2
100
AcDbLine
 10
499.999993
 20
25.0
 11
25.0
 21
25.0
  0
LINE
  5
7CE
100
AcDbEntity
  8
M1
 62
     2
100
AcDbLine
 10
499.999993
 20
49.999999
 11
249.999996
 21
49.999999
  0
LINE
  5
7CF
100
AcDbEntity
  8
M1
 62
     2
100
AcDbLine
 10
499.999993
 20
74.999999
 11
249.999996
 21
74.999999
  0
LINE
  5
7D0
100
AcDbEntity
  8
M1
 62
     2
100
AcDbLine
 10
499.999993
 20
99.999999
 11
249.999996
 21
99.999999
  0
LINE
  5
7D1
100
AcDbEntity
  8
M1
 62
     2
100
AcDbLine
 10
249.999996
 20
25.0
 11
249.999996
 21
99.999999
  0
TEXT
  5
7D2
100
AcDbEntity
  8
M1
 62
     2
100
AcDbText
 10
256.249996
 20
31.25
 40
12.5
  1
適　用；
  7
STANDARD
100
AcDbText
  0
TEXT
  5
7D3
100
AcDbEntity
  8
M1
 62
     2
100
AcDbText
 10
256.249996
 20
81.249999
 40
12.5
  1
登録名：
  7
STANDARD
100
AcDbText
  0
TEXT
  5
7D4
100
AcDbEntity
  8
M1
 62
     2
100
AcDbText
 10
316.249995
 20
81.249999
 40
12.5
  1
ＤＭＨ１５０ＣＬＲ００
 41
0.5
  7
STANDARD
100
AcDbText
  0
TEXT
  5
7D5
100
AcDbEntity
  8
M1
 62
     2
100
AcDbText
 10
256.249996
 20
56.249999
 40
12.5
  1
形　式；
  7
STANDARD
100
AcDbText
  0
TEXT
  5
7D6
100
AcDbEntity
  8
M1
 62
     2
100
AcDbText
 10
316.249995
 20
56.249999
 40
12.5
  1
Ｈ１５０Ｃ－Ｌ，Ｈ１５０Ｃ－ＬＧ
 41
0.5
  7
STANDARD
100
AcDbText
  0
LINE
  5
7D7
100
AcDbEntity
  8
DN0
100
AcDbLine
 10
127.569218
 20
100.955487
 11
173.219228
 21
100.955487
  0
TEXT
  5
7D8
100
AcDbEntity
  8
DN0
100
AcDbText
 10
128.831718
 20
102.080487
 40
11.25
  1
せん孔図
 41
0.833333
  7
STANDARD
100
AcDbText
  0
ENDSEC
  0
SECTION
  2
OBJECTS
  0
DICTIONARY
  5
C
100
AcDbDictionary
  3
ACAD_GROUP
350
D
  3
ACAD_MLINESTYLE
350
E
  0
DICTIONARY
  5
D
102
{ACAD_REACTORS
330
C
102
}
100
AcDbDictionary
  0
DICTIONARY
  5
E
102
{ACAD_REACTORS
330
C
102
}
100
AcDbDictionary
  3
STANDARD
350
13
  0
MLINESTYLE
  5
13
102
{ACAD_REACTORS
330
E
102
}
100
AcDbMlineStyle
  2
STANDARD
 70
     0
  3

 62
     0
 51
90.0
 52
90.0
 71
     2
 49
0.5
 62
   256
  6
BYLAYER
 49
-0.5
 62
   256
  6
BYLAYER
  0
ENDSEC
  0
EOF
