  0
SECTION
  2
HEADER
  9
$ACADVER
  1
AC1014
  9
$INSBASE
 10
0.000000
 20
0.000000
 30
0.0
  9
$VIEWCTR
 10
7.531722
 20
4.5
  9
$VIEWSIZE
 40
9.0
  9
$SNAPMODE
 70
     0
  9
$SNAPUNIT
 10
1.0
 20
1.0
  9
$SNAPBASE
 10
0.0
 20
0.0
  9
$SNAPANG
 50
0.0
  9
$SNAPSTYLE
 70
     0
  9
$SNAPISOPAIR
 70
     0
  9
$GRIDMODE
 70
     0
  9
$GRIDUNIT
 10
0.0
 20
0.0
  9
$ORTHOMODE
 70
     0
  9
$REGENMODE
 70
     1
  9
$FILLMODE
 70
     1
  9
$QTEXTMODE
 70
     0
  9
$DRAGMODE
 70
     2
  9
$LTSCALE
  40
     1.000000
  9
$OSMODE
 70
     0
  9
$ATTMODE
 70
     1
  9
$TEXTSIZE
 40
0.2
  9
$TRACEWID
 40
0.05
  9
$TEXTSTYLE
  7
STANDARD
  9
$CELTYPE
  6
BYLAYER
  9
$CECOLOR
 62
   256
  9
$DIMSCALE
 40
1.0
  9
$DIMASZ
 40
0.18
  9
$DIMEXO
 40
0.0625
  9
$DIMDLI
 40
0.38
  9
$DIMRND
 40
0.0
  9
$DIMDLE
 40
0.0
  9
$DIMEXE
 40
0.18
  9
$DIMTP
 40
0.0
  9
$DIMTM
 40
0.0
  9
$DIMTXT
 40
0.18
  9
$DIMCEN
 40
0.09
  9
$DIMTSZ
 40
0.0
  9
$DIMTOL
 70
     0
  9
$DIMLIM
 70
     0
  9
$DIMTIH
 70
     1
  9
$DIMTOH
 70
     1
  9
$DIMSE1
 70
     0
  9
$DIMSE2
 70
     0
  9
$DIMTAD
 70
     0
  9
$DIMZIN
 70
     0
  9
$DIMBLK
  1

  9
$LUNITS
 70
     2
  9
$LUPREC
 70
     4
  9
$AXISMODE
 70
     0
  9
$AXISUNIT
 10
0.0
 20
0.0
  9
$SKETCHINC
 40
0.1
  9
$FILLETRAD
 40
0.0
  9
$AUNITS
 70
     0
  9
$AUPREC
 70
     0
  9
$MENU
  1
ACAD
  9
$ELEVATION
 40
0.0
  9
$THICKNESS
 40
0.0
  9
$VIEWDIR
 10
0.0
 20
0.0
 30
1.0
  9
$LIMCHECK
 70
     0
  9
$BLIPMODE
 70
     1
  9
$CHAMFERA
 40
0.0
  9
$CHAMFERB
 40
0.0
  9
$FASTZOOM
 70
     1
  9
$SKPOLY
 70
     0
  9
$TDCREATE
 40
0000000.0000000000
  9
$TDUPDATE
 40
0000000.0000000000
  9
$TDINDWG
 40
0.0000000000
  9
$TDUSRTIMER
 40
0.0000000000
  9
$USRTIMER
 70
     1
  9
$ANGBASE
 50
0.0
  9
$ANGDIR
 70
     0
  9
$PDMODE
 70
     0
  9
$PDSIZE
 40
0.0
  9
$PLINEWID
 40
0.0
  9
$COORDS
 70
     0
  9
$USERI1
 70
     0
  9
$USERI2
 70
     0
  9
$USERI3
 70
     0
  9
$USERI4
 70
     0
  9
$USERI5
 70
     0
  9
$USERR1
 40
0.0
  9
$USERR2
 40
0.0
  9
$USERR3
 40
0.0
  9
$USERR4
 40
0.0
  9
$USERR5
 40
0.0
  9
$CLAYER
  8
M0
  9
$EXTMIN
 10
249.967682
 20
78.174657
  9
$EXTMAX
 10
738.211578
 20
1183.053161
  9
$LIMMIN
 10
0.0
 20
0.0
  9
$LIMMAX
 10
210.0
 20
297.0
  9
$HANDSEED
  5
136
  0
ENDSEC
  0
SECTION
  2
CLASSES
  0
ENDSEC
  0
SECTION
  2
TABLES
  0
TABLE
  2
VPORT
  5
8
100
AcDbSymbolTable
 70
     2
  0
VPORT
  5
14
100
AcDbSymbolTableRecord
100
AcDbViewportTableRecord
  2
*ACTIVE
 70
     0
 10
0.0
 20
0.0
 11
1.0
 21
1.0
 12
484.0
 22
297.0
 13
0.0
 23
0.0
 14
1.0
 24
1.0
 15
0.0
 25
0.0
 16
0.0
 26
0.0
 36
1.0
 17
0.0
 27
0.0
 37
0.0
 40
594.0
 41
2.0
 42
50.0
 43
0.0
 44
0.0
 50
0.0
 51
0.0
 71
     0
 72
   100
 73
     1
 74
     1
 75
     0
 76
     0
 77
     0
 78
     0
  0
ENDTAB
  0
TABLE
  2
LTYPE
  5
5
100
AcDbSymbolTable
 70
     5
  0
LTYPE
  5
15
100
AcDbSymbolTableRecord
100
AcDbLinetypeTableRecord
  2
BYBLOCK
 70
     0
  3

 72
    65
 73
     0
 40
0.0
  0
LTYPE
  5
16
100
AcDbSymbolTableRecord
100
AcDbLinetypeTableRecord
  2
BYLAYER
 70
     0
  3

 72
    65
 73
     0
 40
0.0
  0
LTYPE
  5
17
100
AcDbSymbolTableRecord
100
AcDbLinetypeTableRecord
  2
CONTINUOUS
 70
    64
  3
Solid line
 72
    65
 73
     0
 40
0.0
  0
LTYPE
  5
18
100
AcDbSymbolTableRecord
100
AcDbLinetypeTableRecord
  2
DASHED
 70
    64
  3
__ __ __ __ __ __ __ __ __ __ __ __ __ __ __ __
 72
    65
 73
     2
 40
0.75
 49
0.5
 74
     0
 49
-0.25
 74
     0
  0
LTYPE
  5
19
100
AcDbSymbolTableRecord
100
AcDbLinetypeTableRecord
  2
DASHDOT
 70
    64
  3
__ . __ . __ . __ . __ . __ . __ . __ . __ . __
 72
    65
 73
     4
 40
1.0
 49
0.5
 74
     0
 49
-0.25
 74
     0
 49
0.0
 74
     0
 49
-0.25
 74
     0
  0
LTYPE
  5
1A
100
AcDbSymbolTableRecord
100
AcDbLinetypeTableRecord
  2
DIVIDE
 70
    64
  3
____ . . ____ . . ____ . . ____ . . ____ . . __
 72
    65
 73
     6
 40
1.25
 49
0.5
 74
     0
 49
-0.25
 74
     0
 49
0.0
 74
     0
 49
-0.25
 74
     0
 49
0.0
 74
     0
 49
-0.25
 74
     0
  0
LTYPE
  5
1B
100
AcDbSymbolTableRecord
100
AcDbLinetypeTableRecord
  2
DOT
 70
    64
  3
. . . . . . . . . . . . . . . . . . . . . . . .
 72
    65
 73
     2
 40
0.25
 49
0.0
 74
     0
 49
-0.25
 74
     0
  0
ENDTAB
  0
TABLE
  2
LAYER
  5
2
100
AcDbSymbolTable
 70
   102
  0
LAYER
  5
F
100
AcDbSymbolTableRecord
100
AcDbLayerTableRecord
  2
0
 70
     0
 62
     7
  6
CONTINUOUS
  0
LAYER
  5
1C
100
AcDbSymbolTableRecord
100
AcDbLayerTableRecord
  2
DEFPOINTS
 70
     0
 62
     7
  6
CONTINUOUS
  0
LAYER
  5
1D
100
AcDbSymbolTableRecord
100
AcDbLayerTableRecord
  2
M0
 70
     0
 62
     3
  6
CONTINUOUS
  0
LAYER
  5
1E
100
AcDbSymbolTableRecord
100
AcDbLayerTableRecord
  2
DT0
 70
     0
 62
     7
  6
CONTINUOUS
  0
ENDTAB
  0
TABLE
  2
STYLE
  5
3
100
AcDbSymbolTable
 70
     2
  0
STYLE
  5
10
100
AcDbSymbolTableRecord
100
AcDbTextStyleTableRecord
  2
STANDARD
 70
     0
 40
0.0
 41
1.0
 50
0.0
 71
     0
 42
0.2
  3
txt
  4
BIGFONT
  0
ENDTAB
  0
TABLE
  2
VIEW
  5
6
100
AcDbSymbolTable
 70
     0
  0
ENDTAB
  0
TABLE
  2
UCS
  5
7
100
AcDbSymbolTable
 70
     0
  0
ENDTAB
  0
TABLE
  2
APPID
  5
9
100
AcDbSymbolTable
 70
     1
  0
APPID
  5
11
100
AcDbSymbolTableRecord
100
AcDbRegAppTableRecord
  2
ACAD
 70
     0
  0
ENDTAB
  0
TABLE
  2
DIMSTYLE
  5
A
100
AcDbSymbolTable
 70
     2
  0
DIMSTYLE
105
25
100
AcDbSymbolTableRecord
100
AcDbDimStyleTableRecord
  2
STANDARD
 70
     0
  3

  4

  5

  6
_OPEN
  7
_OPEN
 40
1.0
 41
15.0
 42
1.0
 43
6.0
 44
1.0
 45
0.0
 46
0.0
 47
0.0
 48
0.0
140
12.5
141
0.09
142
0.0
143
0.03937
144
1.0
145
0.0
146
1.0
147
0.6
 71
     0
 72
     0
 73
     1
 74
     1
 75
     0
 76
     0
 77
     3
 78
     8
170
     0
171
     2
172
     0
173
     1
174
     0
175
     0
176
     0
177
     0
178
     0
270
     2
271
     2
272
     4
273
     2
274
     2
340
10
275
     0
280
     0
281
     0
282
     0
283
     1
284
     0
285
     0
286
     0
287
     3
288
     0
  0
DIMSTYLE
105
26
100
AcDbSymbolTableRecord
100
AcDbDimStyleTableRecord
  2
LEADSTYL
 70
     0
  3

  4

  5

  6
_OPEN
  7
_OPEN
 40
1.0
 41
15.0
 42
0.0625
 43
0.38
 44
0.18
 45
0.0
 46
0.0
 47
0.0
 48
0.0
140
15.75
141
0.09
142
0.0
143
25.4
144
1.0
145
0.0
146
1.0
147
0.6
 71
     0
 72
     0
 73
     1
 74
     1
 75
     0
 76
     0
 77
     0
 78
     0
170
     0
171
     2
172
     0
173
     1
174
     0
175
     0
176
     0
177
     0
178
     0
270
     2
271
     4
272
     4
273
     2
274
     2
340
10
275
     0
280
     0
281
     0
282
     0
283
     1
284
     0
285
     0
286
     0
287
     3
288
     0
  0
ENDTAB
  0
TABLE
  2
BLOCK_RECORD
  5
1
100
AcDbSymbolTable
 70
     7
  0
BLOCK_RECORD
  5
1F
100
AcDbSymbolTableRecord
100
AcDbBlockTableRecord
  2
*MODEL_SPACE
  0
BLOCK_RECORD
  5
22
100
AcDbSymbolTableRecord
100
AcDbBlockTableRecord
  2
*PAPER_SPACE
  0
BLOCK_RECORD
  5
27
100
AcDbSymbolTableRecord
100
AcDbBlockTableRecord
  2
_NONE
  0
BLOCK_RECORD
  5
2B
100
AcDbSymbolTableRecord
100
AcDbBlockTableRecord
  2
_OPEN
  0
BLOCK_RECORD
  5
31
100
AcDbSymbolTableRecord
100
AcDbBlockTableRecord
  2
_CLOSED
  0
BLOCK_RECORD
  5
38
100
AcDbSymbolTableRecord
100
AcDbBlockTableRecord
  2
_ORIGIN
  0
BLOCK_RECORD
  5
3D
100
AcDbSymbolTableRecord
100
AcDbBlockTableRecord
  2
_DOT
  0
BLOCK_RECORD
  5
45
100
AcDbSymbolTableRecord
100
AcDbBlockTableRecord
  2
_OBLIQUE
  0
BLOCK_RECORD
  5
111
100
AcDbSymbolTableRecord
100
AcDbBlockTableRecord
  2
LIST0
  0
ENDTAB
  0
ENDSEC
  0
SECTION
  2
BLOCKS
  0
BLOCK
  5
20
100
AcDbEntity
  8
0
100
AcDbBlockBegin
  2
*MODEL_SPACE
 70
     0
 10
0.0
 20
0.0
 30
0.0
  3
*MODEL_SPACE
  1

  0
ENDBLK
  5
21
100
AcDbEntity
  8
0
100
AcDbBlockEnd
  0
BLOCK
  5
23
100
AcDbEntity
 67
     1
  8
0
100
AcDbBlockBegin
  2
*PAPER_SPACE
 70
     0
 10
0.0
 20
0.0
 30
0.0
  3
*PAPER_SPACE
  1

  0
ENDBLK
  5
24
100
AcDbEntity
 67
     1
  8
0
100
AcDbBlockEnd
  0
BLOCK
  5
28
100
AcDbEntity
  8
0
100
AcDbBlockBegin
  2
_NONE
 70
     0
 10
0.0
 20
0.0
  0
CIRCLE
  5
29
100
AcDbEntity
  8
0
 62
     0
100
AcDbCircle
 10
0.0
 20
0.0
 40
0.25
  0
ENDBLK
  5
2A
100
AcDbEntity
  8
0
100
AcDbBlockEnd
  0
BLOCK
  5
2C
100
AcDbEntity
  8
0
100
AcDbBlockBegin
  2
_OPEN
 70
     0
 10
0.0
 20
0.0
  0
LINE
  5
2D
100
AcDbEntity
  8
0
 62
     0
100
AcDbLine
 10
-0.965926
 20
0.25882
 11
0.0
 21
0.0
  0
LINE
  5
2E
100
AcDbEntity
  8
0
 62
     0
100
AcDbLine
 10
0.0
 20
0.0
 11
-0.965926
 21
-0.25882
  0
LINE
  5
2F
100
AcDbEntity
  8
0
 62
     0
100
AcDbLine
 10
0.0
 20
0.0
 11
-1.0
 21
0.0
  0
ENDBLK
  5
30
100
AcDbEntity
  8
0
100
AcDbBlockEnd
  0
BLOCK
  5
32
100
AcDbEntity
  8
0
100
AcDbBlockBegin
  2
_CLOSED
 70
     0
 10
0.0
 20
0.0
  0
LINE
  5
33
100
AcDbEntity
  8
0
 62
     0
100
AcDbLine
 10
-0.965926
 20
0.25882
 11
0.0
 21
0.0
  0
LINE
  5
34
100
AcDbEntity
  8
0
 62
     0
100
AcDbLine
 10
0.0
 20
0.0
 11
-0.965926
 21
-0.25882
  0
LINE
  5
35
100
AcDbEntity
  8
0
 62
     0
100
AcDbLine
 10
-0.965926
 20
0.25882
 11
-0.965926
 21
-0.25882
  0
LINE
  5
36
100
AcDbEntity
  8
0
 62
     0
100
AcDbLine
 10
0.0
 20
0.0
 11
-1.0
 21
0.0
  0
ENDBLK
  5
37
100
AcDbEntity
  8
0
100
AcDbBlockEnd
  0
BLOCK
  5
39
100
AcDbEntity
  8
0
100
AcDbBlockBegin
  2
_ORIGIN
 70
     0
 10
0.0
 20
0.0
  0
CIRCLE
  5
3A
100
AcDbEntity
  8
0
 62
     0
100
AcDbCircle
 10
0.0
 20
0.0
 40
0.5
  0
LINE
  5
3B
100
AcDbEntity
  8
0
 62
     0
100
AcDbLine
 10
0.0
 20
0.0
 11
-1.0
 21
0.0
  0
ENDBLK
  5
3C
100
AcDbEntity
  8
0
100
AcDbBlockEnd
  0
BLOCK
  5
3E
100
AcDbEntity
  8
0
100
AcDbBlockBegin
  2
_DOT
 70
     0
 10
0.0
 20
0.0
  0
POLYLINE
  5
3F
100
AcDbEntity
  8
0
 62
     0
100
AcDb2dPolyline
 66
     1
 70
     1
 40
0.5
 41
0.5
  0
VERTEX
  5
40
100
AcDbEntity
  8
0
 62
     0
100
AcDbVertex
100
AcDb2dVertex
 10
-0.25
 20
0.0
 42
1.0
  0
VERTEX
  5
41
100
AcDbEntity
  8
0
 62
     0
100
AcDbVertex
100
AcDb2dVertex
 10
0.25
 20
0.0
 42
1.0
  0
SEQEND
  5
42
100
AcDbEntity
  8
0
 62
     0
  0
LINE
  5
43
100
AcDbEntity
  8
0
 62
     0
100
AcDbLine
 10
-0.5
 20
0.0
 11
-1.0
 21
0.0
  0
ENDBLK
  5
44
100
AcDbEntity
  8
0
100
AcDbBlockEnd
  0
BLOCK
  5
46
100
AcDbEntity
  8
0
100
AcDbBlockBegin
  2
_OBLIQUE
 70
     0
 10
0.0
 20
0.0
  0
LINE
  5
47
100
AcDbEntity
  8
0
 62
     0
100
AcDbLine
 10
-0.353553
 20
-0.353553
 11
0.353553
 21
0.353553
  0
ENDBLK
  5
48
100
AcDbEntity
  8
0
100
AcDbBlockEnd
  0
BLOCK
  5
112
100
AcDbEntity
  8
DT0
100
AcDbBlockBegin
  2
LIST0
 70
     0
 10
0.0
 20
0.0
  0
LINE
  5
113
100
AcDbEntity
  8
DT0
100
AcDbLine
 10
682.317571
 20
160.674665
 11
682.317571
 21
78.174657
  0
LINE
  5
114
100
AcDbEntity
  8
DT0
100
AcDbLine
 10
272.317596
 20
160.674665
 11
272.317596
 21
78.174657
  0
LINE
  5
115
100
AcDbEntity
  8
DT0
100
AcDbLine
 10
272.317596
 20
78.174657
 11
682.317571
 21
78.174657
  0
LINE
  5
116
100
AcDbEntity
  8
DT0
100
AcDbLine
 10
272.317596
 20
160.674665
 11
682.317571
 21
160.674665
  0
LINE
  5
117
100
AcDbEntity
  8
DT0
100
AcDbLine
 10
587.317611
 20
133.174656
 11
587.317611
 21
160.674665
  0
LINE
  5
118
100
AcDbEntity
  8
DT0
100
AcDbLine
 10
332.317614
 20
133.174656
 11
587.317611
 21
133.174656
  0
TEXT
  5
119
100
AcDbEntity
  8
DT0
100
AcDbText
 10
338.359283
 20
140.674665
 40
12.5
  1
Ｓｘ４００３Ｐ
 41
0.833333
  7
STANDARD
100
AcDbText
  0
LINE
  5
11A
100
AcDbEntity
  8
DT0
 60
     1
100
AcDbLine
 10
632.317572
 20
133.174656
 11
632.317572
 21
160.674665
  0
LINE
  5
11B
100
AcDbEntity
  8
DT0
100
AcDbLine
 10
587.317611
 20
133.174656
 11
632.317572
 21
133.174656
  0
TEXT
  5
11C
100
AcDbEntity
  8
DT0
100
AcDbText
 10
593.175952
 20
140.674665
 40
12.5
  1
ＲＥＶ．：
 41
0.666667
  7
STANDARD
100
AcDbText
  0
LINE
  5
11D
100
AcDbEntity
  8
DT0
 60
     1
100
AcDbLine
 10
682.317571
 20
133.174656
 11
682.317571
 21
160.674665
  0
LINE
  5
11E
100
AcDbEntity
  8
DT0
100
AcDbLine
 10
632.317572
 20
133.174656
 11
682.317571
 21
133.174656
  0
TEXT
  5
11F
100
AcDbEntity
  8
DT0
100
AcDbText
 10
653.359202
 20
140.674665
 40
12.5
  1
００
 41
0.833333
  7
STANDARD
100
AcDbText
  0
LINE
  5
120
100
AcDbEntity
  8
DT0
 60
     1
100
AcDbLine
 10
332.317614
 20
133.174656
 11
332.317614
 21
160.674665
  0
LINE
  5
121
100
AcDbEntity
  8
DT0
100
AcDbLine
 10
272.317596
 20
133.174656
 11
332.317614
 21
133.174656
  0
TEXT
  5
122
100
AcDbEntity
  8
DT0
100
AcDbText
 10
278.359265
 20
140.674665
 40
12.5
  1
登録名：
 41
0.833333
  7
STANDARD
100
AcDbText
  0
LINE
  5
123
100
AcDbEntity
  8
DT0
 60
     1
100
AcDbLine
 10
682.317571
 20
105.674656
 11
682.317571
 21
133.174656
  0
LINE
  5
124
100
AcDbEntity
  8
DT0
100
AcDbLine
 10
632.317572
 20
105.674656
 11
682.317571
 21
105.674656
  0
LINE
  5
125
100
AcDbEntity
  8
DT0
 60
     1
100
AcDbLine
 10
632.317572
 20
105.674656
 11
632.317572
 21
133.174656
  0
LINE
  5
126
100
AcDbEntity
  8
DT0
100
AcDbLine
 10
332.317614
 20
105.674656
 11
632.317572
 21
105.674656
  0
TEXT
  5
127
100
AcDbEntity
  8
DT0
100
AcDbText
 10
338.359283
 20
113.174656
 40
12.5
  1
表面形
 41
0.833333
  7
STANDARD
100
AcDbText
  0
LINE
  5
128
100
AcDbEntity
  8
DT0
 60
     1
100
AcDbLine
 10
332.317614
 20
105.674656
 11
332.317614
 21
133.174656
  0
LINE
  5
129
100
AcDbEntity
  8
DT0
100
AcDbLine
 10
272.317596
 20
105.674656
 11
332.317614
 21
105.674656
  0
TEXT
  5
12A
100
AcDbEntity
  8
DT0
100
AcDbText
 10
275.755095
 20
113.174656
 40
12.5
  1
接続方式：
 41
0.75
  7
STANDARD
100
AcDbText
  0
LINE
  5
12B
100
AcDbEntity
  8
DT0
 60
     1
100
AcDbLine
 10
682.317571
 20
78.174657
 11
682.317571
 21
105.674656
  0
LINE
  5
12C
100
AcDbEntity
  8
DT0
 60
     1
100
AcDbLine
 10
632.317572
 20
78.174657
 11
682.317571
 21
78.174657
  0
LINE
  5
12D
100
AcDbEntity
  8
DT0
 60
     1
100
AcDbLine
 10
632.317572
 20
78.174657
 11
632.317572
 21
105.674656
  0
LINE
  5
12E
100
AcDbEntity
  8
DT0
 60
     1
100
AcDbLine
 10
332.317614
 20
78.174657
 11
632.317572
 21
78.174657
  0
TEXT
  5
12F
100
AcDbEntity
  8
DT0
100
AcDbText
 10
338.255132
 20
85.674657
 40
12.5
  1
ＳＸ４００／ＦＸ４００
 41
0.75
  7
STANDARD
100
AcDbText
  0
LINE
  5
130
100
AcDbEntity
  8
DT0
 60
     1
100
AcDbLine
 10
332.317614
 20
78.174657
 11
332.317614
 21
105.674656
  0
LINE
  5
131
100
AcDbEntity
  8
DT0
 60
     1
100
AcDbLine
 10
272.317596
 20
78.174657
 11
332.317614
 21
78.174657
  0
TEXT
  5
132
100
AcDbEntity
  8
DT0
100
AcDbText
 10
275.755095
 20
85.674657
 40
12.5
  1
適用形式：
 41
0.75
  7
STANDARD
100
AcDbText
  0
ENDBLK
  5
133
100
AcDbEntity
  8
DT0
100
AcDbBlockEnd
  0
ENDSEC
  0
SECTION
  2
ENTITIES
  0
CIRCLE
  5
49
100
AcDbEntity
  8
M0
100
AcDbCircle
 10
322.967682
 20
306.604736
 40
3.5
  0
CIRCLE
  5
4A
100
AcDbEntity
  8
M0
100
AcDbCircle
 10
366.967682
 20
306.604736
 40
3.5
  0
CIRCLE
  5
4B
100
AcDbEntity
  8
M0
100
AcDbCircle
 10
366.967682
 20
500.604492
 40
3.5
  0
CIRCLE
  5
4C
100
AcDbEntity
  8
M0
100
AcDbCircle
 10
322.967682
 20
500.604492
 40
3.5
  0
LINE
  5
4D
100
AcDbEntity
  8
M0
  6
DASHDOT
100
AcDbLine
 10
309.467682
 20
500.604492
 11
336.467682
 21
500.604492
  0
LINE
  5
4E
100
AcDbEntity
  8
M0
  6
DASHDOT
100
AcDbLine
 10
322.967682
 20
487.104492
 11
322.967682
 21
514.104492
  0
LINE
  5
4F
100
AcDbEntity
  8
M0
  6
DASHDOT
100
AcDbLine
 10
353.467682
 20
500.604492
 11
380.467682
 21
500.604492
  0
LINE
  5
50
100
AcDbEntity
  8
M0
  6
DASHDOT
100
AcDbLine
 10
366.967682
 20
487.104492
 11
366.967682
 21
514.104492
  0
LINE
  5
51
100
AcDbEntity
  8
M0
  6
DASHDOT
100
AcDbLine
 10
353.467682
 20
306.604736
 11
380.467682
 21
306.604736
  0
LINE
  5
52
100
AcDbEntity
  8
M0
  6
DASHDOT
100
AcDbLine
 10
366.967682
 20
293.104736
 11
366.967682
 21
320.104736
  0
LINE
  5
53
100
AcDbEntity
  8
M0
  6
DASHDOT
100
AcDbLine
 10
309.467682
 20
306.604736
 11
336.467682
 21
306.604736
  0
LINE
  5
54
100
AcDbEntity
  8
M0
  6
DASHDOT
100
AcDbLine
 10
322.967682
 20
293.104736
 11
322.967682
 21
320.104736
  0
LINE
  5
55
100
AcDbEntity
  8
M0
 62
     7
100
AcDbLine
 10
594.958893
 20
443.604736
 11
594.958893
 21
363.604736
  0
LINE
  5
56
100
AcDbEntity
  8
M0
 62
     7
100
AcDbLine
 10
600.958893
 20
449.604736
 11
706.958893
 21
449.604736
  0
LINE
  5
57
100
AcDbEntity
  8
M0
 62
     7
100
AcDbLine
 10
600.958893
 20
357.604736
 11
706.958893
 21
357.604736
  0
LINE
  5
58
100
AcDbEntity
  8
M0
 62
     7
100
AcDbLine
 10
712.958893
 20
443.604736
 11
712.958893
 21
363.604736
  0
ARC
  5
59
100
AcDbEntity
  8
M0
 62
     7
100
AcDbCircle
 10
600.958893
 20
363.604736
 40
6.0
100
AcDbArc
 50
180.0
 51
270.0
  0
ARC
  5
5A
100
AcDbEntity
  8
M0
 62
     7
100
AcDbCircle
 10
706.958893
 20
363.604736
 40
6.0
100
AcDbArc
 50
270.0
 51
360.0
  0
ARC
  5
5B
100
AcDbEntity
  8
M0
 62
     7
100
AcDbCircle
 10
706.958893
 20
443.604736
 40
6.0
100
AcDbArc
 50
0.0
 51
90.0
  0
ARC
  5
5C
100
AcDbEntity
  8
M0
 62
     7
100
AcDbCircle
 10
600.958893
 20
443.604736
 40
6.0
100
AcDbArc
 50
90.0
 51
180.0
  0
ARC
  5
5D
100
AcDbEntity
  8
M0
 62
     4
100
AcDbCircle
 10
355.217682
 20
1007.642362
 40
0.5
100
AcDbArc
 50
270.0
 51
360.0
  0
ARC
  5
5E
100
AcDbEntity
  8
M0
 62
     4
100
AcDbCircle
 10
355.217682
 20
1013.126981
 40
0.5
100
AcDbArc
 50
270.0
 51
360.0
  0
LINE
  5
5F
100
AcDbEntity
  8
M0
 62
     4
100
AcDbLine
 10
334.717682
 20
1012.626981
 11
355.217682
 21
1012.626981
  0
LINE
  5
60
100
AcDbEntity
  8
M0
 62
     4
100
AcDbLine
 10
355.717682
 20
1019.169383
 11
356.717773
 21
1019.169383
  0
ARC
  5
61
100
AcDbEntity
  8
M0
 62
     4
100
AcDbCircle
 10
334.717682
 20
1019.980008
 40
0.5
100
AcDbArc
 50
90.0
 51
180.0
  0
ARC
  5
62
100
AcDbEntity
  8
M0
 62
     4
100
AcDbCircle
 10
334.717682
 20
1013.126981
 40
0.5
100
AcDbArc
 50
180.0
 51
270.0
  0
ARC
  5
63
100
AcDbEntity
  8
M0
 62
     4
100
AcDbCircle
 10
355.217682
 20
1019.980008
 40
0.5
100
AcDbArc
 50
0.0
 51
90.0
  0
ARC
  5
64
100
AcDbEntity
  8
M0
 62
     4
100
AcDbCircle
 10
334.717682
 20
1007.642362
 40
0.5
100
AcDbArc
 50
180.0
 51
270.0
  0
LINE
  5
65
100
AcDbEntity
  8
M0
 62
     4
100
AcDbLine
 10
334.217682
 20
1019.169383
 11
333.21759
 21
1019.169383
  0
LINE
  5
66
100
AcDbEntity
  8
M0
 62
     4
100
AcDbLine
 10
356.717773
 20
976.250684
 11
333.21759
 21
976.250684
  0
LINE
  5
67
100
AcDbEntity
  8
M0
 62
     4
100
AcDbLine
 10
333.21759
 20
976.250684
 11
333.21759
 21
1019.169383
  0
LINE
  5
68
100
AcDbEntity
  8
M0
 62
     4
100
AcDbLine
 10
355.717682
 20
1019.980008
 11
355.717682
 21
1007.642362
  0
LINE
  5
69
100
AcDbEntity
  8
M0
 62
     4
100
AcDbLine
 10
356.717773
 20
976.250684
 11
356.717773
 21
1019.169383
  0
LINE
  5
6A
100
AcDbEntity
  8
M0
 62
     4
100
AcDbLine
 10
334.717682
 20
1007.142362
 11
355.217682
 21
1007.142362
  0
LINE
  5
6B
100
AcDbEntity
  8
M0
 62
     4
100
AcDbLine
 10
334.217682
 20
1017.27908
 11
333.21759
 21
1017.27908
  0
LINE
  5
6C
100
AcDbEntity
  8
M0
 62
     4
100
AcDbLine
 10
334.717682
 20
1020.480008
 11
355.217682
 21
1020.480008
  0
LINE
  5
6D
100
AcDbEntity
  8
M0
 62
     4
100
AcDbLine
 10
355.717682
 20
1017.27908
 11
356.717773
 21
1017.27908
  0
LINE
  5
6E
100
AcDbEntity
  8
M0
 62
     4
100
AcDbLine
 10
334.217682
 20
1019.980008
 11
334.217682
 21
1007.642362
  0
LINE
  5
6F
100
AcDbEntity
  8
M0
 62
     4
100
AcDbLine
 10
402.967682
 20
959.77908
 11
402.967682
 21
1039.77908
  0
LINE
  5
70
100
AcDbEntity
  8
M0
 62
     4
100
AcDbLine
 10
397.967682
 20
1044.77908
 11
291.967682
 21
1044.77908
  0
LINE
  5
71
100
AcDbEntity
  8
M0
 62
     4
100
AcDbLine
 10
286.967682
 20
1039.77908
 11
286.967682
 21
959.77908
  0
LINE
  5
72
100
AcDbEntity
  8
M0
 62
     4
100
AcDbLine
 10
291.967682
 20
954.77908
 11
397.967682
 21
954.77908
  0
ARC
  5
73
100
AcDbEntity
  8
M0
 62
     4
100
AcDbCircle
 10
397.967682
 20
1039.77908
 40
5.0
100
AcDbArc
 50
0.0
 51
90.0
  0
ARC
  5
74
100
AcDbEntity
  8
M0
 62
     4
100
AcDbCircle
 10
291.967682
 20
1039.77908
 40
5.0
100
AcDbArc
 50
90.0
 51
180.0
  0
ARC
  5
75
100
AcDbEntity
  8
M0
 62
     4
100
AcDbCircle
 10
291.967682
 20
959.77908
 40
5.0
100
AcDbArc
 50
180.0
 51
270.0
  0
ARC
  5
76
100
AcDbEntity
  8
M0
 62
     4
100
AcDbCircle
 10
397.967682
 20
959.77908
 40
5.0
100
AcDbArc
 50
270.0
 51
360.0
  0
LINE
  5
77
100
AcDbEntity
  8
M0
 62
     4
100
AcDbLine
 10
274.967682
 20
909.27908
 11
414.967682
 21
909.27908
  0
LINE
  5
78
100
AcDbEntity
  8
M0
 62
     4
100
AcDbLine
 10
274.967682
 20
1090.27908
 11
414.967682
 21
1090.27908
  0
LINE
  5
79
100
AcDbEntity
  8
M0
 62
     4
100
AcDbLine
 10
288.467534
 20
833.27903
 11
313.467534
 21
833.27903
  0
CIRCLE
  5
7A
100
AcDbEntity
  8
M0
 62
     4
100
AcDbCircle
 10
300.967534
 20
849.27903
 40
5.5
  0
LINE
  5
7B
100
AcDbEntity
  8
M0
 62
     4
100
AcDbLine
 10
313.467534
 20
833.27903
 11
313.467534
 21
871.27908
  0
LINE
  5
7C
100
AcDbEntity
  8
M0
 62
     4
100
AcDbLine
 10
288.467534
 20
871.27908
 11
288.467534
 21
833.27903
  0
LINE
  5
7D
100
AcDbEntity
  8
M0
 62
     4
100
AcDbLine
 10
332.467682
 20
833.27908
 11
357.467682
 21
833.27908
  0
CIRCLE
  5
7E
100
AcDbEntity
  8
M0
 62
     4
100
AcDbCircle
 10
344.967682
 20
849.27908
 40
5.5
  0
LINE
  5
7F
100
AcDbEntity
  8
M0
 62
     4
100
AcDbLine
 10
357.467682
 20
833.27908
 11
357.467682
 21
871.27908
  0
LINE
  5
80
100
AcDbEntity
  8
M0
 62
     4
100
AcDbLine
 10
332.467682
 20
871.27908
 11
332.467682
 21
833.27908
  0
LINE
  5
81
100
AcDbEntity
  8
M0
 62
     4
100
AcDbLine
 10
376.467534
 20
871.27908
 11
376.467534
 21
833.27903
  0
LINE
  5
82
100
AcDbEntity
  8
M0
 62
     4
100
AcDbLine
 10
376.467534
 20
833.27903
 11
401.467534
 21
833.27903
  0
CIRCLE
  5
83
100
AcDbEntity
  8
M0
 62
     4
100
AcDbCircle
 10
388.967534
 20
849.27903
 40
5.5
  0
LINE
  5
84
100
AcDbEntity
  8
M0
 62
     4
100
AcDbLine
 10
401.467534
 20
833.27903
 11
401.467534
 21
871.27908
  0
LINE
  5
85
100
AcDbEntity
  8
M0
 62
     4
100
AcDbLine
 10
357.467682
 20
871.27908
 11
332.467682
 21
871.27908
  0
LINE
  5
86
100
AcDbEntity
  8
M0
 62
     4
100
AcDbLine
 10
288.467534
 20
1166.27913
 11
313.467534
 21
1166.27913
  0
CIRCLE
  5
87
100
AcDbEntity
  8
M0
 62
     4
100
AcDbCircle
 10
300.967534
 20
1150.27913
 40
5.5
  0
LINE
  5
88
100
AcDbEntity
  8
M0
 62
     4
100
AcDbLine
 10
313.467534
 20
1166.27913
 11
313.467534
 21
1128.27908
  0
LINE
  5
89
100
AcDbEntity
  8
M0
 62
     4
100
AcDbLine
 10
288.467534
 20
1128.27908
 11
288.467534
 21
1166.27913
  0
LINE
  5
8A
100
AcDbEntity
  8
M0
 62
     4
100
AcDbLine
 10
332.467682
 20
1166.27908
 11
357.467682
 21
1166.27908
  0
CIRCLE
  5
8B
100
AcDbEntity
  8
M0
 62
     4
100
AcDbCircle
 10
344.967682
 20
1150.27908
 40
5.5
  0
LINE
  5
8C
100
AcDbEntity
  8
M0
 62
     4
100
AcDbLine
 10
357.467682
 20
1166.27908
 11
357.467682
 21
1128.27908
  0
LINE
  5
8D
100
AcDbEntity
  8
M0
 62
     4
100
AcDbLine
 10
332.467682
 20
1128.27908
 11
332.467682
 21
1166.27908
  0
LINE
  5
8E
100
AcDbEntity
  8
M0
 62
     4
100
AcDbLine
 10
376.467534
 20
1128.27908
 11
376.467534
 21
1166.27913
  0
LINE
  5
8F
100
AcDbEntity
  8
M0
 62
     4
100
AcDbLine
 10
376.467534
 20
1166.27913
 11
401.467534
 21
1166.27913
  0
CIRCLE
  5
90
100
AcDbEntity
  8
M0
 62
     4
100
AcDbCircle
 10
388.967534
 20
1150.27913
 40
5.5
  0
LINE
  5
91
100
AcDbEntity
  8
M0
 62
     4
100
AcDbLine
 10
401.467534
 20
1166.27913
 11
401.467534
 21
1128.27908
  0
LINE
  5
92
100
AcDbEntity
  8
M0
 62
     4
100
AcDbLine
 10
357.467682
 20
1128.27908
 11
332.467682
 21
1128.27908
  0
LINE
  5
93
100
AcDbEntity
  8
M0
 62
     4
100
AcDbLine
 10
414.967682
 20
871.27908
 11
414.967682
 21
1128.27908
  0
LINE
  5
94
100
AcDbEntity
  8
M0
 62
     4
100
AcDbLine
 10
414.967682
 20
1128.27908
 11
401.467534
 21
1128.27908
  0
LINE
  5
95
100
AcDbEntity
  8
M0
 62
     4
100
AcDbLine
 10
274.967682
 20
1128.27908
 11
274.967682
 21
871.27908
  0
LINE
  5
96
100
AcDbEntity
  8
M0
  6
DASHDOT
 62
     4
100
AcDbLine
 10
249.967682
 20
999.77908
 11
439.967682
 21
999.77908
  0
LINE
  5
97
100
AcDbEntity
  8
M0
  6
DASHDOT
 62
     4
100
AcDbLine
 10
344.967682
 20
818.474927
 11
344.967682
 21
1183.053161
  0
LINE
  5
98
100
AcDbEntity
  8
M0
 62
     4
100
AcDbLine
 10
274.967682
 20
871.27908
 11
288.467534
 21
871.27908
  0
LINE
  5
99
100
AcDbEntity
  8
M0
 62
     4
100
AcDbLine
 10
288.467534
 20
1128.27908
 11
274.967682
 21
1128.27908
  0
LINE
  5
9A
100
AcDbEntity
  8
M0
 62
     4
100
AcDbLine
 10
376.467534
 20
1128.27908
 11
313.467534
 21
1128.27908
  0
LINE
  5
9B
100
AcDbEntity
  8
M0
 62
     4
100
AcDbLine
 10
401.467534
 20
871.27908
 11
414.967682
 21
871.27908
  0
LINE
  5
9C
100
AcDbEntity
  8
M0
 62
     4
100
AcDbLine
 10
313.467534
 20
871.27908
 11
376.467534
 21
871.27908
  0
LINE
  5
9D
100
AcDbEntity
  8
M0
 62
     4
100
AcDbLine
 10
286.467682
 20
1128.278836
 11
286.467438
 21
1112.278836
  0
LINE
  5
9E
100
AcDbEntity
  8
M0
 62
     4
100
AcDbLine
 10
315.467438
 20
1112.278836
 11
315.467682
 21
1128.278836
  0
LINE
  5
9F
100
AcDbEntity
  8
M0
 62
     4
100
AcDbLine
 10
330.467682
 20
1128.278836
 11
330.467438
 21
1112.278836
  0
LINE
  5
A0
100
AcDbEntity
  8
M0
 62
     4
100
AcDbLine
 10
359.467438
 20
1112.278836
 11
359.467682
 21
1128.278836
  0
LINE
  5
A1
100
AcDbEntity
  8
M0
 62
     4
100
AcDbLine
 10
374.467682
 20
1128.278836
 11
374.467438
 21
1112.278836
  0
LINE
  5
A2
100
AcDbEntity
  8
M0
 62
     4
100
AcDbLine
 10
403.467438
 20
1112.278836
 11
403.467682
 21
1128.278836
  0
ARC
  5
A3
100
AcDbEntity
  8
M0
 62
     4
100
AcDbCircle
 10
388.967682
 20
1112.27908
 40
14.5
100
AcDbArc
 50
-180.0
 51
0.0
  0
ARC
  5
A4
100
AcDbEntity
  8
M0
 62
     4
100
AcDbCircle
 10
344.967682
 20
1112.27908
 40
14.5
100
AcDbArc
 50
-180.0
 51
0.0
  0
ARC
  5
A5
100
AcDbEntity
  8
M0
 62
     4
100
AcDbCircle
 10
300.967682
 20
1112.27908
 40
14.5
100
AcDbArc
 50
-180.0
 51
0.0
  0
LINE
  5
A6
100
AcDbEntity
  8
M0
 62
     4
100
AcDbLine
 10
286.467682
 20
871.279324
 11
286.467438
 21
887.279324
  0
LINE
  5
A7
100
AcDbEntity
  8
M0
 62
     4
100
AcDbLine
 10
315.467438
 20
887.279324
 11
315.467682
 21
871.279324
  0
LINE
  5
A8
100
AcDbEntity
  8
M0
 62
     4
100
AcDbLine
 10
330.467682
 20
871.279324
 11
330.467438
 21
887.279324
  0
LINE
  5
A9
100
AcDbEntity
  8
M0
 62
     4
100
AcDbLine
 10
359.467438
 20
887.279324
 11
359.467682
 21
871.279324
  0
LINE
  5
AA
100
AcDbEntity
  8
M0
 62
     4
100
AcDbLine
 10
374.467682
 20
871.279324
 11
374.467438
 21
887.279324
  0
LINE
  5
AB
100
AcDbEntity
  8
M0
 62
     4
100
AcDbLine
 10
403.467438
 20
887.279324
 11
403.467682
 21
871.279324
  0
ARC
  5
AC
100
AcDbEntity
  8
M0
 62
     4
100
AcDbCircle
 10
388.967682
 20
887.27908
 40
14.5
100
AcDbArc
 50
0.0
 51
180.0
  0
ARC
  5
AD
100
AcDbEntity
  8
M0
 62
     4
100
AcDbCircle
 10
344.967682
 20
887.27908
 40
14.5
100
AcDbArc
 50
0.0
 51
180.0
  0
ARC
  5
AE
100
AcDbEntity
  8
M0
 62
     4
100
AcDbCircle
 10
300.967682
 20
887.27908
 40
14.5
100
AcDbArc
 50
0.0
 51
180.0
  0
CIRCLE
  5
AF
100
AcDbEntity
  8
M0
100
AcDbCircle
 10
322.967682
 20
1096.77908
 40
3.5
  0
LINE
  5
B0
100
AcDbEntity
  8
M0
  6
DASHDOT
100
AcDbLine
 10
322.967682
 20
1083.279081
 11
322.967682
 21
1110.27908
  0
LINE
  5
B1
100
AcDbEntity
  8
M0
  6
DASHDOT
100
AcDbLine
 10
309.467682
 20
1096.77908
 11
336.467682
 21
1096.77908
  0
LINE
  5
B2
100
AcDbEntity
  8
M0
  6
DASHDOT
100
AcDbLine
 10
366.967682
 20
1083.279081
 11
366.967682
 21
1110.27908
  0
CIRCLE
  5
B3
100
AcDbEntity
  8
M0
100
AcDbCircle
 10
366.967682
 20
1096.77908
 40
3.5
  0
LINE
  5
B4
100
AcDbEntity
  8
M0
  6
DASHDOT
100
AcDbLine
 10
380.467682
 20
1096.77908
 11
353.467682
 21
1096.77908
  0
CIRCLE
  5
B5
100
AcDbEntity
  8
M0
100
AcDbCircle
 10
322.967682
 20
902.77908
 40
3.5
  0
LINE
  5
B6
100
AcDbEntity
  8
M0
  6
DASHDOT
100
AcDbLine
 10
322.967682
 20
916.27908
 11
322.967682
 21
889.279081
  0
LINE
  5
B7
100
AcDbEntity
  8
M0
  6
DASHDOT
100
AcDbLine
 10
309.467682
 20
902.77908
 11
336.467682
 21
902.77908
  0
LINE
  5
B8
100
AcDbEntity
  8
M0
  6
DASHDOT
100
AcDbLine
 10
366.967682
 20
916.27908
 11
366.967682
 21
889.279081
  0
CIRCLE
  5
B9
100
AcDbEntity
  8
M0
100
AcDbCircle
 10
366.967682
 20
902.77908
 40
3.5
  0
LINE
  5
BA
100
AcDbEntity
  8
M0
  6
DASHDOT
100
AcDbLine
 10
380.467682
 20
902.77908
 11
353.467682
 21
902.77908
  0
LINE
  5
BB
100
AcDbEntity
  8
M0
  6
DASHDOT
 62
     2
100
AcDbLine
 10
388.967534
 20
1134.77913
 11
388.967534
 21
1165.77913
  0
LINE
  5
BC
100
AcDbEntity
  8
M0
  6
DASHDOT
 62
     2
100
AcDbLine
 10
373.467535
 20
1150.27913
 11
404.467534
 21
1150.27913
  0
LINE
  5
BD
100
AcDbEntity
  8
M0
  6
DASHDOT
 62
     2
100
AcDbLine
 10
329.467682
 20
1150.27908
 11
360.467682
 21
1150.27908
  0
LINE
  5
BE
100
AcDbEntity
  8
M0
  6
DASHDOT
 62
     2
100
AcDbLine
 10
344.967682
 20
1134.779081
 11
344.967682
 21
1165.77908
  0
LINE
  5
BF
100
AcDbEntity
  8
M0
  6
DASHDOT
 62
     2
100
AcDbLine
 10
285.467535
 20
1150.27913
 11
316.467534
 21
1150.27913
  0
LINE
  5
C0
100
AcDbEntity
  8
M0
  6
DASHDOT
 62
     2
100
AcDbLine
 10
300.967534
 20
1134.77913
 11
300.967534
 21
1165.77913
  0
LINE
  5
C1
100
AcDbEntity
  8
M0
  6
DASHDOT
 62
     2
100
AcDbLine
 10
300.967534
 20
833.779031
 11
300.967534
 21
864.77903
  0
LINE
  5
C2
100
AcDbEntity
  8
M0
  6
DASHDOT
 62
     2
100
AcDbLine
 10
285.467535
 20
849.27903
 11
316.467534
 21
849.27903
  0
LINE
  5
C3
100
AcDbEntity
  8
M0
  6
DASHDOT
 62
     2
100
AcDbLine
 10
344.967682
 20
833.779081
 11
344.967682
 21
864.77908
  0
LINE
  5
C4
100
AcDbEntity
  8
M0
  6
DASHDOT
 62
     2
100
AcDbLine
 10
329.467682
 20
849.27908
 11
360.467682
 21
849.27908
  0
LINE
  5
C5
100
AcDbEntity
  8
M0
  6
DASHDOT
 62
     2
100
AcDbLine
 10
373.467535
 20
849.27903
 11
404.467534
 21
849.27903
  0
LINE
  5
C6
100
AcDbEntity
  8
M0
  6
DASHDOT
 62
     2
100
AcDbLine
 10
388.967534
 20
833.779031
 11
388.967534
 21
864.77903
  0
LINE
  5
C7
100
AcDbEntity
  8
M0
  6
DASHED
 62
     2
100
AcDbLine
 10
655.458893
 20
1159.650635
 11
655.458893
 21
1141.650635
  0
LINE
  5
C8
100
AcDbEntity
  8
M0
  6
DASHDOT
 62
     2
100
AcDbLine
 10
644.368263
 20
1150.650635
 11
663.458893
 21
1150.650635
  0
LINE
  5
C9
100
AcDbEntity
  8
M0
  6
DASHED
 62
     2
100
AcDbLine
 10
681.458893
 20
1159.650635
 11
681.458893
 21
1141.650635
  0
LINE
  5
CA
100
AcDbEntity
  8
M0
  6
DASHDOT
 62
     2
100
AcDbLine
 10
671.134766
 20
1150.650635
 11
689.458893
 21
1150.650635
  0
LINE
  5
CB
100
AcDbEntity
  8
M0
  6
DASHED
 62
     2
100
AcDbLine
 10
655.458893
 20
840.650635
 11
655.458893
 21
858.650635
  0
LINE
  5
CC
100
AcDbEntity
  8
M0
  6
DASHDOT
 62
     2
100
AcDbLine
 10
644.368263
 20
849.650635
 11
663.458893
 21
849.650635
  0
LINE
  5
CD
100
AcDbEntity
  8
M0
  6
DASHED
 62
     2
100
AcDbLine
 10
681.458893
 20
840.650635
 11
681.458893
 21
858.650635
  0
LINE
  5
CE
100
AcDbEntity
  8
M0
  6
DASHDOT
 62
     2
100
AcDbLine
 10
671.134766
 20
849.650635
 11
689.458893
 21
849.650635
  0
LINE
  5
CF
100
AcDbEntity
  8
M0
  6
DASHED
100
AcDbLine
 10
693.458893
 20
1103.400146
 11
693.458893
 21
1090.900146
  0
LINE
  5
D0
100
AcDbEntity
  8
M0
  6
DASHDOT
100
AcDbLine
 10
678.84259
 20
1097.150146
 11
723.458893
 21
1097.150146
  0
LINE
  5
D1
100
AcDbEntity
  8
M0
  6
DASHED
100
AcDbLine
 10
693.458893
 20
896.901123
 11
693.458893
 21
909.401123
  0
LINE
  5
D2
100
AcDbEntity
  8
M0
  6
DASHDOT
100
AcDbLine
 10
678.84259
 20
903.151123
 11
723.458893
 21
903.151123
  0
LINE
  5
D3
100
AcDbEntity
  8
M0
  6
DASHDOT
 62
     4
100
AcDbLine
 10
344.967682
 20
256.42374
 11
344.967682
 21
552.104492
  0
LINE
  5
D4
100
AcDbEntity
  8
M0
  6
DASHDOT
 62
     4
100
AcDbLine
 10
256.374306
 20
403.604736
 11
426.805038
 21
403.604736
  0
LINE
  5
D5
100
AcDbEntity
  8
M0
  6
DASHDOT
 62
     4
100
AcDbLine
 10
274.967926
 20
532.104492
 11
414.967682
 21
532.104492
  0
LINE
  5
D6
100
AcDbEntity
  8
M0
  6
DASHDOT
 62
     4
100
AcDbLine
 10
274.967682
 20
532.104492
 11
274.967682
 21
275.104736
  0
LINE
  5
D7
100
AcDbEntity
  8
M0
  6
DASHDOT
 62
     4
100
AcDbLine
 10
414.967682
 20
275.104736
 11
414.967682
 21
532.104492
  0
LINE
  5
D8
100
AcDbEntity
  8
M0
  6
DASHDOT
 62
     4
100
AcDbLine
 10
274.967682
 20
275.104736
 11
414.967682
 21
275.104736
  0
LINE
  5
D9
100
AcDbEntity
  8
M0
  6
DASHDOT
 62
     4
100
AcDbLine
 10
653.958893
 20
259.92374
 11
653.958893
 21
552.104492
  0
LINE
  5
DA
100
AcDbEntity
  8
M0
  6
DASHDOT
 62
     4
100
AcDbLine
 10
564.865517
 20
403.604736
 11
735.296249
 21
403.604736
  0
LINE
  5
DB
100
AcDbEntity
  8
M0
  6
DASHDOT
 62
     4
100
AcDbLine
 10
723.458893
 20
275.104736
 11
723.458893
 21
532.104492
  0
LINE
  5
DC
100
AcDbEntity
  8
M0
  6
DASHDOT
 62
     4
100
AcDbLine
 10
583.459137
 20
532.104492
 11
723.458893
 21
532.104492
  0
LINE
  5
DD
100
AcDbEntity
  8
M0
  6
DASHDOT
 62
     4
100
AcDbLine
 10
583.458893
 20
532.104492
 11
583.458893
 21
275.104736
  0
LINE
  5
DE
100
AcDbEntity
  8
M0
  6
DASHDOT
 62
     4
100
AcDbLine
 10
583.458893
 20
275.104736
 11
723.458893
 21
275.104736
  0
LINE
  5
DF
100
AcDbEntity
  8
M0
 62
     4
100
AcDbLine
 10
663.458893
 20
1166.650635
 11
663.458893
 21
1140.150635
  0
LINE
  5
E0
100
AcDbEntity
  8
M0
 62
     4
100
AcDbLine
 10
666.958893
 20
1136.650635
 11
677.958893
 21
1136.650635
  0
LINE
  5
E1
100
AcDbEntity
  8
M0
 62
     4
100
AcDbLine
 10
689.458893
 20
1166.650635
 11
689.458893
 21
1128.650635
  0
LINE
  5
E2
100
AcDbEntity
  8
M0
 62
     4
100
AcDbLine
 10
655.458893
 20
833.650635
 11
663.458893
 21
833.650635
  0
LINE
  5
E3
100
AcDbEntity
  8
M0
 62
     4
100
AcDbLine
 10
681.458893
 20
833.650635
 11
681.458893
 21
864.196198
  0
LINE
  5
E4
100
AcDbEntity
  8
M0
 62
     4
100
AcDbLine
 10
655.458893
 20
1166.650635
 11
655.458893
 21
1140.150391
  0
LINE
  5
E5
100
AcDbEntity
  8
M0
  6
DASHDOT
 62
     4
100
AcDbLine
 10
568.133545
 20
1000.150635
 11
738.211578
 21
1000.150635
  0
LINE
  5
E6
100
AcDbEntity
  8
M0
 62
     4
100
AcDbLine
 10
626.458893
 20
955.150635
 11
626.458893
 21
1128.650391
  0
LINE
  5
E7
100
AcDbEntity
  8
M0
 62
     4
100
AcDbLine
 10
723.458649
 20
871.650635
 11
723.458649
 21
917.150635
  0
LINE
  5
E8
100
AcDbEntity
  8
M0
 62
     4
100
AcDbLine
 10
681.458893
 20
1166.650635
 11
681.458893
 21
1136.105072
  0
LINE
  5
E9
100
AcDbEntity
  8
M0
 62
     4
100
AcDbLine
 10
681.458893
 20
1166.650635
 11
689.458893
 21
1166.650635
  0
LINE
  5
EA
100
AcDbEntity
  8
M0
 62
     4
100
AcDbLine
 10
719.458649
 20
871.650635
 11
723.458649
 21
871.650635
  0
ARC
  5
EB
100
AcDbEntity
  8
M0
 62
     4
100
AcDbCircle
 10
666.958893
 20
1140.150391
 40
11.499977
100
AcDbArc
 50
180.0
 51
269.999924
  0
ARC
  5
EC
100
AcDbEntity
  8
M0
 62
     4
100
AcDbCircle
 10
666.958893
 20
860.150635
 40
3.5
100
AcDbArc
 50
90.0
 51
179.99975
  0
LINE
  5
ED
100
AcDbEntity
  8
M0
 62
     4
100
AcDbLine
 10
616.458893
 20
1045.150635
 11
616.458893
 21
955.150635
  0
ARC
  5
EE
100
AcDbEntity
  8
M0
 62
     4
100
AcDbCircle
 10
677.958893
 20
1125.150635
 40
11.5
100
AcDbArc
 50
17.718953
 51
90.0
  0
ARC
  5
EF
100
AcDbEntity
  8
M0
 62
     4
100
AcDbCircle
 10
677.958893
 20
875.150635
 40
11.5
100
AcDbArc
 50
269.999924
 51
342.281047
  0
ARC
  5
F0
100
AcDbEntity
  8
M0
 62
     4
100
AcDbCircle
 10
666.958893
 20
1140.150635
 40
3.5
100
AcDbArc
 50
180.0
 51
269.99975
  0
LINE
  5
F1
100
AcDbEntity
  8
M0
 62
     4
100
AcDbLine
 10
655.458893
 20
833.650635
 11
655.458893
 21
860.150879
  0
LINE
  5
F2
100
AcDbEntity
  8
M0
 62
     4
100
AcDbLine
 10
663.458893
 20
833.650635
 11
663.458893
 21
860.150635
  0
LINE
  5
F3
100
AcDbEntity
  8
M0
 62
     4
100
AcDbLine
 10
655.458893
 20
1166.650635
 11
663.458893
 21
1166.650635
  0
LINE
  5
F4
100
AcDbEntity
  8
M0
 62
     4
100
AcDbLine
 10
681.458893
 20
833.650635
 11
689.458893
 21
833.650635
  0
ARC
  5
F5
100
AcDbEntity
  8
M0
 62
     4
100
AcDbCircle
 10
666.958893
 20
860.150879
 40
11.499977
100
AcDbArc
 50
90.0
 51
179.999924
  0
LINE
  5
F6
100
AcDbEntity
  8
M0
 62
     4
100
AcDbLine
 10
689.458893
 20
833.650635
 11
689.458893
 21
871.650635
  0
LINE
  5
F7
100
AcDbEntity
  8
M0
 62
     4
100
AcDbLine
 10
666.958893
 20
863.650635
 11
681.458893
 21
863.650635
  0
LINE
  5
F8
100
AcDbEntity
  8
M0
 62
     4
100
AcDbLine
 10
723.458893
 20
871.650635
 11
723.458893
 21
1128.650635
  0
LINE
  5
F9
100
AcDbEntity
  8
M0
 62
     4
100
AcDbLine
 10
723.458893
 20
1128.650635
 11
626.458893
 21
1128.650635
  0
ARC
  5
FA
100
AcDbEntity
  8
M0
 62
     4
100
AcDbCircle
 10
678.458405
 20
1000.150656
 40
87.999481
100
AcDbArc
 50
163.894398
 51
180.241931
  0
LINE
  5
FB
100
AcDbEntity
  8
M0
 62
     4
100
AcDbLine
 10
620.458893
 20
1090.650635
 11
620.458893
 21
909.650635
  0
LINE
  5
FC
100
AcDbEntity
  8
M0
 62
     4
100
AcDbLine
 10
626.458893
 20
871.650635
 11
626.458893
 21
909.650635
  0
LINE
  5
FD
100
AcDbEntity
  8
M0
 62
     4
100
AcDbLine
 10
626.458893
 20
871.650635
 11
664.458893
 21
871.650635
  0
LINE
  5
FE
100
AcDbEntity
  8
M0
 62
     4
100
AcDbLine
 10
592.045041
 20
1016.783685
 11
613.84194
 21
1010.342168
  0
LINE
  5
FF
100
AcDbEntity
  8
M0
 62
     4
100
AcDbLine
 10
593.912743
 20
1024.562649
 11
614.29726
 21
1020.770709
  0
LINE
  5
100
100
AcDbEntity
  8
M0
 62
     4
100
AcDbLine
 10
593.893146
 20
1024.56717
 11
592.025444
 21
1016.788207
  0
LINE
  5
101
100
AcDbEntity
  8
M0
 62
     4
100
AcDbLine
 10
621.265045
 20
985.002441
 11
621.265289
 21
985.002686
  0
LINE
  5
102
100
AcDbEntity
  8
M0
 62
     4
100
AcDbLine
 10
613.458893
 20
1045.150635
 11
613.458893
 21
955.150635
  0
LINE
  5
103
100
AcDbEntity
  8
M0
 62
     4
100
AcDbLine
 10
619.44986
 20
995.851807
 11
619.44986
 21
995.851563
  0
LINE
  5
104
100
AcDbEntity
  8
M0
 62
     4
100
AcDbLine
 10
618.958893
 20
955.150635
 11
620.458893
 21
955.150635
  0
LINE
  5
105
100
AcDbEntity
  8
M0
 62
     4
100
AcDbLine
 10
620.458893
 20
1090.900635
 11
626.458893
 21
1090.900635
  0
LINE
  5
106
100
AcDbEntity
  8
M0
 62
     4
100
AcDbLine
 10
689.458649
 20
871.650391
 11
681.458649
 21
871.650391
  0
LINE
  5
107
100
AcDbEntity
  8
M0
 62
     4
100
AcDbLine
 10
723.458649
 20
1128.650635
 11
723.458649
 21
1083.150635
  0
LINE
  5
108
100
AcDbEntity
  8
M0
 62
     4
100
AcDbLine
 10
719.458649
 20
1128.650635
 11
723.458649
 21
1128.650635
  0
LINE
  5
109
100
AcDbEntity
  8
M0
 62
     4
100
AcDbLine
 10
618.958893
 20
1045.150635
 11
620.458893
 21
1045.150635
  0
LINE
  5
10A
100
AcDbEntity
  8
M0
 62
     4
100
AcDbLine
 10
613.458893
 20
1045.150635
 11
620.458893
 21
1045.150635
  0
LINE
  5
10B
100
AcDbEntity
  8
M0
 62
     4
100
AcDbLine
 10
613.458893
 20
955.150635
 11
626.458893
 21
955.150635
  0
LINE
  5
10C
100
AcDbEntity
  8
M0
 62
     4
100
AcDbLine
 10
619.449615
 20
995.851563
 11
619.44986
 21
995.851807
  0
LINE
  5
10D
100
AcDbEntity
  8
M0
 62
     4
100
AcDbLine
 10
663.458649
 20
871.650635
 11
723.458893
 21
871.650635
  0
LINE
  5
10E
100
AcDbEntity
  8
M0
 62
     4
100
AcDbLine
 10
590.458893
 20
1000.150635
 11
590.458893
 21
1004.908447
  0
LINE
  5
10F
100
AcDbEntity
  8
M0
 62
     4
100
AcDbLine
 10
620.458893
 20
1090.650635
 11
626.458893
 21
1090.650635
  0
LINE
  5
110
100
AcDbEntity
  8
M0
 62
     4
100
AcDbLine
 10
620.458893
 20
909.650635
 11
626.458893
 21
909.650635
  0
INSERT
  5
134
100
AcDbEntity
  8
DT0
100
AcDbBlockReference
  2
LIST0
 10
0.0
 20
0.0
  0
ENDSEC
  0
SECTION
  2
OBJECTS
  0
DICTIONARY
  5
C
100
AcDbDictionary
  3
ACAD_GROUP
350
D
  3
ACAD_MLINESTYLE
350
E
  0
DICTIONARY
  5
D
102
{ACAD_REACTORS
330
C
102
}
100
AcDbDictionary
  0
DICTIONARY
  5
E
102
{ACAD_REACTORS
330
C
102
}
100
AcDbDictionary
  3
STANDARD
350
13
  0
MLINESTYLE
  5
13
102
{ACAD_REACTORS
330
E
102
}
100
AcDbMlineStyle
  2
STANDARD
 70
     0
  3

 62
     0
 51
90.0
 52
90.0
 71
     2
 49
0.5
 62
   256
  6
BYLAYER
 49
-0.5
 62
   256
  6
BYLAYER
  0
ENDSEC
  0
EOF
