  0
SECTION
  2
HEADER
  9
$ACADVER
  1
AC1014
  9
$INSBASE
 10
0.000000
 20
0.000000
 30
0.0
  9
$VIEWCTR
 10
7.531722
 20
4.5
  9
$VIEWSIZE
 40
9.0
  9
$SNAPMODE
 70
     0
  9
$SNAPUNIT
 10
1.0
 20
1.0
  9
$SNAPBASE
 10
0.0
 20
0.0
  9
$SNAPANG
 50
0.0
  9
$SNAPSTYLE
 70
     0
  9
$SNAPISOPAIR
 70
     0
  9
$GRIDMODE
 70
     0
  9
$GRIDUNIT
 10
0.0
 20
0.0
  9
$ORTHOMODE
 70
     0
  9
$REGENMODE
 70
     1
  9
$FILLMODE
 70
     1
  9
$QTEXTMODE
 70
     0
  9
$DRAGMODE
 70
     2
  9
$LTSCALE
  40
     1.000000
  9
$OSMODE
 70
     0
  9
$ATTMODE
 70
     1
  9
$TEXTSIZE
 40
0.2
  9
$TRACEWID
 40
0.05
  9
$TEXTSTYLE
  7
STANDARD
  9
$CELTYPE
  6
BYLAYER
  9
$CECOLOR
 62
   256
  9
$DIMSCALE
 40
1.0
  9
$DIMASZ
 40
0.18
  9
$DIMEXO
 40
0.0625
  9
$DIMDLI
 40
0.38
  9
$DIMRND
 40
0.0
  9
$DIMDLE
 40
0.0
  9
$DIMEXE
 40
0.18
  9
$DIMTP
 40
0.0
  9
$DIMTM
 40
0.0
  9
$DIMTXT
 40
0.18
  9
$DIMCEN
 40
0.09
  9
$DIMTSZ
 40
0.0
  9
$DIMTOL
 70
     0
  9
$DIMLIM
 70
     0
  9
$DIMTIH
 70
     1
  9
$DIMTOH
 70
     1
  9
$DIMSE1
 70
     0
  9
$DIMSE2
 70
     0
  9
$DIMTAD
 70
     0
  9
$DIMZIN
 70
     0
  9
$DIMBLK
  1

  9
$LUNITS
 70
     2
  9
$LUPREC
 70
     4
  9
$AXISMODE
 70
     0
  9
$AXISUNIT
 10
0.0
 20
0.0
  9
$SKETCHINC
 40
0.1
  9
$FILLETRAD
 40
0.0
  9
$AUNITS
 70
     0
  9
$AUPREC
 70
     0
  9
$MENU
  1
ACAD
  9
$ELEVATION
 40
0.0
  9
$THICKNESS
 40
0.0
  9
$VIEWDIR
 10
0.0
 20
0.0
 30
1.0
  9
$LIMCHECK
 70
     0
  9
$BLIPMODE
 70
     1
  9
$CHAMFERA
 40
0.0
  9
$CHAMFERB
 40
0.0
  9
$FASTZOOM
 70
     1
  9
$SKPOLY
 70
     0
  9
$TDCREATE
 40
0000000.0000000000
  9
$TDUPDATE
 40
0000000.0000000000
  9
$TDINDWG
 40
0.0000000000
  9
$TDUSRTIMER
 40
0.0000000000
  9
$USRTIMER
 70
     1
  9
$ANGBASE
 50
0.0
  9
$ANGDIR
 70
     0
  9
$PDMODE
 70
     0
  9
$PDSIZE
 40
0.0
  9
$PLINEWID
 40
0.0
  9
$COORDS
 70
     0
  9
$USERI1
 70
     0
  9
$USERI2
 70
     0
  9
$USERI3
 70
     0
  9
$USERI4
 70
     0
  9
$USERI5
 70
     0
  9
$USERR1
 40
0.0
  9
$USERR2
 40
0.0
  9
$USERR3
 40
0.0
  9
$USERR4
 40
0.0
  9
$USERR5
 40
0.0
  9
$CLAYER
  8
M0
  9
$EXTMIN
 10
172.802631
 20
73.430562
  9
$EXTMAX
 10
405.374565
 20
579.195344
  9
$LIMMIN
 10
0.0
 20
0.0
  9
$LIMMAX
 10
210.0
 20
297.0
  9
$HANDSEED
  5
177
  0
ENDSEC
  0
SECTION
  2
CLASSES
  0
ENDSEC
  0
SECTION
  2
TABLES
  0
TABLE
  2
VPORT
  5
8
100
AcDbSymbolTable
 70
     2
  0
VPORT
  5
14
100
AcDbSymbolTableRecord
100
AcDbViewportTableRecord
  2
*ACTIVE
 70
     0
 10
0.0
 20
0.0
 11
1.0
 21
1.0
 12
484.0
 22
297.0
 13
0.0
 23
0.0
 14
1.0
 24
1.0
 15
0.0
 25
0.0
 16
0.0
 26
0.0
 36
1.0
 17
0.0
 27
0.0
 37
0.0
 40
594.0
 41
2.0
 42
50.0
 43
0.0
 44
0.0
 50
0.0
 51
0.0
 71
     0
 72
   100
 73
     1
 74
     1
 75
     0
 76
     0
 77
     0
 78
     0
  0
ENDTAB
  0
TABLE
  2
LTYPE
  5
5
100
AcDbSymbolTable
 70
     5
  0
LTYPE
  5
15
100
AcDbSymbolTableRecord
100
AcDbLinetypeTableRecord
  2
BYBLOCK
 70
     0
  3

 72
    65
 73
     0
 40
0.0
  0
LTYPE
  5
16
100
AcDbSymbolTableRecord
100
AcDbLinetypeTableRecord
  2
BYLAYER
 70
     0
  3

 72
    65
 73
     0
 40
0.0
  0
LTYPE
  5
17
100
AcDbSymbolTableRecord
100
AcDbLinetypeTableRecord
  2
CONTINUOUS
 70
    64
  3
Solid line
 72
    65
 73
     0
 40
0.0
  0
LTYPE
  5
18
100
AcDbSymbolTableRecord
100
AcDbLinetypeTableRecord
  2
DASHED
 70
    64
  3
__ __ __ __ __ __ __ __ __ __ __ __ __ __ __ __
 72
    65
 73
     2
 40
0.75
 49
0.5
 74
     0
 49
-0.25
 74
     0
  0
LTYPE
  5
19
100
AcDbSymbolTableRecord
100
AcDbLinetypeTableRecord
  2
DASHDOT
 70
    64
  3
__ . __ . __ . __ . __ . __ . __ . __ . __ . __
 72
    65
 73
     4
 40
1.0
 49
0.5
 74
     0
 49
-0.25
 74
     0
 49
0.0
 74
     0
 49
-0.25
 74
     0
  0
LTYPE
  5
1A
100
AcDbSymbolTableRecord
100
AcDbLinetypeTableRecord
  2
DIVIDE
 70
    64
  3
____ . . ____ . . ____ . . ____ . . ____ . . __
 72
    65
 73
     6
 40
1.25
 49
0.5
 74
     0
 49
-0.25
 74
     0
 49
0.0
 74
     0
 49
-0.25
 74
     0
 49
0.0
 74
     0
 49
-0.25
 74
     0
  0
LTYPE
  5
1B
100
AcDbSymbolTableRecord
100
AcDbLinetypeTableRecord
  2
DOT
 70
    64
  3
. . . . . . . . . . . . . . . . . . . . . . . .
 72
    65
 73
     2
 40
0.25
 49
0.0
 74
     0
 49
-0.25
 74
     0
  0
ENDTAB
  0
TABLE
  2
LAYER
  5
2
100
AcDbSymbolTable
 70
   102
  0
LAYER
  5
F
100
AcDbSymbolTableRecord
100
AcDbLayerTableRecord
  2
0
 70
     0
 62
     7
  6
CONTINUOUS
  0
LAYER
  5
1C
100
AcDbSymbolTableRecord
100
AcDbLayerTableRecord
  2
DEFPOINTS
 70
     0
 62
     7
  6
CONTINUOUS
  0
LAYER
  5
1D
100
AcDbSymbolTableRecord
100
AcDbLayerTableRecord
  2
M0
 70
     0
 62
     3
  6
CONTINUOUS
  0
LAYER
  5
1E
100
AcDbSymbolTableRecord
100
AcDbLayerTableRecord
  2
DT0
 70
     0
 62
     7
  6
CONTINUOUS
  0
ENDTAB
  0
TABLE
  2
STYLE
  5
3
100
AcDbSymbolTable
 70
     2
  0
STYLE
  5
10
100
AcDbSymbolTableRecord
100
AcDbTextStyleTableRecord
  2
STANDARD
 70
     0
 40
0.0
 41
1.0
 50
0.0
 71
     0
 42
0.2
  3
txt
  4
BIGFONT
  0
ENDTAB
  0
TABLE
  2
VIEW
  5
6
100
AcDbSymbolTable
 70
     0
  0
ENDTAB
  0
TABLE
  2
UCS
  5
7
100
AcDbSymbolTable
 70
     0
  0
ENDTAB
  0
TABLE
  2
APPID
  5
9
100
AcDbSymbolTable
 70
     1
  0
APPID
  5
11
100
AcDbSymbolTableRecord
100
AcDbRegAppTableRecord
  2
ACAD
 70
     0
  0
ENDTAB
  0
TABLE
  2
DIMSTYLE
  5
A
100
AcDbSymbolTable
 70
     2
  0
DIMSTYLE
105
25
100
AcDbSymbolTableRecord
100
AcDbDimStyleTableRecord
  2
STANDARD
 70
     0
  3

  4

  5

  6
_OPEN
  7
_OPEN
 40
1.0
 41
7.5
 42
1.0
 43
8.0
 44
1.0
 45
0.0
 46
0.0
 47
0.0
 48
0.0
140
6.25
141
0.09
142
0.0
143
0.03937
144
1.0
145
0.0
146
1.0
147
0.6
 71
     0
 72
     0
 73
     1
 74
     1
 75
     0
 76
     0
 77
     3
 78
     8
170
     0
171
     2
172
     0
173
     1
174
     0
175
     0
176
     0
177
     0
178
     0
270
     2
271
     2
272
     4
273
     2
274
     2
340
10
275
     0
280
     0
281
     0
282
     0
283
     1
284
     0
285
     0
286
     0
287
     3
288
     0
  0
DIMSTYLE
105
26
100
AcDbSymbolTableRecord
100
AcDbDimStyleTableRecord
  2
LEADSTYL
 70
     0
  3

  4

  5

  6
_OPEN
  7
_OPEN
 40
1.0
 41
7.5
 42
0.0625
 43
0.38
 44
0.18
 45
0.0
 46
0.0
 47
0.0
 48
0.0
140
7.875
141
0.09
142
0.0
143
25.4
144
1.0
145
0.0
146
1.0
147
0.6
 71
     0
 72
     0
 73
     1
 74
     1
 75
     0
 76
     0
 77
     0
 78
     0
170
     0
171
     2
172
     0
173
     1
174
     0
175
     0
176
     0
177
     0
178
     0
270
     2
271
     4
272
     4
273
     2
274
     2
340
10
275
     0
280
     0
281
     0
282
     0
283
     1
284
     0
285
     0
286
     0
287
     3
288
     0
  0
ENDTAB
  0
TABLE
  2
BLOCK_RECORD
  5
1
100
AcDbSymbolTable
 70
     7
  0
BLOCK_RECORD
  5
1F
100
AcDbSymbolTableRecord
100
AcDbBlockTableRecord
  2
*MODEL_SPACE
  0
BLOCK_RECORD
  5
22
100
AcDbSymbolTableRecord
100
AcDbBlockTableRecord
  2
*PAPER_SPACE
  0
BLOCK_RECORD
  5
27
100
AcDbSymbolTableRecord
100
AcDbBlockTableRecord
  2
_NONE
  0
BLOCK_RECORD
  5
2B
100
AcDbSymbolTableRecord
100
AcDbBlockTableRecord
  2
_OPEN
  0
BLOCK_RECORD
  5
31
100
AcDbSymbolTableRecord
100
AcDbBlockTableRecord
  2
_CLOSED
  0
BLOCK_RECORD
  5
38
100
AcDbSymbolTableRecord
100
AcDbBlockTableRecord
  2
_ORIGIN
  0
BLOCK_RECORD
  5
3D
100
AcDbSymbolTableRecord
100
AcDbBlockTableRecord
  2
_DOT
  0
BLOCK_RECORD
  5
45
100
AcDbSymbolTableRecord
100
AcDbBlockTableRecord
  2
_OBLIQUE
  0
BLOCK_RECORD
  5
152
100
AcDbSymbolTableRecord
100
AcDbBlockTableRecord
  2
LIST0
  0
ENDTAB
  0
ENDSEC
  0
SECTION
  2
BLOCKS
  0
BLOCK
  5
20
100
AcDbEntity
  8
0
100
AcDbBlockBegin
  2
*MODEL_SPACE
 70
     0
 10
0.0
 20
0.0
 30
0.0
  3
*MODEL_SPACE
  1

  0
ENDBLK
  5
21
100
AcDbEntity
  8
0
100
AcDbBlockEnd
  0
BLOCK
  5
23
100
AcDbEntity
 67
     1
  8
0
100
AcDbBlockBegin
  2
*PAPER_SPACE
 70
     0
 10
0.0
 20
0.0
 30
0.0
  3
*PAPER_SPACE
  1

  0
ENDBLK
  5
24
100
AcDbEntity
 67
     1
  8
0
100
AcDbBlockEnd
  0
BLOCK
  5
28
100
AcDbEntity
  8
0
100
AcDbBlockBegin
  2
_NONE
 70
     0
 10
0.0
 20
0.0
  0
CIRCLE
  5
29
100
AcDbEntity
  8
0
 62
     0
100
AcDbCircle
 10
0.0
 20
0.0
 40
0.25
  0
ENDBLK
  5
2A
100
AcDbEntity
  8
0
100
AcDbBlockEnd
  0
BLOCK
  5
2C
100
AcDbEntity
  8
0
100
AcDbBlockBegin
  2
_OPEN
 70
     0
 10
0.0
 20
0.0
  0
LINE
  5
2D
100
AcDbEntity
  8
0
 62
     0
100
AcDbLine
 10
-0.965926
 20
0.258819
 11
0.0
 21
0.0
  0
LINE
  5
2E
100
AcDbEntity
  8
0
 62
     0
100
AcDbLine
 10
0.0
 20
0.0
 11
-0.965926
 21
-0.258819
  0
LINE
  5
2F
100
AcDbEntity
  8
0
 62
     0
100
AcDbLine
 10
0.0
 20
0.0
 11
-1.0
 21
0.0
  0
ENDBLK
  5
30
100
AcDbEntity
  8
0
100
AcDbBlockEnd
  0
BLOCK
  5
32
100
AcDbEntity
  8
0
100
AcDbBlockBegin
  2
_CLOSED
 70
     0
 10
0.0
 20
0.0
  0
LINE
  5
33
100
AcDbEntity
  8
0
 62
     0
100
AcDbLine
 10
-0.965926
 20
0.258819
 11
0.0
 21
0.0
  0
LINE
  5
34
100
AcDbEntity
  8
0
 62
     0
100
AcDbLine
 10
0.0
 20
0.0
 11
-0.965926
 21
-0.258819
  0
LINE
  5
35
100
AcDbEntity
  8
0
 62
     0
100
AcDbLine
 10
-0.965926
 20
0.258819
 11
-0.965926
 21
-0.258819
  0
LINE
  5
36
100
AcDbEntity
  8
0
 62
     0
100
AcDbLine
 10
0.0
 20
0.0
 11
-1.0
 21
0.0
  0
ENDBLK
  5
37
100
AcDbEntity
  8
0
100
AcDbBlockEnd
  0
BLOCK
  5
39
100
AcDbEntity
  8
0
100
AcDbBlockBegin
  2
_ORIGIN
 70
     0
 10
0.0
 20
0.0
  0
CIRCLE
  5
3A
100
AcDbEntity
  8
0
 62
     0
100
AcDbCircle
 10
0.0
 20
0.0
 40
0.5
  0
LINE
  5
3B
100
AcDbEntity
  8
0
 62
     0
100
AcDbLine
 10
0.0
 20
0.0
 11
-1.0
 21
0.0
  0
ENDBLK
  5
3C
100
AcDbEntity
  8
0
100
AcDbBlockEnd
  0
BLOCK
  5
3E
100
AcDbEntity
  8
0
100
AcDbBlockBegin
  2
_DOT
 70
     0
 10
0.0
 20
0.0
  0
POLYLINE
  5
3F
100
AcDbEntity
  8
0
 62
     0
100
AcDb2dPolyline
 66
     1
 70
     1
 40
0.5
 41
0.5
  0
VERTEX
  5
40
100
AcDbEntity
  8
0
 62
     0
100
AcDbVertex
100
AcDb2dVertex
 10
-0.25
 20
0.0
 42
1.0
  0
VERTEX
  5
41
100
AcDbEntity
  8
0
 62
     0
100
AcDbVertex
100
AcDb2dVertex
 10
0.25
 20
0.0
 42
1.0
  0
SEQEND
  5
42
100
AcDbEntity
  8
0
 62
     0
  0
LINE
  5
43
100
AcDbEntity
  8
0
 62
     0
100
AcDbLine
 10
-0.5
 20
0.0
 11
-1.0
 21
0.0
  0
ENDBLK
  5
44
100
AcDbEntity
  8
0
100
AcDbBlockEnd
  0
BLOCK
  5
46
100
AcDbEntity
  8
0
100
AcDbBlockBegin
  2
_OBLIQUE
 70
     0
 10
0.0
 20
0.0
  0
LINE
  5
47
100
AcDbEntity
  8
0
 62
     0
100
AcDbLine
 10
-0.353553
 20
-0.353553
 11
0.353553
 21
0.353553
  0
ENDBLK
  5
48
100
AcDbEntity
  8
0
100
AcDbBlockEnd
  0
BLOCK
  5
153
100
AcDbEntity
  8
DT0
100
AcDbBlockBegin
  2
LIST0
 70
     0
 10
0.0
 20
0.0
  0
LINE
  5
154
100
AcDbEntity
  8
DT0
100
AcDbLine
 10
382.968063
 20
114.680557
 11
382.968063
 21
73.430562
  0
LINE
  5
155
100
AcDbEntity
  8
DT0
100
AcDbLine
 10
177.968082
 20
114.680557
 11
177.968082
 21
73.430562
  0
LINE
  5
156
100
AcDbEntity
  8
DT0
100
AcDbLine
 10
177.968082
 20
73.430562
 11
382.968063
 21
73.430562
  0
LINE
  5
157
100
AcDbEntity
  8
DT0
100
AcDbLine
 10
177.968082
 20
114.680557
 11
382.968063
 21
114.680557
  0
LINE
  5
158
100
AcDbEntity
  8
DT0
100
AcDbLine
 10
335.468102
 20
100.930567
 11
335.468102
 21
114.680557
  0
LINE
  5
159
100
AcDbEntity
  8
DT0
100
AcDbLine
 10
207.968082
 20
100.930567
 11
335.468102
 21
100.930567
  0
TEXT
  5
15A
100
AcDbEntity
  8
DT0
100
AcDbText
 10
210.988917
 20
104.680557
 40
6.25
  1
Ｓ３０ｅ３Ｐ
 41
0.833333
  7
STANDARD
100
AcDbText
  0
LINE
  5
15B
100
AcDbEntity
  8
DT0
 60
     1
100
AcDbLine
 10
357.968063
 20
100.930567
 11
357.968063
 21
114.680557
  0
LINE
  5
15C
100
AcDbEntity
  8
DT0
100
AcDbLine
 10
335.468102
 20
100.930567
 11
357.968063
 21
100.930567
  0
TEXT
  5
15D
100
AcDbEntity
  8
DT0
100
AcDbText
 10
338.397253
 20
104.680557
 40
6.25
  1
ＲＥＶ．：
 41
0.666667
  7
STANDARD
100
AcDbText
  0
LINE
  5
15E
100
AcDbEntity
  8
DT0
 60
     1
100
AcDbLine
 10
382.968063
 20
100.930567
 11
382.968063
 21
114.680557
  0
LINE
  5
15F
100
AcDbEntity
  8
DT0
100
AcDbLine
 10
357.968063
 20
100.930567
 11
382.968063
 21
100.930567
  0
TEXT
  5
160
100
AcDbEntity
  8
DT0
100
AcDbText
 10
368.488879
 20
104.680557
 40
6.25
  1
００
 41
0.833333
  7
STANDARD
100
AcDbText
  0
LINE
  5
161
100
AcDbEntity
  8
DT0
 60
     1
100
AcDbLine
 10
207.968082
 20
100.930567
 11
207.968082
 21
114.680557
  0
LINE
  5
162
100
AcDbEntity
  8
DT0
100
AcDbLine
 10
177.968082
 20
100.930567
 11
207.968082
 21
100.930567
  0
TEXT
  5
163
100
AcDbEntity
  8
DT0
100
AcDbText
 10
180.988917
 20
104.680557
 40
6.25
  1
登録名：
 41
0.833333
  7
STANDARD
100
AcDbText
  0
LINE
  5
164
100
AcDbEntity
  8
DT0
 60
     1
100
AcDbLine
 10
382.968063
 20
87.180567
 11
382.968063
 21
100.930567
  0
LINE
  5
165
100
AcDbEntity
  8
DT0
100
AcDbLine
 10
357.968063
 20
87.180567
 11
382.968063
 21
87.180567
  0
LINE
  5
166
100
AcDbEntity
  8
DT0
 60
     1
100
AcDbLine
 10
357.968063
 20
87.180567
 11
357.968063
 21
100.930567
  0
LINE
  5
167
100
AcDbEntity
  8
DT0
100
AcDbLine
 10
207.968082
 20
87.180567
 11
357.968063
 21
87.180567
  0
TEXT
  5
168
100
AcDbEntity
  8
DT0
100
AcDbText
 10
210.988917
 20
90.930567
 40
6.25
  1
表面形
 41
0.833333
  7
STANDARD
100
AcDbText
  0
LINE
  5
169
100
AcDbEntity
  8
DT0
 60
     1
100
AcDbLine
 10
207.968082
 20
87.180567
 11
207.968082
 21
100.930567
  0
LINE
  5
16A
100
AcDbEntity
  8
DT0
100
AcDbLine
 10
177.968082
 20
87.180567
 11
207.968082
 21
87.180567
  0
TEXT
  5
16B
100
AcDbEntity
  8
DT0
100
AcDbText
 10
179.686842
 20
90.930567
 40
6.25
  1
接続方式：
 41
0.75
  7
STANDARD
100
AcDbText
  0
LINE
  5
16C
100
AcDbEntity
  8
DT0
 60
     1
100
AcDbLine
 10
382.968063
 20
73.430562
 11
382.968063
 21
87.180567
  0
LINE
  5
16D
100
AcDbEntity
  8
DT0
 60
     1
100
AcDbLine
 10
357.968063
 20
73.430562
 11
382.968063
 21
73.430562
  0
LINE
  5
16E
100
AcDbEntity
  8
DT0
 60
     1
100
AcDbLine
 10
357.968063
 20
73.430562
 11
357.968063
 21
87.180567
  0
LINE
  5
16F
100
AcDbEntity
  8
DT0
 60
     1
100
AcDbLine
 10
207.968082
 20
73.430562
 11
357.968063
 21
73.430562
  0
TEXT
  5
170
100
AcDbEntity
  8
DT0
100
AcDbText
 10
210.936842
 20
77.180567
 40
6.25
  1
Ｓ－３０Ｅ／Ｓ－５０ＥＢ
 41
0.75
  7
STANDARD
100
AcDbText
  0
LINE
  5
171
100
AcDbEntity
  8
DT0
 60
     1
100
AcDbLine
 10
207.968082
 20
73.430562
 11
207.968082
 21
87.180567
  0
LINE
  5
172
100
AcDbEntity
  8
DT0
 60
     1
100
AcDbLine
 10
177.968082
 20
73.430562
 11
207.968082
 21
73.430562
  0
TEXT
  5
173
100
AcDbEntity
  8
DT0
100
AcDbText
 10
179.686842
 20
77.180567
 40
6.25
  1
適用形式：
 41
0.75
  7
STANDARD
100
AcDbText
  0
ENDBLK
  5
174
100
AcDbEntity
  8
DT0
100
AcDbBlockEnd
  0
ENDSEC
  0
SECTION
  2
ENTITIES
  0
LINE
  5
49
100
AcDbEntity
  8
M0
 62
     4
100
AcDbLine
 10
324.263324
 20
544.389716
 11
331.890297
 21
541.790083
  0
ARC
  5
4A
100
AcDbEntity
  8
M0
 62
     4
100
AcDbCircle
 10
321.688394
 20
541.388328
 40
0.799999
100
AcDbArc
 50
154.020881
 51
243.841477
  0
LINE
  5
4B
100
AcDbEntity
  8
M0
 62
     4
100
AcDbLine
 10
331.890297
 20
535.527186
 11
321.335709
 21
540.670267
  0
LINE
  5
4C
100
AcDbEntity
  8
M0
 62
     4
100
AcDbLine
 10
322.195756
 20
544.255834
 11
320.969229
 21
541.738768
  0
LINE
  5
4D
100
AcDbEntity
  8
M0
 62
     4
100
AcDbLine
 10
322.195756
 20
544.255834
 11
324.263324
 21
544.389716
  0
ARC
  5
4E
100
AcDbEntity
  8
M0
 62
     4
100
AcDbCircle
 10
332.390297
 20
496.095349
 40
0.5
100
AcDbArc
 50
180.0
 51
270.0
  0
ARC
  5
4F
100
AcDbEntity
  8
M0
 62
     4
100
AcDbCircle
 10
332.390297
 20
545.095357
 40
0.5
100
AcDbArc
 50
90.0
 51
180.0
  0
LINE
  5
50
100
AcDbEntity
  8
M0
 62
     4
100
AcDbLine
 10
343.890297
 20
473.595365
 11
343.890297
 21
487.095349
  0
LINE
  5
51
100
AcDbEntity
  8
M0
  6
DASHDOT
 62
     4
100
AcDbLine
 10
326.890297
 20
520.595365
 11
396.890297
 21
520.595365
  0
LINE
  5
52
100
AcDbEntity
  8
M0
 62
     4
100
AcDbLine
 10
358.890301
 20
472.595365
 11
344.890297
 21
472.595365
  0
ARC
  5
53
100
AcDbEntity
  8
M0
 62
     4
100
AcDbCircle
 10
337.890297
 20
553.095357
 40
1.0
100
AcDbArc
 50
90.0
 51
180.0
  0
ARC
  5
54
100
AcDbEntity
  8
M0
 62
     4
100
AcDbCircle
 10
337.890297
 20
488.095349
 40
1.0
100
AcDbArc
 50
180.0
 51
270.0
  0
ARC
  5
55
100
AcDbEntity
  8
M0
 62
     4
100
AcDbCircle
 10
344.890297
 20
567.595371
 40
1.0
100
AcDbArc
 50
90.0
 51
180.0
  0
ARC
  5
56
100
AcDbEntity
  8
M0
 62
     4
100
AcDbCircle
 10
344.890297
 20
473.595365
 40
1.0
100
AcDbArc
 50
180.0
 51
270.0
  0
LINE
  5
57
100
AcDbEntity
  8
M0
 62
     4
100
AcDbLine
 10
332.390297
 20
545.595357
 11
336.890297
 21
545.595357
  0
LINE
  5
58
100
AcDbEntity
  8
M0
 62
     4
100
AcDbLine
 10
336.890297
 20
495.595349
 11
332.390297
 21
495.595349
  0
LINE
  5
59
100
AcDbEntity
  8
M0
 62
     4
100
AcDbLine
 10
343.890297
 20
554.095357
 11
337.890297
 21
554.095357
  0
LINE
  5
5A
100
AcDbEntity
  8
M0
 62
     4
100
AcDbLine
 10
343.890297
 20
487.095349
 11
337.890297
 21
487.095349
  0
LINE
  5
5B
100
AcDbEntity
  8
M0
 62
     4
100
AcDbLine
 10
336.890297
 20
553.095357
 11
336.890297
 21
488.095349
  0
LINE
  5
5C
100
AcDbEntity
  8
M0
 62
     4
100
AcDbLine
 10
343.890297
 20
554.095357
 11
343.890297
 21
567.595371
  0
ARC
  5
5D
100
AcDbEntity
  8
M0
 62
     4
100
AcDbCircle
 10
331.925297
 20
544.130349
 40
0.035
100
AcDbArc
 50
180.0
 51
270.0
  0
LINE
  5
5E
100
AcDbEntity
  8
M0
 62
     4
100
AcDbLine
 10
331.890297
 20
544.130349
 11
331.890297
 21
496.095349
  0
LINE
  5
5F
100
AcDbEntity
  8
M0
 62
     4
100
AcDbLine
 10
358.890301
 20
568.595371
 11
344.890297
 21
568.595371
  0
LINE
  5
60
100
AcDbEntity
  8
M0
 62
     4
100
AcDbLine
 10
331.890297
 20
544.130349
 11
331.890297
 21
545.095357
  0
LINE
  5
61
100
AcDbEntity
  8
M0
 62
     4
100
AcDbLine
 10
388.390297
 20
567.265235
 11
388.390297
 21
565.695362
  0
LINE
  5
62
100
AcDbEntity
  8
M0
 62
     4
100
AcDbLine
 10
388.390297
 20
473.92549
 11
388.390297
 21
475.495362
  0
LINE
  5
63
100
AcDbEntity
  8
M0
 62
     4
100
AcDbLine
 10
396.890297
 20
475.495362
 11
395.390297
 21
475.495362
  0
LINE
  5
64
100
AcDbEntity
  8
M0
 62
     4
100
AcDbLine
 10
391.890297
 20
502.945362
 11
391.890297
 21
538.245362
  0
LINE
  5
65
100
AcDbEntity
  8
M0
 62
     4
100
AcDbLine
 10
396.890297
 20
474.595362
 11
396.890297
 21
498.595362
  0
LINE
  5
66
100
AcDbEntity
  8
M0
 62
     4
100
AcDbLine
 10
358.890301
 20
568.595365
 11
383.426184
 21
568.595365
  0
LINE
  5
67
100
AcDbEntity
  8
M0
 62
     4
100
AcDbLine
 10
358.890301
 20
472.595359
 11
383.426184
 21
472.595359
  0
LINE
  5
68
100
AcDbEntity
  8
M0
 62
     4
100
AcDbLine
 10
392.490297
 20
502.945362
 11
391.890297
 21
502.945362
  0
LINE
  5
69
100
AcDbEntity
  8
M0
 62
     4
100
AcDbLine
 10
396.890297
 20
538.245362
 11
391.890297
 21
538.245362
  0
LINE
  5
6A
100
AcDbEntity
  8
M0
 62
     4
100
AcDbLine
 10
396.890297
 20
536.245362
 11
396.890297
 21
566.595362
  0
LINE
  5
6B
100
AcDbEntity
  8
M0
 62
     4
100
AcDbLine
 10
396.890297
 20
474.595362
 11
396.76507
 21
474.595362
  0
LINE
  5
6C
100
AcDbEntity
  8
M0
 62
     4
100
AcDbLine
 10
396.890297
 20
566.595362
 11
396.765078
 21
566.595362
  0
LINE
  5
6D
100
AcDbEntity
  8
M0
 62
     4
100
AcDbLine
 10
390.890297
 20
474.595362
 11
383.426184
 21
472.595359
  0
LINE
  5
6E
100
AcDbEntity
  8
M0
 62
     4
100
AcDbLine
 10
390.890297
 20
566.595362
 11
383.426184
 21
568.595365
  0
LINE
  5
6F
100
AcDbEntity
  8
M0
 62
     4
100
AcDbLine
 10
396.890297
 20
536.245362
 11
394.890297
 21
536.245362
  0
LINE
  5
70
100
AcDbEntity
  8
M0
 62
     4
100
AcDbLine
 10
393.644943
 20
536.826081
 11
392.890297
 21
538.245362
  0
LINE
  5
71
100
AcDbEntity
  8
M0
 62
     4
100
AcDbLine
 10
394.890297
 20
536.245362
 11
393.644943
 21
536.826081
  0
LINE
  5
72
100
AcDbEntity
  8
M0
 62
     4
100
AcDbLine
 10
393.490297
 20
499.595362
 11
393.490297
 21
501.945362
  0
LINE
  5
73
100
AcDbEntity
  8
M0
 62
     4
100
AcDbLine
 10
395.890297
 20
499.595362
 11
393.490297
 21
499.595362
  0
ARC
  5
74
100
AcDbEntity
  8
M0
 62
     4
100
AcDbCircle
 10
395.890297
 20
498.595362
 40
1.0
100
AcDbArc
 50
0.0
 51
90.0
  0
ARC
  5
75
100
AcDbEntity
  8
M0
 62
     4
100
AcDbCircle
 10
392.490297
 20
501.945362
 40
1.0
100
AcDbArc
 50
0.0
 51
90.0
  0
LINE
  5
76
100
AcDbEntity
  8
M0
 62
     4
100
AcDbLine
 10
388.390297
 20
565.695362
 11
390.65582
 21
565.695362
  0
LINE
  5
77
100
AcDbEntity
  8
M0
 62
     4
100
AcDbLine
 10
391.316283
 20
566.595362
 11
390.890297
 21
566.595362
  0
LINE
  5
78
100
AcDbEntity
  8
M0
 62
     4
100
AcDbLine
 10
395.397646
 20
565.695362
 11
396.890297
 21
565.695362
  0
LINE
  5
79
100
AcDbEntity
  8
M0
 62
     4
100
AcDbLine
 10
391.316257
 20
474.595362
 11
390.890297
 21
474.595362
  0
LINE
  5
7A
100
AcDbEntity
  8
M0
 62
     4
100
AcDbLine
 10
390.655814
 20
475.495362
 11
388.390297
 21
475.495362
  0
LINE
  5
7B
100
AcDbEntity
  8
M0
 62
     4
100
AcDbLine
 10
393.390297
 20
504.445355
 11
396.890297
 21
500.245355
  0
LINE
  5
7C
100
AcDbEntity
  8
M0
 62
     4
100
AcDbLine
 10
392.890297
 20
503.245355
 11
393.190297
 21
504.445355
  0
LINE
  5
7D
100
AcDbEntity
  8
M0
 62
     4
100
AcDbLine
 10
396.890297
 20
500.245355
 11
396.890297
 21
474.595362
  0
LINE
  5
7E
100
AcDbEntity
  8
M0
 62
     4
100
AcDbLine
 10
393.190297
 20
504.445355
 11
393.390297
 21
504.445355
  0
LINE
  5
7F
100
AcDbEntity
  8
M0
 62
     4
100
AcDbLine
 10
391.890297
 20
503.245355
 11
392.890297
 21
503.245355
  0
LINE
  5
80
100
AcDbEntity
  8
M0
  6
DASHDOT
 62
     4
100
AcDbLine
 10
392.280622
 20
565.695344
 11
395.390297
 21
565.695344
  0
ARC
  5
81
100
AcDbEntity
  8
M0
  6
DASHED
 62
     4
100
AcDbCircle
 10
395.390297
 20
567.195344
 40
1.5
100
AcDbArc
 50
270.0
 51
360.0
  0
ARC
  5
82
100
AcDbEntity
  8
M0
  6
DASHDOT
 62
     4
100
AcDbCircle
 10
392.280622
 20
565.195344
 40
1.7
100
AcDbArc
 50
90.0
 51
190.0
  0
LINE
  5
83
100
AcDbEntity
  8
M0
  6
DASHDOT
 62
     4
100
AcDbLine
 10
392.280622
 20
566.895344
 11
395.390297
 21
566.895344
  0
ARC
  5
84
100
AcDbEntity
  8
M0
  6
DASHED
 62
     4
100
AcDbCircle
 10
395.390297
 20
567.195344
 40
0.3
100
AcDbArc
 50
270.0
 51
360.0
  0
LINE
  5
85
100
AcDbEntity
  8
M0
  6
DASHDOT
 62
     4
100
AcDbLine
 10
395.690297
 20
579.195344
 11
395.690297
 21
567.195344
  0
LINE
  5
86
100
AcDbEntity
  8
M0
  6
DASHDOT
 62
     4
100
AcDbLine
 10
396.890297
 20
579.195344
 11
396.890297
 21
567.195344
  0
LINE
  5
87
100
AcDbEntity
  8
M0
  6
DASHDOT
 62
     4
100
AcDbLine
 10
395.690297
 20
579.195344
 11
396.890297
 21
579.195344
  0
LINE
  5
88
100
AcDbEntity
  8
M0
  6
DASHDOT
 62
     4
100
AcDbLine
 10
395.690297
 20
461.995362
 11
396.890297
 21
461.995362
  0
ARC
  5
89
100
AcDbEntity
  8
M0
  6
DASHDOT
 62
     4
100
AcDbCircle
 10
395.390297
 20
473.995362
 40
0.3
100
AcDbArc
 50
0.0
 51
90.0
  0
LINE
  5
8A
100
AcDbEntity
  8
M0
  6
DASHDOT
 62
     4
100
AcDbLine
 10
396.890297
 20
461.995362
 11
396.890297
 21
473.995362
  0
LINE
  5
8B
100
AcDbEntity
  8
M0
  6
DASHDOT
 62
     4
100
AcDbLine
 10
395.690297
 20
461.995362
 11
395.690297
 21
473.995362
  0
ARC
  5
8C
100
AcDbEntity
  8
M0
  6
DASHDOT
 62
     4
100
AcDbCircle
 10
395.390297
 20
473.995362
 40
1.5
100
AcDbArc
 50
0.0
 51
90.0
  0
LINE
  5
8D
100
AcDbEntity
  8
M0
  6
DASHDOT
 62
     4
100
AcDbLine
 10
392.280622
 20
474.295362
 11
395.390297
 21
474.295362
  0
LINE
  5
8E
100
AcDbEntity
  8
M0
  6
DASHDOT
 62
     4
100
AcDbLine
 10
392.280622
 20
475.495362
 11
395.390297
 21
475.495362
  0
ARC
  5
8F
100
AcDbEntity
  8
M0
  6
DASHDOT
 62
     4
100
AcDbCircle
 10
392.280622
 20
475.995362
 40
1.7
100
AcDbArc
 50
170.036624
 51
270.0
  0
ARC
  5
90
100
AcDbEntity
  8
M0
  6
DASHDOT
 62
     4
100
AcDbCircle
 10
395.390297
 20
567.195344
 40
0.3
100
AcDbArc
 50
270.0
 51
360.0
  0
ARC
  5
91
100
AcDbEntity
  8
M0
  6
DASHDOT
 62
     4
100
AcDbCircle
 10
395.390297
 20
567.195344
 40
1.5
100
AcDbArc
 50
270.0
 51
360.0
  0
LINE
  5
92
100
AcDbEntity
  8
M0
  6
DASHDOT
 62
     4
100
AcDbLine
 10
392.280622
 20
565.695344
 11
395.390297
 21
565.695344
  0
ARC
  5
93
100
AcDbEntity
  8
M0
  6
DASHDOT
 62
     4
100
AcDbCircle
 10
392.280622
 20
565.195344
 40
0.5
100
AcDbArc
 50
90.0
 51
190.0
  0
LINE
  5
94
100
AcDbEntity
  8
M0
  6
DASHDOT
 62
     4
100
AcDbLine
 10
390.606449
 20
564.900143
 11
390.908528
 21
563.186967
  0
LINE
  5
95
100
AcDbEntity
  8
M0
  6
DASHDOT
 62
     4
100
AcDbLine
 10
391.788218
 20
565.10852
 11
392.090297
 21
563.395344
  0
LINE
  5
96
100
AcDbEntity
  8
M0
  6
DASHDOT
 62
     4
100
AcDbLine
 10
392.090297
 20
563.395344
 11
390.908528
 21
563.186967
  0
ARC
  5
97
100
AcDbEntity
  8
M0
  6
DASHDOT
 62
     4
100
AcDbCircle
 10
392.280622
 20
475.99536
 40
0.5
100
AcDbArc
 50
170.0
 51
270.0
  0
LINE
  5
98
100
AcDbEntity
  8
M0
  6
DASHDOT
 62
     4
100
AcDbLine
 10
391.788218
 20
476.082185
 11
392.090297
 21
477.79536
  0
LINE
  5
99
100
AcDbEntity
  8
M0
  6
DASHDOT
 62
     4
100
AcDbLine
 10
390.60626
 20
476.289494
 11
390.908528
 21
478.003738
  0
LINE
  5
9A
100
AcDbEntity
  8
M0
  6
DASHDOT
 62
     4
100
AcDbLine
 10
392.090297
 20
477.79536
 11
390.908528
 21
478.003738
  0
LINE
  5
9B
100
AcDbEntity
  8
M0
 62
     4
100
AcDbLine
 10
212.225848
 20
544.255834
 11
220.825848
 21
544.255834
  0
LINE
  5
9C
100
AcDbEntity
  8
M0
 62
     4
100
AcDbLine
 10
220.825848
 20
544.389716
 11
212.225848
 21
544.389716
  0
LINE
  5
9D
100
AcDbEntity
  8
M0
 62
     4
100
AcDbLine
 10
212.225848
 20
541.019609
 11
220.825848
 21
541.019609
  0
LINE
  5
9E
100
AcDbEntity
  8
M0
 62
     4
100
AcDbLine
 10
220.825848
 20
529.107916
 11
220.825848
 21
544.389716
  0
LINE
  5
9F
100
AcDbEntity
  8
M0
 62
     4
100
AcDbLine
 10
212.225848
 20
535.097589
 11
220.825848
 21
535.097589
  0
LINE
  5
A0
100
AcDbEntity
  8
M0
 62
     4
100
AcDbLine
 10
212.225848
 20
529.107916
 11
212.225848
 21
544.389716
  0
LINE
  5
A1
100
AcDbEntity
  8
M0
  6
DASHDOT
 62
     4
100
AcDbLine
 10
216.525856
 20
468.366908
 11
216.525856
 21
571.740991
  0
LINE
  5
A2
100
AcDbEntity
  8
M0
 62
     4
100
AcDbLine
 10
211.925856
 20
526.29537
 11
221.125856
 21
526.29537
  0
LINE
  5
A3
100
AcDbEntity
  8
M0
 62
     4
100
AcDbLine
 10
181.025856
 20
495.595349
 11
252.025856
 21
495.595349
  0
LINE
  5
A4
100
AcDbEntity
  8
M0
 62
     4
100
AcDbLine
 10
211.925856
 20
542.195357
 11
212.225848
 21
542.195357
  0
LINE
  5
A5
100
AcDbEntity
  8
M0
 62
     4
100
AcDbLine
 10
179.025856
 20
472.595365
 11
179.025856
 21
568.595371
  0
LINE
  5
A6
100
AcDbEntity
  8
M0
 62
     4
100
AcDbLine
 10
254.025856
 20
472.595365
 11
254.025856
 21
568.595371
  0
LINE
  5
A7
100
AcDbEntity
  8
M0
 62
     4
100
AcDbLine
 10
220.825848
 20
542.195357
 11
221.125856
 21
542.195357
  0
LINE
  5
A8
100
AcDbEntity
  8
M0
 62
     4
100
AcDbLine
 10
211.925856
 20
526.29537
 11
211.925856
 21
542.195357
  0
LINE
  5
A9
100
AcDbEntity
  8
M0
 62
     4
100
AcDbLine
 10
181.025856
 20
545.595349
 11
252.025856
 21
545.595349
  0
LINE
  5
AA
100
AcDbEntity
  8
M0
 62
     4
100
AcDbLine
 10
221.125856
 20
526.29537
 11
221.125856
 21
542.195357
  0
LINE
  5
AB
100
AcDbEntity
  8
M0
 62
     4
100
AcDbLine
 10
252.525856
 20
496.095349
 11
252.525856
 21
545.095349
  0
ARC
  5
AC
100
AcDbEntity
  8
M0
 62
     4
100
AcDbCircle
 10
181.025856
 20
496.095349
 40
0.5
100
AcDbArc
 50
180.0
 51
270.0
  0
ARC
  5
AD
100
AcDbEntity
  8
M0
 62
     4
100
AcDbCircle
 10
181.025856
 20
545.095349
 40
0.5
100
AcDbArc
 50
90.0
 51
180.0
  0
ARC
  5
AE
100
AcDbEntity
  8
M0
 62
     4
100
AcDbCircle
 10
253.725856
 20
487.395349
 40
0.3
100
AcDbArc
 50
270.0
 51
360.0
  0
ARC
  5
AF
100
AcDbEntity
  8
M0
 62
     4
100
AcDbCircle
 10
179.325856
 20
553.795357
 40
0.3
100
AcDbArc
 50
90.0
 51
180.0
  0
ARC
  5
B0
100
AcDbEntity
  8
M0
 62
     4
100
AcDbCircle
 10
179.325856
 20
487.395349
 40
0.3
100
AcDbArc
 50
180.0
 51
270.0
  0
LINE
  5
B1
100
AcDbEntity
  8
M0
 62
     4
100
AcDbLine
 10
179.325856
 20
487.095349
 11
253.725856
 21
487.095349
  0
LINE
  5
B2
100
AcDbEntity
  8
M0
 62
     4
100
AcDbLine
 10
180.525856
 20
496.095349
 11
180.525856
 21
545.095349
  0
LINE
  5
B3
100
AcDbEntity
  8
M0
 62
     4
100
AcDbLine
 10
253.725856
 20
554.095357
 11
179.325856
 21
554.095357
  0
ARC
  5
B4
100
AcDbEntity
  8
M0
 62
     4
100
AcDbCircle
 10
252.025856
 20
545.095349
 40
0.5
100
AcDbArc
 50
0.0
 51
90.0
  0
ARC
  5
B5
100
AcDbEntity
  8
M0
 62
     4
100
AcDbCircle
 10
252.025856
 20
496.095349
 40
0.5
100
AcDbArc
 50
270.0
 51
360.0
  0
ARC
  5
B6
100
AcDbEntity
  8
M0
 62
     4
100
AcDbCircle
 10
253.725856
 20
553.795357
 40
0.3
100
AcDbArc
 50
0.0
 51
90.0
  0
LINE
  5
B7
100
AcDbEntity
  8
M0
 62
     4
100
AcDbLine
 10
198.175856
 20
472.595365
 11
198.175856
 21
487.095349
  0
LINE
  5
B8
100
AcDbEntity
  8
M0
 62
     4
100
AcDbLine
 10
210.025856
 20
472.595365
 11
210.025856
 21
487.095349
  0
LINE
  5
B9
100
AcDbEntity
  8
M0
 62
     4
100
AcDbLine
 10
184.875856
 20
472.595365
 11
184.875856
 21
487.095349
  0
LINE
  5
BA
100
AcDbEntity
  8
M0
 62
     4
100
AcDbLine
 10
234.875856
 20
554.095357
 11
234.875856
 21
568.595371
  0
LINE
  5
BB
100
AcDbEntity
  8
M0
 62
     4
100
AcDbLine
 10
248.175856
 20
554.095357
 11
248.175856
 21
568.595371
  0
LINE
  5
BC
100
AcDbEntity
  8
M0
 62
     4
100
AcDbLine
 10
254.025856
 20
568.595371
 11
179.025856
 21
568.595371
  0
LINE
  5
BD
100
AcDbEntity
  8
M0
 62
     4
100
AcDbLine
 10
254.025856
 20
472.595365
 11
179.025856
 21
472.595365
  0
LINE
  5
BE
100
AcDbEntity
  8
M0
 62
     4
100
AcDbLine
 10
248.175856
 20
472.595365
 11
248.175856
 21
487.095349
  0
LINE
  5
BF
100
AcDbEntity
  8
M0
 62
     4
100
AcDbLine
 10
223.025856
 20
472.595365
 11
223.025856
 21
487.095349
  0
LINE
  5
C0
100
AcDbEntity
  8
M0
 62
     4
100
AcDbLine
 10
234.875856
 20
472.595365
 11
234.875856
 21
487.095349
  0
LINE
  5
C1
100
AcDbEntity
  8
M0
 62
     4
100
AcDbLine
 10
223.025856
 20
554.095357
 11
223.025856
 21
568.595371
  0
LINE
  5
C2
100
AcDbEntity
  8
M0
 62
     4
100
AcDbLine
 10
198.175856
 20
554.095357
 11
198.175856
 21
568.595371
  0
LINE
  5
C3
100
AcDbEntity
  8
M0
 62
     4
100
AcDbLine
 10
210.025856
 20
554.095357
 11
210.025856
 21
568.595371
  0
LINE
  5
C4
100
AcDbEntity
  8
M0
 62
     4
100
AcDbLine
 10
184.875856
 20
554.095357
 11
184.875856
 21
568.595371
  0
LINE
  5
C5
100
AcDbEntity
  8
M0
  6
DASHDOT
 62
     4
100
AcDbLine
 10
258.525856
 20
520.595365
 11
174.525856
 21
520.595365
  0
LINE
  5
C6
100
AcDbEntity
  8
M0
  6
DASHDOT
 62
     4
100
AcDbLine
 10
243.775848
 20
470.595359
 11
243.775848
 21
466.595359
  0
LINE
  5
C7
100
AcDbEntity
  8
M0
  6
DASHDOT
 62
     4
100
AcDbLine
 10
235.525848
 20
462.095362
 11
247.525848
 21
462.095362
  0
LINE
  5
C8
100
AcDbEntity
  8
M0
  6
DASHDOT
 62
     4
100
AcDbLine
 10
247.525848
 20
472.595365
 11
247.525848
 21
462.095362
  0
LINE
  5
C9
100
AcDbEntity
  8
M0
  6
DASHDOT
 62
     4
100
AcDbLine
 10
239.275848
 20
470.595359
 11
239.275848
 21
466.595359
  0
LINE
  5
CA
100
AcDbEntity
  8
M0
  6
DASHDOT
 62
     4
100
AcDbLine
 10
247.525848
 20
568.595353
 11
247.525848
 21
579.095356
  0
LINE
  5
CB
100
AcDbEntity
  8
M0
  6
DASHDOT
 62
     4
100
AcDbLine
 10
239.275848
 20
570.595359
 11
239.275848
 21
574.595359
  0
LINE
  5
CC
100
AcDbEntity
  8
M0
  6
DASHDOT
 62
     4
100
AcDbLine
 10
235.525848
 20
568.595353
 11
235.525848
 21
579.095356
  0
LINE
  5
CD
100
AcDbEntity
  8
M0
  6
DASHDOT
 62
     4
100
AcDbLine
 10
235.525848
 20
472.595365
 11
235.525848
 21
462.095362
  0
ARC
  5
CE
100
AcDbEntity
  8
M0
  6
DASHDOT
 62
     4
100
AcDbCircle
 10
241.525848
 20
570.595359
 40
2.25
100
AcDbArc
 50
180.0
 51
242.734289
  0
ARC
  5
CF
100
AcDbEntity
  8
M0
  6
DASHDOT
 62
     4
100
AcDbCircle
 10
241.525848
 20
570.595359
 40
2.25
100
AcDbArc
 50
297.265711
 51
360.0
  0
ARC
  5
D0
100
AcDbEntity
  8
M0
  6
DASHDOT
 62
     4
100
AcDbCircle
 10
241.525848
 20
470.595359
 40
2.25
100
AcDbArc
 50
0.0
 51
62.734289
  0
ARC
  5
D1
100
AcDbEntity
  8
M0
  6
DASHDOT
 62
     4
100
AcDbCircle
 10
241.525848
 20
466.595359
 40
2.25
100
AcDbArc
 50
180.0
 51
360.0
  0
ARC
  5
D2
100
AcDbEntity
  8
M0
  6
DASHDOT
 62
     4
100
AcDbCircle
 10
191.525848
 20
570.595359
 40
2.25
100
AcDbArc
 50
297.265711
 51
360.0
  0
ARC
  5
D3
100
AcDbEntity
  8
M0
  6
DASHDOT
 62
     4
100
AcDbCircle
 10
191.525848
 20
574.595359
 40
2.25
100
AcDbArc
 50
0.0
 51
180.0
  0
ARC
  5
D4
100
AcDbEntity
  8
M0
  6
DASHDOT
 62
     4
100
AcDbCircle
 10
241.525848
 20
574.595359
 40
2.25
100
AcDbArc
 50
0.0
 51
180.0
  0
ARC
  5
D5
100
AcDbEntity
  8
M0
  6
DASHDOT
 62
     4
100
AcDbCircle
 10
191.525848
 20
570.595359
 40
2.25
100
AcDbArc
 50
180.0
 51
242.734289
  0
ARC
  5
D6
100
AcDbEntity
  8
M0
  6
DASHDOT
 62
     4
100
AcDbCircle
 10
241.525848
 20
470.595359
 40
2.25
100
AcDbArc
 50
117.265711
 51
180.0
  0
LINE
  5
D7
100
AcDbEntity
  8
M0
  6
DASHDOT
 62
     4
100
AcDbLine
 10
197.525848
 20
472.595365
 11
197.525848
 21
462.095362
  0
ARC
  5
D8
100
AcDbEntity
  8
M0
  6
DASHDOT
 62
     4
100
AcDbCircle
 10
191.525848
 20
470.595359
 40
2.25
100
AcDbArc
 50
117.265711
 51
180.0
  0
LINE
  5
D9
100
AcDbEntity
  8
M0
  6
DASHDOT
 62
     4
100
AcDbLine
 10
185.525848
 20
462.095362
 11
197.525848
 21
462.095362
  0
LINE
  5
DA
100
AcDbEntity
  8
M0
  6
DASHDOT
 62
     4
100
AcDbLine
 10
189.275848
 20
470.595359
 11
189.275848
 21
466.595359
  0
LINE
  5
DB
100
AcDbEntity
  8
M0
  6
DASHDOT
 62
     4
100
AcDbLine
 10
185.525848
 20
472.595365
 11
185.525848
 21
462.095362
  0
LINE
  5
DC
100
AcDbEntity
  8
M0
  6
DASHDOT
 62
     4
100
AcDbLine
 10
193.775848
 20
470.595359
 11
193.775848
 21
466.595359
  0
ARC
  5
DD
100
AcDbEntity
  8
M0
  6
DASHDOT
 62
     4
100
AcDbCircle
 10
191.525848
 20
470.595359
 40
2.25
100
AcDbArc
 50
0.0
 51
62.734289
  0
LINE
  5
DE
100
AcDbEntity
  8
M0
  6
DASHDOT
 62
     4
100
AcDbLine
 10
185.525848
 20
568.595353
 11
185.525848
 21
579.095356
  0
LINE
  5
DF
100
AcDbEntity
  8
M0
  6
DASHDOT
 62
     4
100
AcDbLine
 10
197.525848
 20
568.595353
 11
197.525848
 21
579.095356
  0
LINE
  5
E0
100
AcDbEntity
  8
M0
  6
DASHDOT
 62
     4
100
AcDbLine
 10
235.525848
 20
579.095356
 11
247.525848
 21
579.095356
  0
LINE
  5
E1
100
AcDbEntity
  8
M0
  6
DASHDOT
 62
     4
100
AcDbLine
 10
185.525848
 20
579.095356
 11
197.525848
 21
579.095356
  0
ARC
  5
E2
100
AcDbEntity
  8
M0
  6
DASHDOT
 62
     4
100
AcDbCircle
 10
191.525848
 20
466.595359
 40
2.25
100
AcDbArc
 50
180.0
 51
360.0
  0
LINE
  5
E3
100
AcDbEntity
  8
M0
  6
DASHDOT
 62
     4
100
AcDbLine
 10
189.275848
 20
570.595359
 11
189.275848
 21
574.595359
  0
LINE
  5
E4
100
AcDbEntity
  8
M0
  6
DASHDOT
 62
     4
100
AcDbLine
 10
193.775848
 20
570.595359
 11
193.775848
 21
574.595359
  0
LINE
  5
E5
100
AcDbEntity
  8
M0
  6
DASHDOT
 62
     4
100
AcDbLine
 10
243.775848
 20
570.595359
 11
243.775848
 21
574.595359
  0
LINE
  5
E6
100
AcDbEntity
  8
M0
 62
     4
100
AcDbLine
 10
189.758081
 20
482.363141
 11
193.293615
 21
478.827608
  0
LINE
  5
E7
100
AcDbEntity
  8
M0
 62
     4
100
AcDbLine
 10
193.293615
 20
482.363141
 11
189.758081
 21
478.827608
  0
LINE
  5
E8
100
AcDbEntity
  8
M0
 62
     4
100
AcDbLine
 10
214.758081
 20
482.363141
 11
218.293615
 21
478.827608
  0
LINE
  5
E9
100
AcDbEntity
  8
M0
 62
     4
100
AcDbLine
 10
218.293615
 20
482.363141
 11
214.758081
 21
478.827608
  0
LINE
  5
EA
100
AcDbEntity
  8
M0
 62
     4
100
AcDbLine
 10
239.758081
 20
482.363141
 11
243.293615
 21
478.827608
  0
LINE
  5
EB
100
AcDbEntity
  8
M0
 62
     4
100
AcDbLine
 10
243.293615
 20
482.363141
 11
239.758081
 21
478.827608
  0
LINE
  5
EC
100
AcDbEntity
  8
M0
 62
     4
100
AcDbLine
 10
189.758081
 20
558.82759
 11
193.293615
 21
562.363123
  0
LINE
  5
ED
100
AcDbEntity
  8
M0
 62
     4
100
AcDbLine
 10
193.293615
 20
558.82759
 11
189.758081
 21
562.363123
  0
LINE
  5
EE
100
AcDbEntity
  8
M0
 62
     4
100
AcDbLine
 10
214.758081
 20
558.82759
 11
218.293615
 21
562.363123
  0
LINE
  5
EF
100
AcDbEntity
  8
M0
 62
     4
100
AcDbLine
 10
218.293615
 20
558.82759
 11
214.758081
 21
562.363123
  0
LINE
  5
F0
100
AcDbEntity
  8
M0
 62
     4
100
AcDbLine
 10
239.758081
 20
558.82759
 11
243.293615
 21
562.363123
  0
LINE
  5
F1
100
AcDbEntity
  8
M0
 62
     4
100
AcDbLine
 10
243.293615
 20
558.82759
 11
239.758081
 21
562.363123
  0
CIRCLE
  5
F2
100
AcDbEntity
  8
M0
 62
     4
100
AcDbCircle
 10
241.525838
 20
560.595366
 40
4.5
  0
CIRCLE
  5
F3
100
AcDbEntity
  8
M0
 62
     4
100
AcDbCircle
 10
216.525848
 20
560.595356
 40
4.5
  0
CIRCLE
  5
F4
100
AcDbEntity
  8
M0
 62
     4
100
AcDbCircle
 10
191.525858
 20
560.595366
 40
4.5
  0
CIRCLE
  5
F5
100
AcDbEntity
  8
M0
 62
     4
100
AcDbCircle
 10
191.525848
 20
480.595374
 40
4.5
  0
CIRCLE
  5
F6
100
AcDbEntity
  8
M0
 62
     4
100
AcDbCircle
 10
216.525848
 20
480.595374
 40
4.5
  0
CIRCLE
  5
F7
100
AcDbEntity
  8
M0
 62
     4
100
AcDbCircle
 10
241.525838
 20
480.595364
 40
4.5
  0
LINE
  5
F8
100
AcDbEntity
  8
M0
 62
     7
100
AcDbLine
 10
253.025856
 20
195.996103
 11
253.025856
 21
245.996103
  0
ARC
  5
F9
100
AcDbEntity
  8
M0
 62
     7
100
AcDbCircle
 10
180.025856
 20
245.996103
 40
1.0
100
AcDbArc
 50
90.0
 51
180.0
  0
LINE
  5
FA
100
AcDbEntity
  8
M0
 62
     7
100
AcDbLine
 10
179.025856
 20
195.996103
 11
179.025856
 21
245.996103
  0
ARC
  5
FB
100
AcDbEntity
  8
M0
 62
     7
100
AcDbCircle
 10
252.025856
 20
195.996103
 40
1.0
100
AcDbArc
 50
270.0
 51
360.0
  0
ARC
  5
FC
100
AcDbEntity
  8
M0
 62
     7
100
AcDbCircle
 10
252.025856
 20
245.996103
 40
1.0
100
AcDbArc
 50
0.0
 51
90.0
  0
LINE
  5
FD
100
AcDbEntity
  8
M0
 62
     7
100
AcDbLine
 10
180.025856
 20
194.996103
 11
252.025856
 21
194.996103
  0
ARC
  5
FE
100
AcDbEntity
  8
M0
 62
     7
100
AcDbCircle
 10
180.025856
 20
195.996103
 40
1.0
100
AcDbArc
 50
180.0
 51
270.0
  0
LINE
  5
FF
100
AcDbEntity
  8
M0
 62
     7
100
AcDbLine
 10
180.025856
 20
246.996103
 11
252.025856
 21
246.996103
  0
LINE
  5
100
100
AcDbEntity
  8
M0
  6
DASHDOT
100
AcDbLine
 10
347.390297
 20
256.996103
 11
347.390297
 21
268.996103
  0
LINE
  5
101
100
AcDbEntity
  8
M0
  6
DASHDOT
100
AcDbLine
 10
341.390297
 20
262.996103
 11
353.390297
 21
262.996103
  0
LINE
  5
102
100
AcDbEntity
  8
M0
  6
DASHDOT
100
AcDbLine
 10
366.390297
 20
178.996103
 11
378.390297
 21
178.996103
  0
CIRCLE
  5
103
100
AcDbEntity
  8
M0
100
AcDbCircle
 10
372.390297
 20
178.996103
 40
2.5
  0
LINE
  5
104
100
AcDbEntity
  8
M0
  6
DASHDOT
100
AcDbLine
 10
372.390297
 20
172.996103
 11
372.390297
 21
184.996103
  0
CIRCLE
  5
105
100
AcDbEntity
  8
M0
100
AcDbCircle
 10
347.390297
 20
262.996103
 40
2.5
  0
LINE
  5
106
100
AcDbEntity
  8
M0
  6
DIVIDE
 62
     4
100
AcDbLine
 10
396.890297
 20
172.996103
 11
396.890297
 21
268.996103
  0
LINE
  5
107
100
AcDbEntity
  8
M0
  6
DIVIDE
 62
     4
100
AcDbLine
 10
322.890297
 20
268.996103
 11
396.890297
 21
268.996103
  0
LINE
  5
108
100
AcDbEntity
  8
M0
  6
DIVIDE
 62
     4
100
AcDbLine
 10
322.890297
 20
172.996103
 11
396.890297
 21
172.996103
  0
LINE
  5
109
100
AcDbEntity
  8
M0
  6
DIVIDE
 62
     4
100
AcDbLine
 10
322.890297
 20
172.996103
 11
322.890297
 21
268.996103
  0
LINE
  5
10A
100
AcDbEntity
  8
M0
  6
DASHDOT
 62
     4
100
AcDbLine
 10
316.667072
 20
220.996103
 11
405.374565
 21
220.996103
  0
LINE
  5
10B
100
AcDbEntity
  8
M0
  6
DASHDOT
 62
     4
100
AcDbLine
 10
359.890297
 20
164.791273
 11
359.890297
 21
277.004007
  0
LINE
  5
10C
100
AcDbEntity
  8
M0
  6
DASHDOT
 62
     4
100
AcDbLine
 10
216.025856
 20
160.557057
 11
216.025856
 21
277.004007
  0
LINE
  5
10D
100
AcDbEntity
  8
M0
  6
DASHDOT
 62
     4
100
AcDbLine
 10
172.802631
 20
220.996103
 11
261.510124
 21
220.996103
  0
LINE
  5
10E
100
AcDbEntity
  8
M0
  6
DASHDOT
 62
     4
100
AcDbLine
 10
178.025856
 20
172.996103
 11
254.025856
 21
172.996103
  0
LINE
  5
10F
100
AcDbEntity
  8
M0
  6
DASHDOT
 62
     4
100
AcDbLine
 10
254.025856
 20
172.996103
 11
254.025856
 21
268.996103
  0
LINE
  5
110
100
AcDbEntity
  8
M0
  6
DASHDOT
 62
     4
100
AcDbLine
 10
178.025856
 20
172.996103
 11
178.025856
 21
268.996103
  0
LINE
  5
111
100
AcDbEntity
  8
M0
  6
DASHDOT
 62
     4
100
AcDbLine
 10
178.025856
 20
268.996103
 11
254.025856
 21
268.996103
  0
LINE
  5
112
100
AcDbEntity
  8
M0
  6
DASHED
 62
     2
100
AcDbLine
 10
364.890288
 20
486.035981
 11
364.890288
 21
475.250284
  0
LINE
  5
113
100
AcDbEntity
  8
M0
  6
DASHDOT
 62
     2
100
AcDbLine
 10
376.540782
 20
480.595374
 11
354.997003
 21
480.595374
  0
LINE
  5
114
100
AcDbEntity
  8
M0
  6
DASHED
 62
     2
100
AcDbLine
 10
364.890288
 20
555.154749
 11
364.890288
 21
565.940446
  0
LINE
  5
115
100
AcDbEntity
  8
M0
  6
DASHDOT
 62
     2
100
AcDbLine
 10
376.540782
 20
560.595356
 11
354.997003
 21
560.595356
  0
LINE
  5
116
100
AcDbEntity
  8
M0
  6
DASHDOT
100
AcDbLine
 10
356.890301
 20
566.745365
 11
356.890301
 21
558.445365
  0
LINE
  5
117
100
AcDbEntity
  8
M0
  6
DASHDOT
100
AcDbLine
 10
347.019238
 20
562.595365
 11
396.890297
 21
562.595365
  0
LINE
  5
118
100
AcDbEntity
  8
M0
  6
DASHDOT
100
AcDbLine
 10
356.890301
 20
474.445365
 11
356.890301
 21
482.745365
  0
LINE
  5
119
100
AcDbEntity
  8
M0
  6
DASHDOT
100
AcDbLine
 10
347.019238
 20
478.595365
 11
396.890297
 21
478.595365
  0
LINE
  5
11A
100
AcDbEntity
  8
M0
  6
DASHDOT
100
AcDbLine
 10
395.690297
 20
463.595359
 11
395.690297
 21
473.595359
  0
LINE
  5
11B
100
AcDbEntity
  8
M0
  6
DASHDOT
100
AcDbLine
 10
390.690297
 20
468.595359
 11
400.690297
 21
468.595359
  0
LINE
  5
11C
100
AcDbEntity
  8
M0
  6
DASHDOT
100
AcDbLine
 10
395.690297
 20
567.595371
 11
395.690297
 21
577.595371
  0
LINE
  5
11D
100
AcDbEntity
  8
M0
  6
DASHDOT
100
AcDbLine
 10
390.690297
 20
572.595371
 11
400.690297
 21
572.595371
  0
LINE
  5
11E
100
AcDbEntity
  8
M0
  6
DASHDOT
100
AcDbLine
 10
186.525856
 20
468.595365
 11
196.525856
 21
468.595365
  0
LINE
  5
11F
100
AcDbEntity
  8
M0
  6
DASHDOT
100
AcDbLine
 10
191.525856
 20
463.595365
 11
191.525856
 21
473.595365
  0
LINE
  5
120
100
AcDbEntity
  8
M0
  6
DASHDOT
100
AcDbLine
 10
246.525856
 20
468.595365
 11
236.525856
 21
468.595365
  0
LINE
  5
121
100
AcDbEntity
  8
M0
  6
DASHDOT
100
AcDbLine
 10
241.525856
 20
463.595365
 11
241.525856
 21
473.595365
  0
LINE
  5
122
100
AcDbEntity
  8
M0
  6
DASHDOT
100
AcDbLine
 10
186.525856
 20
572.595365
 11
196.525856
 21
572.595365
  0
LINE
  5
123
100
AcDbEntity
  8
M0
  6
DASHDOT
100
AcDbLine
 10
191.525856
 20
577.595365
 11
191.525856
 21
567.595365
  0
LINE
  5
124
100
AcDbEntity
  8
M0
  6
DASHDOT
100
AcDbLine
 10
246.525856
 20
572.595365
 11
236.525856
 21
572.595365
  0
LINE
  5
125
100
AcDbEntity
  8
M0
  6
DASHDOT
100
AcDbLine
 10
241.525856
 20
577.595365
 11
241.525856
 21
567.595365
  0
CIRCLE
  5
126
100
AcDbEntity
  8
M0
100
AcDbCircle
 10
229.025848
 20
478.595365
 40
2.5
  0
CIRCLE
  5
127
100
AcDbEntity
  8
M0
100
AcDbCircle
 10
204.025848
 20
562.595355
 40
2.5
  0
LINE
  5
128
100
AcDbEntity
  8
M0
  6
DASHDOT
100
AcDbLine
 10
221.525848
 20
478.595365
 11
236.525848
 21
478.595365
  0
LINE
  5
129
100
AcDbEntity
  8
M0
  6
DASHDOT
100
AcDbLine
 10
229.025848
 20
471.095365
 11
229.025848
 21
486.095365
  0
LINE
  5
12A
100
AcDbEntity
  8
M0
  6
DASHDOT
100
AcDbLine
 10
196.525848
 20
562.595355
 11
211.525848
 21
562.595355
  0
LINE
  5
12B
100
AcDbEntity
  8
M0
  6
DASHDOT
100
AcDbLine
 10
204.025848
 20
555.095355
 11
204.025848
 21
570.095355
  0
LINE
  5
12C
100
AcDbEntity
  8
M0
  6
DASHDOT
 62
     2
100
AcDbLine
 10
191.525848
 20
473.595364
 11
191.525848
 21
487.595364
  0
LINE
  5
12D
100
AcDbEntity
  8
M0
  6
DASHDOT
 62
     2
100
AcDbLine
 10
184.525848
 20
480.595364
 11
198.525848
 21
480.595364
  0
LINE
  5
12E
100
AcDbEntity
  8
M0
  6
DASHDOT
 62
     2
100
AcDbLine
 10
216.525848
 20
473.595364
 11
216.525848
 21
487.595364
  0
LINE
  5
12F
100
AcDbEntity
  8
M0
  6
DASHDOT
 62
     2
100
AcDbLine
 10
209.525848
 20
480.595364
 11
223.525848
 21
480.595364
  0
LINE
  5
130
100
AcDbEntity
  8
M0
  6
DASHDOT
 62
     2
100
AcDbLine
 10
241.525864
 20
473.595364
 11
241.525864
 21
487.595364
  0
LINE
  5
131
100
AcDbEntity
  8
M0
  6
DASHDOT
 62
     2
100
AcDbLine
 10
248.525864
 20
480.595364
 11
234.525864
 21
480.595364
  0
LINE
  5
132
100
AcDbEntity
  8
M0
  6
DASHDOT
 62
     2
100
AcDbLine
 10
191.525848
 20
567.595366
 11
191.525848
 21
553.595366
  0
LINE
  5
133
100
AcDbEntity
  8
M0
  6
DASHDOT
 62
     2
100
AcDbLine
 10
184.525848
 20
560.595366
 11
198.525848
 21
560.595366
  0
LINE
  5
134
100
AcDbEntity
  8
M0
  6
DASHDOT
 62
     2
100
AcDbLine
 10
216.525848
 20
567.595366
 11
216.525848
 21
553.595366
  0
LINE
  5
135
100
AcDbEntity
  8
M0
  6
DASHDOT
 62
     2
100
AcDbLine
 10
209.525848
 20
560.595366
 11
223.525848
 21
560.595366
  0
LINE
  5
136
100
AcDbEntity
  8
M0
  6
DASHDOT
 62
     2
100
AcDbLine
 10
241.525864
 20
567.595366
 11
241.525864
 21
553.595366
  0
LINE
  5
137
100
AcDbEntity
  8
M0
  6
DASHDOT
 62
     2
100
AcDbLine
 10
248.525864
 20
560.595366
 11
234.525864
 21
560.595366
  0
LINE
  5
138
100
AcDbEntity
  8
M0
 62
     4
100
AcDbLine
 10
220.825848
 20
407.915372
 11
220.825848
 21
418.807275
  0
LINE
  5
139
100
AcDbEntity
  8
M0
 62
     4
100
AcDbLine
 10
212.225848
 20
407.915372
 11
212.225848
 21
418.807275
  0
LINE
  5
13A
100
AcDbEntity
  8
M0
 62
     4
100
AcDbLine
 10
220.825848
 20
418.807275
 11
212.225848
 21
418.807275
  0
LINE
  5
13B
100
AcDbEntity
  8
M0
 62
     4
100
AcDbLine
 10
252.525856
 20
402.915372
 11
252.525856
 21
407.915372
  0
LINE
  5
13C
100
AcDbEntity
  8
M0
 62
     4
100
AcDbLine
 10
180.525856
 20
407.915372
 11
252.525856
 21
407.915372
  0
LINE
  5
13D
100
AcDbEntity
  8
M0
 62
     4
100
AcDbLine
 10
254.025856
 20
402.915372
 11
254.025856
 21
342.915378
  0
LINE
  5
13E
100
AcDbEntity
  8
M0
 62
     4
100
AcDbLine
 10
180.525856
 20
402.915372
 11
180.525856
 21
407.915372
  0
LINE
  5
13F
100
AcDbEntity
  8
M0
 62
     4
100
AcDbLine
 10
179.025856
 20
402.915372
 11
179.025856
 21
342.915378
  0
LINE
  5
140
100
AcDbEntity
  8
M0
 62
     4
100
AcDbLine
 10
254.025856
 20
342.915378
 11
179.025856
 21
342.915378
  0
LINE
  5
141
100
AcDbEntity
  8
M0
 62
     4
100
AcDbLine
 10
254.025856
 20
402.915372
 11
179.025856
 21
402.915372
  0
LINE
  5
142
100
AcDbEntity
  8
M0
  6
DASHDOT
100
AcDbLine
 10
204.025856
 20
342.915378
 11
204.025856
 21
390.961651
  0
LINE
  5
143
100
AcDbEntity
  8
M0
  6
DASHDOT
100
AcDbLine
 10
208.175856
 20
382.915378
 11
199.875856
 21
382.915378
  0
LINE
  5
144
100
AcDbEntity
  8
M0
  6
DASHDOT
100
AcDbLine
 10
229.025856
 20
342.915378
 11
229.025856
 21
390.961651
  0
LINE
  5
145
100
AcDbEntity
  8
M0
  6
DASHDOT
100
AcDbLine
 10
233.175856
 20
382.915378
 11
224.875856
 21
382.915378
  0
LINE
  5
146
100
AcDbEntity
  8
M0
  6
DASHDOT
100
AcDbLine
 10
191.525856
 20
339.419827
 11
191.525856
 21
348.880401
  0
LINE
  5
147
100
AcDbEntity
  8
M0
  6
DASHDOT
100
AcDbLine
 10
185.525856
 20
344.115378
 11
197.525856
 21
344.115378
  0
LINE
  5
148
100
AcDbEntity
  8
M0
  6
DASHDOT
100
AcDbLine
 10
241.525856
 20
339.419827
 11
241.525856
 21
348.880401
  0
LINE
  5
149
100
AcDbEntity
  8
M0
  6
DASHDOT
100
AcDbLine
 10
235.525856
 20
344.115378
 11
247.525856
 21
344.115378
  0
LINE
  5
14A
100
AcDbEntity
  8
M0
  6
DASHDOT
 62
     2
100
AcDbLine
 10
191.525856
 20
368.34857
 11
191.525856
 21
381.270331
  0
LINE
  5
14B
100
AcDbEntity
  8
M0
  6
DASHDOT
 62
     2
100
AcDbLine
 10
185.525856
 20
374.915378
 11
197.525856
 21
374.915378
  0
LINE
  5
14C
100
AcDbEntity
  8
M0
  6
DASHDOT
 62
     2
100
AcDbLine
 10
210.525856
 20
374.915378
 11
222.525856
 21
374.915378
  0
LINE
  5
14D
100
AcDbEntity
  8
M0
  6
DASHDOT
 62
     2
100
AcDbLine
 10
216.525856
 20
381.270331
 11
216.525856
 21
368.34857
  0
LINE
  5
14E
100
AcDbEntity
  8
M0
  6
DASHDOT
 62
     2
100
AcDbLine
 10
241.525856
 20
368.34857
 11
241.525856
 21
381.270331
  0
LINE
  5
14F
100
AcDbEntity
  8
M0
  6
DASHDOT
 62
     2
100
AcDbLine
 10
235.525856
 20
374.915378
 11
247.525856
 21
374.915378
  0
LINE
  5
150
100
AcDbEntity
  8
M0
100
AcDbLine
 10
214.758081
 20
558.82759
 11
218.293615
 21
562.363123
  0
LINE
  5
151
100
AcDbEntity
  8
M0
100
AcDbLine
 10
218.293615
 20
558.82759
 11
214.758081
 21
562.363123
  0
INSERT
  5
175
100
AcDbEntity
  8
DT0
100
AcDbBlockReference
  2
LIST0
 10
0.0
 20
0.0
  0
ENDSEC
  0
SECTION
  2
OBJECTS
  0
DICTIONARY
  5
C
100
AcDbDictionary
  3
ACAD_GROUP
350
D
  3
ACAD_MLINESTYLE
350
E
  0
DICTIONARY
  5
D
102
{ACAD_REACTORS
330
C
102
}
100
AcDbDictionary
  0
DICTIONARY
  5
E
102
{ACAD_REACTORS
330
C
102
}
100
AcDbDictionary
  3
STANDARD
350
13
  0
MLINESTYLE
  5
13
102
{ACAD_REACTORS
330
E
102
}
100
AcDbMlineStyle
  2
STANDARD
 70
     0
  3

 62
     0
 51
90.0
 52
90.0
 71
     2
 49
0.5
 62
   256
  6
BYLAYER
 49
-0.5
 62
   256
  6
BYLAYER
  0
ENDSEC
  0
EOF
