  0
SECTION
  2
HEADER
  9
$ACADVER
  1
AC1015
  9
$INSBASE
 10
0.000000
 20
0.000000
 30
0.0
  9
$VIEWCTR
 10
7.531722
 20
4.5
  9
$VIEWSIZE
 40
9.0
  9
$SNAPMODE
 70
     0
  9
$SNAPUNIT
 10
1.0
 20
1.0
  9
$SNAPBASE
 10
0.0
 20
0.0
  9
$SNAPANG
 50
0.0
  9
$SNAPSTYLE
 70
     0
  9
$SNAPISOPAIR
 70
     0
  9
$GRIDMODE
 70
     0
  9
$GRIDUNIT
 10
0.0
 20
0.0
  9
$ORTHOMODE
 70
     0
  9
$REGENMODE
 70
     1
  9
$FILLMODE
 70
     1
  9
$QTEXTMODE
 70
     0
  9
$DRAGMODE
 70
     2
  9
$LTSCALE
  40
     1.000000
  9
$OSMODE
 70
     0
  9
$ATTMODE
 70
     1
  9
$TEXTSIZE
 40
0.2
  9
$TRACEWID
 40
0.05
  9
$TEXTSTYLE
  7
STANDARD
  9
$CELTYPE
  6
BYLAYER
  9
$CECOLOR
 62
   256
  9
$DIMSCALE
 40
1.0
  9
$DIMASZ
 40
0.18
  9
$DIMEXO
 40
0.0625
  9
$DIMDLI
 40
0.38
  9
$DIMRND
 40
0.0
  9
$DIMDLE
 40
0.0
  9
$DIMEXE
 40
0.18
  9
$DIMTP
 40
0.0
  9
$DIMTM
 40
0.0
  9
$DIMTXT
 40
0.18
  9
$DIMCEN
 40
0.09
  9
$DIMTSZ
 40
0.0
  9
$DIMADEC
 70
     0
  9
$DIMALTRND
 40
0.000000
  9
$DIMAZIN
 70
     0
  9
$DIMDSEP
 70
    46
  9
$DIMATFIT
 70
     3
  9
$DIMFRAC
 70
     0
  9
$DIMLDRBLK
  1

  9
$DIMLUNIT
 70
     2
  9
$DIMLWD
 70
   13
  9
$DIMLWE
 70
   13
  9
$DIMTMOVE
 70
     0
  9
$CELWEIGHT
370
    25
  9
$LWDISPLAY
290
    1
  9
$EXTNAMES
290
    1
  9
$DIMTOL
 70
     0
  9
$DIMLIM
 70
     0
  9
$DIMTIH
 70
     1
  9
$DIMTOH
 70
     1
  9
$DIMSE1
 70
     0
  9
$DIMSE2
 70
     0
  9
$DIMTAD
 70
     0
  9
$DIMZIN
 70
     0
  9
$DIMBLK
  1

  9
$LUNITS
 70
     2
  9
$LUPREC
 70
     4
  9
$AXISMODE
 70
     0
  9
$AXISUNIT
 10
0.0
 20
0.0
  9
$SKETCHINC
 40
0.1
  9
$FILLETRAD
 40
0.0
  9
$AUNITS
 70
     0
  9
$AUPREC
 70
     0
  9
$MENU
  1
ACAD
  9
$ELEVATION
 40
0.0
  9
$THICKNESS
 40
0.0
  9
$VIEWDIR
 10
0.0
 20
0.0
 30
1.0
  9
$LIMCHECK
 70
     0
  9
$BLIPMODE
 70
     1
  9
$CHAMFERA
 40
0.0
  9
$CHAMFERB
 40
0.0
  9
$FASTZOOM
 70
     1
  9
$SKPOLY
 70
     0
  9
$TDCREATE
 40
0000000.0000000000
  9
$TDUPDATE
 40
0000000.0000000000
  9
$TDINDWG
 40
0.0000000000
  9
$TDUSRTIMER
 40
0.0000000000
  9
$USRTIMER
 70
     1
  9
$ANGBASE
 50
0.0
  9
$ANGDIR
 70
     0
  9
$PDMODE
 70
     0
  9
$PDSIZE
 40
0.0
  9
$PLINEWID
 40
0.0
  9
$COORDS
 70
     0
  9
$USERI1
 70
     0
  9
$USERI2
 70
     0
  9
$USERI3
 70
     0
  9
$USERI4
 70
     0
  9
$USERI5
 70
     0
  9
$USERR1
 40
0.0
  9
$USERR2
 40
0.0
  9
$USERR3
 40
0.0
  9
$USERR4
 40
0.0
  9
$USERR5
 40
0.0
  9
$CLAYER
  8
M1
  9
$EXTMIN
 10
0.0
 20
0.0
  9
$EXTMAX
 10
841.0
 20
594.0
  9
$LIMMIN
 10
0.0
 20
0.0
  9
$LIMMAX
 10
841.0
 20
594.0
  9
$HANDSEED
  5
133
  0
ENDSEC
  0
SECTION
  2
CLASSES
  0
CLASS
  1
DIMASSOC
  2
AcDbDimAssoc
  3
"AcDbDimAssoc|Product Desc:     AcDim ARX App For Dimension|Company:          Autodesk, Inc.|WEB Address:      www.autodesk.com"
 90
        0
280
     0
281
     0
  0
ENDSEC
  0
SECTION
  2
TABLES
  0
TABLE
  2
VPORT
  5
8
100
AcDbSymbolTable
 70
     2
  0
VPORT
  5
14
100
AcDbSymbolTableRecord
100
AcDbViewportTableRecord
  2
*ACTIVE
 70
     0
 10
0.0
 20
0.0
 11
1.0
 21
1.0
 12
484.0
 22
297.0
 13
0.0
 23
0.0
 14
1.0
 24
1.0
 15
0.0
 25
0.0
 16
0.0
 26
0.0
 36
1.0
 17
0.0
 27
0.0
 37
0.0
 40
594.0
 41
2.0
 42
50.0
 43
0.0
 44
0.0
 50
0.0
 51
0.0
 71
     0
 72
   100
 73
     1
 74
     1
 75
     0
 76
     0
 77
     0
 78
     0
  0
ENDTAB
  0
TABLE
  2
LTYPE
  5
5
100
AcDbSymbolTable
 70
     5
  0
LTYPE
  5
15
100
AcDbSymbolTableRecord
100
AcDbLinetypeTableRecord
  2
BYBLOCK
 70
     0
  3

 72
    65
 73
     0
 40
0.0
  0
LTYPE
  5
16
100
AcDbSymbolTableRecord
100
AcDbLinetypeTableRecord
  2
BYLAYER
 70
     0
  3

 72
    65
 73
     0
 40
0.0
  0
LTYPE
  5
17
100
AcDbSymbolTableRecord
100
AcDbLinetypeTableRecord
  2
CONTINUOUS
 70
    64
  3
Solid line
 72
    65
 73
     0
 40
0.0
  0
LTYPE
  5
18
100
AcDbSymbolTableRecord
100
AcDbLinetypeTableRecord
  2
DASHED
 70
    64
  3
__ __ __ __ __ __ __ __ __ __ __ __ __ __ __ __
 72
    65
 73
     2
 40
0.75
 49
0.5
 74
     0
 49
-0.25
 74
     0
  0
LTYPE
  5
19
100
AcDbSymbolTableRecord
100
AcDbLinetypeTableRecord
  2
DASHDOT
 70
    64
  3
__ . __ . __ . __ . __ . __ . __ . __ . __ . __
 72
    65
 73
     4
 40
1.0
 49
0.5
 74
     0
 49
-0.25
 74
     0
 49
0.0
 74
     0
 49
-0.25
 74
     0
  0
LTYPE
  5
1A
100
AcDbSymbolTableRecord
100
AcDbLinetypeTableRecord
  2
DIVIDE
 70
    64
  3
____ . . ____ . . ____ . . ____ . . ____ . . __
 72
    65
 73
     6
 40
1.25
 49
0.5
 74
     0
 49
-0.25
 74
     0
 49
0.0
 74
     0
 49
-0.25
 74
     0
 49
0.0
 74
     0
 49
-0.25
 74
     0
  0
LTYPE
  5
1B
100
AcDbSymbolTableRecord
100
AcDbLinetypeTableRecord
  2
DOT
 70
    64
  3
. . . . . . . . . . . . . . . . . . . . . . . .
 72
    65
 73
     2
 40
0.25
 49
0.0
 74
     0
 49
-0.25
 74
     0
  0
ENDTAB
  0
TABLE
  2
LAYER
  5
2
100
AcDbSymbolTable
 70
   102
  0
LAYER
  5
F
100
AcDbSymbolTableRecord
100
AcDbLayerTableRecord
  2
0
 70
     0
 62
     7
  6
CONTINUOUS
370
     -3
390
F
  0
LAYER
  5
1C
100
AcDbSymbolTableRecord
100
AcDbLayerTableRecord
  2
M1
 70
     0
 62
     3
  6
CONTINUOUS
370
     -3
390
F
  0
LAYER
  5
1D
100
AcDbSymbolTableRecord
100
AcDbLayerTableRecord
  2
M2
 70
     0
 62
     7
  6
CONTINUOUS
370
     -3
390
F
  0
ENDTAB
  0
TABLE
  2
STYLE
  5
3
100
AcDbSymbolTable
 70
     2
  0
STYLE
  5
10
100
AcDbSymbolTableRecord
100
AcDbTextStyleTableRecord
  2
STANDARD
 70
     0
 40
0.0
 41
1.0
 50
0.0
 71
     0
 42
0.2
  3
txt
  4
BIGFONT
  0
ENDTAB
  0
TABLE
  2
VIEW
  5
6
100
AcDbSymbolTable
 70
     0
  0
ENDTAB
  0
TABLE
  2
UCS
  5
7
100
AcDbSymbolTable
 70
     0
  0
ENDTAB
  0
TABLE
  2
APPID
  5
9
100
AcDbSymbolTable
 70
     1
  0
APPID
  5
11
100
AcDbSymbolTableRecord
100
AcDbRegAppTableRecord
  2
ACAD
 70
     0
  0
ENDTAB
  0
TABLE
  2
DIMSTYLE
  5
A
100
AcDbSymbolTable
 70
     2
100
AcDbDimStyleTable
 71
     1
  0
DIMSTYLE
105
46
100
AcDbSymbolTableRecord
100
AcDbDimStyleTableRecord
  2
STANDARD
 70
     0
  3

  4

  5

  6
_OPEN
  7
_OPEN
 40
1.0
 41
3.0
 42
0.0
 43
8.0
 44
1.5
 45
0.0
 46
0.0
 47
0.0
 48
0.0
140
3.2
141
0.09
142
0.0
143
0.03937
144
1.0
145
0.0
146
1.0
147
1.0
148
0.000000
 71
     0
 72
     0
 73
     1
 74
     1
 75
     0
 76
     0
 77
     3
 78
     8
170
     0
171
     2
172
     0
173
     1
174
     0
175
     0
176
     0
177
     0
178
     0
270
     2
271
     2
272
     4
273
     2
274
     2
340
10
275
     0
278
    46
280
     0
281
     0
282
     0
283
     1
284
     0
285
     0
286
     0
287
     3
288
     0
371
   13
372
   13
  0
DIMSTYLE
105
47
100
AcDbSymbolTableRecord
100
AcDbDimStyleTableRecord
  2
LEADSTYL
 70
     0
  3

  4

  5

  6
_OPEN
  7
_OPEN
 40
1.0
 41
3.0
 42
0.0625
 43
0.38
 44
0.18
 45
0.0
 46
0.0
 47
0.0
 48
0.0
140
3.2
141
0.09
142
0.0
143
25.4
144
1.0
145
0.0
146
1.0
147
1.0
 71
     0
 72
     0
 73
     1
 74
     1
 75
     0
 76
     0
 77
     0
 78
     0
170
     0
171
     2
172
     0
173
     1
174
     0
175
     0
176
     0
177
     0
178
     0
270
     2
271
     4
272
     4
273
     2
274
     2
340
10
275
     0
280
     0
281
     0
282
     0
283
     1
284
     0
285
     0
286
     0
287
     3
288
     0
  0
ENDTAB
  0
TABLE
  2
BLOCK_RECORD
  5
1
100
AcDbSymbolTable
 70
     6
  0
BLOCK_RECORD
  5
1E
100
AcDbSymbolTableRecord
100
AcDbBlockTableRecord
  2
*MODEL_SPACE
  0
BLOCK_RECORD
  5
21
100
AcDbSymbolTableRecord
100
AcDbBlockTableRecord
  2
*PAPER_SPACE
  0
BLOCK_RECORD
  5
24
100
AcDbSymbolTableRecord
100
AcDbBlockTableRecord
  2
_NONE
  0
BLOCK_RECORD
  5
28
100
AcDbSymbolTableRecord
100
AcDbBlockTableRecord
  2
_OPEN
  0
BLOCK_RECORD
  5
2E
100
AcDbSymbolTableRecord
100
AcDbBlockTableRecord
  2
_CLOSED
  0
BLOCK_RECORD
  5
35
100
AcDbSymbolTableRecord
100
AcDbBlockTableRecord
  2
_ORIGIN
  0
BLOCK_RECORD
  5
3A
100
AcDbSymbolTableRecord
100
AcDbBlockTableRecord
  2
_DOT
  0
BLOCK_RECORD
  5
42
100
AcDbSymbolTableRecord
100
AcDbBlockTableRecord
  2
_OBLIQUE
  0
ENDTAB
  0
ENDSEC
  0
SECTION
  2
BLOCKS
  0
BLOCK
  5
1F
100
AcDbEntity
  8
0
100
AcDbBlockBegin
  2
*MODEL_SPACE
 70
     0
 10
0.0
 20
0.0
 30
0.0
  3
*MODEL_SPACE
  1

  0
ENDBLK
  5
20
100
AcDbEntity
  8
0
100
AcDbBlockEnd
  0
BLOCK
  5
22
100
AcDbEntity
 67
     1
  8
0
100
AcDbBlockBegin
  2
*PAPER_SPACE
 70
     0
 10
0.0
 20
0.0
 30
0.0
  3
*PAPER_SPACE
  1

  0
ENDBLK
  5
23
100
AcDbEntity
 67
     1
  8
0
100
AcDbBlockEnd
  0
BLOCK
  5
25
100
AcDbEntity
  8
0
100
AcDbBlockBegin
  2
_NONE
 70
     0
 10
0.0
 20
0.0
  0
CIRCLE
  5
26
100
AcDbEntity
  8
0
 62
     0
370
13
100
AcDbCircle
 10
0.0
 20
0.0
 40
0.25
  0
ENDBLK
  5
27
100
AcDbEntity
  8
0
100
AcDbBlockEnd
  0
BLOCK
  5
29
100
AcDbEntity
  8
0
100
AcDbBlockBegin
  2
_OPEN
 70
     0
 10
0.0
 20
0.0
  0
LINE
  5
2A
100
AcDbEntity
  8
0
 62
     0
370
13
100
AcDbLine
 10
-0.965926
 20
0.258819
 11
0.0
 21
0.0
  0
LINE
  5
2B
100
AcDbEntity
  8
0
 62
     0
370
13
100
AcDbLine
 10
0.0
 20
0.0
 11
-0.965926
 21
-0.258819
  0
LINE
  5
2C
100
AcDbEntity
  8
0
 62
     0
370
13
100
AcDbLine
 10
0.0
 20
0.0
 11
-1.0
 21
0.0
  0
ENDBLK
  5
2D
100
AcDbEntity
  8
0
100
AcDbBlockEnd
  0
BLOCK
  5
2F
100
AcDbEntity
  8
0
100
AcDbBlockBegin
  2
_CLOSED
 70
     0
 10
0.0
 20
0.0
  0
LINE
  5
30
100
AcDbEntity
  8
0
 62
     0
370
13
100
AcDbLine
 10
-0.965926
 20
0.258819
 11
0.0
 21
0.0
  0
LINE
  5
31
100
AcDbEntity
  8
0
 62
     0
370
13
100
AcDbLine
 10
0.0
 20
0.0
 11
-0.965926
 21
-0.258819
  0
LINE
  5
32
100
AcDbEntity
  8
0
 62
     0
370
13
100
AcDbLine
 10
-0.965926
 20
0.258819
 11
-0.965926
 21
-0.258819
  0
LINE
  5
33
100
AcDbEntity
  8
0
 62
     0
370
13
100
AcDbLine
 10
0.0
 20
0.0
 11
-1.0
 21
0.0
  0
ENDBLK
  5
34
100
AcDbEntity
  8
0
100
AcDbBlockEnd
  0
BLOCK
  5
36
100
AcDbEntity
  8
0
100
AcDbBlockBegin
  2
_ORIGIN
 70
     0
 10
0.0
 20
0.0
  0
CIRCLE
  5
37
100
AcDbEntity
  8
0
 62
     0
370
13
100
AcDbCircle
 10
0.0
 20
0.0
 40
0.5
  0
LINE
  5
38
100
AcDbEntity
  8
0
 62
     0
370
13
100
AcDbLine
 10
0.0
 20
0.0
 11
-1.0
 21
0.0
  0
ENDBLK
  5
39
100
AcDbEntity
  8
0
100
AcDbBlockEnd
  0
BLOCK
  5
3B
100
AcDbEntity
  8
0
100
AcDbBlockBegin
  2
_DOT
 70
     0
 10
0.0
 20
0.0
  0
POLYLINE
  5
3C
100
AcDbEntity
  8
0
 62
     0
100
AcDb2dPolyline
 66
     1
 70
     1
 40
0.5
 41
0.5
  0
VERTEX
  5
3D
100
AcDbEntity
  8
0
 62
     0
100
AcDbVertex
100
AcDb2dVertex
 10
-0.25
 20
0.0
 42
1.0
  0
VERTEX
  5
3E
100
AcDbEntity
  8
0
 62
     0
100
AcDbVertex
100
AcDb2dVertex
 10
0.25
 20
0.0
 42
1.0
  0
SEQEND
  5
3F
100
AcDbEntity
  8
0
 62
     0
  0
LINE
  5
40
100
AcDbEntity
  8
0
 62
     0
370
13
100
AcDbLine
 10
-0.5
 20
0.0
 11
-1.0
 21
0.0
  0
ENDBLK
  5
41
100
AcDbEntity
  8
0
100
AcDbBlockEnd
  0
BLOCK
  5
43
100
AcDbEntity
  8
0
100
AcDbBlockBegin
  2
_OBLIQUE
 70
     0
 10
0.0
 20
0.0
  0
LINE
  5
44
100
AcDbEntity
  8
0
 62
     0
370
13
100
AcDbLine
 10
-0.353553
 20
-0.353553
 11
0.353553
 21
0.353553
  0
ENDBLK
  5
45
100
AcDbEntity
  8
0
100
AcDbBlockEnd
  0
ENDSEC
  0
SECTION
  2
ENTITIES
  0
ARC
  5
48
100
AcDbEntity
  8
M1
  6
CONTINUOUS
370
25
 62
     4
100
AcDbCircle
 10
247.881405
 20
457.79892
 40
43.999809
100
AcDbArc
 50
166.394399
 51
180.0
  0
LINE
  5
49
100
AcDbEntity
  8
M1
  6
CONTINUOUS
370
25
 62
     4
100
AcDbLine
 10
205.106502
 20
468.151215
 11
204.343197
 21
464.224701
  0
LINE
  5
4A
100
AcDbEntity
  8
M1
  6
CONTINUOUS
370
25
 62
     4
100
AcDbLine
 10
218.377133
 20
455.649506
 11
218.377133
 21
455.649383
  0
LINE
  5
4B
100
AcDbEntity
  8
M1
  6
CONTINUOUS
370
25
 62
     4
100
AcDbLine
 10
204.353085
 20
464.22287
 11
215.381649
 21
461.480561
  0
LINE
  5
4C
100
AcDbEntity
  8
M1
  6
CONTINUOUS
370
25
 62
     4
100
AcDbLine
 10
205.116391
 20
468.149383
 11
215.381649
 21
466.699799
  0
LINE
  5
4D
100
AcDbEntity
  8
M1
  6
CONTINUOUS
370
25
 62
     4
100
AcDbLine
 10
218.37701
 20
455.649383
 11
218.377133
 21
455.649506
  0
LINE
  5
4E
100
AcDbEntity
  8
M1
  6
CONTINUOUS
370
25
 62
     4
100
AcDbLine
 10
219.284725
 20
450.224823
 11
219.284848
 21
450.224945
  0
LINE
  5
4F
100
AcDbEntity
  8
M1
  6
CONTINUOUS
370
25
 62
     4
100
AcDbLine
 10
221.881649
 20
393.54892
 11
240.881649
 21
393.54892
  0
LINE
  5
50
100
AcDbEntity
  8
M1
  6
CONTINUOUS
370
25
 62
     4
100
AcDbLine
 10
270.381649
 20
393.54892
 11
270.381649
 21
522.04892
  0
LINE
  5
51
100
AcDbEntity
  8
M1
  6
CONTINUOUS
370
25
 62
     4
100
AcDbLine
 10
270.381649
 20
522.04892
 11
221.881649
 21
522.04892
  0
LINE
  5
52
100
AcDbEntity
  8
M1
  6
CONTINUOUS
370
25
 62
     4
100
AcDbLine
 10
215.381649
 20
480.29892
 11
215.381649
 21
435.29892
  0
LINE
  5
53
100
AcDbEntity
  8
M1
  6
CONTINUOUS
370
25
 62
     4
100
AcDbLine
 10
218.881649
 20
503.04892
 11
218.881649
 21
412.54892
  0
LINE
  5
54
100
AcDbEntity
  8
M1
  6
CONTINUOUS
370
25
 62
     4
100
AcDbLine
 10
221.881649
 20
393.54892
 11
221.881649
 21
412.54892
  0
LINE
  5
55
100
AcDbEntity
  8
M1
  6
CONTINUOUS
370
25
 62
     4
100
AcDbLine
 10
218.881649
 20
503.04892
 11
221.881649
 21
503.04892
  0
LINE
  5
56
100
AcDbEntity
  8
M1
  6
CONTINUOUS
370
25
 62
     4
100
AcDbLine
 10
215.381649
 20
480.29892
 11
218.881649
 21
480.29892
  0
LINE
  5
57
100
AcDbEntity
  8
M1
  6
CONTINUOUS
370
25
 62
     4
100
AcDbLine
 10
215.381649
 20
435.29892
 11
218.881649
 21
435.29892
  0
LINE
  5
58
100
AcDbEntity
  8
M1
  6
CONTINUOUS
370
25
 62
     4
100
AcDbLine
 10
218.881649
 20
412.54892
 11
221.881649
 21
412.54892
  0
LINE
  5
59
100
AcDbEntity
  8
M1
  6
CONTINUOUS
370
25
 62
     4
100
AcDbLine
 10
240.381527
 20
393.54892
 11
270.381649
 21
393.54892
  0
LINE
  5
5A
100
AcDbEntity
  8
M1
  6
CONTINUOUS
370
25
 62
     4
100
AcDbLine
 10
253.381527
 20
393.548798
 11
249.381527
 21
393.548798
  0
LINE
  5
5B
100
AcDbEntity
  8
M1
  6
CONTINUOUS
370
25
 62
     4
100
AcDbLine
 10
218.131649
 20
480.29892
 11
218.881649
 21
480.29892
  0
LINE
  5
5C
100
AcDbEntity
  8
M1
  6
CONTINUOUS
370
25
 62
     4
100
AcDbLine
 10
218.131649
 20
435.29892
 11
218.881649
 21
435.29892
  0
LINE
  5
5D
100
AcDbEntity
  8
M1
  6
CONTINUOUS
370
25
 62
     4
100
AcDbLine
 10
218.881649
 20
503.17392
 11
221.881649
 21
503.17392
  0
LINE
  5
5E
100
AcDbEntity
  8
M1
  6
CONTINUOUS
370
25
 62
     4
100
AcDbLine
 10
270.381527
 20
522.04892
 11
270.381527
 21
500.049164
  0
LINE
  5
5F
100
AcDbEntity
  8
M1
  6
CONTINUOUS
370
25
 62
     4
100
AcDbLine
 10
268.381527
 20
522.04892
 11
270.381527
 21
522.04892
  0
LINE
  5
60
100
AcDbEntity
  8
M1
  6
CONTINUOUS
370
25
 62
     4
100
AcDbLine
 10
270.381527
 20
393.54892
 11
270.381527
 21
415.548675
  0
LINE
  5
61
100
AcDbEntity
  8
M1
  6
CONTINUOUS
370
25
 62
     4
100
AcDbLine
 10
268.381527
 20
393.54892
 11
270.381527
 21
393.54892
  0
LINE
  5
62
100
AcDbEntity
  8
M1
  6
DASHDOT
370
25
 62
     4
100
AcDbLine
 10
191.741674
 20
457.79892
 11
277.758007
 21
457.79892
  0
LINE
  5
63
100
AcDbEntity
  8
M1
  6
CONTINUOUS
370
25
 62
     4
100
AcDbLine
 10
221.881649
 20
503.17392
 11
221.881649
 21
522.048798
  0
LINE
  5
64
100
AcDbEntity
  8
M1
  6
CONTINUOUS
370
25
 62
     4
100
AcDbLine
 10
236.381649
 20
541.04892
 11
240.381649
 21
541.04892
  0
LINE
  5
65
100
AcDbEntity
  8
M1
  6
CONTINUOUS
370
25
 62
     4
100
AcDbLine
 10
249.381649
 20
541.04892
 11
249.381649
 21
522.04892
  0
LINE
  5
66
100
AcDbEntity
  8
M1
  6
CONTINUOUS
370
25
 62
     4
100
AcDbLine
 10
253.381649
 20
541.04892
 11
253.381649
 21
522.04892
  0
LINE
  5
67
100
AcDbEntity
  8
M1
  6
CONTINUOUS
370
25
 62
     4
100
AcDbLine
 10
236.381649
 20
541.04892
 11
236.381649
 21
527.798798
  0
LINE
  5
68
100
AcDbEntity
  8
M1
  6
CONTINUOUS
370
25
 62
     4
100
AcDbLine
 10
240.381649
 20
541.04892
 11
240.381649
 21
527.79892
  0
LINE
  5
69
100
AcDbEntity
  8
M1
  6
CONTINUOUS
370
25
 62
     4
100
AcDbLine
 10
242.131649
 20
526.04892
 11
249.381649
 21
526.04892
  0
ARC
  5
6A
100
AcDbEntity
  8
M1
  6
CONTINUOUS
370
25
 62
     4
100
AcDbCircle
 10
242.131649
 20
527.79892
 40
1.75
100
AcDbArc
 50
180.0
 51
270.0
  0
ARC
  5
6B
100
AcDbEntity
  8
M1
  6
CONTINUOUS
370
25
 62
     4
100
AcDbCircle
 10
242.131649
 20
527.798798
 40
5.749993
100
AcDbArc
 50
180.0
 51
270.0
  0
LINE
  5
6C
100
AcDbEntity
  8
M1
  6
CONTINUOUS
370
25
 62
     4
100
AcDbLine
 10
249.381649
 20
541.04892
 11
253.381649
 21
541.04892
  0
LINE
  5
6D
100
AcDbEntity
  8
M1
  6
CONTINUOUS
370
25
 62
     4
100
AcDbLine
 10
236.381649
 20
374.54892
 11
240.381649
 21
374.54892
  0
LINE
  5
6E
100
AcDbEntity
  8
M1
  6
CONTINUOUS
370
25
 62
     4
100
AcDbLine
 10
249.381649
 20
374.54892
 11
249.381649
 21
393.54892
  0
LINE
  5
6F
100
AcDbEntity
  8
M1
  6
CONTINUOUS
370
25
 62
     4
100
AcDbLine
 10
253.381649
 20
374.54892
 11
253.381649
 21
393.54892
  0
LINE
  5
70
100
AcDbEntity
  8
M1
  6
CONTINUOUS
370
25
 62
     4
100
AcDbLine
 10
236.381649
 20
374.54892
 11
236.381649
 21
387.799042
  0
LINE
  5
71
100
AcDbEntity
  8
M1
  6
CONTINUOUS
370
25
 62
     4
100
AcDbLine
 10
240.381649
 20
374.54892
 11
240.381649
 21
387.79892
  0
LINE
  5
72
100
AcDbEntity
  8
M1
  6
CONTINUOUS
370
25
 62
     4
100
AcDbLine
 10
242.131649
 20
389.54892
 11
249.381649
 21
389.54892
  0
ARC
  5
73
100
AcDbEntity
  8
M1
  6
CONTINUOUS
370
25
 62
     4
100
AcDbCircle
 10
242.131649
 20
387.79892
 40
1.75
100
AcDbArc
 50
90.0
 51
179.99975
  0
ARC
  5
74
100
AcDbEntity
  8
M1
  6
CONTINUOUS
370
25
 62
     4
100
AcDbCircle
 10
242.131649
 20
387.799042
 40
5.749993
100
AcDbArc
 50
90.0
 51
179.999924
  0
LINE
  5
75
100
AcDbEntity
  8
M1
  6
CONTINUOUS
370
25
 62
     4
100
AcDbLine
 10
249.381649
 20
374.54892
 11
253.381649
 21
374.54892
  0
CIRCLE
  5
76
100
AcDbEntity
  8
M1
  6
CONTINUOUS
370
25
100
AcDbCircle
 10
58.749999
 20
507.04892
 40
1.75
  0
LINE
  5
77
100
AcDbEntity
  8
M1
  6
DASHDOT
370
25
100
AcDbLine
 10
58.749999
 20
500.29892
 11
58.749999
 21
513.79892
  0
LINE
  5
78
100
AcDbEntity
  8
M1
  6
DASHDOT
370
25
100
AcDbLine
 10
65.499999
 20
507.04892
 11
51.999999
 21
507.04892
  0
LINE
  5
79
100
AcDbEntity
  8
M1
  6
DASHDOT
370
25
100
AcDbLine
 10
29.999999
 20
507.04892
 11
43.499999
 21
507.04892
  0
LINE
  5
7A
100
AcDbEntity
  8
M1
  6
DASHDOT
370
25
100
AcDbLine
 10
36.749999
 20
500.29892
 11
36.749999
 21
513.79892
  0
CIRCLE
  5
7B
100
AcDbEntity
  8
M1
  6
CONTINUOUS
370
25
100
AcDbCircle
 10
36.749999
 20
507.04892
 40
1.75
  0
LINE
  5
7C
100
AcDbEntity
  8
M1
  6
DASHDOT
370
25
100
AcDbLine
 10
58.749999
 20
415.29892
 11
58.749999
 21
401.79892
  0
LINE
  5
7D
100
AcDbEntity
  8
M1
  6
DASHDOT
370
25
100
AcDbLine
 10
65.499999
 20
408.54892
 11
51.999999
 21
408.54892
  0
CIRCLE
  5
7E
100
AcDbEntity
  8
M1
  6
CONTINUOUS
370
25
100
AcDbCircle
 10
58.749999
 20
408.54892
 40
1.75
  0
LINE
  5
7F
100
AcDbEntity
  8
M1
  6
DASHDOT
370
25
100
AcDbLine
 10
36.749999
 20
415.29892
 11
36.749999
 21
401.79892
  0
LINE
  5
80
100
AcDbEntity
  8
M1
  6
DASHDOT
370
25
100
AcDbLine
 10
29.999999
 20
408.54892
 11
43.499999
 21
408.54892
  0
CIRCLE
  5
81
100
AcDbEntity
  8
M1
  6
CONTINUOUS
370
25
100
AcDbCircle
 10
36.749999
 20
408.54892
 40
1.75
  0
LINE
  5
82
100
AcDbEntity
  8
M1
  6
DASHDOT
370
25
 62
     2
100
AcDbLine
 10
61.999999
 20
533.04892
 11
77.499999
 21
533.04892
  0
LINE
  5
83
100
AcDbEntity
  8
M1
  6
DASHDOT
370
25
 62
     2
100
AcDbLine
 10
69.749999
 20
525.29892
 11
69.749999
 21
540.79892
  0
LINE
  5
84
100
AcDbEntity
  8
M1
  6
DASHDOT
370
25
 62
     2
100
AcDbLine
 10
39.999999
 20
533.04892
 11
55.499999
 21
533.04892
  0
LINE
  5
85
100
AcDbEntity
  8
M1
  6
DASHDOT
370
25
 62
     2
100
AcDbLine
 10
47.749999
 20
525.29892
 11
47.749999
 21
540.79892
  0
LINE
  5
86
100
AcDbEntity
  8
M1
  6
DASHDOT
370
25
 62
     2
100
AcDbLine
 10
33.499999
 20
533.04892
 11
17.999999
 21
533.04892
  0
LINE
  5
87
100
AcDbEntity
  8
M1
  6
DASHDOT
370
25
 62
     2
100
AcDbLine
 10
25.749999
 20
525.29892
 11
25.749999
 21
540.79892
  0
LINE
  5
88
100
AcDbEntity
  8
M1
  6
DASHDOT
370
25
 62
     2
100
AcDbLine
 10
25.749999
 20
390.29892
 11
25.749999
 21
374.79892
  0
LINE
  5
89
100
AcDbEntity
  8
M1
  6
DASHDOT
370
25
 62
     2
100
AcDbLine
 10
33.499999
 20
382.54892
 11
17.999999
 21
382.54892
  0
LINE
  5
8A
100
AcDbEntity
  8
M1
  6
DASHDOT
370
25
 62
     2
100
AcDbLine
 10
47.749999
 20
390.29892
 11
47.749999
 21
374.79892
  0
LINE
  5
8B
100
AcDbEntity
  8
M1
  6
DASHDOT
370
25
 62
     2
100
AcDbLine
 10
39.999999
 20
382.54892
 11
55.499999
 21
382.54892
  0
LINE
  5
8C
100
AcDbEntity
  8
M1
  6
DASHDOT
370
25
 62
     2
100
AcDbLine
 10
69.749999
 20
390.29892
 11
69.749999
 21
374.79892
  0
LINE
  5
8D
100
AcDbEntity
  8
M1
  6
DASHDOT
370
25
 62
     2
100
AcDbLine
 10
61.999999
 20
382.54892
 11
77.499999
 21
382.54892
  0
LINE
  5
8E
100
AcDbEntity
  8
M1
  6
DASHDOT
370
25
 62
     2
100
AcDbLine
 10
91.749999
 20
525.29892
 11
91.749999
 21
540.79892
  0
LINE
  5
8F
100
AcDbEntity
  8
M1
  6
DASHDOT
370
25
 62
     2
100
AcDbLine
 10
83.999999
 20
533.04892
 11
99.499999
 21
533.04892
  0
LINE
  5
90
100
AcDbEntity
  8
M1
  6
DASHDOT
370
25
 62
     2
100
AcDbLine
 10
83.999999
 20
382.54892
 11
99.499999
 21
382.54892
  0
LINE
  5
91
100
AcDbEntity
  8
M1
  6
DASHDOT
370
25
 62
     2
100
AcDbLine
 10
91.749999
 20
390.29892
 11
91.749999
 21
374.79892
  0
LINE
  5
92
100
AcDbEntity
  8
M1
  6
DASHED
370
25
 62
     2
100
AcDbLine
 10
236.381649
 20
537.54892
 11
236.381649
 21
528.54892
  0
LINE
  5
93
100
AcDbEntity
  8
M1
  6
DASHDOT
370
25
 62
     2
100
AcDbLine
 10
230.836334
 20
533.04892
 11
240.381649
 21
533.04892
  0
LINE
  5
94
100
AcDbEntity
  8
M1
  6
DASHED
370
25
 62
     2
100
AcDbLine
 10
249.381649
 20
537.54892
 11
249.381649
 21
528.54892
  0
LINE
  5
95
100
AcDbEntity
  8
M1
  6
DASHDOT
370
25
 62
     2
100
AcDbLine
 10
244.219586
 20
533.04892
 11
253.381649
 21
533.04892
  0
LINE
  5
96
100
AcDbEntity
  8
M1
  6
DASHED
370
25
 62
     2
100
AcDbLine
 10
236.381649
 20
378.04892
 11
236.381649
 21
387.04892
  0
LINE
  5
97
100
AcDbEntity
  8
M1
  6
DASHDOT
370
25
 62
     2
100
AcDbLine
 10
230.836334
 20
382.54892
 11
240.381649
 21
382.54892
  0
LINE
  5
98
100
AcDbEntity
  8
M1
  6
DASHED
370
25
 62
     2
100
AcDbLine
 10
249.381649
 20
378.04892
 11
249.381649
 21
387.04892
  0
LINE
  5
99
100
AcDbEntity
  8
M1
  6
DASHDOT
370
25
 62
     2
100
AcDbLine
 10
244.219586
 20
382.54892
 11
253.381649
 21
382.54892
  0
LINE
  5
9A
100
AcDbEntity
  8
M1
  6
DASHED
370
25
100
AcDbLine
 10
255.381649
 20
510.17392
 11
255.381649
 21
503.92392
  0
LINE
  5
9B
100
AcDbEntity
  8
M1
  6
DASHDOT
370
25
100
AcDbLine
 10
248.073497
 20
507.04892
 11
270.381649
 21
507.04892
  0
LINE
  5
9C
100
AcDbEntity
  8
M1
  6
DASHED
370
25
100
AcDbLine
 10
255.381649
 20
405.42392
 11
255.381649
 21
411.67392
  0
LINE
  5
9D
100
AcDbEntity
  8
M1
  6
DASHDOT
370
25
100
AcDbLine
 10
248.073497
 20
408.54892
 11
270.381649
 21
408.54892
  0
LINE
  5
9E
100
AcDbEntity
  8
M1
  6
DASHDOT
370
25
 62
     4
100
AcDbLine
 10
12.499999
 20
117.577042
 11
105.0
 21
117.577042
  0
LINE
  5
9F
100
AcDbEntity
  8
M1
  6
DASHDOT
370
25
 62
     4
100
AcDbLine
 10
105.0
 20
117.577042
 11
105.0
 21
246.07692
  0
LINE
  5
A0
100
AcDbEntity
  8
M1
  6
DASHDOT
370
25
 62
     4
100
AcDbLine
 10
12.499999
 20
246.07692
 11
12.499999
 21
117.577042
  0
LINE
  5
A1
100
AcDbEntity
  8
M1
  6
DASHDOT
370
25
 62
     4
100
AcDbLine
 10
58.749999
 20
112.154434
 11
58.749999
 21
252.159316
  0
LINE
  5
A2
100
AcDbEntity
  8
M1
  6
DASHDOT
370
25
 62
     4
100
AcDbLine
 10
6.647338
 20
181.827042
 11
110.918678
 21
181.827042
  0
LINE
  5
A3
100
AcDbEntity
  8
M1
  6
DASHDOT
370
25
 62
     4
100
AcDbLine
 10
12.500121
 20
246.07692
 11
105.0
 21
246.07692
  0
CIRCLE
  5
A4
100
AcDbEntity
  8
M1
  6
CONTINUOUS
370
25
100
AcDbCircle
 10
58.749999
 20
228.57692
 40
1.75
  0
CIRCLE
  5
A5
100
AcDbEntity
  8
M1
  6
CONTINUOUS
370
25
100
AcDbCircle
 10
36.749999
 20
228.57692
 40
1.75
  0
CIRCLE
  5
A6
100
AcDbEntity
  8
M1
  6
CONTINUOUS
370
25
100
AcDbCircle
 10
36.749999
 20
131.577042
 40
1.75
  0
CIRCLE
  5
A7
100
AcDbEntity
  8
M1
  6
CONTINUOUS
370
25
100
AcDbCircle
 10
58.749999
 20
131.577042
 40
1.75
  0
LINE
  5
A8
100
AcDbEntity
  8
M1
  6
DASHDOT
370
25
100
AcDbLine
 10
51.999999
 20
228.57692
 11
65.499999
 21
228.57692
  0
LINE
  5
A9
100
AcDbEntity
  8
M1
  6
DASHDOT
370
25
100
AcDbLine
 10
58.749999
 20
221.82692
 11
58.749999
 21
235.326919
  0
LINE
  5
AA
100
AcDbEntity
  8
M1
  6
DASHDOT
370
25
100
AcDbLine
 10
29.999999
 20
228.57692
 11
43.499999
 21
228.57692
  0
LINE
  5
AB
100
AcDbEntity
  8
M1
  6
DASHDOT
370
25
100
AcDbLine
 10
36.749999
 20
221.82692
 11
36.749999
 21
235.326919
  0
LINE
  5
AC
100
AcDbEntity
  8
M1
  6
DASHDOT
370
25
100
AcDbLine
 10
29.999999
 20
131.577042
 11
43.499999
 21
131.577042
  0
LINE
  5
AD
100
AcDbEntity
  8
M1
  6
DASHDOT
370
25
100
AcDbLine
 10
36.749999
 20
124.827042
 11
36.749999
 21
138.327042
  0
LINE
  5
AE
100
AcDbEntity
  8
M1
  6
DASHDOT
370
25
100
AcDbLine
 10
51.999999
 20
131.577042
 11
65.499999
 21
131.577042
  0
LINE
  5
AF
100
AcDbEntity
  8
M1
  6
DASHDOT
370
25
100
AcDbLine
 10
58.749999
 20
124.827042
 11
58.749999
 21
138.327042
  0
LINE
  5
B0
100
AcDbEntity
  8
M1
  6
DASHDOT
370
25
 62
     4
100
AcDbLine
 10
213.131649
 20
137.418424
 11
213.131649
 21
225.563287
  0
LINE
  5
B1
100
AcDbEntity
  8
M1
  6
DASHDOT
370
25
 62
     4
100
AcDbLine
 10
168.584962
 20
181.827042
 11
276.300327
 21
181.827042
  0
LINE
  5
B2
100
AcDbEntity
  8
M1
  6
DASHDOT
370
25
 62
     4
100
AcDbLine
 10
270.381649
 20
117.577042
 11
270.381649
 21
246.07692
  0
LINE
  5
B3
100
AcDbEntity
  8
M1
  6
DASHDOT
370
25
 62
     4
100
AcDbLine
 10
177.881771
 20
246.07692
 11
270.381649
 21
246.07692
  0
LINE
  5
B4
100
AcDbEntity
  8
M1
  6
DASHDOT
370
25
 62
     4
100
AcDbLine
 10
177.881649
 20
246.07692
 11
177.881649
 21
117.577042
  0
LINE
  5
B5
100
AcDbEntity
  8
M1
  6
DASHDOT
370
25
 62
     4
100
AcDbLine
 10
177.881649
 20
117.577042
 11
270.381649
 21
117.577042
  0
LINE
  5
B6
100
AcDbEntity
  8
M1
  6
DASHDOT
370
25
 62
     4
100
AcDbLine
 10
224.131649
 20
253.252774
 11
224.131649
 21
107.882972
  0
LINE
  5
B7
100
AcDbEntity
  8
M1
  6
CONTINUOUS
370
25
 62
     7
100
AcDbLine
 10
197.131649
 20
200.827042
 11
197.131649
 21
162.827042
  0
LINE
  5
B8
100
AcDbEntity
  8
M1
  6
CONTINUOUS
370
25
 62
     7
100
AcDbLine
 10
201.131649
 20
204.827042
 11
225.131649
 21
204.827042
  0
LINE
  5
B9
100
AcDbEntity
  8
M1
  6
CONTINUOUS
370
25
 62
     7
100
AcDbLine
 10
201.131649
 20
158.827042
 11
225.131649
 21
158.827042
  0
LINE
  5
BA
100
AcDbEntity
  8
M1
  6
CONTINUOUS
370
25
 62
     7
100
AcDbLine
 10
229.131649
 20
200.827042
 11
229.131649
 21
162.827042
  0
ARC
  5
BB
100
AcDbEntity
  8
M1
  6
CONTINUOUS
370
25
 62
     7
100
AcDbCircle
 10
225.131649
 20
200.827042
 40
4.0
100
AcDbArc
 50
0.0
 51
90.0
  0
ARC
  5
BC
100
AcDbEntity
  8
M1
  6
CONTINUOUS
370
25
 62
     7
100
AcDbCircle
 10
201.131649
 20
200.827042
 40
4.0
100
AcDbArc
 50
90.0
 51
180.0
  0
ARC
  5
BD
100
AcDbEntity
  8
M1
  6
CONTINUOUS
370
25
 62
     7
100
AcDbCircle
 10
201.131649
 20
162.827042
 40
4.0
100
AcDbArc
 50
180.0
 51
270.0
  0
ARC
  5
BE
100
AcDbEntity
  8
M1
  6
CONTINUOUS
370
25
 62
     7
100
AcDbCircle
 10
225.131649
 20
162.827042
 40
4.0
100
AcDbArc
 50
270.0
 51
360.0
  0
LINE
  5
BF
100
AcDbEntity
  8
M1
  6
CONTINUOUS
370
25
 62
     4
100
AcDbLine
 10
75.999999
 20
541.04892
 11
75.999999
 21
522.04892
  0
LINE
  5
C0
100
AcDbEntity
  8
M1
  6
CONTINUOUS
370
25
 62
     4
100
AcDbLine
 10
75.999999
 20
541.04892
 11
63.499999
 21
541.04892
  0
CIRCLE
  5
C1
100
AcDbEntity
  8
M1
  6
CONTINUOUS
370
25
 62
     4
100
AcDbCircle
 10
69.749999
 20
533.04892
 40
2.75
  0
LINE
  5
C2
100
AcDbEntity
  8
M1
  6
CONTINUOUS
370
25
 62
     4
100
AcDbLine
 10
63.499999
 20
541.04892
 11
63.499999
 21
522.04892
  0
LINE
  5
C3
100
AcDbEntity
  8
M1
  6
CONTINUOUS
370
25
 62
     4
100
AcDbLine
 10
53.999999
 20
541.04892
 11
53.999999
 21
522.04892
  0
LINE
  5
C4
100
AcDbEntity
  8
M1
  6
CONTINUOUS
370
25
 62
     4
100
AcDbLine
 10
53.999999
 20
541.04892
 11
41.499999
 21
541.04892
  0
CIRCLE
  5
C5
100
AcDbEntity
  8
M1
  6
CONTINUOUS
370
25
 62
     4
100
AcDbCircle
 10
47.749999
 20
533.04892
 40
2.75
  0
LINE
  5
C6
100
AcDbEntity
  8
M1
  6
CONTINUOUS
370
25
 62
     4
100
AcDbLine
 10
41.499999
 20
541.04892
 11
41.499999
 21
522.04892
  0
LINE
  5
C7
100
AcDbEntity
  8
M1
  6
CONTINUOUS
370
25
 62
     4
100
AcDbLine
 10
19.499999
 20
541.04892
 11
19.499999
 21
522.04892
  0
LINE
  5
C8
100
AcDbEntity
  8
M1
  6
CONTINUOUS
370
25
 62
     4
100
AcDbLine
 10
19.499999
 20
541.04892
 11
31.999999
 21
541.04892
  0
CIRCLE
  5
C9
100
AcDbEntity
  8
M1
  6
CONTINUOUS
370
25
 62
     4
100
AcDbCircle
 10
25.749999
 20
533.04892
 40
2.75
  0
LINE
  5
CA
100
AcDbEntity
  8
M1
  6
CONTINUOUS
370
25
 62
     4
100
AcDbLine
 10
31.999999
 20
541.04892
 11
31.999999
 21
522.04892
  0
LINE
  5
CB
100
AcDbEntity
  8
M1
  6
CONTINUOUS
370
25
 62
     4
100
AcDbLine
 10
75.999999
 20
374.54892
 11
75.999999
 21
393.54892
  0
LINE
  5
CC
100
AcDbEntity
  8
M1
  6
CONTINUOUS
370
25
 62
     4
100
AcDbLine
 10
75.999999
 20
374.54892
 11
63.499999
 21
374.54892
  0
CIRCLE
  5
CD
100
AcDbEntity
  8
M1
  6
CONTINUOUS
370
25
 62
     4
100
AcDbCircle
 10
69.749999
 20
382.54892
 40
2.75
  0
LINE
  5
CE
100
AcDbEntity
  8
M1
  6
CONTINUOUS
370
25
 62
     4
100
AcDbLine
 10
63.499999
 20
374.54892
 11
63.499999
 21
393.54892
  0
LINE
  5
CF
100
AcDbEntity
  8
M1
  6
CONTINUOUS
370
25
 62
     4
100
AcDbLine
 10
19.499999
 20
374.54892
 11
19.499999
 21
393.54892
  0
LINE
  5
D0
100
AcDbEntity
  8
M1
  6
CONTINUOUS
370
25
 62
     4
100
AcDbLine
 10
19.499999
 20
374.54892
 11
31.999999
 21
374.54892
  0
CIRCLE
  5
D1
100
AcDbEntity
  8
M1
  6
CONTINUOUS
370
25
 62
     4
100
AcDbCircle
 10
25.749999
 20
382.54892
 40
2.75
  0
LINE
  5
D2
100
AcDbEntity
  8
M1
  6
CONTINUOUS
370
25
 62
     4
100
AcDbLine
 10
31.999999
 20
374.54892
 11
31.999999
 21
393.54892
  0
LINE
  5
D3
100
AcDbEntity
  8
M1
  6
CONTINUOUS
370
25
 62
     4
100
AcDbLine
 10
53.999999
 20
374.54892
 11
53.999999
 21
393.54892
  0
LINE
  5
D4
100
AcDbEntity
  8
M1
  6
CONTINUOUS
370
25
 62
     4
100
AcDbLine
 10
53.999999
 20
374.54892
 11
41.499999
 21
374.54892
  0
CIRCLE
  5
D5
100
AcDbEntity
  8
M1
  6
CONTINUOUS
370
25
 62
     4
100
AcDbCircle
 10
47.749999
 20
382.54892
 40
2.75
  0
LINE
  5
D6
100
AcDbEntity
  8
M1
  6
CONTINUOUS
370
25
 62
     4
100
AcDbLine
 10
41.499999
 20
374.54892
 11
41.499999
 21
393.54892
  0
LINE
  5
D7
100
AcDbEntity
  8
M1
  6
CONTINUOUS
370
25
 62
     4
100
AcDbLine
 10
105.0
 20
393.54892
 11
105.0
 21
522.04892
  0
LINE
  5
D8
100
AcDbEntity
  8
M1
  6
CONTINUOUS
370
25
 62
     4
100
AcDbLine
 10
105.0
 20
522.04892
 11
75.999999
 21
522.04892
  0
LINE
  5
D9
100
AcDbEntity
  8
M1
  6
CONTINUOUS
370
25
 62
     4
100
AcDbLine
 10
12.499999
 20
522.04892
 11
12.499999
 21
393.54892
  0
LINE
  5
DA
100
AcDbEntity
  8
M1
  6
CONTINUOUS
370
25
 62
     4
100
AcDbLine
 10
12.499999
 20
393.54892
 11
19.499999
 21
393.54892
  0
LINE
  5
DB
100
AcDbEntity
  8
M1
  6
DASHDOT
370
25
 62
     4
100
AcDbLine
 10
-1.421085E-014
 20
457.79892
 11
117.5
 21
457.79892
  0
LINE
  5
DC
100
AcDbEntity
  8
M1
  6
DASHDOT
370
25
 62
     4
100
AcDbLine
 10
58.749999
 20
366.239096
 11
58.749999
 21
554.264001
  0
LINE
  5
DD
100
AcDbEntity
  8
M1
  6
CONTINUOUS
370
25
 62
     4
100
AcDbLine
 10
42.000854
 20
468.148895
 11
53.500854
 21
468.148895
  0
LINE
  5
DE
100
AcDbEntity
  8
M1
  6
CONTINUOUS
370
25
 62
     4
100
AcDbLine
 10
53.500854
 20
464.223846
 11
42.000854
 21
464.223846
  0
LINE
  5
DF
100
AcDbEntity
  8
M1
  6
CONTINUOUS
370
25
 62
     4
100
AcDbLine
 10
53.500854
 20
448.04892
 11
53.500854
 21
468.148895
  0
LINE
  5
E0
100
AcDbEntity
  8
M1
  6
CONTINUOUS
370
25
 62
     4
100
AcDbLine
 10
42.000854
 20
448.04892
 11
53.500854
 21
448.04892
  0
LINE
  5
E1
100
AcDbEntity
  8
M1
  6
CONTINUOUS
370
25
 62
     4
100
AcDbLine
 10
42.000854
 20
468.148895
 11
42.000854
 21
448.04892
  0
LINE
  5
E2
100
AcDbEntity
  8
M1
  6
CONTINUOUS
370
25
 62
     4
100
AcDbLine
 10
12.499999
 20
412.54892
 11
105.0
 21
412.54892
  0
LINE
  5
E3
100
AcDbEntity
  8
M1
  6
CONTINUOUS
370
25
 62
     4
100
AcDbLine
 10
12.499999
 20
503.04892
 11
105.0
 21
503.04892
  0
LINE
  5
E4
100
AcDbEntity
  8
M1
  6
CONTINUOUS
370
25
 62
     4
100
AcDbLine
 10
19.499999
 20
522.04892
 11
12.499999
 21
522.04892
  0
LINE
  5
E5
100
AcDbEntity
  8
M1
  6
CONTINUOUS
370
25
 62
     4
100
AcDbLine
 10
63.499999
 20
522.04892
 11
53.999999
 21
522.04892
  0
LINE
  5
E6
100
AcDbEntity
  8
M1
  6
CONTINUOUS
370
25
 62
     4
100
AcDbLine
 10
31.999999
 20
393.54892
 11
63.499999
 21
393.54892
  0
LINE
  5
E7
100
AcDbEntity
  8
M1
  6
CONTINUOUS
370
25
 62
     4
100
AcDbLine
 10
75.999999
 20
393.54892
 11
105.0
 21
393.54892
  0
LINE
  5
E8
100
AcDbEntity
  8
M1
  6
CONTINUOUS
370
25
 62
     4
100
AcDbLine
 10
85.499999
 20
541.04892
 11
85.499999
 21
522.04892
  0
CIRCLE
  5
E9
100
AcDbEntity
  8
M1
  6
CONTINUOUS
370
25
 62
     4
100
AcDbCircle
 10
91.749999
 20
533.04892
 40
2.75
  0
LINE
  5
EA
100
AcDbEntity
  8
M1
  6
CONTINUOUS
370
25
 62
     4
100
AcDbLine
 10
97.999999
 20
541.04892
 11
97.999999
 21
522.04892
  0
LINE
  5
EB
100
AcDbEntity
  8
M1
  6
CONTINUOUS
370
25
 62
     4
100
AcDbLine
 10
97.999999
 20
541.04892
 11
85.499999
 21
541.04892
  0
LINE
  5
EC
100
AcDbEntity
  8
M1
  6
CONTINUOUS
370
25
 62
     4
100
AcDbLine
 10
85.499999
 20
374.54892
 11
85.499999
 21
393.54892
  0
CIRCLE
  5
ED
100
AcDbEntity
  8
M1
  6
CONTINUOUS
370
25
 62
     4
100
AcDbCircle
 10
91.749999
 20
382.54892
 40
2.75
  0
LINE
  5
EE
100
AcDbEntity
  8
M1
  6
CONTINUOUS
370
25
 62
     4
100
AcDbLine
 10
97.999999
 20
374.54892
 11
97.999999
 21
393.54892
  0
LINE
  5
EF
100
AcDbEntity
  8
M1
  6
CONTINUOUS
370
25
 62
     4
100
AcDbLine
 10
97.999999
 20
374.54892
 11
85.499999
 21
374.54892
  0
LINE
  5
F0
100
AcDbEntity
  8
M1
  6
CONTINUOUS
370
25
 62
     4
100
AcDbLine
 10
53.999999
 20
522.04892
 11
31.999999
 21
522.04892
  0
LINE
  5
F1
100
AcDbEntity
  8
M1
  6
CONTINUOUS
370
25
 62
     4
100
AcDbLine
 10
35.750854
 20
435.29892
 11
59.750854
 21
435.29892
  0
LINE
  5
F2
100
AcDbEntity
  8
M1
  6
CONTINUOUS
370
25
 62
     4
100
AcDbLine
 10
63.250854
 20
476.799042
 11
63.250854
 21
438.79892
  0
ARC
  5
F3
100
AcDbEntity
  8
M1
  6
CONTINUOUS
370
25
 62
     4
100
AcDbCircle
 10
59.750854
 20
438.79892
 40
3.5
100
AcDbArc
 50
270.0
 51
360.0
  0
ARC
  5
F4
100
AcDbEntity
  8
M1
  6
CONTINUOUS
370
25
 62
     4
100
AcDbCircle
 10
35.750854
 20
438.79892
 40
3.5
100
AcDbArc
 50
179.999875
 51
270.0
  0
LINE
  5
F5
100
AcDbEntity
  8
M1
  6
CONTINUOUS
370
25
 62
     4
100
AcDbLine
 10
32.250854
 20
438.79892
 11
32.250854
 21
476.79892
  0
ARC
  5
F6
100
AcDbEntity
  8
M1
  6
CONTINUOUS
370
25
 62
     4
100
AcDbCircle
 10
35.750854
 20
476.79892
 40
3.5
100
AcDbArc
 50
90.0
 51
179.999875
  0
LINE
  5
F7
100
AcDbEntity
  8
M1
  6
CONTINUOUS
370
25
 62
     4
100
AcDbLine
 10
35.750854
 20
480.29892
 11
59.750854
 21
480.29892
  0
ARC
  5
F8
100
AcDbEntity
  8
M1
  6
CONTINUOUS
370
25
 62
     4
100
AcDbCircle
 10
59.750854
 20
476.79892
 40
3.5
100
AcDbArc
 50
0.0
 51
90.0
  0
LINE
  5
F9
100
AcDbEntity
  8
M1
  6
DASHDOT
370
25
 62
     4
100
AcDbLine
 10
47.749999
 20
493.1756
 11
47.749999
 21
425.336359
  0
LINE
  5
FA
100
AcDbEntity
  8
M1
  6
CONTINUOUS
370
25
 62
     4
100
AcDbLine
 10
18.499999
 20
522.048798
 11
18.499877
 21
514.048798
  0
LINE
  5
FB
100
AcDbEntity
  8
M1
  6
CONTINUOUS
370
25
 62
     4
100
AcDbLine
 10
32.999877
 20
514.048798
 11
32.999999
 21
522.048798
  0
ARC
  5
FC
100
AcDbEntity
  8
M1
  6
CONTINUOUS
370
25
 62
     4
100
AcDbCircle
 10
25.749999
 20
514.04892
 40
7.25
100
AcDbArc
 50
180.0
 51
360.0
  0
LINE
  5
FD
100
AcDbEntity
  8
M1
  6
CONTINUOUS
370
25
 62
     4
100
AcDbLine
 10
40.499999
 20
522.048798
 11
40.499877
 21
514.048798
  0
LINE
  5
FE
100
AcDbEntity
  8
M1
  6
CONTINUOUS
370
25
 62
     4
100
AcDbLine
 10
54.999877
 20
514.048798
 11
54.999999
 21
522.048798
  0
ARC
  5
FF
100
AcDbEntity
  8
M1
  6
CONTINUOUS
370
25
 62
     4
100
AcDbCircle
 10
47.749999
 20
514.04892
 40
7.25
100
AcDbArc
 50
180.0
 51
360.0
  0
LINE
  5
100
100
AcDbEntity
  8
M1
  6
CONTINUOUS
370
25
 62
     4
100
AcDbLine
 10
62.499999
 20
522.048798
 11
62.499877
 21
514.048798
  0
LINE
  5
101
100
AcDbEntity
  8
M1
  6
CONTINUOUS
370
25
 62
     4
100
AcDbLine
 10
76.999877
 20
514.048798
 11
76.999999
 21
522.048798
  0
ARC
  5
102
100
AcDbEntity
  8
M1
  6
CONTINUOUS
370
25
 62
     4
100
AcDbCircle
 10
69.749999
 20
514.04892
 40
7.25
100
AcDbArc
 50
180.0
 51
360.0
  0
LINE
  5
103
100
AcDbEntity
  8
M1
  6
CONTINUOUS
370
25
 62
     4
100
AcDbLine
 10
84.499999
 20
522.048798
 11
84.499877
 21
514.048798
  0
LINE
  5
104
100
AcDbEntity
  8
M1
  6
CONTINUOUS
370
25
 62
     4
100
AcDbLine
 10
98.999877
 20
514.048798
 11
98.999999
 21
522.048798
  0
ARC
  5
105
100
AcDbEntity
  8
M1
  6
CONTINUOUS
370
25
 62
     4
100
AcDbCircle
 10
91.749999
 20
514.04892
 40
7.25
100
AcDbArc
 50
180.0
 51
360.0
  0
LINE
  5
106
100
AcDbEntity
  8
M1
  6
CONTINUOUS
370
25
 62
     4
100
AcDbLine
 10
18.499999
 20
393.549042
 11
18.499877
 21
401.549042
  0
LINE
  5
107
100
AcDbEntity
  8
M1
  6
CONTINUOUS
370
25
 62
     4
100
AcDbLine
 10
32.999877
 20
401.549042
 11
32.999999
 21
393.549042
  0
ARC
  5
108
100
AcDbEntity
  8
M1
  6
CONTINUOUS
370
25
 62
     4
100
AcDbCircle
 10
25.749999
 20
401.54892
 40
7.25
100
AcDbArc
 50
0.0
 51
180.0
  0
LINE
  5
109
100
AcDbEntity
  8
M1
  6
CONTINUOUS
370
25
 62
     4
100
AcDbLine
 10
40.499999
 20
393.549042
 11
40.499877
 21
401.549042
  0
LINE
  5
10A
100
AcDbEntity
  8
M1
  6
CONTINUOUS
370
25
 62
     4
100
AcDbLine
 10
54.999877
 20
401.549042
 11
54.999999
 21
393.549042
  0
ARC
  5
10B
100
AcDbEntity
  8
M1
  6
CONTINUOUS
370
25
 62
     4
100
AcDbCircle
 10
47.749999
 20
401.54892
 40
7.25
100
AcDbArc
 50
0.0
 51
180.0
  0
LINE
  5
10C
100
AcDbEntity
  8
M1
  6
CONTINUOUS
370
25
 62
     4
100
AcDbLine
 10
62.499999
 20
393.549042
 11
62.499877
 21
401.549042
  0
LINE
  5
10D
100
AcDbEntity
  8
M1
  6
CONTINUOUS
370
25
 62
     4
100
AcDbLine
 10
76.999877
 20
401.549042
 11
76.999999
 21
393.549042
  0
ARC
  5
10E
100
AcDbEntity
  8
M1
  6
CONTINUOUS
370
25
 62
     4
100
AcDbCircle
 10
69.749999
 20
401.54892
 40
7.25
100
AcDbArc
 50
0.0
 51
180.0
  0
LINE
  5
10F
100
AcDbEntity
  8
M1
  6
CONTINUOUS
370
25
 62
     4
100
AcDbLine
 10
84.499999
 20
393.549042
 11
84.499877
 21
401.549042
  0
LINE
  5
110
100
AcDbEntity
  8
M1
  6
CONTINUOUS
370
25
 62
     4
100
AcDbLine
 10
98.999877
 20
401.549042
 11
98.999999
 21
393.549042
  0
ARC
  5
111
100
AcDbEntity
  8
M1
  6
CONTINUOUS
370
25
 62
     4
100
AcDbCircle
 10
91.749999
 20
401.54892
 40
7.25
100
AcDbArc
 50
0.0
 51
180.0
  0
LINE
  5
112
100
AcDbEntity
  8
M2
  6
CONTINUOUS
370
25
100
AcDbLine
 10
216.174971
 20
41.249999
 11
216.174971
 21
-7.105427E-015
  0
LINE
  5
113
100
AcDbEntity
  8
M2
  6
CONTINUOUS
370
25
100
AcDbLine
 10
11.174955
 20
41.249999
 11
11.174955
 21
-7.105427E-015
  0
LINE
  5
114
100
AcDbEntity
  8
M2
  6
CONTINUOUS
370
25
100
AcDbLine
 10
11.174955
 20
-7.105427E-015
 11
216.174971
 21
-7.105427E-015
  0
LINE
  5
115
100
AcDbEntity
  8
M2
  6
CONTINUOUS
370
25
100
AcDbLine
 10
11.174955
 20
41.249999
 11
216.174971
 21
41.249999
  0
LINE
  5
116
100
AcDbEntity
  8
M2
  6
CONTINUOUS
370
25
100
AcDbLine
 10
168.674953
 20
27.499999
 11
168.674953
 21
41.249999
  0
LINE
  5
117
100
AcDbEntity
  8
M2
  6
CONTINUOUS
370
25
100
AcDbLine
 10
41.174954
 20
27.499999
 11
168.674953
 21
27.499999
  0
LINE
  5
118
100
AcDbEntity
  8
M2
  6
CONTINUOUS
370
25
 60
     1
100
AcDbLine
 10
191.174952
 20
27.499999
 11
191.174952
 21
41.249999
  0
LINE
  5
119
100
AcDbEntity
  8
M2
  6
CONTINUOUS
370
25
100
AcDbLine
 10
168.674953
 20
27.499999
 11
191.174952
 21
27.499999
  0
TEXT
  5
11A
100
AcDbEntity
  8
M2
100
AcDbText
 10
170.770813
 20
31.250002
 40
6.25
  1
ＲＥＶ．：
 41
0.666667
  7
STANDARD
100
AcDbText
  0
LINE
  5
11B
100
AcDbEntity
  8
M2
  6
CONTINUOUS
370
25
 60
     1
100
AcDbLine
 10
216.174971
 20
27.499999
 11
216.174971
 21
41.249999
  0
LINE
  5
11C
100
AcDbEntity
  8
M2
  6
CONTINUOUS
370
25
100
AcDbLine
 10
191.174952
 20
27.499999
 11
216.174971
 21
27.499999
  0
TEXT
  5
11D
100
AcDbEntity
  8
M2
100
AcDbText
 10
200.654129
 20
31.250002
 40
6.25
  1
００
 41
0.833333
  7
STANDARD
100
AcDbText
  0
LINE
  5
11E
100
AcDbEntity
  8
M2
  6
CONTINUOUS
370
25
 60
     1
100
AcDbLine
 10
41.174954
 20
27.499999
 11
41.174954
 21
41.249999
  0
LINE
  5
11F
100
AcDbEntity
  8
M2
  6
CONTINUOUS
370
25
100
AcDbLine
 10
11.174955
 20
27.499999
 11
41.174954
 21
27.499999
  0
TEXT
  5
120
100
AcDbEntity
  8
M2
100
AcDbText
 10
13.154123
 20
31.250002
 40
6.25
  1
登録名：
 41
0.833333
  7
STANDARD
100
AcDbText
  0
LINE
  5
121
100
AcDbEntity
  8
M2
  6
CONTINUOUS
370
25
 60
     1
100
AcDbLine
 10
216.174971
 20
13.749999
 11
216.174971
 21
27.499999
  0
LINE
  5
122
100
AcDbEntity
  8
M2
  6
CONTINUOUS
370
25
100
AcDbLine
 10
191.174952
 20
13.749999
 11
216.174971
 21
13.749999
  0
LINE
  5
123
100
AcDbEntity
  8
M2
  6
CONTINUOUS
370
25
 60
     1
100
AcDbLine
 10
191.174952
 20
13.749999
 11
191.174952
 21
27.499999
  0
LINE
  5
124
100
AcDbEntity
  8
M2
  6
CONTINUOUS
370
25
100
AcDbLine
 10
41.174954
 20
13.749999
 11
191.174952
 21
13.749999
  0
TEXT
  5
125
100
AcDbEntity
  8
M2
100
AcDbText
 10
43.154118
 20
17.500002
 40
6.25
  1
表面形
 41
0.833333
  7
STANDARD
100
AcDbText
  0
LINE
  5
126
100
AcDbEntity
  8
M2
  6
CONTINUOUS
370
25
 60
     1
100
AcDbLine
 10
41.174954
 20
13.749999
 11
41.174954
 21
27.499999
  0
LINE
  5
127
100
AcDbEntity
  8
M2
  6
CONTINUOUS
370
25
100
AcDbLine
 10
11.174955
 20
13.749999
 11
41.174954
 21
13.749999
  0
TEXT
  5
128
100
AcDbEntity
  8
M2
100
AcDbText
 10
11.956203
 20
17.500002
 40
6.25
  1
接続方式：
 41
0.75
  7
STANDARD
100
AcDbText
  0
LINE
  5
129
100
AcDbEntity
  8
M2
  6
CONTINUOUS
370
25
 60
     1
100
AcDbLine
 10
216.174971
 20
-7.105427E-015
 11
216.174971
 21
13.749999
  0
LINE
  5
12A
100
AcDbEntity
  8
M2
  6
CONTINUOUS
370
25
 60
     1
100
AcDbLine
 10
191.174952
 20
-7.105427E-015
 11
216.174971
 21
-7.105427E-015
  0
LINE
  5
12B
100
AcDbEntity
  8
M2
  6
CONTINUOUS
370
25
 60
     1
100
AcDbLine
 10
191.174952
 20
-7.105427E-015
 11
191.174952
 21
13.749999
  0
LINE
  5
12C
100
AcDbEntity
  8
M2
  6
CONTINUOUS
370
25
 60
     1
100
AcDbLine
 10
41.174954
 20
-7.105427E-015
 11
191.174952
 21
-7.105427E-015
  0
LINE
  5
12D
100
AcDbEntity
  8
M2
  6
CONTINUOUS
370
25
 60
     1
100
AcDbLine
 10
41.174954
 20
-7.105427E-015
 11
41.174954
 21
13.749999
  0
LINE
  5
12E
100
AcDbEntity
  8
M2
  6
CONTINUOUS
370
25
 60
     1
100
AcDbLine
 10
11.174955
 20
-7.105427E-015
 11
41.174954
 21
-7.105427E-015
  0
TEXT
  5
12F
100
AcDbEntity
  8
M2
100
AcDbText
 10
11.956203
 20
3.750001
 40
6.25
  1
適用形式：
 41
0.75
  7
STANDARD
100
AcDbText
  0
TEXT
  5
130
100
AcDbEntity
  8
M2
100
AcDbText
 10
43.154118
 20
31.250002
 40
6.25
  1
Ｌ－４００Ｅ　４Ｐ
 41
0.833333
  7
STANDARD
100
AcDbText
  0
TEXT
  5
131
100
AcDbEntity
  8
M2
100
AcDbText
 10
43.206211
 20
3.750001
 40
6.25
  1
Ｌ－４００Ｅ
 41
0.75
  7
STANDARD
100
AcDbText
  0
ENDSEC
  0
SECTION
  2
OBJECTS
  0
DICTIONARY
  5
C
100
AcDbDictionary
  3
ACAD_GROUP
350
D
  3
ACAD_MLINESTYLE
350
E
  0
DICTIONARY
  5
D
102
{ACAD_REACTORS
330
C
102
}
100
AcDbDictionary
  0
DICTIONARY
  5
E
102
{ACAD_REACTORS
330
C
102
}
100
AcDbDictionary
  3
STANDARD
350
13
  0
MLINESTYLE
  5
13
102
{ACAD_REACTORS
330
E
102
}
100
AcDbMlineStyle
  2
STANDARD
 70
     0
  3

 62
     0
 51
90.0
 52
90.0
 71
     2
 49
0.5
 62
   256
  6
BYLAYER
 49
-0.5
 62
   256
  6
BYLAYER
  0
ENDSEC
  0
EOF
