  0
SECTION
  2
HEADER
  9
$ACADVER
  1
AC1015
  9
$INSBASE
 10
0.000000
 20
0.000000
 30
0.0
  9
$VIEWCTR
 10
7.531722
 20
4.5
  9
$VIEWSIZE
 40
9.0
  9
$SNAPMODE
 70
     0
  9
$SNAPUNIT
 10
1.0
 20
1.0
  9
$SNAPBASE
 10
0.0
 20
0.0
  9
$SNAPANG
 50
0.0
  9
$SNAPSTYLE
 70
     0
  9
$SNAPISOPAIR
 70
     0
  9
$GRIDMODE
 70
     0
  9
$GRIDUNIT
 10
0.0
 20
0.0
  9
$ORTHOMODE
 70
     0
  9
$REGENMODE
 70
     1
  9
$FILLMODE
 70
     1
  9
$QTEXTMODE
 70
     0
  9
$DRAGMODE
 70
     2
  9
$LTSCALE
  40
     1.000000
  9
$OSMODE
 70
     0
  9
$ATTMODE
 70
     1
  9
$TEXTSIZE
 40
0.2
  9
$TRACEWID
 40
0.05
  9
$TEXTSTYLE
  7
STANDARD
  9
$CELTYPE
  6
BYLAYER
  9
$CECOLOR
 62
   256
  9
$DIMSCALE
 40
1.0
  9
$DIMASZ
 40
0.18
  9
$DIMEXO
 40
0.0625
  9
$DIMDLI
 40
0.38
  9
$DIMRND
 40
0.0
  9
$DIMDLE
 40
0.0
  9
$DIMEXE
 40
0.18
  9
$DIMTP
 40
0.0
  9
$DIMTM
 40
0.0
  9
$DIMTXT
 40
0.18
  9
$DIMCEN
 40
0.09
  9
$DIMTSZ
 40
0.0
  9
$DIMADEC
 70
     0
  9
$DIMALTRND
 40
0.000000
  9
$DIMAZIN
 70
     0
  9
$DIMDSEP
 70
    46
  9
$DIMATFIT
 70
     3
  9
$DIMFRAC
 70
     0
  9
$DIMLDRBLK
  1

  9
$DIMLUNIT
 70
     2
  9
$DIMLWD
 70
   13
  9
$DIMLWE
 70
   13
  9
$DIMTMOVE
 70
     0
  9
$CELWEIGHT
370
    25
  9
$LWDISPLAY
290
    1
  9
$EXTNAMES
290
    1
  9
$DIMTOL
 70
     0
  9
$DIMLIM
 70
     0
  9
$DIMTIH
 70
     1
  9
$DIMTOH
 70
     1
  9
$DIMSE1
 70
     0
  9
$DIMSE2
 70
     0
  9
$DIMTAD
 70
     0
  9
$DIMZIN
 70
     0
  9
$DIMBLK
  1

  9
$LUNITS
 70
     2
  9
$LUPREC
 70
     4
  9
$AXISMODE
 70
     0
  9
$AXISUNIT
 10
0.0
 20
0.0
  9
$SKETCHINC
 40
0.1
  9
$FILLETRAD
 40
0.0
  9
$AUNITS
 70
     0
  9
$AUPREC
 70
     0
  9
$MENU
  1
ACAD
  9
$ELEVATION
 40
0.0
  9
$THICKNESS
 40
0.0
  9
$VIEWDIR
 10
0.0
 20
0.0
 30
1.0
  9
$LIMCHECK
 70
     0
  9
$BLIPMODE
 70
     1
  9
$CHAMFERA
 40
0.0
  9
$CHAMFERB
 40
0.0
  9
$FASTZOOM
 70
     1
  9
$SKPOLY
 70
     0
  9
$TDCREATE
 40
0000000.0000000000
  9
$TDUPDATE
 40
0000000.0000000000
  9
$TDINDWG
 40
0.0000000000
  9
$TDUSRTIMER
 40
0.0000000000
  9
$USRTIMER
 70
     1
  9
$ANGBASE
 50
0.0
  9
$ANGDIR
 70
     0
  9
$PDMODE
 70
     0
  9
$PDSIZE
 40
0.0
  9
$PLINEWID
 40
0.0
  9
$COORDS
 70
     0
  9
$USERI1
 70
     0
  9
$USERI2
 70
     0
  9
$USERI3
 70
     0
  9
$USERI4
 70
     0
  9
$USERI5
 70
     0
  9
$USERR1
 40
0.0
  9
$USERR2
 40
0.0
  9
$USERR3
 40
0.0
  9
$USERR4
 40
0.0
  9
$USERR5
 40
0.0
  9
$CLAYER
  8
M2
  9
$EXTMIN
 10
0.0
 20
0.0
  9
$EXTMAX
 10
841.0
 20
594.0
  9
$LIMMIN
 10
0.0
 20
0.0
  9
$LIMMAX
 10
841.0
 20
594.0
  9
$HANDSEED
  5
FE
  0
ENDSEC
  0
SECTION
  2
CLASSES
  0
CLASS
  1
DIMASSOC
  2
AcDbDimAssoc
  3
"AcDbDimAssoc|Product Desc:     AcDim ARX App For Dimension|Company:          Autodesk, Inc.|WEB Address:      www.autodesk.com"
 90
        0
280
     0
281
     0
  0
ENDSEC
  0
SECTION
  2
TABLES
  0
TABLE
  2
VPORT
  5
8
100
AcDbSymbolTable
 70
     2
  0
VPORT
  5
14
100
AcDbSymbolTableRecord
100
AcDbViewportTableRecord
  2
*ACTIVE
 70
     0
 10
0.0
 20
0.0
 11
1.0
 21
1.0
 12
484.0
 22
297.0
 13
0.0
 23
0.0
 14
1.0
 24
1.0
 15
0.0
 25
0.0
 16
0.0
 26
0.0
 36
1.0
 17
0.0
 27
0.0
 37
0.0
 40
594.0
 41
2.0
 42
50.0
 43
0.0
 44
0.0
 50
0.0
 51
0.0
 71
     0
 72
   100
 73
     1
 74
     1
 75
     0
 76
     0
 77
     0
 78
     0
  0
ENDTAB
  0
TABLE
  2
LTYPE
  5
5
100
AcDbSymbolTable
 70
     5
  0
LTYPE
  5
15
100
AcDbSymbolTableRecord
100
AcDbLinetypeTableRecord
  2
BYBLOCK
 70
     0
  3

 72
    65
 73
     0
 40
0.0
  0
LTYPE
  5
16
100
AcDbSymbolTableRecord
100
AcDbLinetypeTableRecord
  2
BYLAYER
 70
     0
  3

 72
    65
 73
     0
 40
0.0
  0
LTYPE
  5
17
100
AcDbSymbolTableRecord
100
AcDbLinetypeTableRecord
  2
CONTINUOUS
 70
    64
  3
Solid line
 72
    65
 73
     0
 40
0.0
  0
LTYPE
  5
18
100
AcDbSymbolTableRecord
100
AcDbLinetypeTableRecord
  2
DASHED
 70
    64
  3
__ __ __ __ __ __ __ __ __ __ __ __ __ __ __ __
 72
    65
 73
     2
 40
0.75
 49
0.5
 74
     0
 49
-0.25
 74
     0
  0
LTYPE
  5
19
100
AcDbSymbolTableRecord
100
AcDbLinetypeTableRecord
  2
DASHDOT
 70
    64
  3
__ . __ . __ . __ . __ . __ . __ . __ . __ . __
 72
    65
 73
     4
 40
1.0
 49
0.5
 74
     0
 49
-0.25
 74
     0
 49
0.0
 74
     0
 49
-0.25
 74
     0
  0
LTYPE
  5
1A
100
AcDbSymbolTableRecord
100
AcDbLinetypeTableRecord
  2
DIVIDE
 70
    64
  3
____ . . ____ . . ____ . . ____ . . ____ . . __
 72
    65
 73
     6
 40
1.25
 49
0.5
 74
     0
 49
-0.25
 74
     0
 49
0.0
 74
     0
 49
-0.25
 74
     0
 49
0.0
 74
     0
 49
-0.25
 74
     0
  0
LTYPE
  5
1B
100
AcDbSymbolTableRecord
100
AcDbLinetypeTableRecord
  2
DOT
 70
    64
  3
. . . . . . . . . . . . . . . . . . . . . . . .
 72
    65
 73
     2
 40
0.25
 49
0.0
 74
     0
 49
-0.25
 74
     0
  0
ENDTAB
  0
TABLE
  2
LAYER
  5
2
100
AcDbSymbolTable
 70
   102
  0
LAYER
  5
F
100
AcDbSymbolTableRecord
100
AcDbLayerTableRecord
  2
0
 70
     0
 62
     7
  6
CONTINUOUS
370
     -3
390
F
  0
LAYER
  5
1C
100
AcDbSymbolTableRecord
100
AcDbLayerTableRecord
  2
M2
 70
     0
 62
     3
  6
CONTINUOUS
370
     -3
390
F
  0
LAYER
  5
1D
100
AcDbSymbolTableRecord
100
AcDbLayerTableRecord
  2
M3
 70
     0
 62
     7
  6
CONTINUOUS
370
     -3
390
F
  0
ENDTAB
  0
TABLE
  2
STYLE
  5
3
100
AcDbSymbolTable
 70
     2
  0
STYLE
  5
10
100
AcDbSymbolTableRecord
100
AcDbTextStyleTableRecord
  2
STANDARD
 70
     0
 40
0.0
 41
1.0
 50
0.0
 71
     0
 42
0.2
  3
txt
  4
BIGFONT
  0
ENDTAB
  0
TABLE
  2
VIEW
  5
6
100
AcDbSymbolTable
 70
     0
  0
ENDTAB
  0
TABLE
  2
UCS
  5
7
100
AcDbSymbolTable
 70
     0
  0
ENDTAB
  0
TABLE
  2
APPID
  5
9
100
AcDbSymbolTable
 70
     1
  0
APPID
  5
11
100
AcDbSymbolTableRecord
100
AcDbRegAppTableRecord
  2
ACAD
 70
     0
  0
ENDTAB
  0
TABLE
  2
DIMSTYLE
  5
A
100
AcDbSymbolTable
 70
     2
100
AcDbDimStyleTable
 71
     1
  0
DIMSTYLE
105
46
100
AcDbSymbolTableRecord
100
AcDbDimStyleTableRecord
  2
STANDARD
 70
     0
  3

  4

  5

  6
_OPEN
  7
_OPEN
 40
1.0
 41
3.0
 42
0.0
 43
8.0
 44
1.5
 45
0.0
 46
0.0
 47
0.0
 48
0.0
140
3.2
141
0.09
142
0.0
143
0.03937
144
1.0
145
0.0
146
1.0
147
1.0
148
0.000000
 71
     0
 72
     0
 73
     1
 74
     1
 75
     0
 76
     0
 77
     3
 78
     8
170
     0
171
     2
172
     0
173
     1
174
     0
175
     0
176
     0
177
     0
178
     0
270
     2
271
     2
272
     4
273
     2
274
     2
340
10
275
     0
278
    46
280
     0
281
     0
282
     0
283
     1
284
     0
285
     0
286
     0
287
     3
288
     0
371
   13
372
   13
  0
DIMSTYLE
105
47
100
AcDbSymbolTableRecord
100
AcDbDimStyleTableRecord
  2
LEADSTYL
 70
     0
  3

  4

  5

  6
_OPEN
  7
_OPEN
 40
1.0
 41
3.0
 42
0.0625
 43
0.38
 44
0.18
 45
0.0
 46
0.0
 47
0.0
 48
0.0
140
3.2
141
0.09
142
0.0
143
25.4
144
1.0
145
0.0
146
1.0
147
1.0
 71
     0
 72
     0
 73
     1
 74
     1
 75
     0
 76
     0
 77
     0
 78
     0
170
     0
171
     2
172
     0
173
     1
174
     0
175
     0
176
     0
177
     0
178
     0
270
     2
271
     4
272
     4
273
     2
274
     2
340
10
275
     0
280
     0
281
     0
282
     0
283
     1
284
     0
285
     0
286
     0
287
     3
288
     0
  0
ENDTAB
  0
TABLE
  2
BLOCK_RECORD
  5
1
100
AcDbSymbolTable
 70
     6
  0
BLOCK_RECORD
  5
1E
100
AcDbSymbolTableRecord
100
AcDbBlockTableRecord
  2
*MODEL_SPACE
  0
BLOCK_RECORD
  5
21
100
AcDbSymbolTableRecord
100
AcDbBlockTableRecord
  2
*PAPER_SPACE
  0
BLOCK_RECORD
  5
24
100
AcDbSymbolTableRecord
100
AcDbBlockTableRecord
  2
_NONE
  0
BLOCK_RECORD
  5
28
100
AcDbSymbolTableRecord
100
AcDbBlockTableRecord
  2
_OPEN
  0
BLOCK_RECORD
  5
2E
100
AcDbSymbolTableRecord
100
AcDbBlockTableRecord
  2
_CLOSED
  0
BLOCK_RECORD
  5
35
100
AcDbSymbolTableRecord
100
AcDbBlockTableRecord
  2
_ORIGIN
  0
BLOCK_RECORD
  5
3A
100
AcDbSymbolTableRecord
100
AcDbBlockTableRecord
  2
_DOT
  0
BLOCK_RECORD
  5
42
100
AcDbSymbolTableRecord
100
AcDbBlockTableRecord
  2
_OBLIQUE
  0
ENDTAB
  0
ENDSEC
  0
SECTION
  2
BLOCKS
  0
BLOCK
  5
1F
100
AcDbEntity
  8
0
100
AcDbBlockBegin
  2
*MODEL_SPACE
 70
     0
 10
0.0
 20
0.0
 30
0.0
  3
*MODEL_SPACE
  1

  0
ENDBLK
  5
20
100
AcDbEntity
  8
0
100
AcDbBlockEnd
  0
BLOCK
  5
22
100
AcDbEntity
 67
     1
  8
0
100
AcDbBlockBegin
  2
*PAPER_SPACE
 70
     0
 10
0.0
 20
0.0
 30
0.0
  3
*PAPER_SPACE
  1

  0
ENDBLK
  5
23
100
AcDbEntity
 67
     1
  8
0
100
AcDbBlockEnd
  0
BLOCK
  5
25
100
AcDbEntity
  8
0
100
AcDbBlockBegin
  2
_NONE
 70
     0
 10
0.0
 20
0.0
  0
CIRCLE
  5
26
100
AcDbEntity
  8
0
 62
     0
370
13
100
AcDbCircle
 10
0.0
 20
0.0
 40
0.25
  0
ENDBLK
  5
27
100
AcDbEntity
  8
0
100
AcDbBlockEnd
  0
BLOCK
  5
29
100
AcDbEntity
  8
0
100
AcDbBlockBegin
  2
_OPEN
 70
     0
 10
0.0
 20
0.0
  0
LINE
  5
2A
100
AcDbEntity
  8
0
 62
     0
370
13
100
AcDbLine
 10
-0.965926
 20
0.258819
 11
0.0
 21
0.0
  0
LINE
  5
2B
100
AcDbEntity
  8
0
 62
     0
370
13
100
AcDbLine
 10
0.0
 20
0.0
 11
-0.965926
 21
-0.258819
  0
LINE
  5
2C
100
AcDbEntity
  8
0
 62
     0
370
13
100
AcDbLine
 10
0.0
 20
0.0
 11
-1.0
 21
0.0
  0
ENDBLK
  5
2D
100
AcDbEntity
  8
0
100
AcDbBlockEnd
  0
BLOCK
  5
2F
100
AcDbEntity
  8
0
100
AcDbBlockBegin
  2
_CLOSED
 70
     0
 10
0.0
 20
0.0
  0
LINE
  5
30
100
AcDbEntity
  8
0
 62
     0
370
13
100
AcDbLine
 10
-0.965926
 20
0.258819
 11
0.0
 21
0.0
  0
LINE
  5
31
100
AcDbEntity
  8
0
 62
     0
370
13
100
AcDbLine
 10
0.0
 20
0.0
 11
-0.965926
 21
-0.258819
  0
LINE
  5
32
100
AcDbEntity
  8
0
 62
     0
370
13
100
AcDbLine
 10
-0.965926
 20
0.258819
 11
-0.965926
 21
-0.258819
  0
LINE
  5
33
100
AcDbEntity
  8
0
 62
     0
370
13
100
AcDbLine
 10
0.0
 20
0.0
 11
-1.0
 21
0.0
  0
ENDBLK
  5
34
100
AcDbEntity
  8
0
100
AcDbBlockEnd
  0
BLOCK
  5
36
100
AcDbEntity
  8
0
100
AcDbBlockBegin
  2
_ORIGIN
 70
     0
 10
0.0
 20
0.0
  0
CIRCLE
  5
37
100
AcDbEntity
  8
0
 62
     0
370
13
100
AcDbCircle
 10
0.0
 20
0.0
 40
0.5
  0
LINE
  5
38
100
AcDbEntity
  8
0
 62
     0
370
13
100
AcDbLine
 10
0.0
 20
0.0
 11
-1.0
 21
0.0
  0
ENDBLK
  5
39
100
AcDbEntity
  8
0
100
AcDbBlockEnd
  0
BLOCK
  5
3B
100
AcDbEntity
  8
0
100
AcDbBlockBegin
  2
_DOT
 70
     0
 10
0.0
 20
0.0
  0
POLYLINE
  5
3C
100
AcDbEntity
  8
0
 62
     0
100
AcDb2dPolyline
 66
     1
 70
     1
 40
0.5
 41
0.5
  0
VERTEX
  5
3D
100
AcDbEntity
  8
0
 62
     0
100
AcDbVertex
100
AcDb2dVertex
 10
-0.25
 20
0.0
 42
1.0
  0
VERTEX
  5
3E
100
AcDbEntity
  8
0
 62
     0
100
AcDbVertex
100
AcDb2dVertex
 10
0.25
 20
0.0
 42
1.0
  0
SEQEND
  5
3F
100
AcDbEntity
  8
0
 62
     0
  0
LINE
  5
40
100
AcDbEntity
  8
0
 62
     0
370
13
100
AcDbLine
 10
-0.5
 20
0.0
 11
-1.0
 21
0.0
  0
ENDBLK
  5
41
100
AcDbEntity
  8
0
100
AcDbBlockEnd
  0
BLOCK
  5
43
100
AcDbEntity
  8
0
100
AcDbBlockBegin
  2
_OBLIQUE
 70
     0
 10
0.0
 20
0.0
  0
LINE
  5
44
100
AcDbEntity
  8
0
 62
     0
370
13
100
AcDbLine
 10
-0.353553
 20
-0.353553
 11
0.353553
 21
0.353553
  0
ENDBLK
  5
45
100
AcDbEntity
  8
0
100
AcDbBlockEnd
  0
ENDSEC
  0
SECTION
  2
ENTITIES
  0
ARC
  5
48
100
AcDbEntity
  8
M2
  6
CONTINUOUS
370
25
 62
     4
100
AcDbCircle
 10
249.303165
 20
461.415644
 40
43.999809
100
AcDbArc
 50
166.394399
 51
180.0
  0
LINE
  5
49
100
AcDbEntity
  8
M2
  6
CONTINUOUS
370
25
 62
     4
100
AcDbLine
 10
206.528263
 20
471.767939
 11
205.764957
 21
467.841425
  0
LINE
  5
4A
100
AcDbEntity
  8
M2
  6
CONTINUOUS
370
25
 62
     4
100
AcDbLine
 10
219.798892
 20
459.26623
 11
219.798892
 21
459.266108
  0
LINE
  5
4B
100
AcDbEntity
  8
M2
  6
CONTINUOUS
370
25
 62
     4
100
AcDbLine
 10
205.774845
 20
467.839594
 11
216.80341
 21
465.097285
  0
LINE
  5
4C
100
AcDbEntity
  8
M2
  6
CONTINUOUS
370
25
 62
     4
100
AcDbLine
 10
206.53815
 20
471.766108
 11
216.80341
 21
470.316523
  0
LINE
  5
4D
100
AcDbEntity
  8
M2
  6
CONTINUOUS
370
25
 62
     4
100
AcDbLine
 10
219.798771
 20
459.266108
 11
219.798892
 21
459.26623
  0
LINE
  5
4E
100
AcDbEntity
  8
M2
  6
CONTINUOUS
370
25
 62
     4
100
AcDbLine
 10
220.706486
 20
453.841547
 11
220.706607
 21
453.841669
  0
LINE
  5
4F
100
AcDbEntity
  8
M2
  6
CONTINUOUS
370
25
 62
     4
100
AcDbLine
 10
271.803409
 20
397.165644
 11
271.803409
 21
525.665644
  0
LINE
  5
50
100
AcDbEntity
  8
M2
  6
CONTINUOUS
370
25
 62
     4
100
AcDbLine
 10
271.803409
 20
525.665644
 11
223.30341
 21
525.665644
  0
LINE
  5
51
100
AcDbEntity
  8
M2
  6
CONTINUOUS
370
25
 62
     4
100
AcDbLine
 10
216.80341
 20
483.915644
 11
216.80341
 21
438.915644
  0
LINE
  5
52
100
AcDbEntity
  8
M2
  6
CONTINUOUS
370
25
 62
     4
100
AcDbLine
 10
220.30341
 20
506.665644
 11
220.30341
 21
416.165644
  0
LINE
  5
53
100
AcDbEntity
  8
M2
  6
CONTINUOUS
370
25
 62
     4
100
AcDbLine
 10
223.30341
 20
397.165644
 11
223.30341
 21
416.165644
  0
LINE
  5
54
100
AcDbEntity
  8
M2
  6
CONTINUOUS
370
25
 62
     4
100
AcDbLine
 10
220.30341
 20
506.665644
 11
223.30341
 21
506.665644
  0
LINE
  5
55
100
AcDbEntity
  8
M2
  6
CONTINUOUS
370
25
 62
     4
100
AcDbLine
 10
216.80341
 20
483.915644
 11
220.30341
 21
483.915644
  0
LINE
  5
56
100
AcDbEntity
  8
M2
  6
CONTINUOUS
370
25
 62
     4
100
AcDbLine
 10
216.80341
 20
438.915644
 11
220.30341
 21
438.915644
  0
LINE
  5
57
100
AcDbEntity
  8
M2
  6
CONTINUOUS
370
25
 62
     4
100
AcDbLine
 10
220.30341
 20
416.165644
 11
223.30341
 21
416.165644
  0
LINE
  5
58
100
AcDbEntity
  8
M2
  6
CONTINUOUS
370
25
 62
     4
100
AcDbLine
 10
223.30341
 20
397.165644
 11
271.803409
 21
397.165644
  0
LINE
  5
59
100
AcDbEntity
  8
M2
  6
CONTINUOUS
370
25
 62
     4
100
AcDbLine
 10
219.55341
 20
483.915644
 11
220.30341
 21
483.915644
  0
LINE
  5
5A
100
AcDbEntity
  8
M2
  6
CONTINUOUS
370
25
 62
     4
100
AcDbLine
 10
219.55341
 20
438.915644
 11
220.30341
 21
438.915644
  0
LINE
  5
5B
100
AcDbEntity
  8
M2
  6
CONTINUOUS
370
25
 62
     4
100
AcDbLine
 10
220.30341
 20
506.790644
 11
223.30341
 21
506.790644
  0
LINE
  5
5C
100
AcDbEntity
  8
M2
  6
CONTINUOUS
370
25
 62
     4
100
AcDbLine
 10
271.803287
 20
525.665644
 11
271.803287
 21
502.915644
  0
LINE
  5
5D
100
AcDbEntity
  8
M2
  6
CONTINUOUS
370
25
 62
     4
100
AcDbLine
 10
271.803287
 20
397.165644
 11
271.803287
 21
419.915644
  0
LINE
  5
5E
100
AcDbEntity
  8
M2
  6
DASHDOT
370
25
 62
     4
100
AcDbLine
 10
193.163435
 20
461.415644
 11
279.179767
 21
461.415644
  0
LINE
  5
5F
100
AcDbEntity
  8
M2
  6
CONTINUOUS
370
25
 62
     4
100
AcDbLine
 10
223.30341
 20
506.790644
 11
223.30341
 21
525.665522
  0
LINE
  5
60
100
AcDbEntity
  8
M2
  6
CONTINUOUS
370
25
 62
     4
100
AcDbLine
 10
104.75
 20
397.165644
 11
104.75
 21
525.665644
  0
LINE
  5
61
100
AcDbEntity
  8
M2
  6
CONTINUOUS
370
25
 62
     4
100
AcDbLine
 10
104.75
 20
525.665644
 11
12.249999
 21
525.665644
  0
LINE
  5
62
100
AcDbEntity
  8
M2
  6
CONTINUOUS
370
25
 62
     4
100
AcDbLine
 10
12.249999
 20
525.665644
 11
12.249999
 21
397.165644
  0
LINE
  5
63
100
AcDbEntity
  8
M2
  6
DASHDOT
370
25
 62
     4
100
AcDbLine
 10
-1.421085E-014
 20
461.415644
 11
117.5
 21
461.415644
  0
LINE
  5
64
100
AcDbEntity
  8
M2
  6
CONTINUOUS
370
25
 62
     4
100
AcDbLine
 10
63.000854
 20
480.415766
 11
63.000854
 21
461.415644
  0
LINE
  5
65
100
AcDbEntity
  8
M2
  6
CONTINUOUS
370
25
 62
     4
100
AcDbLine
 10
35.500854
 20
483.915644
 11
59.500854
 21
483.915644
  0
LINE
  5
66
100
AcDbEntity
  8
M2
  6
CONTINUOUS
370
25
 62
     4
100
AcDbLine
 10
32.000854
 20
461.415644
 11
32.000854
 21
480.415644
  0
LINE
  5
67
100
AcDbEntity
  8
M2
  6
CONTINUOUS
370
25
 62
     4
100
AcDbLine
 10
41.750854
 20
471.76562
 11
53.250854
 21
471.76562
  0
LINE
  5
68
100
AcDbEntity
  8
M2
  6
CONTINUOUS
370
25
 62
     4
100
AcDbLine
 10
53.250854
 20
467.840571
 11
41.750854
 21
467.840571
  0
ARC
  5
69
100
AcDbEntity
  8
M2
  6
CONTINUOUS
370
25
 62
     4
100
AcDbCircle
 10
35.500854
 20
480.415644
 40
3.5
100
AcDbArc
 50
89.999875
 51
179.999875
  0
ARC
  5
6A
100
AcDbEntity
  8
M2
  6
CONTINUOUS
370
25
 62
     4
100
AcDbCircle
 10
59.500854
 20
480.415644
 40
3.5
100
AcDbArc
 50
0.0
 51
90.0
  0
ARC
  5
6B
100
AcDbEntity
  8
M2
  6
CONTINUOUS
370
25
 62
     4
100
AcDbCircle
 10
35.500854
 20
442.415644
 40
3.5
100
AcDbArc
 50
179.999875
 51
270.0
  0
ARC
  5
6C
100
AcDbEntity
  8
M2
  6
CONTINUOUS
370
25
 62
     4
100
AcDbCircle
 10
59.500854
 20
442.415644
 40
3.5
100
AcDbArc
 50
269.999875
 51
360.0
  0
LINE
  5
6D
100
AcDbEntity
  8
M2
  6
CONTINUOUS
370
25
 62
     4
100
AcDbLine
 10
53.250854
 20
451.665644
 11
53.250854
 21
471.76562
  0
LINE
  5
6E
100
AcDbEntity
  8
M2
  6
CONTINUOUS
370
25
 62
     4
100
AcDbLine
 10
41.750854
 20
451.665644
 11
53.250854
 21
451.665644
  0
LINE
  5
6F
100
AcDbEntity
  8
M2
  6
CONTINUOUS
370
25
 62
     4
100
AcDbLine
 10
41.750854
 20
471.76562
 11
41.750854
 21
451.665644
  0
LINE
  5
70
100
AcDbEntity
  8
M2
  6
CONTINUOUS
370
25
 62
     4
100
AcDbLine
 10
63.000854
 20
442.415522
 11
63.000854
 21
461.415644
  0
LINE
  5
71
100
AcDbEntity
  8
M2
  6
CONTINUOUS
370
25
 62
     4
100
AcDbLine
 10
35.500854
 20
438.915644
 11
59.500854
 21
438.915644
  0
LINE
  5
72
100
AcDbEntity
  8
M2
  6
CONTINUOUS
370
25
 62
     4
100
AcDbLine
 10
32.000854
 20
461.415644
 11
32.000854
 21
442.415644
  0
LINE
  5
73
100
AcDbEntity
  8
M2
  6
CONTINUOUS
370
25
 62
     4
100
AcDbLine
 10
12.249999
 20
416.165644
 11
104.75
 21
416.165644
  0
LINE
  5
74
100
AcDbEntity
  8
M2
  6
CONTINUOUS
370
25
 62
     4
100
AcDbLine
 10
12.249999
 20
506.665644
 11
104.75
 21
506.665644
  0
LINE
  5
75
100
AcDbEntity
  8
M2
  6
CONTINUOUS
370
25
 62
     4
100
AcDbLine
 10
12.249999
 20
397.165644
 11
104.75
 21
397.165644
  0
CIRCLE
  5
76
100
AcDbEntity
  8
M2
  6
CONTINUOUS
370
25
 62
     4
100
AcDbCircle
 10
69.499999
 20
517.665644
 40
2.625
  0
CIRCLE
  5
77
100
AcDbEntity
  8
M2
  6
CONTINUOUS
370
25
 62
     4
100
AcDbCircle
 10
47.499999
 20
517.665644
 40
2.625
  0
CIRCLE
  5
78
100
AcDbEntity
  8
M2
  6
CONTINUOUS
370
25
 62
     4
100
AcDbCircle
 10
25.499999
 20
517.665644
 40
2.625
  0
CIRCLE
  5
79
100
AcDbEntity
  8
M2
  6
CONTINUOUS
370
25
 62
     4
100
AcDbCircle
 10
25.499999
 20
405.165644
 40
2.625
  0
CIRCLE
  5
7A
100
AcDbEntity
  8
M2
  6
CONTINUOUS
370
25
 62
     4
100
AcDbCircle
 10
47.499999
 20
405.165644
 40
2.625
  0
CIRCLE
  5
7B
100
AcDbEntity
  8
M2
  6
CONTINUOUS
370
25
 62
     4
100
AcDbCircle
 10
69.499999
 20
405.165644
 40
2.625
  0
ARC
  5
7C
100
AcDbEntity
  8
M2
  6
CONTINUOUS
370
25
 62
     4
100
AcDbCircle
 10
69.499999
 20
517.665644
 40
7.25
100
AcDbArc
 50
180.0
 51
360.0
  0
LINE
  5
7D
100
AcDbEntity
  8
M2
  6
CONTINUOUS
370
25
 62
     4
100
AcDbLine
 10
76.749877
 20
517.665522
 11
76.749999
 21
525.665522
  0
LINE
  5
7E
100
AcDbEntity
  8
M2
  6
CONTINUOUS
370
25
 62
     4
100
AcDbLine
 10
62.249999
 20
525.665522
 11
62.249877
 21
517.665522
  0
ARC
  5
7F
100
AcDbEntity
  8
M2
  6
CONTINUOUS
370
25
 62
     4
100
AcDbCircle
 10
47.499999
 20
517.665644
 40
7.25
100
AcDbArc
 50
180.0
 51
360.0
  0
LINE
  5
80
100
AcDbEntity
  8
M2
  6
CONTINUOUS
370
25
 62
     4
100
AcDbLine
 10
54.749877
 20
517.665522
 11
54.749999
 21
525.665522
  0
LINE
  5
81
100
AcDbEntity
  8
M2
  6
CONTINUOUS
370
25
 62
     4
100
AcDbLine
 10
40.249999
 20
525.665522
 11
40.249877
 21
517.665522
  0
ARC
  5
82
100
AcDbEntity
  8
M2
  6
CONTINUOUS
370
25
 62
     4
100
AcDbCircle
 10
25.499999
 20
517.665644
 40
7.25
100
AcDbArc
 50
180.0
 51
360.0
  0
LINE
  5
83
100
AcDbEntity
  8
M2
  6
CONTINUOUS
370
25
 62
     4
100
AcDbLine
 10
32.749877
 20
517.665522
 11
32.749999
 21
525.665522
  0
LINE
  5
84
100
AcDbEntity
  8
M2
  6
CONTINUOUS
370
25
 62
     4
100
AcDbLine
 10
18.249999
 20
525.665522
 11
18.249878
 21
517.665522
  0
ARC
  5
85
100
AcDbEntity
  8
M2
  6
CONTINUOUS
370
25
 62
     4
100
AcDbCircle
 10
25.499999
 20
405.165644
 40
7.25
100
AcDbArc
 50
0.0
 51
180.0
  0
LINE
  5
86
100
AcDbEntity
  8
M2
  6
CONTINUOUS
370
25
 62
     4
100
AcDbLine
 10
32.749877
 20
405.165766
 11
32.749999
 21
397.165766
  0
LINE
  5
87
100
AcDbEntity
  8
M2
  6
CONTINUOUS
370
25
 62
     4
100
AcDbLine
 10
18.249999
 20
397.165766
 11
18.249878
 21
405.165766
  0
ARC
  5
88
100
AcDbEntity
  8
M2
  6
CONTINUOUS
370
25
 62
     4
100
AcDbCircle
 10
47.499999
 20
405.165644
 40
7.25
100
AcDbArc
 50
0.0
 51
180.0
  0
LINE
  5
89
100
AcDbEntity
  8
M2
  6
CONTINUOUS
370
25
 62
     4
100
AcDbLine
 10
54.749877
 20
405.165766
 11
54.749999
 21
397.165766
  0
LINE
  5
8A
100
AcDbEntity
  8
M2
  6
CONTINUOUS
370
25
 62
     4
100
AcDbLine
 10
40.249999
 20
397.165766
 11
40.249877
 21
405.165766
  0
ARC
  5
8B
100
AcDbEntity
  8
M2
  6
CONTINUOUS
370
25
 62
     4
100
AcDbCircle
 10
69.499999
 20
405.165644
 40
7.25
100
AcDbArc
 50
0.0
 51
180.0
  0
LINE
  5
8C
100
AcDbEntity
  8
M2
  6
CONTINUOUS
370
25
 62
     4
100
AcDbLine
 10
76.749877
 20
405.165766
 11
76.749999
 21
397.165766
  0
LINE
  5
8D
100
AcDbEntity
  8
M2
  6
CONTINUOUS
370
25
 62
     4
100
AcDbLine
 10
62.249999
 20
397.165766
 11
62.249877
 21
405.165766
  0
LINE
  5
8E
100
AcDbEntity
  8
M2
  6
CONTINUOUS
370
25
 62
     4
100
AcDbLine
 10
84.250121
 20
517.665522
 11
84.249999
 21
525.665522
  0
LINE
  5
8F
100
AcDbEntity
  8
M2
  6
CONTINUOUS
370
25
 62
     4
100
AcDbLine
 10
98.749999
 20
525.665522
 11
98.750121
 21
517.665522
  0
CIRCLE
  5
90
100
AcDbEntity
  8
M2
  6
CONTINUOUS
370
25
 62
     4
100
AcDbCircle
 10
91.499999
 20
517.665644
 40
2.625
  0
ARC
  5
91
100
AcDbEntity
  8
M2
  6
CONTINUOUS
370
25
 62
     4
100
AcDbCircle
 10
91.499999
 20
517.665644
 40
7.25
100
AcDbArc
 50
180.0
 51
360.0
  0
LINE
  5
92
100
AcDbEntity
  8
M2
  6
CONTINUOUS
370
25
 62
     4
100
AcDbLine
 10
84.250121
 20
405.165766
 11
84.249999
 21
397.165766
  0
LINE
  5
93
100
AcDbEntity
  8
M2
  6
CONTINUOUS
370
25
 62
     4
100
AcDbLine
 10
98.749999
 20
397.165766
 11
98.750121
 21
405.165766
  0
ARC
  5
94
100
AcDbEntity
  8
M2
  6
CONTINUOUS
370
25
 62
     4
100
AcDbCircle
 10
91.499999
 20
405.165644
 40
7.25
100
AcDbArc
 50
0.0
 51
180.0
  0
CIRCLE
  5
95
100
AcDbEntity
  8
M2
  6
CONTINUOUS
370
25
 62
     4
100
AcDbCircle
 10
91.499999
 20
405.165644
 40
2.625
  0
LINE
  5
96
100
AcDbEntity
  8
M2
  6
DASHDOT
370
25
 62
     4
100
AcDbLine
 10
58.499999
 20
386.539041
 11
58.499999
 21
535.139283
  0
CIRCLE
  5
97
100
AcDbEntity
  8
M2
  6
CONTINUOUS
370
25
100
AcDbCircle
 10
58.499999
 20
510.665644
 40
1.75
  0
LINE
  5
98
100
AcDbEntity
  8
M2
  6
DASHDOT
370
25
100
AcDbLine
 10
58.499999
 20
503.915644
 11
58.499999
 21
517.415644
  0
LINE
  5
99
100
AcDbEntity
  8
M2
  6
DASHDOT
370
25
100
AcDbLine
 10
65.249999
 20
510.665644
 11
51.749999
 21
510.665644
  0
LINE
  5
9A
100
AcDbEntity
  8
M2
  6
DASHDOT
370
25
100
AcDbLine
 10
29.749999
 20
510.665644
 11
43.249999
 21
510.665644
  0
LINE
  5
9B
100
AcDbEntity
  8
M2
  6
DASHDOT
370
25
100
AcDbLine
 10
36.499999
 20
503.915644
 11
36.499999
 21
517.415644
  0
CIRCLE
  5
9C
100
AcDbEntity
  8
M2
  6
CONTINUOUS
370
25
100
AcDbCircle
 10
36.499999
 20
510.665644
 40
1.75
  0
LINE
  5
9D
100
AcDbEntity
  8
M2
  6
DASHDOT
370
25
100
AcDbLine
 10
58.499999
 20
418.915644
 11
58.499999
 21
405.415644
  0
LINE
  5
9E
100
AcDbEntity
  8
M2
  6
DASHDOT
370
25
100
AcDbLine
 10
65.249999
 20
412.165644
 11
51.749999
 21
412.165644
  0
CIRCLE
  5
9F
100
AcDbEntity
  8
M2
  6
CONTINUOUS
370
25
100
AcDbCircle
 10
58.499999
 20
412.165644
 40
1.75
  0
LINE
  5
A0
100
AcDbEntity
  8
M2
  6
DASHDOT
370
25
100
AcDbLine
 10
36.499999
 20
418.915644
 11
36.499999
 21
405.415644
  0
LINE
  5
A1
100
AcDbEntity
  8
M2
  6
DASHDOT
370
25
100
AcDbLine
 10
29.749999
 20
412.165644
 11
43.249999
 21
412.165644
  0
CIRCLE
  5
A2
100
AcDbEntity
  8
M2
  6
CONTINUOUS
370
25
100
AcDbCircle
 10
36.499999
 20
412.165644
 40
1.75
  0
LINE
  5
A3
100
AcDbEntity
  8
M2
  6
DASHED
370
25
100
AcDbLine
 10
256.803409
 20
513.0404
 11
256.803409
 21
506.7904
  0
LINE
  5
A4
100
AcDbEntity
  8
M2
  6
DASHDOT
370
25
100
AcDbLine
 10
249.495258
 20
509.9154
 11
271.803409
 21
509.9154
  0
LINE
  5
A5
100
AcDbEntity
  8
M2
  6
DASHED
370
25
100
AcDbLine
 10
256.803409
 20
409.790888
 11
256.803409
 21
416.040888
  0
LINE
  5
A6
100
AcDbEntity
  8
M2
  6
DASHDOT
370
25
100
AcDbLine
 10
249.495258
 20
412.915888
 11
271.803409
 21
412.915888
  0
LINE
  5
A7
100
AcDbEntity
  8
M2
  6
DASHDOT
370
25
 62
     4
100
AcDbLine
 10
12.249999
 20
121.193766
 11
104.75
 21
121.193766
  0
LINE
  5
A8
100
AcDbEntity
  8
M2
  6
DASHDOT
370
25
 62
     4
100
AcDbLine
 10
104.75
 20
121.193766
 11
104.75
 21
249.693644
  0
LINE
  5
A9
100
AcDbEntity
  8
M2
  6
DASHDOT
370
25
 62
     4
100
AcDbLine
 10
12.249999
 20
249.693644
 11
12.249999
 21
121.193766
  0
LINE
  5
AA
100
AcDbEntity
  8
M2
  6
DASHDOT
370
25
 62
     4
100
AcDbLine
 10
58.499999
 20
115.771159
 11
58.499999
 21
255.776041
  0
LINE
  5
AB
100
AcDbEntity
  8
M2
  6
DASHDOT
370
25
 62
     4
100
AcDbLine
 10
6.397338
 20
185.443766
 11
110.668678
 21
185.443766
  0
LINE
  5
AC
100
AcDbEntity
  8
M2
  6
DASHDOT
370
25
 62
     4
100
AcDbLine
 10
12.250121
 20
249.693644
 11
104.75
 21
249.693644
  0
CIRCLE
  5
AD
100
AcDbEntity
  8
M2
  6
CONTINUOUS
370
25
100
AcDbCircle
 10
58.499999
 20
232.193644
 40
1.75
  0
CIRCLE
  5
AE
100
AcDbEntity
  8
M2
  6
CONTINUOUS
370
25
100
AcDbCircle
 10
36.499999
 20
232.193644
 40
1.75
  0
CIRCLE
  5
AF
100
AcDbEntity
  8
M2
  6
CONTINUOUS
370
25
100
AcDbCircle
 10
36.499999
 20
135.193766
 40
1.75
  0
CIRCLE
  5
B0
100
AcDbEntity
  8
M2
  6
CONTINUOUS
370
25
100
AcDbCircle
 10
58.499999
 20
135.193766
 40
1.75
  0
LINE
  5
B1
100
AcDbEntity
  8
M2
  6
DASHDOT
370
25
100
AcDbLine
 10
51.749999
 20
232.193644
 11
65.249999
 21
232.193644
  0
LINE
  5
B2
100
AcDbEntity
  8
M2
  6
DASHDOT
370
25
100
AcDbLine
 10
58.499999
 20
225.443644
 11
58.499999
 21
238.943644
  0
LINE
  5
B3
100
AcDbEntity
  8
M2
  6
DASHDOT
370
25
100
AcDbLine
 10
29.749999
 20
232.193644
 11
43.249999
 21
232.193644
  0
LINE
  5
B4
100
AcDbEntity
  8
M2
  6
DASHDOT
370
25
100
AcDbLine
 10
36.499999
 20
225.443644
 11
36.499999
 21
238.943644
  0
LINE
  5
B5
100
AcDbEntity
  8
M2
  6
DASHDOT
370
25
100
AcDbLine
 10
29.749999
 20
135.193766
 11
43.249999
 21
135.193766
  0
LINE
  5
B6
100
AcDbEntity
  8
M2
  6
DASHDOT
370
25
100
AcDbLine
 10
36.499999
 20
128.443766
 11
36.499999
 21
141.943766
  0
LINE
  5
B7
100
AcDbEntity
  8
M2
  6
DASHDOT
370
25
100
AcDbLine
 10
51.749999
 20
135.193766
 11
65.249999
 21
135.193766
  0
LINE
  5
B8
100
AcDbEntity
  8
M2
  6
DASHDOT
370
25
100
AcDbLine
 10
58.499999
 20
128.443766
 11
58.499999
 21
141.943766
  0
LINE
  5
B9
100
AcDbEntity
  8
M2
  6
DASHDOT
370
25
 62
     4
100
AcDbLine
 10
214.55341
 20
149.803485
 11
214.55341
 21
220.873166
  0
LINE
  5
BA
100
AcDbEntity
  8
M2
  6
DASHDOT
370
25
 62
     4
100
AcDbLine
 10
170.006721
 20
185.443766
 11
277.722087
 21
185.443766
  0
LINE
  5
BB
100
AcDbEntity
  8
M2
  6
DASHDOT
370
25
 62
     4
100
AcDbLine
 10
271.803409
 20
121.193766
 11
271.803409
 21
249.693644
  0
LINE
  5
BC
100
AcDbEntity
  8
M2
  6
DASHDOT
370
25
 62
     4
100
AcDbLine
 10
179.303531
 20
249.693644
 11
271.803409
 21
249.693644
  0
LINE
  5
BD
100
AcDbEntity
  8
M2
  6
DASHDOT
370
25
 62
     4
100
AcDbLine
 10
179.30341
 20
249.693644
 11
179.30341
 21
121.193766
  0
LINE
  5
BE
100
AcDbEntity
  8
M2
  6
DASHDOT
370
25
 62
     4
100
AcDbLine
 10
179.30341
 20
121.193766
 11
271.803409
 21
121.193766
  0
LINE
  5
BF
100
AcDbEntity
  8
M2
  6
DASHDOT
370
25
 62
     4
100
AcDbLine
 10
225.55341
 20
260.099938
 11
225.55341
 21
110.576713
  0
LINE
  5
C0
100
AcDbEntity
  8
M2
  6
CONTINUOUS
370
25
 62
     7
100
AcDbLine
 10
198.55341
 20
204.443765
 11
198.55341
 21
166.443766
  0
LINE
  5
C1
100
AcDbEntity
  8
M2
  6
CONTINUOUS
370
25
 62
     7
100
AcDbLine
 10
202.55341
 20
208.443765
 11
226.55341
 21
208.443765
  0
LINE
  5
C2
100
AcDbEntity
  8
M2
  6
CONTINUOUS
370
25
 62
     7
100
AcDbLine
 10
202.55341
 20
162.443766
 11
226.55341
 21
162.443766
  0
LINE
  5
C3
100
AcDbEntity
  8
M2
  6
CONTINUOUS
370
25
 62
     7
100
AcDbLine
 10
230.55341
 20
204.443765
 11
230.55341
 21
166.443766
  0
ARC
  5
C4
100
AcDbEntity
  8
M2
  6
CONTINUOUS
370
25
 62
     7
100
AcDbCircle
 10
226.55341
 20
204.443765
 40
4.0
100
AcDbArc
 50
0.0
 51
90.0
  0
ARC
  5
C5
100
AcDbEntity
  8
M2
  6
CONTINUOUS
370
25
 62
     7
100
AcDbCircle
 10
202.55341
 20
204.443765
 40
4.0
100
AcDbArc
 50
90.0
 51
180.0
  0
ARC
  5
C6
100
AcDbEntity
  8
M2
  6
CONTINUOUS
370
25
 62
     7
100
AcDbCircle
 10
202.55341
 20
166.443766
 40
4.0
100
AcDbArc
 50
180.0
 51
270.0
  0
ARC
  5
C7
100
AcDbEntity
  8
M2
  6
CONTINUOUS
370
25
 62
     7
100
AcDbCircle
 10
226.55341
 20
166.443766
 40
4.0
100
AcDbArc
 50
270.0
 51
360.0
  0
LINE
  5
C8
100
AcDbEntity
  8
M2
  6
DASHDOT
370
25
 62
     4
100
AcDbLine
 10
47.499999
 20
428.351923
 11
47.499999
 21
494.114452
  0
LINE
  5
C9
100
AcDbEntity
  8
M2
  6
DASHDOT
370
25
 62
     2
100
AcDbLine
 10
69.499999
 20
511.415644
 11
69.499999
 21
523.915644
  0
LINE
  5
CA
100
AcDbEntity
  8
M2
  6
DASHDOT
370
25
 62
     2
100
AcDbLine
 10
63.249999
 20
517.665644
 11
75.749999
 21
517.665644
  0
LINE
  5
CB
100
AcDbEntity
  8
M2
  6
DASHDOT
370
25
 62
     2
100
AcDbLine
 10
47.499999
 20
511.415644
 11
47.499999
 21
523.915644
  0
LINE
  5
CC
100
AcDbEntity
  8
M2
  6
DASHDOT
370
25
 62
     2
100
AcDbLine
 10
41.249999
 20
517.665644
 11
53.749999
 21
517.665644
  0
LINE
  5
CD
100
AcDbEntity
  8
M2
  6
DASHDOT
370
25
 62
     2
100
AcDbLine
 10
25.499999
 20
511.415644
 11
25.499999
 21
523.915644
  0
LINE
  5
CE
100
AcDbEntity
  8
M2
  6
DASHDOT
370
25
 62
     2
100
AcDbLine
 10
19.249999
 20
517.665644
 11
31.749999
 21
517.665644
  0
LINE
  5
CF
100
AcDbEntity
  8
M2
  6
DASHDOT
370
25
 62
     2
100
AcDbLine
 10
47.499999
 20
398.915644
 11
47.499999
 21
411.415644
  0
LINE
  5
D0
100
AcDbEntity
  8
M2
  6
DASHDOT
370
25
 62
     2
100
AcDbLine
 10
41.249999
 20
405.165644
 11
53.749999
 21
405.165644
  0
LINE
  5
D1
100
AcDbEntity
  8
M2
  6
DASHDOT
370
25
 62
     2
100
AcDbLine
 10
19.249999
 20
405.165644
 11
31.749999
 21
405.165644
  0
LINE
  5
D2
100
AcDbEntity
  8
M2
  6
DASHDOT
370
25
 62
     2
100
AcDbLine
 10
25.499999
 20
398.915644
 11
25.499999
 21
411.415644
  0
LINE
  5
D3
100
AcDbEntity
  8
M2
  6
DASHDOT
370
25
 62
     2
100
AcDbLine
 10
63.249999
 20
405.165644
 11
75.749999
 21
405.165644
  0
LINE
  5
D4
100
AcDbEntity
  8
M2
  6
DASHDOT
370
25
 62
     2
100
AcDbLine
 10
69.499999
 20
398.915644
 11
69.499999
 21
411.415644
  0
LINE
  5
D5
100
AcDbEntity
  8
M2
  6
DASHDOT
370
25
 62
     2
100
AcDbLine
 10
97.749999
 20
517.665644
 11
85.249999
 21
517.665644
  0
LINE
  5
D6
100
AcDbEntity
  8
M2
  6
DASHDOT
370
25
 62
     2
100
AcDbLine
 10
91.499999
 20
511.415644
 11
91.499999
 21
523.915644
  0
LINE
  5
D7
100
AcDbEntity
  8
M2
  6
DASHDOT
370
25
 62
     2
100
AcDbLine
 10
91.499999
 20
411.415644
 11
91.499999
 21
398.915644
  0
LINE
  5
D8
100
AcDbEntity
  8
M2
  6
DASHDOT
370
25
 62
     2
100
AcDbLine
 10
97.749999
 20
405.165644
 11
85.249999
 21
405.165644
  0
LINE
  5
D9
100
AcDbEntity
  8
M2
  6
DASHDOT
370
25
 62
     2
100
AcDbLine
 10
249.641224
 20
517.665644
 11
258.803287
 21
517.665644
  0
LINE
  5
DA
100
AcDbEntity
  8
M2
  6
DASHDOT
370
25
 62
     2
100
AcDbLine
 10
254.803287
 20
522.165644
 11
254.803287
 21
513.165644
  0
LINE
  5
DB
100
AcDbEntity
  8
M2
  6
DASHDOT
370
25
 62
     2
100
AcDbLine
 10
249.641224
 20
405.165644
 11
258.803287
 21
405.165644
  0
LINE
  5
DC
100
AcDbEntity
  8
M2
  6
DASHDOT
370
25
 62
     2
100
AcDbLine
 10
254.803287
 20
400.665644
 11
254.803287
 21
409.665644
  0
LINE
  5
DD
100
AcDbEntity
  8
M3
  6
CONTINUOUS
370
25
100
AcDbLine
 10
216.62745
 20
41.249999
 11
216.62745
 21
-7.105427E-015
  0
LINE
  5
DE
100
AcDbEntity
  8
M3
  6
CONTINUOUS
370
25
100
AcDbLine
 10
11.627444
 20
41.249999
 11
11.627444
 21
-7.105427E-015
  0
LINE
  5
DF
100
AcDbEntity
  8
M3
  6
CONTINUOUS
370
25
100
AcDbLine
 10
11.627444
 20
-7.105427E-015
 11
216.62745
 21
-7.105427E-015
  0
LINE
  5
E0
100
AcDbEntity
  8
M3
  6
CONTINUOUS
370
25
100
AcDbLine
 10
11.627444
 20
41.249999
 11
216.62745
 21
41.249999
  0
LINE
  5
E1
100
AcDbEntity
  8
M3
  6
CONTINUOUS
370
25
100
AcDbLine
 10
169.127451
 20
27.499999
 11
169.127451
 21
41.249999
  0
LINE
  5
E2
100
AcDbEntity
  8
M3
  6
CONTINUOUS
370
25
100
AcDbLine
 10
41.627443
 20
27.499999
 11
169.127451
 21
27.499999
  0
LINE
  5
E3
100
AcDbEntity
  8
M3
  6
CONTINUOUS
370
25
 60
     1
100
AcDbLine
 10
191.627432
 20
27.499999
 11
191.627432
 21
41.249999
  0
LINE
  5
E4
100
AcDbEntity
  8
M3
  6
CONTINUOUS
370
25
100
AcDbLine
 10
169.127451
 20
27.499999
 11
191.627432
 21
27.499999
  0
TEXT
  5
E5
100
AcDbEntity
  8
M3
100
AcDbText
 10
171.778838
 20
31.250001
 40
6.25
  1
ＲＥＶ．：
 41
0.666667
  7
STANDARD
100
AcDbText
  0
LINE
  5
E6
100
AcDbEntity
  8
M3
  6
CONTINUOUS
370
25
 60
     1
100
AcDbLine
 10
216.62745
 20
27.499999
 11
216.62745
 21
41.249999
  0
LINE
  5
E7
100
AcDbEntity
  8
M3
  6
CONTINUOUS
370
25
100
AcDbLine
 10
191.627432
 20
27.499999
 11
216.62745
 21
27.499999
  0
TEXT
  5
E8
100
AcDbEntity
  8
M3
100
AcDbText
 10
201.801054
 20
31.250001
 40
6.25
  1
００
 41
0.833333
  7
STANDARD
100
AcDbText
  0
LINE
  5
E9
100
AcDbEntity
  8
M3
  6
CONTINUOUS
370
25
 60
     1
100
AcDbLine
 10
41.627443
 20
27.499999
 11
41.627443
 21
41.249999
  0
LINE
  5
EA
100
AcDbEntity
  8
M3
  6
CONTINUOUS
370
25
100
AcDbLine
 10
11.627444
 20
27.499999
 11
41.627443
 21
27.499999
  0
TEXT
  5
EB
100
AcDbEntity
  8
M3
100
AcDbText
 10
14.301054
 20
31.250001
 40
6.25
  1
登録名：
 41
0.833333
  7
STANDARD
100
AcDbText
  0
LINE
  5
EC
100
AcDbEntity
  8
M3
  6
CONTINUOUS
370
25
 60
     1
100
AcDbLine
 10
216.62745
 20
13.749999
 11
216.62745
 21
27.499999
  0
LINE
  5
ED
100
AcDbEntity
  8
M3
  6
CONTINUOUS
370
25
100
AcDbLine
 10
191.627432
 20
13.749999
 11
216.62745
 21
13.749999
  0
LINE
  5
EE
100
AcDbEntity
  8
M3
  6
CONTINUOUS
370
25
 60
     1
100
AcDbLine
 10
191.627432
 20
13.749999
 11
191.627432
 21
27.499999
  0
LINE
  5
EF
100
AcDbEntity
  8
M3
  6
CONTINUOUS
370
25
100
AcDbLine
 10
41.627443
 20
13.749999
 11
191.627432
 21
13.749999
  0
TEXT
  5
F0
100
AcDbEntity
  8
M3
100
AcDbText
 10
44.301054
 20
17.500001
 40
6.25
  1
表面形
 41
0.833333
  7
STANDARD
100
AcDbText
  0
LINE
  5
F1
100
AcDbEntity
  8
M3
  6
CONTINUOUS
370
25
 60
     1
100
AcDbLine
 10
41.627443
 20
13.749999
 11
41.627443
 21
27.499999
  0
LINE
  5
F2
100
AcDbEntity
  8
M3
  6
CONTINUOUS
370
25
100
AcDbLine
 10
11.627444
 20
13.749999
 11
41.627443
 21
13.749999
  0
TEXT
  5
F3
100
AcDbEntity
  8
M3
100
AcDbText
 10
13.03369
 20
17.500001
 40
6.25
  1
接続方式：
 41
0.75
  7
STANDARD
100
AcDbText
  0
LINE
  5
F4
100
AcDbEntity
  8
M3
  6
CONTINUOUS
370
25
 60
     1
100
AcDbLine
 10
216.62745
 20
-7.105427E-015
 11
216.62745
 21
13.749999
  0
LINE
  5
F5
100
AcDbEntity
  8
M3
  6
CONTINUOUS
370
25
 60
     1
100
AcDbLine
 10
191.627432
 20
-7.105427E-015
 11
216.62745
 21
-7.105427E-015
  0
LINE
  5
F6
100
AcDbEntity
  8
M3
  6
CONTINUOUS
370
25
 60
     1
100
AcDbLine
 10
191.627432
 20
-7.105427E-015
 11
191.627432
 21
13.749999
  0
LINE
  5
F7
100
AcDbEntity
  8
M3
  6
CONTINUOUS
370
25
 60
     1
100
AcDbLine
 10
41.627443
 20
-7.105427E-015
 11
191.627432
 21
-7.105427E-015
  0
TEXT
  5
F8
100
AcDbEntity
  8
M3
100
AcDbText
 10
44.28369
 20
3.750001
 40
6.25
  1
Ｌ－２２５Ｅ
 41
0.75
  7
STANDARD
100
AcDbText
  0
LINE
  5
F9
100
AcDbEntity
  8
M3
  6
CONTINUOUS
370
25
 60
     1
100
AcDbLine
 10
41.627443
 20
-7.105427E-015
 11
41.627443
 21
13.749999
  0
LINE
  5
FA
100
AcDbEntity
  8
M3
  6
CONTINUOUS
370
25
 60
     1
100
AcDbLine
 10
11.627444
 20
-7.105427E-015
 11
41.627443
 21
-7.105427E-015
  0
TEXT
  5
FB
100
AcDbEntity
  8
M3
100
AcDbText
 10
13.03369
 20
3.750001
 40
6.25
  1
適用形式：
 41
0.75
  7
STANDARD
100
AcDbText
  0
TEXT
  5
FC
100
AcDbEntity
  8
M3
100
AcDbText
 10
44.301054
 20
31.250001
 40
6.25
  1
Ｌ－２２５Ｅ　４Ｐ
 41
0.833333
  7
STANDARD
100
AcDbText
  0
ENDSEC
  0
SECTION
  2
OBJECTS
  0
DICTIONARY
  5
C
100
AcDbDictionary
  3
ACAD_GROUP
350
D
  3
ACAD_MLINESTYLE
350
E
  0
DICTIONARY
  5
D
102
{ACAD_REACTORS
330
C
102
}
100
AcDbDictionary
  0
DICTIONARY
  5
E
102
{ACAD_REACTORS
330
C
102
}
100
AcDbDictionary
  3
STANDARD
350
13
  0
MLINESTYLE
  5
13
102
{ACAD_REACTORS
330
E
102
}
100
AcDbMlineStyle
  2
STANDARD
 70
     0
  3

 62
     0
 51
90.0
 52
90.0
 71
     2
 49
0.5
 62
   256
  6
BYLAYER
 49
-0.5
 62
   256
  6
BYLAYER
  0
ENDSEC
  0
EOF
