  0
SECTION
  2
HEADER
  9
$ACADVER
  1
AC1015
  9
$INSBASE
 10
0.000000
 20
0.000000
 30
0.0
  9
$VIEWCTR
 10
7.531722
 20
4.5
  9
$VIEWSIZE
 40
9.0
  9
$SNAPMODE
 70
     0
  9
$SNAPUNIT
 10
1.0
 20
1.0
  9
$SNAPBASE
 10
0.0
 20
0.0
  9
$SNAPANG
 50
0.0
  9
$SNAPSTYLE
 70
     0
  9
$SNAPISOPAIR
 70
     0
  9
$GRIDMODE
 70
     0
  9
$GRIDUNIT
 10
0.0
 20
0.0
  9
$ORTHOMODE
 70
     0
  9
$REGENMODE
 70
     1
  9
$FILLMODE
 70
     1
  9
$QTEXTMODE
 70
     0
  9
$DRAGMODE
 70
     2
  9
$LTSCALE
  40
     1.000000
  9
$OSMODE
 70
     0
  9
$ATTMODE
 70
     1
  9
$TEXTSIZE
 40
0.2
  9
$TRACEWID
 40
0.05
  9
$TEXTSTYLE
  7
STANDARD
  9
$CELTYPE
  6
BYLAYER
  9
$CECOLOR
 62
   256
  9
$DIMSCALE
 40
1.0
  9
$DIMASZ
 40
0.18
  9
$DIMEXO
 40
0.0625
  9
$DIMDLI
 40
0.38
  9
$DIMRND
 40
0.0
  9
$DIMDLE
 40
0.0
  9
$DIMEXE
 40
0.18
  9
$DIMTP
 40
0.0
  9
$DIMTM
 40
0.0
  9
$DIMTXT
 40
0.18
  9
$DIMCEN
 40
0.09
  9
$DIMTSZ
 40
0.0
  9
$DIMADEC
 70
     0
  9
$DIMALTRND
 40
0.000000
  9
$DIMAZIN
 70
     0
  9
$DIMDSEP
 70
    46
  9
$DIMATFIT
 70
     3
  9
$DIMFRAC
 70
     0
  9
$DIMLDRBLK
  1

  9
$DIMLUNIT
 70
     2
  9
$DIMLWD
 70
   13
  9
$DIMLWE
 70
   13
  9
$DIMTMOVE
 70
     0
  9
$CELWEIGHT
370
    25
  9
$LWDISPLAY
290
    1
  9
$EXTNAMES
290
    1
  9
$DIMTOL
 70
     0
  9
$DIMLIM
 70
     0
  9
$DIMTIH
 70
     1
  9
$DIMTOH
 70
     1
  9
$DIMSE1
 70
     0
  9
$DIMSE2
 70
     0
  9
$DIMTAD
 70
     0
  9
$DIMZIN
 70
     0
  9
$DIMBLK
  1

  9
$LUNITS
 70
     2
  9
$LUPREC
 70
     4
  9
$AXISMODE
 70
     0
  9
$AXISUNIT
 10
0.0
 20
0.0
  9
$SKETCHINC
 40
0.1
  9
$FILLETRAD
 40
0.0
  9
$AUNITS
 70
     0
  9
$AUPREC
 70
     0
  9
$MENU
  1
ACAD
  9
$ELEVATION
 40
0.0
  9
$THICKNESS
 40
0.0
  9
$VIEWDIR
 10
0.0
 20
0.0
 30
1.0
  9
$LIMCHECK
 70
     0
  9
$BLIPMODE
 70
     1
  9
$CHAMFERA
 40
0.0
  9
$CHAMFERB
 40
0.0
  9
$FASTZOOM
 70
     1
  9
$SKPOLY
 70
     0
  9
$TDCREATE
 40
0000000.0000000000
  9
$TDUPDATE
 40
0000000.0000000000
  9
$TDINDWG
 40
0.0000000000
  9
$TDUSRTIMER
 40
0.0000000000
  9
$USRTIMER
 70
     1
  9
$ANGBASE
 50
0.0
  9
$ANGDIR
 70
     0
  9
$PDMODE
 70
     0
  9
$PDSIZE
 40
0.0
  9
$PLINEWID
 40
0.0
  9
$COORDS
 70
     0
  9
$USERI1
 70
     0
  9
$USERI2
 70
     0
  9
$USERI3
 70
     0
  9
$USERI4
 70
     0
  9
$USERI5
 70
     0
  9
$USERR1
 40
0.0
  9
$USERR2
 40
0.0
  9
$USERR3
 40
0.0
  9
$USERR4
 40
0.0
  9
$USERR5
 40
0.0
  9
$CLAYER
  8
M2
  9
$EXTMIN
 10
0.0
 20
0.0
  9
$EXTMAX
 10
841.0
 20
594.0
  9
$LIMMIN
 10
0.0
 20
0.0
  9
$LIMMAX
 10
841.0
 20
594.0
  9
$HANDSEED
  5
12D
  0
ENDSEC
  0
SECTION
  2
CLASSES
  0
CLASS
  1
DIMASSOC
  2
AcDbDimAssoc
  3
"AcDbDimAssoc|Product Desc:     AcDim ARX App For Dimension|Company:          Autodesk, Inc.|WEB Address:      www.autodesk.com"
 90
        0
280
     0
281
     0
  0
ENDSEC
  0
SECTION
  2
TABLES
  0
TABLE
  2
VPORT
  5
8
100
AcDbSymbolTable
 70
     2
  0
VPORT
  5
14
100
AcDbSymbolTableRecord
100
AcDbViewportTableRecord
  2
*ACTIVE
 70
     0
 10
0.0
 20
0.0
 11
1.0
 21
1.0
 12
484.0
 22
297.0
 13
0.0
 23
0.0
 14
1.0
 24
1.0
 15
0.0
 25
0.0
 16
0.0
 26
0.0
 36
1.0
 17
0.0
 27
0.0
 37
0.0
 40
594.0
 41
2.0
 42
50.0
 43
0.0
 44
0.0
 50
0.0
 51
0.0
 71
     0
 72
   100
 73
     1
 74
     1
 75
     0
 76
     0
 77
     0
 78
     0
  0
ENDTAB
  0
TABLE
  2
LTYPE
  5
5
100
AcDbSymbolTable
 70
     5
  0
LTYPE
  5
15
100
AcDbSymbolTableRecord
100
AcDbLinetypeTableRecord
  2
BYBLOCK
 70
     0
  3

 72
    65
 73
     0
 40
0.0
  0
LTYPE
  5
16
100
AcDbSymbolTableRecord
100
AcDbLinetypeTableRecord
  2
BYLAYER
 70
     0
  3

 72
    65
 73
     0
 40
0.0
  0
LTYPE
  5
17
100
AcDbSymbolTableRecord
100
AcDbLinetypeTableRecord
  2
CONTINUOUS
 70
    64
  3
Solid line
 72
    65
 73
     0
 40
0.0
  0
LTYPE
  5
18
100
AcDbSymbolTableRecord
100
AcDbLinetypeTableRecord
  2
DASHED
 70
    64
  3
__ __ __ __ __ __ __ __ __ __ __ __ __ __ __ __
 72
    65
 73
     2
 40
0.75
 49
0.5
 74
     0
 49
-0.25
 74
     0
  0
LTYPE
  5
19
100
AcDbSymbolTableRecord
100
AcDbLinetypeTableRecord
  2
DASHDOT
 70
    64
  3
__ . __ . __ . __ . __ . __ . __ . __ . __ . __
 72
    65
 73
     4
 40
1.0
 49
0.5
 74
     0
 49
-0.25
 74
     0
 49
0.0
 74
     0
 49
-0.25
 74
     0
  0
LTYPE
  5
1A
100
AcDbSymbolTableRecord
100
AcDbLinetypeTableRecord
  2
DIVIDE
 70
    64
  3
____ . . ____ . . ____ . . ____ . . ____ . . __
 72
    65
 73
     6
 40
1.25
 49
0.5
 74
     0
 49
-0.25
 74
     0
 49
0.0
 74
     0
 49
-0.25
 74
     0
 49
0.0
 74
     0
 49
-0.25
 74
     0
  0
LTYPE
  5
1B
100
AcDbSymbolTableRecord
100
AcDbLinetypeTableRecord
  2
DOT
 70
    64
  3
. . . . . . . . . . . . . . . . . . . . . . . .
 72
    65
 73
     2
 40
0.25
 49
0.0
 74
     0
 49
-0.25
 74
     0
  0
ENDTAB
  0
TABLE
  2
LAYER
  5
2
100
AcDbSymbolTable
 70
   102
  0
LAYER
  5
F
100
AcDbSymbolTableRecord
100
AcDbLayerTableRecord
  2
0
 70
     0
 62
     7
  6
CONTINUOUS
370
     -3
390
F
  0
LAYER
  5
1C
100
AcDbSymbolTableRecord
100
AcDbLayerTableRecord
  2
M2
 70
     0
 62
     3
  6
CONTINUOUS
370
     -3
390
F
  0
LAYER
  5
1D
100
AcDbSymbolTableRecord
100
AcDbLayerTableRecord
  2
M3
 70
     0
 62
     3
  6
CONTINUOUS
370
     -3
390
F
  0
LAYER
  5
1E
100
AcDbSymbolTableRecord
100
AcDbLayerTableRecord
  2
M4
 70
     0
 62
     3
  6
CONTINUOUS
370
     -3
390
F
  0
LAYER
  5
1F
100
AcDbSymbolTableRecord
100
AcDbLayerTableRecord
  2
M5
 70
     0
 62
     3
  6
CONTINUOUS
370
     -3
390
F
  0
LAYER
  5
20
100
AcDbSymbolTableRecord
100
AcDbLayerTableRecord
  2
M6
 70
     0
 62
     7
  6
CONTINUOUS
370
     -3
390
F
  0
ENDTAB
  0
TABLE
  2
STYLE
  5
3
100
AcDbSymbolTable
 70
     2
  0
STYLE
  5
10
100
AcDbSymbolTableRecord
100
AcDbTextStyleTableRecord
  2
STANDARD
 70
     0
 40
0.0
 41
1.0
 50
0.0
 71
     0
 42
0.2
  3
txt
  4
BIGFONT
  0
ENDTAB
  0
TABLE
  2
VIEW
  5
6
100
AcDbSymbolTable
 70
     0
  0
ENDTAB
  0
TABLE
  2
UCS
  5
7
100
AcDbSymbolTable
 70
     0
  0
ENDTAB
  0
TABLE
  2
APPID
  5
9
100
AcDbSymbolTable
 70
     1
  0
APPID
  5
11
100
AcDbSymbolTableRecord
100
AcDbRegAppTableRecord
  2
ACAD
 70
     0
  0
ENDTAB
  0
TABLE
  2
DIMSTYLE
  5
A
100
AcDbSymbolTable
 70
     2
100
AcDbDimStyleTable
 71
     1
  0
DIMSTYLE
105
49
100
AcDbSymbolTableRecord
100
AcDbDimStyleTableRecord
  2
STANDARD
 70
     0
  3

  4

  5

  6
_OPEN
  7
_OPEN
 40
1.0
 41
3.0
 42
0.0
 43
8.0
 44
1.5
 45
0.0
 46
0.0
 47
0.0
 48
0.0
140
3.2
141
0.09
142
0.0
143
0.03937
144
1.0
145
0.0
146
1.0
147
1.0
148
0.000000
 71
     0
 72
     0
 73
     1
 74
     1
 75
     0
 76
     0
 77
     3
 78
     8
170
     0
171
     2
172
     0
173
     1
174
     0
175
     0
176
     0
177
     0
178
     0
270
     2
271
     2
272
     4
273
     2
274
     2
340
10
275
     0
278
    46
280
     0
281
     0
282
     0
283
     1
284
     0
285
     0
286
     0
287
     3
288
     0
371
   13
372
   13
  0
DIMSTYLE
105
4A
100
AcDbSymbolTableRecord
100
AcDbDimStyleTableRecord
  2
LEADSTYL
 70
     0
  3

  4

  5

  6
_OPEN
  7
_OPEN
 40
1.0
 41
3.0
 42
0.0625
 43
0.38
 44
0.18
 45
0.0
 46
0.0
 47
0.0
 48
0.0
140
3.2
141
0.09
142
0.0
143
25.4
144
1.0
145
0.0
146
1.0
147
1.0
 71
     0
 72
     0
 73
     1
 74
     1
 75
     0
 76
     0
 77
     0
 78
     0
170
     0
171
     2
172
     0
173
     1
174
     0
175
     0
176
     0
177
     0
178
     0
270
     2
271
     4
272
     4
273
     2
274
     2
340
10
275
     0
280
     0
281
     0
282
     0
283
     1
284
     0
285
     0
286
     0
287
     3
288
     0
  0
ENDTAB
  0
TABLE
  2
BLOCK_RECORD
  5
1
100
AcDbSymbolTable
 70
     6
  0
BLOCK_RECORD
  5
21
100
AcDbSymbolTableRecord
100
AcDbBlockTableRecord
  2
*MODEL_SPACE
  0
BLOCK_RECORD
  5
24
100
AcDbSymbolTableRecord
100
AcDbBlockTableRecord
  2
*PAPER_SPACE
  0
BLOCK_RECORD
  5
27
100
AcDbSymbolTableRecord
100
AcDbBlockTableRecord
  2
_NONE
  0
BLOCK_RECORD
  5
2B
100
AcDbSymbolTableRecord
100
AcDbBlockTableRecord
  2
_OPEN
  0
BLOCK_RECORD
  5
31
100
AcDbSymbolTableRecord
100
AcDbBlockTableRecord
  2
_CLOSED
  0
BLOCK_RECORD
  5
38
100
AcDbSymbolTableRecord
100
AcDbBlockTableRecord
  2
_ORIGIN
  0
BLOCK_RECORD
  5
3D
100
AcDbSymbolTableRecord
100
AcDbBlockTableRecord
  2
_DOT
  0
BLOCK_RECORD
  5
45
100
AcDbSymbolTableRecord
100
AcDbBlockTableRecord
  2
_OBLIQUE
  0
ENDTAB
  0
ENDSEC
  0
SECTION
  2
BLOCKS
  0
BLOCK
  5
22
100
AcDbEntity
  8
0
100
AcDbBlockBegin
  2
*MODEL_SPACE
 70
     0
 10
0.0
 20
0.0
 30
0.0
  3
*MODEL_SPACE
  1

  0
ENDBLK
  5
23
100
AcDbEntity
  8
0
100
AcDbBlockEnd
  0
BLOCK
  5
25
100
AcDbEntity
 67
     1
  8
0
100
AcDbBlockBegin
  2
*PAPER_SPACE
 70
     0
 10
0.0
 20
0.0
 30
0.0
  3
*PAPER_SPACE
  1

  0
ENDBLK
  5
26
100
AcDbEntity
 67
     1
  8
0
100
AcDbBlockEnd
  0
BLOCK
  5
28
100
AcDbEntity
  8
0
100
AcDbBlockBegin
  2
_NONE
 70
     0
 10
0.0
 20
0.0
  0
CIRCLE
  5
29
100
AcDbEntity
  8
0
 62
     0
370
13
100
AcDbCircle
 10
0.0
 20
0.0
 40
0.25
  0
ENDBLK
  5
2A
100
AcDbEntity
  8
0
100
AcDbBlockEnd
  0
BLOCK
  5
2C
100
AcDbEntity
  8
0
100
AcDbBlockBegin
  2
_OPEN
 70
     0
 10
0.0
 20
0.0
  0
LINE
  5
2D
100
AcDbEntity
  8
0
 62
     0
370
13
100
AcDbLine
 10
-0.965926
 20
0.258819
 11
0.0
 21
0.0
  0
LINE
  5
2E
100
AcDbEntity
  8
0
 62
     0
370
13
100
AcDbLine
 10
0.0
 20
0.0
 11
-0.965926
 21
-0.258819
  0
LINE
  5
2F
100
AcDbEntity
  8
0
 62
     0
370
13
100
AcDbLine
 10
0.0
 20
0.0
 11
-1.0
 21
0.0
  0
ENDBLK
  5
30
100
AcDbEntity
  8
0
100
AcDbBlockEnd
  0
BLOCK
  5
32
100
AcDbEntity
  8
0
100
AcDbBlockBegin
  2
_CLOSED
 70
     0
 10
0.0
 20
0.0
  0
LINE
  5
33
100
AcDbEntity
  8
0
 62
     0
370
13
100
AcDbLine
 10
-0.965926
 20
0.258819
 11
0.0
 21
0.0
  0
LINE
  5
34
100
AcDbEntity
  8
0
 62
     0
370
13
100
AcDbLine
 10
0.0
 20
0.0
 11
-0.965926
 21
-0.258819
  0
LINE
  5
35
100
AcDbEntity
  8
0
 62
     0
370
13
100
AcDbLine
 10
-0.965926
 20
0.258819
 11
-0.965926
 21
-0.258819
  0
LINE
  5
36
100
AcDbEntity
  8
0
 62
     0
370
13
100
AcDbLine
 10
0.0
 20
0.0
 11
-1.0
 21
0.0
  0
ENDBLK
  5
37
100
AcDbEntity
  8
0
100
AcDbBlockEnd
  0
BLOCK
  5
39
100
AcDbEntity
  8
0
100
AcDbBlockBegin
  2
_ORIGIN
 70
     0
 10
0.0
 20
0.0
  0
CIRCLE
  5
3A
100
AcDbEntity
  8
0
 62
     0
370
13
100
AcDbCircle
 10
0.0
 20
0.0
 40
0.5
  0
LINE
  5
3B
100
AcDbEntity
  8
0
 62
     0
370
13
100
AcDbLine
 10
0.0
 20
0.0
 11
-1.0
 21
0.0
  0
ENDBLK
  5
3C
100
AcDbEntity
  8
0
100
AcDbBlockEnd
  0
BLOCK
  5
3E
100
AcDbEntity
  8
0
100
AcDbBlockBegin
  2
_DOT
 70
     0
 10
0.0
 20
0.0
  0
POLYLINE
  5
3F
100
AcDbEntity
  8
0
 62
     0
100
AcDb2dPolyline
 66
     1
 70
     1
 40
0.5
 41
0.5
  0
VERTEX
  5
40
100
AcDbEntity
  8
0
 62
     0
100
AcDbVertex
100
AcDb2dVertex
 10
-0.25
 20
0.0
 42
1.0
  0
VERTEX
  5
41
100
AcDbEntity
  8
0
 62
     0
100
AcDbVertex
100
AcDb2dVertex
 10
0.25
 20
0.0
 42
1.0
  0
SEQEND
  5
42
100
AcDbEntity
  8
0
 62
     0
  0
LINE
  5
43
100
AcDbEntity
  8
0
 62
     0
370
13
100
AcDbLine
 10
-0.5
 20
0.0
 11
-1.0
 21
0.0
  0
ENDBLK
  5
44
100
AcDbEntity
  8
0
100
AcDbBlockEnd
  0
BLOCK
  5
46
100
AcDbEntity
  8
0
100
AcDbBlockBegin
  2
_OBLIQUE
 70
     0
 10
0.0
 20
0.0
  0
LINE
  5
47
100
AcDbEntity
  8
0
 62
     0
370
13
100
AcDbLine
 10
-0.353553
 20
-0.353553
 11
0.353553
 21
0.353553
  0
ENDBLK
  5
48
100
AcDbEntity
  8
0
100
AcDbBlockEnd
  0
ENDSEC
  0
SECTION
  2
ENTITIES
  0
LINE
  5
4B
100
AcDbEntity
  8
M2
  6
DASHDOT
370
25
 62
     4
100
AcDbLine
 10
151.267089
 20
161.590396
 11
203.767089
 21
161.590396
  0
LINE
  5
4C
100
AcDbEntity
  8
M2
  6
DASHDOT
370
25
 62
     4
100
AcDbLine
 10
203.767089
 20
161.590396
 11
203.767089
 21
264.090396
  0
LINE
  5
4D
100
AcDbEntity
  8
M2
  6
DASHDOT
370
25
 62
     4
100
AcDbLine
 10
203.767089
 20
264.090396
 11
151.267089
 21
264.090396
  0
LINE
  5
4E
100
AcDbEntity
  8
M2
  6
DASHDOT
370
25
 62
     4
100
AcDbLine
 10
151.267089
 20
264.090396
 11
151.267089
 21
161.590396
  0
LINE
  5
4F
100
AcDbEntity
  8
M2
  6
DASHDOT
370
25
 62
     4
100
AcDbLine
 10
145.017089
 20
212.840396
 11
210.017089
 21
212.840396
  0
LINE
  5
50
100
AcDbEntity
  8
M2
  6
DASHDOT
370
25
 62
     4
100
AcDbLine
 10
177.517089
 20
155.340396
 11
177.517089
 21
270.340396
  0
LINE
  5
51
100
AcDbEntity
  8
M2
  6
CONTINUOUS
370
25
 62
     4
100
AcDbLine
 10
167.767089
 20
416.495232
 11
203.767089
 21
416.495232
  0
LINE
  5
52
100
AcDbEntity
  8
M2
  6
CONTINUOUS
370
25
 62
     4
100
AcDbLine
 10
203.767089
 20
518.995232
 11
167.744933
 21
518.995232
  0
LINE
  5
53
100
AcDbEntity
  8
M2
  6
CONTINUOUS
370
25
 62
     4
100
AcDbLine
 10
163.767089
 20
479.620232
 11
163.767089
 21
455.870232
  0
LINE
  5
54
100
AcDbEntity
  8
M2
  6
CONTINUOUS
370
25
 62
     4
100
AcDbLine
 10
166.267028
 20
511.495232
 11
166.266966
 21
423.995232
  0
LINE
  5
55
100
AcDbEntity
  8
M2
  6
CONTINUOUS
370
25
 62
     4
100
AcDbLine
 10
163.767089
 20
479.620232
 11
166.267089
 21
479.620232
  0
LINE
  5
56
100
AcDbEntity
  8
M2
  6
CONTINUOUS
370
25
 62
     4
100
AcDbLine
 10
166.267089
 20
455.870232
 11
163.767089
 21
455.870232
  0
LINE
  5
57
100
AcDbEntity
  8
M2
  6
CONTINUOUS
370
25
 62
     4
100
AcDbLine
 10
166.266966
 20
423.995232
 11
167.766966
 21
423.995232
  0
LINE
  5
58
100
AcDbEntity
  8
M2
  6
CONTINUOUS
370
25
 62
     4
100
AcDbLine
 10
167.766966
 20
423.995232
 11
167.767089
 21
416.495232
  0
LINE
  5
59
100
AcDbEntity
  8
M2
  6
CONTINUOUS
370
25
 62
     4
100
AcDbLine
 10
167.767089
 20
518.995232
 11
167.767028
 21
511.495232
  0
LINE
  5
5A
100
AcDbEntity
  8
M2
  6
CONTINUOUS
370
25
 62
     4
100
AcDbLine
 10
167.767028
 20
511.495232
 11
166.267028
 21
511.495232
  0
LINE
  5
5B
100
AcDbEntity
  8
M2
  6
CONTINUOUS
370
25
 62
     4
100
AcDbLine
 10
163.767028
 20
475.861199
 11
158.364379
 21
477.827569
  0
LINE
  5
5C
100
AcDbEntity
  8
M2
  6
CONTINUOUS
370
25
 62
     4
100
AcDbLine
 10
163.767028
 20
472.003533
 11
157.124511
 21
474.421197
  0
LINE
  5
5D
100
AcDbEntity
  8
M2
  6
CONTINUOUS
370
25
 62
     4
100
AcDbLine
 10
158.364379
 20
477.827569
 11
157.124511
 21
474.421197
  0
LINE
  5
5E
100
AcDbEntity
  8
M2
  6
CONTINUOUS
370
25
 62
     4
100
AcDbLine
 10
190.392089
 20
518.995171
 11
194.142089
 21
518.995171
  0
LINE
  5
5F
100
AcDbEntity
  8
M2
  6
CONTINUOUS
370
25
 62
     4
100
AcDbLine
 10
194.142089
 20
518.995171
 11
194.142089
 21
538.995171
  0
LINE
  5
60
100
AcDbEntity
  8
M2
  6
CONTINUOUS
370
25
 62
     4
100
AcDbLine
 10
194.142089
 20
538.995171
 11
190.392089
 21
538.995171
  0
LINE
  5
61
100
AcDbEntity
  8
M2
  6
CONTINUOUS
370
25
 62
     4
100
AcDbLine
 10
190.392089
 20
538.995171
 11
190.392089
 21
518.995171
  0
LINE
  5
62
100
AcDbEntity
  8
M2
  6
CONTINUOUS
370
25
 62
     4
100
AcDbLine
 10
194.142089
 20
396.495232
 11
194.142089
 21
416.495232
  0
LINE
  5
63
100
AcDbEntity
  8
M2
  6
CONTINUOUS
370
25
 62
     4
100
AcDbLine
 10
194.142089
 20
416.495232
 11
190.392089
 21
416.495232
  0
LINE
  5
64
100
AcDbEntity
  8
M2
  6
CONTINUOUS
370
25
 62
     4
100
AcDbLine
 10
190.392089
 20
416.495232
 11
190.392089
 21
396.495232
  0
ARC
  5
65
100
AcDbEntity
  8
M2
  6
CONTINUOUS
370
25
 62
     4
100
AcDbCircle
 10
180.767089
 20
467.745232
 40
24.499992
100
AcDbArc
 50
160.000408
 51
180.0
  0
LINE
  5
66
100
AcDbEntity
  8
M2
  6
DASHDOT
370
25
 62
     4
100
AcDbLine
 10
132.521813
 20
467.745232
 11
211.517089
 21
467.745232
  0
LINE
  5
67
100
AcDbEntity
  8
M2
  6
CONTINUOUS
370
25
 62
     4
100
AcDbLine
 10
165.049559
 20
477.190301
 11
165.049437
 21
477.190301
  0
LINE
  5
68
100
AcDbEntity
  8
M2
  6
CONTINUOUS
370
25
 62
     4
100
AcDbLine
 10
158.941527
 20
479.413445
 11
158.941466
 21
479.413384
  0
LINE
  5
69
100
AcDbEntity
  8
M2
  6
CONTINUOUS
370
25
 62
     4
100
AcDbLine
 10
158.364256
 20
477.827569
 11
157.124511
 21
474.421197
  0
LINE
  5
6A
100
AcDbEntity
  8
M2
  6
CONTINUOUS
370
25
 62
     4
100
AcDbLine
 10
190.392089
 20
396.495232
 11
194.142089
 21
396.495232
  0
LINE
  5
6B
100
AcDbEntity
  8
M2
  6
CONTINUOUS
370
25
 62
     4
100
AcDbLine
 10
203.767089
 20
514.120171
 11
203.767089
 21
516.370171
  0
LINE
  5
6C
100
AcDbEntity
  8
M2
  6
CONTINUOUS
370
25
 62
     4
100
AcDbLine
 10
203.767089
 20
416.495232
 11
203.767089
 21
518.995232
  0
LINE
  5
6D
100
AcDbEntity
  8
M2
  6
CONTINUOUS
370
25
 62
     4
100
AcDbLine
 10
6.25
 20
416.495294
 11
58.75
 21
416.495294
  0
LINE
  5
6E
100
AcDbEntity
  8
M2
  6
CONTINUOUS
370
25
 62
     4
100
AcDbLine
 10
58.75
 20
416.495294
 11
58.75
 21
518.995293
  0
LINE
  5
6F
100
AcDbEntity
  8
M2
  6
CONTINUOUS
370
25
 62
     4
100
AcDbLine
 10
58.75
 20
518.995293
 11
6.25
 21
518.995293
  0
LINE
  5
70
100
AcDbEntity
  8
M2
  6
CONTINUOUS
370
25
 62
     4
100
AcDbLine
 10
6.25
 20
518.995293
 11
6.25
 21
416.495294
  0
LINE
  5
71
100
AcDbEntity
  8
M2
  6
DASHDOT
370
25
 62
     4
100
AcDbLine
 10
-2.842171E-014
 20
467.745294
 11
65.0
 21
467.745294
  0
LINE
  5
72
100
AcDbEntity
  8
M2
  6
DASHDOT
370
25
 62
     4
100
AcDbLine
 10
32.5
 20
410.245294
 11
32.5
 21
540.06292
  0
LINE
  5
73
100
AcDbEntity
  8
M2
  6
CONTINUOUS
370
25
 62
     4
100
AcDbLine
 10
24.5
 20
455.870294
 11
40.5
 21
455.870294
  0
LINE
  5
74
100
AcDbEntity
  8
M2
  6
CONTINUOUS
370
25
 62
     4
100
AcDbLine
 10
42.25
 20
457.620232
 11
42.25
 21
477.870171
  0
LINE
  5
75
100
AcDbEntity
  8
M2
  6
CONTINUOUS
370
25
 62
     4
100
AcDbLine
 10
40.5
 20
479.620294
 11
24.5
 21
479.620232
  0
LINE
  5
76
100
AcDbEntity
  8
M2
  6
CONTINUOUS
370
25
 62
     4
100
AcDbLine
 10
22.75
 20
477.870232
 11
22.75
 21
457.620294
  0
ARC
  5
77
100
AcDbEntity
  8
M2
  6
CONTINUOUS
370
25
 62
     4
100
AcDbCircle
 10
24.5
 20
477.870232
 40
1.75
100
AcDbArc
 50
89.999875
 51
180.0
  0
ARC
  5
78
100
AcDbEntity
  8
M2
  6
CONTINUOUS
370
25
 62
     4
100
AcDbCircle
 10
24.5
 20
457.620294
 40
1.75
100
AcDbArc
 50
179.999875
 51
270.0
  0
ARC
  5
79
100
AcDbEntity
  8
M2
  6
CONTINUOUS
370
25
 62
     4
100
AcDbCircle
 10
40.5
 20
457.620294
 40
1.75
100
AcDbArc
 50
269.999875
 51
360.0
  0
ARC
  5
7A
100
AcDbEntity
  8
M2
  6
CONTINUOUS
370
25
 62
     4
100
AcDbCircle
 10
40.5
 20
477.870232
 40
1.75
100
AcDbArc
 50
0.0
 51
90.0
  0
LINE
  5
7B
100
AcDbEntity
  8
M2
  6
CONTINUOUS
370
25
 62
     4
100
AcDbLine
 10
6.25
 20
511.495294
 11
58.75
 21
511.495294
  0
LINE
  5
7C
100
AcDbEntity
  8
M2
  6
CONTINUOUS
370
25
 62
     4
100
AcDbLine
 10
58.75
 20
423.995232
 11
6.25
 21
423.995232
  0
LINE
  5
7D
100
AcDbEntity
  8
M2
  6
CONTINUOUS
370
25
 62
     4
100
AcDbLine
 10
9.375
 20
518.995232
 11
20.625
 21
518.995232
  0
LINE
  5
7E
100
AcDbEntity
  8
M2
  6
CONTINUOUS
370
25
 62
     4
100
AcDbLine
 10
20.625
 20
518.995232
 11
20.625
 21
538.995232
  0
LINE
  5
7F
100
AcDbEntity
  8
M2
  6
CONTINUOUS
370
25
 62
     4
100
AcDbLine
 10
20.625
 20
538.995232
 11
9.375
 21
538.995232
  0
LINE
  5
80
100
AcDbEntity
  8
M2
  6
CONTINUOUS
370
25
 62
     4
100
AcDbLine
 10
9.375
 20
538.995232
 11
9.375
 21
518.995232
  0
CIRCLE
  5
81
100
AcDbEntity
  8
M2
  6
CONTINUOUS
370
25
 62
     4
100
AcDbCircle
 10
15.0
 20
525.245232
 40
1.687498
  0
ARC
  5
82
100
AcDbEntity
  8
M2
  6
CONTINUOUS
370
25
 62
     4
100
AcDbCircle
 10
15.0
 20
533.245171
 40
1.687498
100
AcDbArc
 50
180.0
 51
360.0
  0
ARC
  5
83
100
AcDbEntity
  8
M2
  6
CONTINUOUS
370
25
 62
     4
100
AcDbCircle
 10
15.0
 20
535.245171
 40
1.687498
100
AcDbArc
 50
0.0
 51
180.0
  0
LINE
  5
84
100
AcDbEntity
  8
M2
  6
CONTINUOUS
370
25
 62
     4
100
AcDbLine
 10
16.6875
 20
535.245171
 11
16.6875
 21
533.245171
  0
LINE
  5
85
100
AcDbEntity
  8
M2
  6
CONTINUOUS
370
25
 62
     4
100
AcDbLine
 10
13.3125
 20
535.245171
 11
13.3125
 21
533.245171
  0
LINE
  5
86
100
AcDbEntity
  8
M2
  6
CONTINUOUS
370
25
 62
     4
100
AcDbLine
 10
26.875
 20
518.995232
 11
38.125
 21
518.995232
  0
LINE
  5
87
100
AcDbEntity
  8
M2
  6
CONTINUOUS
370
25
 62
     4
100
AcDbLine
 10
38.125
 20
518.995232
 11
38.125
 21
538.995232
  0
LINE
  5
88
100
AcDbEntity
  8
M2
  6
CONTINUOUS
370
25
 62
     4
100
AcDbLine
 10
38.125
 20
538.995232
 11
26.875
 21
538.995232
  0
LINE
  5
89
100
AcDbEntity
  8
M2
  6
CONTINUOUS
370
25
 62
     4
100
AcDbLine
 10
26.875
 20
538.995232
 11
26.875
 21
518.995232
  0
CIRCLE
  5
8A
100
AcDbEntity
  8
M2
  6
CONTINUOUS
370
25
 62
     4
100
AcDbCircle
 10
32.5
 20
525.245232
 40
1.687498
  0
ARC
  5
8B
100
AcDbEntity
  8
M2
  6
CONTINUOUS
370
25
 62
     4
100
AcDbCircle
 10
32.5
 20
533.245171
 40
1.687498
100
AcDbArc
 50
180.0
 51
360.0
  0
ARC
  5
8C
100
AcDbEntity
  8
M2
  6
CONTINUOUS
370
25
 62
     4
100
AcDbCircle
 10
32.5
 20
535.245171
 40
1.687498
100
AcDbArc
 50
0.0
 51
180.0
  0
LINE
  5
8D
100
AcDbEntity
  8
M2
  6
CONTINUOUS
370
25
 62
     4
100
AcDbLine
 10
34.1875
 20
535.245171
 11
34.1875
 21
533.245171
  0
LINE
  5
8E
100
AcDbEntity
  8
M2
  6
CONTINUOUS
370
25
 62
     4
100
AcDbLine
 10
30.8125
 20
535.245171
 11
30.8125
 21
533.245171
  0
LINE
  5
8F
100
AcDbEntity
  8
M2
  6
CONTINUOUS
370
25
 62
     4
100
AcDbLine
 10
44.375
 20
518.995232
 11
55.625
 21
518.995232
  0
LINE
  5
90
100
AcDbEntity
  8
M2
  6
CONTINUOUS
370
25
 62
     4
100
AcDbLine
 10
55.625
 20
518.995232
 11
55.625
 21
538.995232
  0
LINE
  5
91
100
AcDbEntity
  8
M2
  6
CONTINUOUS
370
25
 62
     4
100
AcDbLine
 10
55.625
 20
538.995232
 11
44.375
 21
538.995232
  0
LINE
  5
92
100
AcDbEntity
  8
M2
  6
CONTINUOUS
370
25
 62
     4
100
AcDbLine
 10
44.375
 20
538.995232
 11
44.375
 21
518.995232
  0
CIRCLE
  5
93
100
AcDbEntity
  8
M2
  6
CONTINUOUS
370
25
 62
     4
100
AcDbCircle
 10
50.0
 20
525.245232
 40
1.687498
  0
ARC
  5
94
100
AcDbEntity
  8
M2
  6
CONTINUOUS
370
25
 62
     4
100
AcDbCircle
 10
50.0
 20
533.245171
 40
1.687498
100
AcDbArc
 50
180.0
 51
360.0
  0
ARC
  5
95
100
AcDbEntity
  8
M2
  6
CONTINUOUS
370
25
 62
     4
100
AcDbCircle
 10
50.0
 20
535.245171
 40
1.687498
100
AcDbArc
 50
0.0
 51
180.0
  0
LINE
  5
96
100
AcDbEntity
  8
M2
  6
CONTINUOUS
370
25
 62
     4
100
AcDbLine
 10
51.6875
 20
535.245171
 11
51.6875
 21
533.245171
  0
LINE
  5
97
100
AcDbEntity
  8
M2
  6
CONTINUOUS
370
25
 62
     4
100
AcDbLine
 10
48.3125
 20
535.245171
 11
48.3125
 21
533.245171
  0
LINE
  5
98
100
AcDbEntity
  8
M2
  6
CONTINUOUS
370
25
 62
     4
100
AcDbLine
 10
9.375
 20
416.495355
 11
20.625
 21
416.495355
  0
LINE
  5
99
100
AcDbEntity
  8
M2
  6
CONTINUOUS
370
25
 62
     4
100
AcDbLine
 10
20.625
 20
416.495355
 11
20.625
 21
396.495355
  0
LINE
  5
9A
100
AcDbEntity
  8
M2
  6
CONTINUOUS
370
25
 62
     4
100
AcDbLine
 10
20.625
 20
396.495355
 11
9.375
 21
396.495355
  0
LINE
  5
9B
100
AcDbEntity
  8
M2
  6
CONTINUOUS
370
25
 62
     4
100
AcDbLine
 10
9.375
 20
396.495355
 11
9.375
 21
416.495355
  0
CIRCLE
  5
9C
100
AcDbEntity
  8
M2
  6
CONTINUOUS
370
25
 62
     4
100
AcDbCircle
 10
15.0
 20
410.245355
 40
1.687498
  0
ARC
  5
9D
100
AcDbEntity
  8
M2
  6
CONTINUOUS
370
25
 62
     4
100
AcDbCircle
 10
15.0
 20
402.245416
 40
1.687498
100
AcDbArc
 50
0.0
 51
179.997928
  0
ARC
  5
9E
100
AcDbEntity
  8
M2
  6
CONTINUOUS
370
25
 62
     4
100
AcDbCircle
 10
15.0
 20
400.245416
 40
1.687498
100
AcDbArc
 50
179.997928
 51
360.0
  0
LINE
  5
9F
100
AcDbEntity
  8
M2
  6
CONTINUOUS
370
25
 62
     4
100
AcDbLine
 10
16.6875
 20
400.245416
 11
16.6875
 21
402.245416
  0
LINE
  5
A0
100
AcDbEntity
  8
M2
  6
CONTINUOUS
370
25
 62
     4
100
AcDbLine
 10
13.3125
 20
400.245416
 11
13.3125
 21
402.245416
  0
LINE
  5
A1
100
AcDbEntity
  8
M2
  6
CONTINUOUS
370
25
 62
     4
100
AcDbLine
 10
26.875
 20
416.495355
 11
38.125
 21
416.495355
  0
LINE
  5
A2
100
AcDbEntity
  8
M2
  6
CONTINUOUS
370
25
 62
     4
100
AcDbLine
 10
38.125
 20
416.495355
 11
38.125
 21
396.495355
  0
LINE
  5
A3
100
AcDbEntity
  8
M2
  6
CONTINUOUS
370
25
 62
     4
100
AcDbLine
 10
38.125
 20
396.495355
 11
26.875
 21
396.495355
  0
LINE
  5
A4
100
AcDbEntity
  8
M2
  6
CONTINUOUS
370
25
 62
     4
100
AcDbLine
 10
26.875
 20
396.495355
 11
26.875
 21
416.495355
  0
CIRCLE
  5
A5
100
AcDbEntity
  8
M2
  6
CONTINUOUS
370
25
 62
     4
100
AcDbCircle
 10
32.5
 20
410.245355
 40
1.687498
  0
ARC
  5
A6
100
AcDbEntity
  8
M2
  6
CONTINUOUS
370
25
 62
     4
100
AcDbCircle
 10
32.5
 20
402.245416
 40
1.687498
100
AcDbArc
 50
0.0
 51
179.997928
  0
ARC
  5
A7
100
AcDbEntity
  8
M2
  6
CONTINUOUS
370
25
 62
     4
100
AcDbCircle
 10
32.5
 20
400.245416
 40
1.687498
100
AcDbArc
 50
179.997928
 51
360.0
  0
LINE
  5
A8
100
AcDbEntity
  8
M2
  6
CONTINUOUS
370
25
 62
     4
100
AcDbLine
 10
34.1875
 20
400.245416
 11
34.1875
 21
402.245416
  0
LINE
  5
A9
100
AcDbEntity
  8
M2
  6
CONTINUOUS
370
25
 62
     4
100
AcDbLine
 10
30.8125
 20
400.245416
 11
30.8125
 21
402.245416
  0
LINE
  5
AA
100
AcDbEntity
  8
M2
  6
CONTINUOUS
370
25
 62
     4
100
AcDbLine
 10
44.375
 20
416.495355
 11
55.625
 21
416.495355
  0
LINE
  5
AB
100
AcDbEntity
  8
M2
  6
CONTINUOUS
370
25
 62
     4
100
AcDbLine
 10
55.625
 20
416.495355
 11
55.625
 21
396.495355
  0
LINE
  5
AC
100
AcDbEntity
  8
M2
  6
CONTINUOUS
370
25
 62
     4
100
AcDbLine
 10
55.625
 20
396.495355
 11
44.375
 21
396.495355
  0
LINE
  5
AD
100
AcDbEntity
  8
M2
  6
CONTINUOUS
370
25
 62
     4
100
AcDbLine
 10
44.375
 20
396.495355
 11
44.375
 21
416.495355
  0
CIRCLE
  5
AE
100
AcDbEntity
  8
M2
  6
CONTINUOUS
370
25
 62
     4
100
AcDbCircle
 10
50.0
 20
410.245355
 40
1.687498
  0
ARC
  5
AF
100
AcDbEntity
  8
M2
  6
CONTINUOUS
370
25
 62
     4
100
AcDbCircle
 10
50.0
 20
402.245416
 40
1.687498
100
AcDbArc
 50
0.0
 51
179.997928
  0
ARC
  5
B0
100
AcDbEntity
  8
M2
  6
CONTINUOUS
370
25
 62
     4
100
AcDbCircle
 10
50.0
 20
400.245416
 40
1.687498
100
AcDbArc
 50
179.997928
 51
360.0
  0
LINE
  5
B1
100
AcDbEntity
  8
M2
  6
CONTINUOUS
370
25
 62
     4
100
AcDbLine
 10
51.6875
 20
400.245416
 11
51.6875
 21
402.245416
  0
LINE
  5
B2
100
AcDbEntity
  8
M2
  6
CONTINUOUS
370
25
 62
     4
100
AcDbLine
 10
48.3125
 20
400.245416
 11
48.3125
 21
402.245416
  0
LINE
  5
B3
100
AcDbEntity
  8
M2
  6
CONTINUOUS
370
25
 62
     4
100
AcDbLine
 10
26.75
 20
477.827569
 11
26.75
 21
459.620232
  0
LINE
  5
B4
100
AcDbEntity
  8
M2
  6
CONTINUOUS
370
25
 62
     4
100
AcDbLine
 10
38.25
 20
477.827569
 11
38.25
 21
459.620232
  0
LINE
  5
B5
100
AcDbEntity
  8
M2
  6
CONTINUOUS
370
25
 62
     4
100
AcDbLine
 10
38.25
 20
459.620294
 11
26.75
 21
459.620294
  0
LINE
  5
B6
100
AcDbEntity
  8
M2
  6
CONTINUOUS
370
25
 62
     4
100
AcDbLine
 10
26.75
 20
474.421197
 11
38.25
 21
474.421197
  0
LINE
  5
B7
100
AcDbEntity
  8
M2
  6
CONTINUOUS
370
25
 62
     4
100
AcDbLine
 10
26.75
 20
477.827569
 11
38.25
 21
477.827569
  0
LINE
  5
B8
100
AcDbEntity
  8
M2
  6
DIVIDE
370
25
 62
     4
100
AcDbLine
 10
18.936248
 20
518.995293
 11
19.486251
 21
518.995293
  0
LINE
  5
B9
100
AcDbEntity
  8
M2
  6
DIVIDE
370
25
 62
     4
100
AcDbLine
 10
36.436248
 20
518.995293
 11
36.986251
 21
518.995293
  0
LINE
  5
BA
100
AcDbEntity
  8
M2
  6
DASHDOT
370
25
 62
     4
100
AcDbLine
 10
6.25
 20
161.590396
 11
58.75
 21
161.590396
  0
LINE
  5
BB
100
AcDbEntity
  8
M2
  6
DASHDOT
370
25
 62
     4
100
AcDbLine
 10
58.75
 20
161.590396
 11
58.75
 21
264.090396
  0
LINE
  5
BC
100
AcDbEntity
  8
M2
  6
DASHDOT
370
25
 62
     4
100
AcDbLine
 10
58.75
 20
264.090396
 11
6.25
 21
264.090396
  0
LINE
  5
BD
100
AcDbEntity
  8
M2
  6
DASHDOT
370
25
 62
     4
100
AcDbLine
 10
6.25
 20
264.090396
 11
6.25
 21
161.590396
  0
LINE
  5
BE
100
AcDbEntity
  8
M2
  6
DASHDOT
370
25
 62
     4
100
AcDbLine
 10
-2.842171E-014
 20
212.840396
 11
65.0
 21
212.840396
  0
LINE
  5
BF
100
AcDbEntity
  8
M2
  6
DASHDOT
370
25
 62
     4
100
AcDbLine
 10
32.5
 20
155.340396
 11
32.5
 21
270.340396
  0
CIRCLE
  5
C0
100
AcDbEntity
  8
M3
  6
CONTINUOUS
370
25
100
AcDbCircle
 10
23.75
 20
515.245293
 40
1.25
  0
CIRCLE
  5
C1
100
AcDbEntity
  8
M3
  6
CONTINUOUS
370
25
100
AcDbCircle
 10
41.25
 20
515.245293
 40
1.25
  0
CIRCLE
  5
C2
100
AcDbEntity
  8
M3
  6
CONTINUOUS
370
25
100
AcDbCircle
 10
41.25
 20
420.245294
 40
1.25
  0
CIRCLE
  5
C3
100
AcDbEntity
  8
M3
  6
CONTINUOUS
370
25
100
AcDbCircle
 10
23.75
 20
420.245294
 40
1.25
  0
LINE
  5
C4
100
AcDbEntity
  8
M3
  6
DASHDOT
370
25
100
AcDbLine
 10
35.0
 20
515.245293
 11
47.5
 21
515.245293
  0
LINE
  5
C5
100
AcDbEntity
  8
M3
  6
DASHDOT
370
25
100
AcDbLine
 10
41.25
 20
508.995294
 11
41.25
 21
521.495293
  0
LINE
  5
C6
100
AcDbEntity
  8
M3
  6
DASHDOT
370
25
100
AcDbLine
 10
17.5
 20
515.245293
 11
30.0
 21
515.245293
  0
LINE
  5
C7
100
AcDbEntity
  8
M3
  6
DASHDOT
370
25
100
AcDbLine
 10
23.75
 20
508.995294
 11
23.75
 21
521.495293
  0
LINE
  5
C8
100
AcDbEntity
  8
M3
  6
DASHDOT
370
25
100
AcDbLine
 10
17.5
 20
420.245294
 11
30.0
 21
420.245294
  0
LINE
  5
C9
100
AcDbEntity
  8
M3
  6
DASHDOT
370
25
100
AcDbLine
 10
23.75
 20
413.995294
 11
23.75
 21
426.495293
  0
LINE
  5
CA
100
AcDbEntity
  8
M3
  6
DASHDOT
370
25
100
AcDbLine
 10
35.0
 20
420.245294
 11
47.5
 21
420.245294
  0
LINE
  5
CB
100
AcDbEntity
  8
M3
  6
DASHDOT
370
25
100
AcDbLine
 10
41.25
 20
413.995294
 11
41.25
 21
426.495293
  0
LINE
  5
CC
100
AcDbEntity
  8
M3
  6
DASHDOT
370
25
100
AcDbLine
 10
198.767089
 20
517.495171
 11
198.767089
 21
512.995171
  0
LINE
  5
CD
100
AcDbEntity
  8
M3
  6
DASHDOT
370
25
100
AcDbLine
 10
194.693267
 20
515.245171
 11
203.767089
 21
515.245171
  0
LINE
  5
CE
100
AcDbEntity
  8
M3
  6
DASHDOT
370
25
100
AcDbLine
 10
198.767089
 20
417.995294
 11
198.767089
 21
422.495294
  0
LINE
  5
CF
100
AcDbEntity
  8
M3
  6
DASHDOT
370
25
100
AcDbLine
 10
194.693267
 20
420.245294
 11
203.767089
 21
420.245294
  0
CIRCLE
  5
D0
100
AcDbEntity
  8
M3
  6
CONTINUOUS
370
25
100
AcDbCircle
 10
23.75
 20
165.340396
 40
1.25
  0
CIRCLE
  5
D1
100
AcDbEntity
  8
M3
  6
CONTINUOUS
370
25
100
AcDbCircle
 10
41.25
 20
165.340396
 40
1.25
  0
CIRCLE
  5
D2
100
AcDbEntity
  8
M3
  6
CONTINUOUS
370
25
100
AcDbCircle
 10
41.25
 20
260.340335
 40
1.25
  0
CIRCLE
  5
D3
100
AcDbEntity
  8
M3
  6
CONTINUOUS
370
25
100
AcDbCircle
 10
23.75
 20
260.340335
 40
1.25
  0
LINE
  5
D4
100
AcDbEntity
  8
M3
  6
DASHDOT
370
25
100
AcDbLine
 10
17.5
 20
260.340335
 11
30.0
 21
260.340335
  0
LINE
  5
D5
100
AcDbEntity
  8
M3
  6
DASHDOT
370
25
100
AcDbLine
 10
23.75
 20
254.090335
 11
23.75
 21
266.590335
  0
LINE
  5
D6
100
AcDbEntity
  8
M3
  6
DASHDOT
370
25
100
AcDbLine
 10
35.0
 20
260.340335
 11
47.5
 21
260.340335
  0
LINE
  5
D7
100
AcDbEntity
  8
M3
  6
DASHDOT
370
25
100
AcDbLine
 10
41.25
 20
254.090335
 11
41.25
 21
266.590335
  0
LINE
  5
D8
100
AcDbEntity
  8
M3
  6
DASHDOT
370
25
100
AcDbLine
 10
35.0
 20
165.340396
 11
47.5
 21
165.340396
  0
LINE
  5
D9
100
AcDbEntity
  8
M3
  6
DASHDOT
370
25
100
AcDbLine
 10
41.25
 20
159.090396
 11
41.25
 21
171.590396
  0
LINE
  5
DA
100
AcDbEntity
  8
M3
  6
DASHDOT
370
25
100
AcDbLine
 10
17.5
 20
165.340396
 11
30.0
 21
165.340396
  0
LINE
  5
DB
100
AcDbEntity
  8
M3
  6
DASHDOT
370
25
100
AcDbLine
 10
23.75
 20
159.090396
 11
23.75
 21
171.590396
  0
LINE
  5
DC
100
AcDbEntity
  8
M4
  6
DASHDOT
370
25
 62
     2
100
AcDbLine
 10
50.0
 20
521.995232
 11
50.0
 21
528.495232
  0
LINE
  5
DD
100
AcDbEntity
  8
M4
  6
DASHDOT
370
25
 62
     2
100
AcDbLine
 10
46.75
 20
525.245232
 11
53.25
 21
525.245232
  0
LINE
  5
DE
100
AcDbEntity
  8
M4
  6
DASHDOT
370
25
 62
     2
100
AcDbLine
 10
46.75
 20
533.245171
 11
53.25
 21
533.245171
  0
LINE
  5
DF
100
AcDbEntity
  8
M4
  6
DASHDOT
370
25
 62
     2
100
AcDbLine
 10
46.75
 20
535.245171
 11
53.25
 21
535.245171
  0
LINE
  5
E0
100
AcDbEntity
  8
M4
  6
DASHDOT
370
25
 62
     2
100
AcDbLine
 10
50.0
 20
529.995171
 11
50.0
 21
538.112588
  0
LINE
  5
E1
100
AcDbEntity
  8
M4
  6
DASHDOT
370
25
 62
     2
100
AcDbLine
 10
32.5
 20
521.995232
 11
32.5
 21
528.495232
  0
LINE
  5
E2
100
AcDbEntity
  8
M4
  6
DASHDOT
370
25
 62
     2
100
AcDbLine
 10
29.25
 20
525.245232
 11
35.75
 21
525.245232
  0
LINE
  5
E3
100
AcDbEntity
  8
M4
  6
DASHDOT
370
25
 62
     2
100
AcDbLine
 10
29.25
 20
533.245171
 11
35.75
 21
533.245171
  0
LINE
  5
E4
100
AcDbEntity
  8
M4
  6
DASHDOT
370
25
 62
     2
100
AcDbLine
 10
29.25
 20
535.245171
 11
35.75
 21
535.245171
  0
LINE
  5
E5
100
AcDbEntity
  8
M4
  6
DASHDOT
370
25
 62
     2
100
AcDbLine
 10
32.5
 20
529.995171
 11
32.5
 21
538.112588
  0
LINE
  5
E6
100
AcDbEntity
  8
M4
  6
DASHDOT
370
25
 62
     2
100
AcDbLine
 10
15.0
 20
521.995232
 11
15.0
 21
528.495232
  0
LINE
  5
E7
100
AcDbEntity
  8
M4
  6
DASHDOT
370
25
 62
     2
100
AcDbLine
 10
11.75
 20
525.245232
 11
18.25
 21
525.245232
  0
LINE
  5
E8
100
AcDbEntity
  8
M4
  6
DASHDOT
370
25
 62
     2
100
AcDbLine
 10
11.75
 20
533.245171
 11
18.25
 21
533.245171
  0
LINE
  5
E9
100
AcDbEntity
  8
M4
  6
DASHDOT
370
25
 62
     2
100
AcDbLine
 10
11.75
 20
535.245171
 11
18.25
 21
535.245171
  0
LINE
  5
EA
100
AcDbEntity
  8
M4
  6
DASHDOT
370
25
 62
     2
100
AcDbLine
 10
15.0
 20
529.995171
 11
15.0
 21
538.112588
  0
LINE
  5
EB
100
AcDbEntity
  8
M4
  6
DASHDOT
370
25
 62
     2
100
AcDbLine
 10
50.0
 20
413.495355
 11
50.0
 21
406.995355
  0
LINE
  5
EC
100
AcDbEntity
  8
M4
  6
DASHDOT
370
25
 62
     2
100
AcDbLine
 10
46.75
 20
410.245355
 11
53.25
 21
410.245355
  0
LINE
  5
ED
100
AcDbEntity
  8
M4
  6
DASHDOT
370
25
 62
     2
100
AcDbLine
 10
46.75
 20
402.245416
 11
53.25
 21
402.245416
  0
LINE
  5
EE
100
AcDbEntity
  8
M4
  6
DASHDOT
370
25
 62
     2
100
AcDbLine
 10
46.75
 20
400.245416
 11
53.25
 21
400.245416
  0
LINE
  5
EF
100
AcDbEntity
  8
M4
  6
DASHDOT
370
25
 62
     2
100
AcDbLine
 10
50.0
 20
405.495416
 11
50.0
 21
397.377999
  0
LINE
  5
F0
100
AcDbEntity
  8
M4
  6
DASHDOT
370
25
 62
     2
100
AcDbLine
 10
32.5
 20
413.495355
 11
32.5
 21
406.995355
  0
LINE
  5
F1
100
AcDbEntity
  8
M4
  6
DASHDOT
370
25
 62
     2
100
AcDbLine
 10
29.25
 20
410.245355
 11
35.75
 21
410.245355
  0
LINE
  5
F2
100
AcDbEntity
  8
M4
  6
DASHDOT
370
25
 62
     2
100
AcDbLine
 10
29.25
 20
402.245416
 11
35.75
 21
402.245416
  0
LINE
  5
F3
100
AcDbEntity
  8
M4
  6
DASHDOT
370
25
 62
     2
100
AcDbLine
 10
29.25
 20
400.245416
 11
35.75
 21
400.245416
  0
LINE
  5
F4
100
AcDbEntity
  8
M4
  6
DASHDOT
370
25
 62
     2
100
AcDbLine
 10
32.5
 20
405.495416
 11
32.5
 21
397.377999
  0
LINE
  5
F5
100
AcDbEntity
  8
M4
  6
DASHDOT
370
25
 62
     2
100
AcDbLine
 10
15.0
 20
413.495355
 11
15.0
 21
406.995355
  0
LINE
  5
F6
100
AcDbEntity
  8
M4
  6
DASHDOT
370
25
 62
     2
100
AcDbLine
 10
11.75
 20
410.245355
 11
18.25
 21
410.245355
  0
LINE
  5
F7
100
AcDbEntity
  8
M4
  6
DASHDOT
370
25
 62
     2
100
AcDbLine
 10
11.75
 20
402.245416
 11
18.25
 21
402.245416
  0
LINE
  5
F8
100
AcDbEntity
  8
M4
  6
DASHDOT
370
25
 62
     2
100
AcDbLine
 10
11.75
 20
400.245416
 11
18.25
 21
400.245416
  0
LINE
  5
F9
100
AcDbEntity
  8
M4
  6
DASHDOT
370
25
 62
     2
100
AcDbLine
 10
15.0
 20
405.495416
 11
15.0
 21
397.377999
  0
LINE
  5
FA
100
AcDbEntity
  8
M4
  6
DASHDOT
370
25
 62
     2
100
AcDbLine
 10
190.392089
 20
521.870171
 11
190.392089
 21
528.620171
  0
LINE
  5
FB
100
AcDbEntity
  8
M4
  6
DASHDOT
370
25
 62
     2
100
AcDbLine
 10
190.392089
 20
529.870171
 11
190.392089
 21
538.620171
  0
LINE
  5
FC
100
AcDbEntity
  8
M4
  6
DASHDOT
370
25
 62
     2
100
AcDbLine
 10
187.441968
 20
533.245171
 11
193.181768
 21
533.245171
  0
LINE
  5
FD
100
AcDbEntity
  8
M4
  6
DASHDOT
370
25
 62
     2
100
AcDbLine
 10
187.441968
 20
535.245171
 11
193.181768
 21
535.245171
  0
LINE
  5
FE
100
AcDbEntity
  8
M4
  6
DASHDOT
370
25
 62
     2
100
AcDbLine
 10
187.441968
 20
525.245171
 11
193.181768
 21
525.245171
  0
LINE
  5
FF
100
AcDbEntity
  8
M4
  6
DASHDOT
370
25
 62
     2
100
AcDbLine
 10
190.392089
 20
413.620294
 11
190.392089
 21
406.870294
  0
LINE
  5
100
100
AcDbEntity
  8
M4
  6
DASHDOT
370
25
 62
     2
100
AcDbLine
 10
190.392089
 20
405.620294
 11
190.392089
 21
396.870294
  0
LINE
  5
101
100
AcDbEntity
  8
M4
  6
DASHDOT
370
25
 62
     2
100
AcDbLine
 10
187.441968
 20
402.245294
 11
193.181768
 21
402.245294
  0
LINE
  5
102
100
AcDbEntity
  8
M4
  6
DASHDOT
370
25
 62
     2
100
AcDbLine
 10
187.441968
 20
400.245294
 11
193.181768
 21
400.245294
  0
LINE
  5
103
100
AcDbEntity
  8
M4
  6
DASHDOT
370
25
 62
     2
100
AcDbLine
 10
187.441968
 20
410.245294
 11
193.181768
 21
410.245294
  0
LINE
  5
104
100
AcDbEntity
  8
M5
  6
CONTINUOUS
370
25
 62
     7
100
AcDbLine
 10
187.517089
 20
202.715396
 11
187.517089
 21
222.965396
  0
ARC
  5
105
100
AcDbEntity
  8
M5
  6
CONTINUOUS
370
25
 62
     7
100
AcDbCircle
 10
185.517089
 20
222.965396
 40
2.0
100
AcDbArc
 50
0.0
 51
90.0
  0
LINE
  5
106
100
AcDbEntity
  8
M5
  6
CONTINUOUS
370
25
 62
     7
100
AcDbLine
 10
185.517089
 20
224.965396
 11
169.517089
 21
224.965396
  0
ARC
  5
107
100
AcDbEntity
  8
M5
  6
CONTINUOUS
370
25
 62
     7
100
AcDbCircle
 10
169.517089
 20
222.965396
 40
2.0
100
AcDbArc
 50
90.0
 51
180.0
  0
LINE
  5
108
100
AcDbEntity
  8
M5
  6
CONTINUOUS
370
25
 62
     7
100
AcDbLine
 10
167.517089
 20
222.965396
 11
167.517089
 21
202.715396
  0
ARC
  5
109
100
AcDbEntity
  8
M5
  6
CONTINUOUS
370
25
 62
     7
100
AcDbCircle
 10
169.517089
 20
202.715396
 40
2.0
100
AcDbArc
 50
180.0
 51
270.0
  0
LINE
  5
10A
100
AcDbEntity
  8
M5
  6
CONTINUOUS
370
25
 62
     7
100
AcDbLine
 10
169.517089
 20
200.715396
 11
185.517089
 21
200.715396
  0
ARC
  5
10B
100
AcDbEntity
  8
M5
  6
CONTINUOUS
370
25
 62
     7
100
AcDbCircle
 10
185.517089
 20
202.715396
 40
2.0
100
AcDbArc
 50
270.0
 51
360.0
  0
LINE
  5
10C
100
AcDbEntity
  8
M6
  6
CONTINUOUS
370
25
100
AcDbLine
 10
211.127563
 20
41.249999
 11
211.127563
 21
-7.105427E-015
  0
LINE
  5
10D
100
AcDbEntity
  8
M6
  6
CONTINUOUS
370
25
100
AcDbLine
 10
6.127566
 20
41.249999
 11
6.127566
 21
-7.105427E-015
  0
LINE
  5
10E
100
AcDbEntity
  8
M6
  6
CONTINUOUS
370
25
100
AcDbLine
 10
6.127566
 20
-7.105427E-015
 11
211.127563
 21
-7.105427E-015
  0
LINE
  5
10F
100
AcDbEntity
  8
M6
  6
CONTINUOUS
370
25
100
AcDbLine
 10
6.127566
 20
41.249999
 11
211.127563
 21
41.249999
  0
LINE
  5
110
100
AcDbEntity
  8
M6
  6
CONTINUOUS
370
25
100
AcDbLine
 10
163.627564
 20
27.499999
 11
163.627564
 21
41.249999
  0
LINE
  5
111
100
AcDbEntity
  8
M6
  6
CONTINUOUS
370
25
100
AcDbLine
 10
36.127566
 20
27.499999
 11
163.627564
 21
27.499999
  0
LINE
  5
112
100
AcDbEntity
  8
M6
  6
CONTINUOUS
370
25
 60
     1
100
AcDbLine
 10
186.127564
 20
27.499999
 11
186.127564
 21
41.249999
  0
LINE
  5
113
100
AcDbEntity
  8
M6
  6
CONTINUOUS
370
25
100
AcDbLine
 10
163.627564
 20
27.499999
 11
186.127564
 21
27.499999
  0
TEXT
  5
114
100
AcDbEntity
  8
M6
100
AcDbText
 10
166.278943
 20
31.250001
 40
6.25
  1
ＲＥＶ．：
 41
0.666667
  7
STANDARD
100
AcDbText
  0
LINE
  5
115
100
AcDbEntity
  8
M6
  6
CONTINUOUS
370
25
 60
     1
100
AcDbLine
 10
211.127563
 20
27.499999
 11
211.127563
 21
41.249999
  0
LINE
  5
116
100
AcDbEntity
  8
M6
  6
CONTINUOUS
370
25
100
AcDbLine
 10
186.127564
 20
27.499999
 11
211.127563
 21
27.499999
  0
TEXT
  5
117
100
AcDbEntity
  8
M6
100
AcDbText
 10
196.30116
 20
31.250001
 40
6.25
  1
００
 41
0.833333
  7
STANDARD
100
AcDbText
  0
LINE
  5
118
100
AcDbEntity
  8
M6
  6
CONTINUOUS
370
25
 60
     1
100
AcDbLine
 10
36.127566
 20
27.499999
 11
36.127566
 21
41.249999
  0
LINE
  5
119
100
AcDbEntity
  8
M6
  6
CONTINUOUS
370
25
100
AcDbLine
 10
6.127566
 20
27.499999
 11
36.127566
 21
27.499999
  0
TEXT
  5
11A
100
AcDbEntity
  8
M6
100
AcDbText
 10
8.801175
 20
31.250001
 40
6.25
  1
登録名：
 41
0.833333
  7
STANDARD
100
AcDbText
  0
LINE
  5
11B
100
AcDbEntity
  8
M6
  6
CONTINUOUS
370
25
 60
     1
100
AcDbLine
 10
211.127563
 20
13.75
 11
211.127563
 21
27.499999
  0
LINE
  5
11C
100
AcDbEntity
  8
M6
  6
CONTINUOUS
370
25
100
AcDbLine
 10
186.127564
 20
13.75
 11
211.127563
 21
13.75
  0
LINE
  5
11D
100
AcDbEntity
  8
M6
  6
CONTINUOUS
370
25
 60
     1
100
AcDbLine
 10
186.127564
 20
13.75
 11
186.127564
 21
27.499999
  0
LINE
  5
11E
100
AcDbEntity
  8
M6
  6
CONTINUOUS
370
25
100
AcDbLine
 10
36.127566
 20
13.75
 11
186.127564
 21
13.75
  0
TEXT
  5
11F
100
AcDbEntity
  8
M6
100
AcDbText
 10
38.801175
 20
17.500001
 40
6.25
  1
表面形
 41
0.833333
  7
STANDARD
100
AcDbText
  0
LINE
  5
120
100
AcDbEntity
  8
M6
  6
CONTINUOUS
370
25
 60
     1
100
AcDbLine
 10
36.127566
 20
13.75
 11
36.127566
 21
27.499999
  0
LINE
  5
121
100
AcDbEntity
  8
M6
  6
CONTINUOUS
370
25
100
AcDbLine
 10
6.127566
 20
13.75
 11
36.127566
 21
13.75
  0
TEXT
  5
122
100
AcDbEntity
  8
M6
100
AcDbText
 10
7.533811
 20
17.500001
 40
6.25
  1
接続方式：
 41
0.75
  7
STANDARD
100
AcDbText
  0
LINE
  5
123
100
AcDbEntity
  8
M6
  6
CONTINUOUS
370
25
 60
     1
100
AcDbLine
 10
211.127563
 20
-7.105427E-015
 11
211.127563
 21
13.75
  0
LINE
  5
124
100
AcDbEntity
  8
M6
  6
CONTINUOUS
370
25
 60
     1
100
AcDbLine
 10
186.127564
 20
-7.105427E-015
 11
211.127563
 21
-7.105427E-015
  0
LINE
  5
125
100
AcDbEntity
  8
M6
  6
CONTINUOUS
370
25
 60
     1
100
AcDbLine
 10
36.127566
 20
-7.105427E-015
 11
36.127566
 21
13.75
  0
LINE
  5
126
100
AcDbEntity
  8
M6
  6
CONTINUOUS
370
25
 60
     1
100
AcDbLine
 10
6.127566
 20
-7.105427E-015
 11
36.127566
 21
-7.105427E-015
  0
TEXT
  5
127
100
AcDbEntity
  8
M6
100
AcDbText
 10
7.533811
 20
3.750001
 40
6.25
  1
適用形式：
 41
0.75
  7
STANDARD
100
AcDbText
  0
LINE
  5
128
100
AcDbEntity
  8
M6
  6
CONTINUOUS
370
25
 60
     1
100
AcDbLine
 10
186.127564
 20
-7.105427E-015
 11
186.127564
 21
13.75
  0
LINE
  5
129
100
AcDbEntity
  8
M6
  6
CONTINUOUS
370
25
 60
     1
100
AcDbLine
 10
36.127566
 20
-7.105427E-015
 11
186.127564
 21
-7.105427E-015
  0
TEXT
  5
12A
100
AcDbEntity
  8
M6
100
AcDbText
 10
38.801175
 20
31.250001
 40
6.25
  1
ＦＸ１０００　３Ｐ
 41
0.833333
  7
STANDARD
100
AcDbText
  0
TEXT
  5
12B
100
AcDbEntity
  8
M6
100
AcDbText
 10
38.783826
 20
3.750001
 40
6.25
  1
ＦＸ１０００／ＦＸ１２００
 41
0.75
  7
STANDARD
100
AcDbText
  0
ENDSEC
  0
SECTION
  2
OBJECTS
  0
DICTIONARY
  5
C
100
AcDbDictionary
  3
ACAD_GROUP
350
D
  3
ACAD_MLINESTYLE
350
E
  0
DICTIONARY
  5
D
102
{ACAD_REACTORS
330
C
102
}
100
AcDbDictionary
  0
DICTIONARY
  5
E
102
{ACAD_REACTORS
330
C
102
}
100
AcDbDictionary
  3
STANDARD
350
13
  0
MLINESTYLE
  5
13
102
{ACAD_REACTORS
330
E
102
}
100
AcDbMlineStyle
  2
STANDARD
 70
     0
  3

 62
     0
 51
90.0
 52
90.0
 71
     2
 49
0.5
 62
   256
  6
BYLAYER
 49
-0.5
 62
   256
  6
BYLAYER
  0
ENDSEC
  0
EOF
