  0
SECTION
  2
HEADER
  9
$ACADVER
  1
AC1015
  9
$INSBASE
 10
0.000000
 20
0.000000
 30
0.0
  9
$VIEWCTR
 10
7.531722
 20
4.5
  9
$VIEWSIZE
 40
9.0
  9
$SNAPMODE
 70
     0
  9
$SNAPUNIT
 10
1.0
 20
1.0
  9
$SNAPBASE
 10
0.0
 20
0.0
  9
$SNAPANG
 50
0.0
  9
$SNAPSTYLE
 70
     0
  9
$SNAPISOPAIR
 70
     0
  9
$GRIDMODE
 70
     0
  9
$GRIDUNIT
 10
0.0
 20
0.0
  9
$ORTHOMODE
 70
     0
  9
$REGENMODE
 70
     1
  9
$FILLMODE
 70
     1
  9
$QTEXTMODE
 70
     0
  9
$DRAGMODE
 70
     2
  9
$LTSCALE
  40
     1.000000
  9
$OSMODE
 70
     0
  9
$ATTMODE
 70
     1
  9
$TEXTSIZE
 40
0.2
  9
$TRACEWID
 40
0.05
  9
$TEXTSTYLE
  7
STANDARD
  9
$CELTYPE
  6
BYLAYER
  9
$CECOLOR
 62
   256
  9
$DIMSCALE
 40
1.0
  9
$DIMASZ
 40
0.18
  9
$DIMEXO
 40
0.0625
  9
$DIMDLI
 40
0.38
  9
$DIMRND
 40
0.0
  9
$DIMDLE
 40
0.0
  9
$DIMEXE
 40
0.18
  9
$DIMTP
 40
0.0
  9
$DIMTM
 40
0.0
  9
$DIMTXT
 40
0.18
  9
$DIMCEN
 40
0.09
  9
$DIMTSZ
 40
0.0
  9
$DIMADEC
 70
     0
  9
$DIMALTRND
 40
0.000000
  9
$DIMAZIN
 70
     0
  9
$DIMDSEP
 70
    46
  9
$DIMATFIT
 70
     3
  9
$DIMFRAC
 70
     0
  9
$DIMLDRBLK
  1

  9
$DIMLUNIT
 70
     2
  9
$DIMLWD
 70
   13
  9
$DIMLWE
 70
   13
  9
$DIMTMOVE
 70
     0
  9
$CELWEIGHT
370
    25
  9
$LWDISPLAY
290
    1
  9
$EXTNAMES
290
    1
  9
$DIMTOL
 70
     0
  9
$DIMLIM
 70
     0
  9
$DIMTIH
 70
     1
  9
$DIMTOH
 70
     1
  9
$DIMSE1
 70
     0
  9
$DIMSE2
 70
     0
  9
$DIMTAD
 70
     0
  9
$DIMZIN
 70
     0
  9
$DIMBLK
  1

  9
$LUNITS
 70
     2
  9
$LUPREC
 70
     4
  9
$AXISMODE
 70
     0
  9
$AXISUNIT
 10
0.0
 20
0.0
  9
$SKETCHINC
 40
0.1
  9
$FILLETRAD
 40
0.0
  9
$AUNITS
 70
     0
  9
$AUPREC
 70
     0
  9
$MENU
  1
ACAD
  9
$ELEVATION
 40
0.0
  9
$THICKNESS
 40
0.0
  9
$VIEWDIR
 10
0.0
 20
0.0
 30
1.0
  9
$LIMCHECK
 70
     0
  9
$BLIPMODE
 70
     1
  9
$CHAMFERA
 40
0.0
  9
$CHAMFERB
 40
0.0
  9
$FASTZOOM
 70
     1
  9
$SKPOLY
 70
     0
  9
$TDCREATE
 40
0000000.0000000000
  9
$TDUPDATE
 40
0000000.0000000000
  9
$TDINDWG
 40
0.0000000000
  9
$TDUSRTIMER
 40
0.0000000000
  9
$USRTIMER
 70
     1
  9
$ANGBASE
 50
0.0
  9
$ANGDIR
 70
     0
  9
$PDMODE
 70
     0
  9
$PDSIZE
 40
0.0
  9
$PLINEWID
 40
0.0
  9
$COORDS
 70
     0
  9
$USERI1
 70
     0
  9
$USERI2
 70
     0
  9
$USERI3
 70
     0
  9
$USERI4
 70
     0
  9
$USERI5
 70
     0
  9
$USERR1
 40
0.0
  9
$USERR2
 40
0.0
  9
$USERR3
 40
0.0
  9
$USERR4
 40
0.0
  9
$USERR5
 40
0.0
  9
$CLAYER
  8
M2
  9
$EXTMIN
 10
0.0
 20
0.0
  9
$EXTMAX
 10
841.0
 20
594.0
  9
$LIMMIN
 10
0.0
 20
0.0
  9
$LIMMAX
 10
841.0
 20
594.0
  9
$HANDSEED
  5
11D
  0
ENDSEC
  0
SECTION
  2
CLASSES
  0
CLASS
  1
DIMASSOC
  2
AcDbDimAssoc
  3
"AcDbDimAssoc|Product Desc:     AcDim ARX App For Dimension|Company:          Autodesk, Inc.|WEB Address:      www.autodesk.com"
 90
        0
280
     0
281
     0
  0
ENDSEC
  0
SECTION
  2
TABLES
  0
TABLE
  2
VPORT
  5
8
100
AcDbSymbolTable
 70
     2
  0
VPORT
  5
14
100
AcDbSymbolTableRecord
100
AcDbViewportTableRecord
  2
*ACTIVE
 70
     0
 10
0.0
 20
0.0
 11
1.0
 21
1.0
 12
484.0
 22
297.0
 13
0.0
 23
0.0
 14
1.0
 24
1.0
 15
0.0
 25
0.0
 16
0.0
 26
0.0
 36
1.0
 17
0.0
 27
0.0
 37
0.0
 40
594.0
 41
2.0
 42
50.0
 43
0.0
 44
0.0
 50
0.0
 51
0.0
 71
     0
 72
   100
 73
     1
 74
     1
 75
     0
 76
     0
 77
     0
 78
     0
  0
ENDTAB
  0
TABLE
  2
LTYPE
  5
5
100
AcDbSymbolTable
 70
     5
  0
LTYPE
  5
15
100
AcDbSymbolTableRecord
100
AcDbLinetypeTableRecord
  2
BYBLOCK
 70
     0
  3

 72
    65
 73
     0
 40
0.0
  0
LTYPE
  5
16
100
AcDbSymbolTableRecord
100
AcDbLinetypeTableRecord
  2
BYLAYER
 70
     0
  3

 72
    65
 73
     0
 40
0.0
  0
LTYPE
  5
17
100
AcDbSymbolTableRecord
100
AcDbLinetypeTableRecord
  2
CONTINUOUS
 70
    64
  3
Solid line
 72
    65
 73
     0
 40
0.0
  0
LTYPE
  5
18
100
AcDbSymbolTableRecord
100
AcDbLinetypeTableRecord
  2
DASHED
 70
    64
  3
__ __ __ __ __ __ __ __ __ __ __ __ __ __ __ __
 72
    65
 73
     2
 40
0.75
 49
0.5
 74
     0
 49
-0.25
 74
     0
  0
LTYPE
  5
19
100
AcDbSymbolTableRecord
100
AcDbLinetypeTableRecord
  2
DASHDOT
 70
    64
  3
__ . __ . __ . __ . __ . __ . __ . __ . __ . __
 72
    65
 73
     4
 40
1.0
 49
0.5
 74
     0
 49
-0.25
 74
     0
 49
0.0
 74
     0
 49
-0.25
 74
     0
  0
LTYPE
  5
1A
100
AcDbSymbolTableRecord
100
AcDbLinetypeTableRecord
  2
DIVIDE
 70
    64
  3
____ . . ____ . . ____ . . ____ . . ____ . . __
 72
    65
 73
     6
 40
1.25
 49
0.5
 74
     0
 49
-0.25
 74
     0
 49
0.0
 74
     0
 49
-0.25
 74
     0
 49
0.0
 74
     0
 49
-0.25
 74
     0
  0
LTYPE
  5
1B
100
AcDbSymbolTableRecord
100
AcDbLinetypeTableRecord
  2
DOT
 70
    64
  3
. . . . . . . . . . . . . . . . . . . . . . . .
 72
    65
 73
     2
 40
0.25
 49
0.0
 74
     0
 49
-0.25
 74
     0
  0
ENDTAB
  0
TABLE
  2
LAYER
  5
2
100
AcDbSymbolTable
 70
   102
  0
LAYER
  5
F
100
AcDbSymbolTableRecord
100
AcDbLayerTableRecord
  2
0
 70
     0
 62
     7
  6
CONTINUOUS
370
     -3
390
F
  0
LAYER
  5
1C
100
AcDbSymbolTableRecord
100
AcDbLayerTableRecord
  2
M2
 70
     0
 62
     3
  6
CONTINUOUS
370
     -3
390
F
  0
LAYER
  5
1D
100
AcDbSymbolTableRecord
100
AcDbLayerTableRecord
  2
M3
 70
     0
 62
     7
  6
CONTINUOUS
370
     -3
390
F
  0
ENDTAB
  0
TABLE
  2
STYLE
  5
3
100
AcDbSymbolTable
 70
     2
  0
STYLE
  5
10
100
AcDbSymbolTableRecord
100
AcDbTextStyleTableRecord
  2
STANDARD
 70
     0
 40
0.0
 41
1.0
 50
0.0
 71
     0
 42
0.2
  3
txt
  4
BIGFONT
  0
ENDTAB
  0
TABLE
  2
VIEW
  5
6
100
AcDbSymbolTable
 70
     0
  0
ENDTAB
  0
TABLE
  2
UCS
  5
7
100
AcDbSymbolTable
 70
     0
  0
ENDTAB
  0
TABLE
  2
APPID
  5
9
100
AcDbSymbolTable
 70
     1
  0
APPID
  5
11
100
AcDbSymbolTableRecord
100
AcDbRegAppTableRecord
  2
ACAD
 70
     0
  0
ENDTAB
  0
TABLE
  2
DIMSTYLE
  5
A
100
AcDbSymbolTable
 70
     2
100
AcDbDimStyleTable
 71
     1
  0
DIMSTYLE
105
46
100
AcDbSymbolTableRecord
100
AcDbDimStyleTableRecord
  2
STANDARD
 70
     0
  3

  4

  5

  6
_OPEN
  7
_OPEN
 40
1.0
 41
3.0
 42
0.0
 43
8.0
 44
1.5
 45
0.0
 46
0.0
 47
0.0
 48
0.0
140
3.2
141
0.09
142
0.0
143
0.03937
144
1.0
145
0.0
146
1.0
147
1.0
148
0.000000
 71
     0
 72
     0
 73
     1
 74
     1
 75
     0
 76
     0
 77
     3
 78
     8
170
     0
171
     2
172
     0
173
     1
174
     0
175
     0
176
     0
177
     0
178
     0
270
     2
271
     2
272
     4
273
     2
274
     2
340
10
275
     0
278
    46
280
     0
281
     0
282
     0
283
     1
284
     0
285
     0
286
     0
287
     3
288
     0
371
   13
372
   13
  0
DIMSTYLE
105
47
100
AcDbSymbolTableRecord
100
AcDbDimStyleTableRecord
  2
LEADSTYL
 70
     0
  3

  4

  5

  6
_OPEN
  7
_OPEN
 40
1.0
 41
3.0
 42
0.0625
 43
0.38
 44
0.18
 45
0.0
 46
0.0
 47
0.0
 48
0.0
140
3.2
141
0.09
142
0.0
143
25.4
144
1.0
145
0.0
146
1.0
147
1.0
 71
     0
 72
     0
 73
     1
 74
     1
 75
     0
 76
     0
 77
     0
 78
     0
170
     0
171
     2
172
     0
173
     1
174
     0
175
     0
176
     0
177
     0
178
     0
270
     2
271
     4
272
     4
273
     2
274
     2
340
10
275
     0
280
     0
281
     0
282
     0
283
     1
284
     0
285
     0
286
     0
287
     3
288
     0
  0
ENDTAB
  0
TABLE
  2
BLOCK_RECORD
  5
1
100
AcDbSymbolTable
 70
     6
  0
BLOCK_RECORD
  5
1E
100
AcDbSymbolTableRecord
100
AcDbBlockTableRecord
  2
*MODEL_SPACE
  0
BLOCK_RECORD
  5
21
100
AcDbSymbolTableRecord
100
AcDbBlockTableRecord
  2
*PAPER_SPACE
  0
BLOCK_RECORD
  5
24
100
AcDbSymbolTableRecord
100
AcDbBlockTableRecord
  2
_NONE
  0
BLOCK_RECORD
  5
28
100
AcDbSymbolTableRecord
100
AcDbBlockTableRecord
  2
_OPEN
  0
BLOCK_RECORD
  5
2E
100
AcDbSymbolTableRecord
100
AcDbBlockTableRecord
  2
_CLOSED
  0
BLOCK_RECORD
  5
35
100
AcDbSymbolTableRecord
100
AcDbBlockTableRecord
  2
_ORIGIN
  0
BLOCK_RECORD
  5
3A
100
AcDbSymbolTableRecord
100
AcDbBlockTableRecord
  2
_DOT
  0
BLOCK_RECORD
  5
42
100
AcDbSymbolTableRecord
100
AcDbBlockTableRecord
  2
_OBLIQUE
  0
ENDTAB
  0
ENDSEC
  0
SECTION
  2
BLOCKS
  0
BLOCK
  5
1F
100
AcDbEntity
  8
0
100
AcDbBlockBegin
  2
*MODEL_SPACE
 70
     0
 10
0.0
 20
0.0
 30
0.0
  3
*MODEL_SPACE
  1

  0
ENDBLK
  5
20
100
AcDbEntity
  8
0
100
AcDbBlockEnd
  0
BLOCK
  5
22
100
AcDbEntity
 67
     1
  8
0
100
AcDbBlockBegin
  2
*PAPER_SPACE
 70
     0
 10
0.0
 20
0.0
 30
0.0
  3
*PAPER_SPACE
  1

  0
ENDBLK
  5
23
100
AcDbEntity
 67
     1
  8
0
100
AcDbBlockEnd
  0
BLOCK
  5
25
100
AcDbEntity
  8
0
100
AcDbBlockBegin
  2
_NONE
 70
     0
 10
0.0
 20
0.0
  0
CIRCLE
  5
26
100
AcDbEntity
  8
0
 62
     0
370
13
100
AcDbCircle
 10
0.0
 20
0.0
 40
0.25
  0
ENDBLK
  5
27
100
AcDbEntity
  8
0
100
AcDbBlockEnd
  0
BLOCK
  5
29
100
AcDbEntity
  8
0
100
AcDbBlockBegin
  2
_OPEN
 70
     0
 10
0.0
 20
0.0
  0
LINE
  5
2A
100
AcDbEntity
  8
0
 62
     0
370
13
100
AcDbLine
 10
-0.965926
 20
0.258819
 11
0.0
 21
0.0
  0
LINE
  5
2B
100
AcDbEntity
  8
0
 62
     0
370
13
100
AcDbLine
 10
0.0
 20
0.0
 11
-0.965926
 21
-0.258819
  0
LINE
  5
2C
100
AcDbEntity
  8
0
 62
     0
370
13
100
AcDbLine
 10
0.0
 20
0.0
 11
-1.0
 21
0.0
  0
ENDBLK
  5
2D
100
AcDbEntity
  8
0
100
AcDbBlockEnd
  0
BLOCK
  5
2F
100
AcDbEntity
  8
0
100
AcDbBlockBegin
  2
_CLOSED
 70
     0
 10
0.0
 20
0.0
  0
LINE
  5
30
100
AcDbEntity
  8
0
 62
     0
370
13
100
AcDbLine
 10
-0.965926
 20
0.258819
 11
0.0
 21
0.0
  0
LINE
  5
31
100
AcDbEntity
  8
0
 62
     0
370
13
100
AcDbLine
 10
0.0
 20
0.0
 11
-0.965926
 21
-0.258819
  0
LINE
  5
32
100
AcDbEntity
  8
0
 62
     0
370
13
100
AcDbLine
 10
-0.965926
 20
0.258819
 11
-0.965926
 21
-0.258819
  0
LINE
  5
33
100
AcDbEntity
  8
0
 62
     0
370
13
100
AcDbLine
 10
0.0
 20
0.0
 11
-1.0
 21
0.0
  0
ENDBLK
  5
34
100
AcDbEntity
  8
0
100
AcDbBlockEnd
  0
BLOCK
  5
36
100
AcDbEntity
  8
0
100
AcDbBlockBegin
  2
_ORIGIN
 70
     0
 10
0.0
 20
0.0
  0
CIRCLE
  5
37
100
AcDbEntity
  8
0
 62
     0
370
13
100
AcDbCircle
 10
0.0
 20
0.0
 40
0.5
  0
LINE
  5
38
100
AcDbEntity
  8
0
 62
     0
370
13
100
AcDbLine
 10
0.0
 20
0.0
 11
-1.0
 21
0.0
  0
ENDBLK
  5
39
100
AcDbEntity
  8
0
100
AcDbBlockEnd
  0
BLOCK
  5
3B
100
AcDbEntity
  8
0
100
AcDbBlockBegin
  2
_DOT
 70
     0
 10
0.0
 20
0.0
  0
POLYLINE
  5
3C
100
AcDbEntity
  8
0
 62
     0
100
AcDb2dPolyline
 66
     1
 70
     1
 40
0.5
 41
0.5
  0
VERTEX
  5
3D
100
AcDbEntity
  8
0
 62
     0
100
AcDbVertex
100
AcDb2dVertex
 10
-0.25
 20
0.0
 42
1.0
  0
VERTEX
  5
3E
100
AcDbEntity
  8
0
 62
     0
100
AcDbVertex
100
AcDb2dVertex
 10
0.25
 20
0.0
 42
1.0
  0
SEQEND
  5
3F
100
AcDbEntity
  8
0
 62
     0
  0
LINE
  5
40
100
AcDbEntity
  8
0
 62
     0
370
13
100
AcDbLine
 10
-0.5
 20
0.0
 11
-1.0
 21
0.0
  0
ENDBLK
  5
41
100
AcDbEntity
  8
0
100
AcDbBlockEnd
  0
BLOCK
  5
43
100
AcDbEntity
  8
0
100
AcDbBlockBegin
  2
_OBLIQUE
 70
     0
 10
0.0
 20
0.0
  0
LINE
  5
44
100
AcDbEntity
  8
0
 62
     0
370
13
100
AcDbLine
 10
-0.353553
 20
-0.353553
 11
0.353553
 21
0.353553
  0
ENDBLK
  5
45
100
AcDbEntity
  8
0
100
AcDbBlockEnd
  0
ENDSEC
  0
SECTION
  2
ENTITIES
  0
ARC
  5
48
100
AcDbEntity
  8
M2
  6
CONTINUOUS
370
25
 62
     4
100
AcDbCircle
 10
206.680683
 20
445.121085
 40
43.999809
100
AcDbArc
 50
166.394399
 51
180.0
  0
LINE
  5
49
100
AcDbEntity
  8
M2
  6
CONTINUOUS
370
25
 62
     4
100
AcDbLine
 10
163.905781
 20
455.47338
 11
163.142475
 21
451.546866
  0
LINE
  5
4A
100
AcDbEntity
  8
M2
  6
CONTINUOUS
370
25
 62
     4
100
AcDbLine
 10
177.176411
 20
442.971671
 11
177.176411
 21
442.971549
  0
LINE
  5
4B
100
AcDbEntity
  8
M2
  6
CONTINUOUS
370
25
 62
     4
100
AcDbLine
 10
163.152363
 20
451.545035
 11
174.180927
 21
448.802726
  0
LINE
  5
4C
100
AcDbEntity
  8
M2
  6
CONTINUOUS
370
25
 62
     4
100
AcDbLine
 10
163.915668
 20
455.471549
 11
174.180927
 21
454.021964
  0
LINE
  5
4D
100
AcDbEntity
  8
M2
  6
CONTINUOUS
370
25
 62
     4
100
AcDbLine
 10
177.176288
 20
442.971549
 11
177.176411
 21
442.971671
  0
LINE
  5
4E
100
AcDbEntity
  8
M2
  6
CONTINUOUS
370
25
 62
     4
100
AcDbLine
 10
178.084003
 20
437.546988
 11
178.084126
 21
437.54711
  0
LINE
  5
4F
100
AcDbEntity
  8
M2
  6
CONTINUOUS
370
25
 62
     4
100
AcDbLine
 10
229.180927
 20
380.871085
 11
229.180927
 21
509.371085
  0
LINE
  5
50
100
AcDbEntity
  8
M2
  6
CONTINUOUS
370
25
 62
     4
100
AcDbLine
 10
174.180927
 20
467.621085
 11
174.180927
 21
422.621085
  0
LINE
  5
51
100
AcDbEntity
  8
M2
  6
CONTINUOUS
370
25
 62
     4
100
AcDbLine
 10
177.680927
 20
490.371085
 11
177.680927
 21
399.871085
  0
LINE
  5
52
100
AcDbEntity
  8
M2
  6
CONTINUOUS
370
25
 62
     4
100
AcDbLine
 10
180.680927
 20
380.871085
 11
180.680927
 21
399.871085
  0
LINE
  5
53
100
AcDbEntity
  8
M2
  6
CONTINUOUS
370
25
 62
     4
100
AcDbLine
 10
177.680927
 20
490.371085
 11
180.680927
 21
490.371085
  0
LINE
  5
54
100
AcDbEntity
  8
M2
  6
CONTINUOUS
370
25
 62
     4
100
AcDbLine
 10
174.180927
 20
467.621085
 11
177.680927
 21
467.621085
  0
LINE
  5
55
100
AcDbEntity
  8
M2
  6
CONTINUOUS
370
25
 62
     4
100
AcDbLine
 10
174.180927
 20
422.621085
 11
177.680927
 21
422.621085
  0
LINE
  5
56
100
AcDbEntity
  8
M2
  6
CONTINUOUS
370
25
 62
     4
100
AcDbLine
 10
177.680927
 20
399.871085
 11
180.680927
 21
399.871085
  0
LINE
  5
57
100
AcDbEntity
  8
M2
  6
CONTINUOUS
370
25
 62
     4
100
AcDbLine
 10
212.180805
 20
380.870963
 11
208.180805
 21
380.870963
  0
LINE
  5
58
100
AcDbEntity
  8
M2
  6
CONTINUOUS
370
25
 62
     4
100
AcDbLine
 10
176.930927
 20
467.621085
 11
177.680927
 21
467.621085
  0
LINE
  5
59
100
AcDbEntity
  8
M2
  6
CONTINUOUS
370
25
 62
     4
100
AcDbLine
 10
176.930927
 20
422.621085
 11
177.680927
 21
422.621085
  0
LINE
  5
5A
100
AcDbEntity
  8
M2
  6
CONTINUOUS
370
25
 62
     4
100
AcDbLine
 10
177.680927
 20
490.496085
 11
180.680927
 21
490.496085
  0
LINE
  5
5B
100
AcDbEntity
  8
M2
  6
CONTINUOUS
370
25
 62
     4
100
AcDbLine
 10
229.180805
 20
509.371085
 11
229.180805
 21
486.621085
  0
LINE
  5
5C
100
AcDbEntity
  8
M2
  6
CONTINUOUS
370
25
 62
     4
100
AcDbLine
 10
180.680927
 20
509.371085
 11
229.180805
 21
509.371085
  0
LINE
  5
5D
100
AcDbEntity
  8
M2
  6
CONTINUOUS
370
25
 62
     4
100
AcDbLine
 10
229.180805
 20
380.871085
 11
229.180805
 21
403.621085
  0
LINE
  5
5E
100
AcDbEntity
  8
M2
  6
CONTINUOUS
370
25
 62
     4
100
AcDbLine
 10
180.680927
 20
380.871085
 11
229.180805
 21
380.871085
  0
LINE
  5
5F
100
AcDbEntity
  8
M2
  6
DASHDOT
370
25
 62
     4
100
AcDbLine
 10
150.540953
 20
445.121085
 11
236.557285
 21
445.121085
  0
LINE
  5
60
100
AcDbEntity
  8
M2
  6
CONTINUOUS
370
25
 62
     4
100
AcDbLine
 10
180.680927
 20
490.496085
 11
180.680927
 21
509.370963
  0
LINE
  5
61
100
AcDbEntity
  8
M2
  6
CONTINUOUS
370
25
 62
     4
100
AcDbLine
 10
195.180927
 20
528.371085
 11
199.180927
 21
528.371085
  0
LINE
  5
62
100
AcDbEntity
  8
M2
  6
CONTINUOUS
370
25
 62
     4
100
AcDbLine
 10
208.180927
 20
528.371085
 11
208.180927
 21
509.371085
  0
LINE
  5
63
100
AcDbEntity
  8
M2
  6
CONTINUOUS
370
25
 62
     4
100
AcDbLine
 10
212.180927
 20
528.371085
 11
212.180927
 21
509.371085
  0
LINE
  5
64
100
AcDbEntity
  8
M2
  6
CONTINUOUS
370
25
 62
     4
100
AcDbLine
 10
195.180927
 20
528.371085
 11
195.180927
 21
515.120963
  0
LINE
  5
65
100
AcDbEntity
  8
M2
  6
CONTINUOUS
370
25
 62
     4
100
AcDbLine
 10
199.180927
 20
528.371085
 11
199.180927
 21
515.121085
  0
LINE
  5
66
100
AcDbEntity
  8
M2
  6
CONTINUOUS
370
25
 62
     4
100
AcDbLine
 10
200.930927
 20
513.371085
 11
208.180927
 21
513.371085
  0
ARC
  5
67
100
AcDbEntity
  8
M2
  6
CONTINUOUS
370
25
 62
     4
100
AcDbCircle
 10
200.930927
 20
515.121085
 40
1.75
100
AcDbArc
 50
180.0
 51
270.0
  0
ARC
  5
68
100
AcDbEntity
  8
M2
  6
CONTINUOUS
370
25
 62
     4
100
AcDbCircle
 10
200.930927
 20
515.120963
 40
5.749993
100
AcDbArc
 50
180.0
 51
269.999943
  0
LINE
  5
69
100
AcDbEntity
  8
M2
  6
CONTINUOUS
370
25
 62
     4
100
AcDbLine
 10
208.180927
 20
528.371085
 11
212.180927
 21
528.371085
  0
LINE
  5
6A
100
AcDbEntity
  8
M2
  6
CONTINUOUS
370
25
 62
     4
100
AcDbLine
 10
195.180927
 20
361.871085
 11
199.180927
 21
361.871085
  0
LINE
  5
6B
100
AcDbEntity
  8
M2
  6
CONTINUOUS
370
25
 62
     4
100
AcDbLine
 10
208.180927
 20
361.871085
 11
208.180927
 21
380.871085
  0
LINE
  5
6C
100
AcDbEntity
  8
M2
  6
CONTINUOUS
370
25
 62
     4
100
AcDbLine
 10
212.180927
 20
361.871085
 11
212.180927
 21
380.871085
  0
LINE
  5
6D
100
AcDbEntity
  8
M2
  6
CONTINUOUS
370
25
 62
     4
100
AcDbLine
 10
195.180927
 20
361.871085
 11
195.180927
 21
375.121207
  0
LINE
  5
6E
100
AcDbEntity
  8
M2
  6
CONTINUOUS
370
25
 62
     4
100
AcDbLine
 10
199.180927
 20
361.871085
 11
199.180927
 21
375.121085
  0
LINE
  5
6F
100
AcDbEntity
  8
M2
  6
CONTINUOUS
370
25
 62
     4
100
AcDbLine
 10
200.930927
 20
376.871085
 11
208.180927
 21
376.871085
  0
ARC
  5
70
100
AcDbEntity
  8
M2
  6
CONTINUOUS
370
25
 62
     4
100
AcDbCircle
 10
200.930927
 20
375.121085
 40
1.75
100
AcDbArc
 50
90.0
 51
179.99975
  0
ARC
  5
71
100
AcDbEntity
  8
M2
  6
CONTINUOUS
370
25
 62
     4
100
AcDbCircle
 10
200.930927
 20
375.121207
 40
5.749993
100
AcDbArc
 50
90.0
 51
179.999924
  0
LINE
  5
72
100
AcDbEntity
  8
M2
  6
CONTINUOUS
370
25
 62
     4
100
AcDbLine
 10
208.180927
 20
361.871085
 11
212.180927
 21
361.871085
  0
LINE
  5
73
100
AcDbEntity
  8
M2
  6
CONTINUOUS
370
25
 62
     4
100
AcDbLine
 10
75.75
 20
528.371085
 11
75.75
 21
509.371085
  0
LINE
  5
74
100
AcDbEntity
  8
M2
  6
CONTINUOUS
370
25
 62
     4
100
AcDbLine
 10
75.75
 20
528.371085
 11
63.25
 21
528.371085
  0
CIRCLE
  5
75
100
AcDbEntity
  8
M2
  6
CONTINUOUS
370
25
 62
     4
100
AcDbCircle
 10
69.5
 20
520.371085
 40
2.75
  0
LINE
  5
76
100
AcDbEntity
  8
M2
  6
CONTINUOUS
370
25
 62
     4
100
AcDbLine
 10
63.25
 20
528.371085
 11
63.25
 21
509.371085
  0
LINE
  5
77
100
AcDbEntity
  8
M2
  6
CONTINUOUS
370
25
 62
     4
100
AcDbLine
 10
53.75
 20
528.371085
 11
53.75
 21
509.371085
  0
LINE
  5
78
100
AcDbEntity
  8
M2
  6
CONTINUOUS
370
25
 62
     4
100
AcDbLine
 10
53.75
 20
528.371085
 11
41.25
 21
528.371085
  0
CIRCLE
  5
79
100
AcDbEntity
  8
M2
  6
CONTINUOUS
370
25
 62
     4
100
AcDbCircle
 10
47.5
 20
520.371085
 40
2.75
  0
LINE
  5
7A
100
AcDbEntity
  8
M2
  6
CONTINUOUS
370
25
 62
     4
100
AcDbLine
 10
41.25
 20
528.371085
 11
41.25
 21
509.371085
  0
LINE
  5
7B
100
AcDbEntity
  8
M2
  6
CONTINUOUS
370
25
 62
     4
100
AcDbLine
 10
19.25
 20
528.371085
 11
19.25
 21
509.371085
  0
LINE
  5
7C
100
AcDbEntity
  8
M2
  6
CONTINUOUS
370
25
 62
     4
100
AcDbLine
 10
19.25
 20
528.371085
 11
31.75
 21
528.371085
  0
CIRCLE
  5
7D
100
AcDbEntity
  8
M2
  6
CONTINUOUS
370
25
 62
     4
100
AcDbCircle
 10
25.5
 20
520.371085
 40
2.75
  0
LINE
  5
7E
100
AcDbEntity
  8
M2
  6
CONTINUOUS
370
25
 62
     4
100
AcDbLine
 10
31.75
 20
528.371085
 11
31.75
 21
509.371085
  0
LINE
  5
7F
100
AcDbEntity
  8
M2
  6
CONTINUOUS
370
25
 62
     4
100
AcDbLine
 10
75.75
 20
361.871085
 11
75.75
 21
380.871085
  0
LINE
  5
80
100
AcDbEntity
  8
M2
  6
CONTINUOUS
370
25
 62
     4
100
AcDbLine
 10
75.75
 20
361.871085
 11
63.25
 21
361.871085
  0
CIRCLE
  5
81
100
AcDbEntity
  8
M2
  6
CONTINUOUS
370
25
 62
     4
100
AcDbCircle
 10
69.5
 20
369.871085
 40
2.75
  0
LINE
  5
82
100
AcDbEntity
  8
M2
  6
CONTINUOUS
370
25
 62
     4
100
AcDbLine
 10
63.25
 20
361.871085
 11
63.25
 21
380.871085
  0
LINE
  5
83
100
AcDbEntity
  8
M2
  6
CONTINUOUS
370
25
 62
     4
100
AcDbLine
 10
19.25
 20
361.871085
 11
19.25
 21
380.871085
  0
LINE
  5
84
100
AcDbEntity
  8
M2
  6
CONTINUOUS
370
25
 62
     4
100
AcDbLine
 10
19.25
 20
361.871085
 11
31.75
 21
361.871085
  0
CIRCLE
  5
85
100
AcDbEntity
  8
M2
  6
CONTINUOUS
370
25
 62
     4
100
AcDbCircle
 10
25.5
 20
369.871085
 40
2.75
  0
LINE
  5
86
100
AcDbEntity
  8
M2
  6
CONTINUOUS
370
25
 62
     4
100
AcDbLine
 10
31.75
 20
361.871085
 11
31.75
 21
380.871085
  0
LINE
  5
87
100
AcDbEntity
  8
M2
  6
CONTINUOUS
370
25
 62
     4
100
AcDbLine
 10
53.75
 20
361.871085
 11
53.75
 21
380.871085
  0
LINE
  5
88
100
AcDbEntity
  8
M2
  6
CONTINUOUS
370
25
 62
     4
100
AcDbLine
 10
53.75
 20
361.871085
 11
41.25
 21
361.871085
  0
CIRCLE
  5
89
100
AcDbEntity
  8
M2
  6
CONTINUOUS
370
25
 62
     4
100
AcDbCircle
 10
47.5
 20
369.871085
 40
2.75
  0
LINE
  5
8A
100
AcDbEntity
  8
M2
  6
CONTINUOUS
370
25
 62
     4
100
AcDbLine
 10
41.25
 20
361.871085
 11
41.25
 21
380.871085
  0
LINE
  5
8B
100
AcDbEntity
  8
M2
  6
CONTINUOUS
370
25
 62
     4
100
AcDbLine
 10
82.5
 20
380.871085
 11
82.5
 21
509.371085
  0
LINE
  5
8C
100
AcDbEntity
  8
M2
  6
CONTINUOUS
370
25
 62
     4
100
AcDbLine
 10
82.5
 20
509.371085
 11
75.75
 21
509.371085
  0
LINE
  5
8D
100
AcDbEntity
  8
M2
  6
CONTINUOUS
370
25
 62
     4
100
AcDbLine
 10
12.5
 20
509.371085
 11
12.5
 21
380.871085
  0
LINE
  5
8E
100
AcDbEntity
  8
M2
  6
CONTINUOUS
370
25
 62
     4
100
AcDbLine
 10
12.5
 20
380.871085
 11
19.25
 21
380.871085
  0
LINE
  5
8F
100
AcDbEntity
  8
M2
  6
DASHDOT
370
25
 62
     4
100
AcDbLine
 10
-2.842171E-014
 20
445.121085
 11
94.999999
 21
445.121085
  0
LINE
  5
90
100
AcDbEntity
  8
M2
  6
DASHDOT
370
25
 62
     4
100
AcDbLine
 10
47.5
 20
368.371085
 11
47.5
 21
521.871085
  0
LINE
  5
91
100
AcDbEntity
  8
M2
  6
CONTINUOUS
370
25
 62
     4
100
AcDbLine
 10
63.000854
 20
464.121207
 11
63.000854
 21
445.121085
  0
LINE
  5
92
100
AcDbEntity
  8
M2
  6
CONTINUOUS
370
25
 62
     4
100
AcDbLine
 10
35.500854
 20
467.621085
 11
59.500854
 21
467.621085
  0
LINE
  5
93
100
AcDbEntity
  8
M2
  6
CONTINUOUS
370
25
 62
     4
100
AcDbLine
 10
32.000854
 20
445.121085
 11
32.000854
 21
464.121085
  0
LINE
  5
94
100
AcDbEntity
  8
M2
  6
CONTINUOUS
370
25
 62
     4
100
AcDbLine
 10
41.750854
 20
455.47106
 11
53.250854
 21
455.47106
  0
LINE
  5
95
100
AcDbEntity
  8
M2
  6
CONTINUOUS
370
25
 62
     4
100
AcDbLine
 10
53.250854
 20
451.546012
 11
41.750854
 21
451.546012
  0
ARC
  5
96
100
AcDbEntity
  8
M2
  6
CONTINUOUS
370
25
 62
     4
100
AcDbCircle
 10
35.500854
 20
464.121085
 40
3.5
100
AcDbArc
 50
89.999875
 51
179.999875
  0
ARC
  5
97
100
AcDbEntity
  8
M2
  6
CONTINUOUS
370
25
 62
     4
100
AcDbCircle
 10
59.500854
 20
464.121085
 40
3.5
100
AcDbArc
 50
0.0
 51
90.0
  0
ARC
  5
98
100
AcDbEntity
  8
M2
  6
CONTINUOUS
370
25
 62
     4
100
AcDbCircle
 10
35.500854
 20
426.121085
 40
3.5
100
AcDbArc
 50
179.999875
 51
270.0
  0
ARC
  5
99
100
AcDbEntity
  8
M2
  6
CONTINUOUS
370
25
 62
     4
100
AcDbCircle
 10
59.500854
 20
426.121085
 40
3.5
100
AcDbArc
 50
269.999875
 51
360.0
  0
LINE
  5
9A
100
AcDbEntity
  8
M2
  6
CONTINUOUS
370
25
 62
     4
100
AcDbLine
 10
53.250854
 20
435.371085
 11
53.250854
 21
455.47106
  0
LINE
  5
9B
100
AcDbEntity
  8
M2
  6
CONTINUOUS
370
25
 62
     4
100
AcDbLine
 10
41.750854
 20
435.371085
 11
53.250854
 21
435.371085
  0
LINE
  5
9C
100
AcDbEntity
  8
M2
  6
CONTINUOUS
370
25
 62
     4
100
AcDbLine
 10
41.750854
 20
455.47106
 11
41.750854
 21
435.371085
  0
LINE
  5
9D
100
AcDbEntity
  8
M2
  6
CONTINUOUS
370
25
 62
     4
100
AcDbLine
 10
63.000854
 20
426.120963
 11
63.000854
 21
445.121085
  0
LINE
  5
9E
100
AcDbEntity
  8
M2
  6
CONTINUOUS
370
25
 62
     4
100
AcDbLine
 10
35.500854
 20
422.621085
 11
59.500854
 21
422.621085
  0
LINE
  5
9F
100
AcDbEntity
  8
M2
  6
CONTINUOUS
370
25
 62
     4
100
AcDbLine
 10
32.000854
 20
445.121085
 11
32.000854
 21
426.121085
  0
LINE
  5
A0
100
AcDbEntity
  8
M2
  6
CONTINUOUS
370
25
 62
     4
100
AcDbLine
 10
12.5
 20
399.871085
 11
82.5
 21
399.871085
  0
LINE
  5
A1
100
AcDbEntity
  8
M2
  6
CONTINUOUS
370
25
 62
     4
100
AcDbLine
 10
12.5
 20
490.371085
 11
82.5
 21
490.371085
  0
LINE
  5
A2
100
AcDbEntity
  8
M2
  6
CONTINUOUS
370
25
 62
     4
100
AcDbLine
 10
19.25
 20
509.371085
 11
12.5
 21
509.371085
  0
LINE
  5
A3
100
AcDbEntity
  8
M2
  6
CONTINUOUS
370
25
 62
     4
100
AcDbLine
 10
63.25
 20
509.371085
 11
31.75
 21
509.371085
  0
LINE
  5
A4
100
AcDbEntity
  8
M2
  6
CONTINUOUS
370
25
 62
     4
100
AcDbLine
 10
31.75
 20
380.871085
 11
63.25
 21
380.871085
  0
LINE
  5
A5
100
AcDbEntity
  8
M2
  6
CONTINUOUS
370
25
 62
     4
100
AcDbLine
 10
75.75
 20
380.871085
 11
82.5
 21
380.871085
  0
LINE
  5
A6
100
AcDbEntity
  8
M2
  6
CONTINUOUS
370
25
 62
     4
100
AcDbLine
 10
18.25
 20
509.370963
 11
18.249878
 21
501.370963
  0
LINE
  5
A7
100
AcDbEntity
  8
M2
  6
CONTINUOUS
370
25
 62
     4
100
AcDbLine
 10
32.749878
 20
501.370963
 11
32.75
 21
509.370963
  0
ARC
  5
A8
100
AcDbEntity
  8
M2
  6
CONTINUOUS
370
25
 62
     4
100
AcDbCircle
 10
25.5
 20
501.371085
 40
7.25
100
AcDbArc
 50
180.0
 51
360.0
  0
LINE
  5
A9
100
AcDbEntity
  8
M2
  6
CONTINUOUS
370
25
 62
     4
100
AcDbLine
 10
40.25
 20
509.370963
 11
40.249878
 21
501.370963
  0
LINE
  5
AA
100
AcDbEntity
  8
M2
  6
CONTINUOUS
370
25
 62
     4
100
AcDbLine
 10
54.749878
 20
501.370963
 11
54.75
 21
509.370963
  0
ARC
  5
AB
100
AcDbEntity
  8
M2
  6
CONTINUOUS
370
25
 62
     4
100
AcDbCircle
 10
47.5
 20
501.371085
 40
7.25
100
AcDbArc
 50
180.0
 51
360.0
  0
LINE
  5
AC
100
AcDbEntity
  8
M2
  6
CONTINUOUS
370
25
 62
     4
100
AcDbLine
 10
62.25
 20
509.370963
 11
62.249878
 21
501.370963
  0
LINE
  5
AD
100
AcDbEntity
  8
M2
  6
CONTINUOUS
370
25
 62
     4
100
AcDbLine
 10
76.749878
 20
501.370963
 11
76.75
 21
509.370963
  0
ARC
  5
AE
100
AcDbEntity
  8
M2
  6
CONTINUOUS
370
25
 62
     4
100
AcDbCircle
 10
69.5
 20
501.371085
 40
7.25
100
AcDbArc
 50
180.0
 51
360.0
  0
LINE
  5
AF
100
AcDbEntity
  8
M2
  6
CONTINUOUS
370
25
 62
     4
100
AcDbLine
 10
18.25
 20
380.871207
 11
18.249878
 21
388.871207
  0
LINE
  5
B0
100
AcDbEntity
  8
M2
  6
CONTINUOUS
370
25
 62
     4
100
AcDbLine
 10
32.749878
 20
388.871207
 11
32.75
 21
380.871207
  0
ARC
  5
B1
100
AcDbEntity
  8
M2
  6
CONTINUOUS
370
25
 62
     4
100
AcDbCircle
 10
25.5
 20
388.871085
 40
7.25
100
AcDbArc
 50
0.0
 51
180.0
  0
LINE
  5
B2
100
AcDbEntity
  8
M2
  6
CONTINUOUS
370
25
 62
     4
100
AcDbLine
 10
40.25
 20
380.871207
 11
40.249878
 21
388.871207
  0
LINE
  5
B3
100
AcDbEntity
  8
M2
  6
CONTINUOUS
370
25
 62
     4
100
AcDbLine
 10
54.749878
 20
388.871207
 11
54.75
 21
380.871207
  0
ARC
  5
B4
100
AcDbEntity
  8
M2
  6
CONTINUOUS
370
25
 62
     4
100
AcDbCircle
 10
47.5
 20
388.871085
 40
7.25
100
AcDbArc
 50
0.0
 51
180.0
  0
LINE
  5
B5
100
AcDbEntity
  8
M2
  6
CONTINUOUS
370
25
 62
     4
100
AcDbLine
 10
62.25
 20
380.871207
 11
62.249878
 21
388.871207
  0
LINE
  5
B6
100
AcDbEntity
  8
M2
  6
CONTINUOUS
370
25
 62
     4
100
AcDbLine
 10
76.749878
 20
388.871207
 11
76.75
 21
380.871207
  0
ARC
  5
B7
100
AcDbEntity
  8
M2
  6
CONTINUOUS
370
25
 62
     4
100
AcDbCircle
 10
69.5
 20
388.871085
 40
7.25
100
AcDbArc
 50
0.0
 51
180.0
  0
CIRCLE
  5
B8
100
AcDbEntity
  8
M2
  6
CONTINUOUS
370
25
100
AcDbCircle
 10
58.5
 20
494.371085
 40
1.75
  0
LINE
  5
B9
100
AcDbEntity
  8
M2
  6
DASHDOT
370
25
100
AcDbLine
 10
58.5
 20
487.621085
 11
58.5
 21
501.121085
  0
LINE
  5
BA
100
AcDbEntity
  8
M2
  6
DASHDOT
370
25
100
AcDbLine
 10
65.25
 20
494.371085
 11
51.75
 21
494.371085
  0
LINE
  5
BB
100
AcDbEntity
  8
M2
  6
DASHDOT
370
25
100
AcDbLine
 10
29.75
 20
494.371085
 11
43.25
 21
494.371085
  0
LINE
  5
BC
100
AcDbEntity
  8
M2
  6
DASHDOT
370
25
100
AcDbLine
 10
36.5
 20
487.621085
 11
36.5
 21
501.121085
  0
CIRCLE
  5
BD
100
AcDbEntity
  8
M2
  6
CONTINUOUS
370
25
100
AcDbCircle
 10
36.5
 20
494.371085
 40
1.75
  0
LINE
  5
BE
100
AcDbEntity
  8
M2
  6
DASHDOT
370
25
100
AcDbLine
 10
58.5
 20
402.621085
 11
58.5
 21
389.121085
  0
LINE
  5
BF
100
AcDbEntity
  8
M2
  6
DASHDOT
370
25
100
AcDbLine
 10
65.25
 20
395.871085
 11
51.75
 21
395.871085
  0
CIRCLE
  5
C0
100
AcDbEntity
  8
M2
  6
CONTINUOUS
370
25
100
AcDbCircle
 10
58.5
 20
395.871085
 40
1.75
  0
LINE
  5
C1
100
AcDbEntity
  8
M2
  6
DASHDOT
370
25
100
AcDbLine
 10
36.5
 20
402.621085
 11
36.5
 21
389.121085
  0
LINE
  5
C2
100
AcDbEntity
  8
M2
  6
DASHDOT
370
25
100
AcDbLine
 10
29.75
 20
395.871085
 11
43.25
 21
395.871085
  0
CIRCLE
  5
C3
100
AcDbEntity
  8
M2
  6
CONTINUOUS
370
25
100
AcDbCircle
 10
36.5
 20
395.871085
 40
1.75
  0
LINE
  5
C4
100
AcDbEntity
  8
M2
  6
DASHDOT
370
25
 62
     2
100
AcDbLine
 10
61.75
 20
520.371085
 11
77.25
 21
520.371085
  0
LINE
  5
C5
100
AcDbEntity
  8
M2
  6
DASHDOT
370
25
 62
     2
100
AcDbLine
 10
69.5
 20
512.621085
 11
69.5
 21
528.121085
  0
LINE
  5
C6
100
AcDbEntity
  8
M2
  6
DASHDOT
370
25
 62
     2
100
AcDbLine
 10
39.75
 20
520.371085
 11
55.25
 21
520.371085
  0
LINE
  5
C7
100
AcDbEntity
  8
M2
  6
DASHDOT
370
25
 62
     2
100
AcDbLine
 10
47.5
 20
512.621085
 11
47.5
 21
528.121085
  0
LINE
  5
C8
100
AcDbEntity
  8
M2
  6
DASHDOT
370
25
 62
     2
100
AcDbLine
 10
33.25
 20
520.371085
 11
17.75
 21
520.371085
  0
LINE
  5
C9
100
AcDbEntity
  8
M2
  6
DASHDOT
370
25
 62
     2
100
AcDbLine
 10
25.5
 20
512.621085
 11
25.5
 21
528.121085
  0
LINE
  5
CA
100
AcDbEntity
  8
M2
  6
DASHDOT
370
25
 62
     2
100
AcDbLine
 10
25.5
 20
377.621085
 11
25.5
 21
362.121085
  0
LINE
  5
CB
100
AcDbEntity
  8
M2
  6
DASHDOT
370
25
 62
     2
100
AcDbLine
 10
33.25
 20
369.871085
 11
17.75
 21
369.871085
  0
LINE
  5
CC
100
AcDbEntity
  8
M2
  6
DASHDOT
370
25
 62
     2
100
AcDbLine
 10
47.5
 20
377.621085
 11
47.5
 21
362.121085
  0
LINE
  5
CD
100
AcDbEntity
  8
M2
  6
DASHDOT
370
25
 62
     2
100
AcDbLine
 10
39.75
 20
369.871085
 11
55.25
 21
369.871085
  0
LINE
  5
CE
100
AcDbEntity
  8
M2
  6
DASHDOT
370
25
 62
     2
100
AcDbLine
 10
69.5
 20
377.621085
 11
69.5
 21
362.121085
  0
LINE
  5
CF
100
AcDbEntity
  8
M2
  6
DASHDOT
370
25
 62
     2
100
AcDbLine
 10
61.75
 20
369.871085
 11
77.25
 21
369.871085
  0
LINE
  5
D0
100
AcDbEntity
  8
M2
  6
DASHED
370
25
 62
     2
100
AcDbLine
 10
195.180927
 20
524.871085
 11
195.180927
 21
515.871085
  0
LINE
  5
D1
100
AcDbEntity
  8
M2
  6
DASHDOT
370
25
 62
     2
100
AcDbLine
 10
189.635612
 20
520.371085
 11
199.180927
 21
520.371085
  0
LINE
  5
D2
100
AcDbEntity
  8
M2
  6
DASHED
370
25
 62
     2
100
AcDbLine
 10
208.180927
 20
524.871085
 11
208.180927
 21
515.871085
  0
LINE
  5
D3
100
AcDbEntity
  8
M2
  6
DASHDOT
370
25
 62
     2
100
AcDbLine
 10
203.018864
 20
520.371085
 11
212.180927
 21
520.371085
  0
LINE
  5
D4
100
AcDbEntity
  8
M2
  6
DASHED
370
25
 62
     2
100
AcDbLine
 10
195.180927
 20
365.371085
 11
195.180927
 21
374.371085
  0
LINE
  5
D5
100
AcDbEntity
  8
M2
  6
DASHDOT
370
25
 62
     2
100
AcDbLine
 10
189.635612
 20
369.871085
 11
199.180927
 21
369.871085
  0
LINE
  5
D6
100
AcDbEntity
  8
M2
  6
DASHED
370
25
 62
     2
100
AcDbLine
 10
208.180927
 20
365.371085
 11
208.180927
 21
374.371085
  0
LINE
  5
D7
100
AcDbEntity
  8
M2
  6
DASHDOT
370
25
 62
     2
100
AcDbLine
 10
203.018864
 20
369.871085
 11
212.180927
 21
369.871085
  0
LINE
  5
D8
100
AcDbEntity
  8
M2
  6
DASHED
370
25
100
AcDbLine
 10
214.180927
 20
496.745841
 11
214.180927
 21
490.495841
  0
LINE
  5
D9
100
AcDbEntity
  8
M2
  6
DASHDOT
370
25
100
AcDbLine
 10
206.872776
 20
493.620841
 11
229.180927
 21
493.620841
  0
LINE
  5
DA
100
AcDbEntity
  8
M2
  6
DASHED
370
25
100
AcDbLine
 10
214.180927
 20
393.496329
 11
214.180927
 21
399.746329
  0
LINE
  5
DB
100
AcDbEntity
  8
M2
  6
DASHDOT
370
25
100
AcDbLine
 10
206.872776
 20
396.621329
 11
229.180927
 21
396.621329
  0
LINE
  5
DC
100
AcDbEntity
  8
M2
  6
DASHDOT
370
25
 62
     4
100
AcDbLine
 10
12.5
 20
104.899207
 11
82.5
 21
104.899207
  0
LINE
  5
DD
100
AcDbEntity
  8
M2
  6
DASHDOT
370
25
 62
     4
100
AcDbLine
 10
82.5
 20
104.899207
 11
82.5
 21
233.399085
  0
LINE
  5
DE
100
AcDbEntity
  8
M2
  6
DASHDOT
370
25
 62
     4
100
AcDbLine
 10
12.5
 20
233.399085
 11
12.5
 21
104.899207
  0
LINE
  5
DF
100
AcDbEntity
  8
M2
  6
DASHDOT
370
25
 62
     4
100
AcDbLine
 10
47.5
 20
99.476599
 11
47.5
 21
239.481482
  0
LINE
  5
E0
100
AcDbEntity
  8
M2
  6
DASHDOT
370
25
 62
     4
100
AcDbLine
 10
6.647338
 20
169.149207
 11
88.418678
 21
169.149207
  0
LINE
  5
E1
100
AcDbEntity
  8
M2
  6
DASHDOT
370
25
 62
     4
100
AcDbLine
 10
12.500122
 20
233.399085
 11
82.5
 21
233.399085
  0
CIRCLE
  5
E2
100
AcDbEntity
  8
M2
  6
CONTINUOUS
370
25
100
AcDbCircle
 10
58.5
 20
215.899085
 40
1.75
  0
CIRCLE
  5
E3
100
AcDbEntity
  8
M2
  6
CONTINUOUS
370
25
100
AcDbCircle
 10
36.5
 20
215.899085
 40
1.75
  0
CIRCLE
  5
E4
100
AcDbEntity
  8
M2
  6
CONTINUOUS
370
25
100
AcDbCircle
 10
36.5
 20
118.899207
 40
1.75
  0
CIRCLE
  5
E5
100
AcDbEntity
  8
M2
  6
CONTINUOUS
370
25
100
AcDbCircle
 10
58.5
 20
118.899207
 40
1.75
  0
LINE
  5
E6
100
AcDbEntity
  8
M2
  6
DASHDOT
370
25
100
AcDbLine
 10
51.75
 20
215.899085
 11
65.25
 21
215.899085
  0
LINE
  5
E7
100
AcDbEntity
  8
M2
  6
DASHDOT
370
25
100
AcDbLine
 10
58.5
 20
209.149085
 11
58.5
 21
222.649085
  0
LINE
  5
E8
100
AcDbEntity
  8
M2
  6
DASHDOT
370
25
100
AcDbLine
 10
29.75
 20
215.899085
 11
43.25
 21
215.899085
  0
LINE
  5
E9
100
AcDbEntity
  8
M2
  6
DASHDOT
370
25
100
AcDbLine
 10
36.5
 20
209.149085
 11
36.5
 21
222.649085
  0
LINE
  5
EA
100
AcDbEntity
  8
M2
  6
DASHDOT
370
25
100
AcDbLine
 10
29.75
 20
118.899207
 11
43.25
 21
118.899207
  0
LINE
  5
EB
100
AcDbEntity
  8
M2
  6
DASHDOT
370
25
100
AcDbLine
 10
36.5
 20
112.149207
 11
36.5
 21
125.649207
  0
LINE
  5
EC
100
AcDbEntity
  8
M2
  6
DASHDOT
370
25
100
AcDbLine
 10
51.75
 20
118.899207
 11
65.25
 21
118.899207
  0
LINE
  5
ED
100
AcDbEntity
  8
M2
  6
DASHDOT
370
25
100
AcDbLine
 10
58.5
 20
112.149207
 11
58.5
 21
125.649207
  0
LINE
  5
EE
100
AcDbEntity
  8
M2
  6
DASHDOT
370
25
 62
     4
100
AcDbLine
 10
194.430927
 20
97.308708
 11
194.430927
 21
243.399085
  0
LINE
  5
EF
100
AcDbEntity
  8
M2
  6
DASHDOT
370
25
 62
     4
100
AcDbLine
 10
149.884239
 20
169.149207
 11
235.099605
 21
169.149207
  0
LINE
  5
F0
100
AcDbEntity
  8
M2
  6
DASHDOT
370
25
 62
     4
100
AcDbLine
 10
229.180927
 20
104.899207
 11
229.180927
 21
233.399085
  0
LINE
  5
F1
100
AcDbEntity
  8
M2
  6
DASHDOT
370
25
 62
     4
100
AcDbLine
 10
159.18105
 20
233.399085
 11
229.180927
 21
233.399085
  0
LINE
  5
F2
100
AcDbEntity
  8
M2
  6
DASHDOT
370
25
 62
     4
100
AcDbLine
 10
159.180927
 20
233.399085
 11
159.180927
 21
104.899207
  0
LINE
  5
F3
100
AcDbEntity
  8
M2
  6
DASHDOT
370
25
 62
     4
100
AcDbLine
 10
159.180927
 20
104.899207
 11
229.180927
 21
104.899207
  0
LINE
  5
F4
100
AcDbEntity
  8
M2
  6
CONTINUOUS
370
25
 62
     7
100
AcDbLine
 10
178.430927
 20
188.149207
 11
178.430927
 21
150.149207
  0
LINE
  5
F5
100
AcDbEntity
  8
M2
  6
CONTINUOUS
370
25
 62
     7
100
AcDbLine
 10
182.430927
 20
192.149207
 11
206.430927
 21
192.149207
  0
LINE
  5
F6
100
AcDbEntity
  8
M2
  6
CONTINUOUS
370
25
 62
     7
100
AcDbLine
 10
182.430927
 20
146.149207
 11
206.430927
 21
146.149207
  0
LINE
  5
F7
100
AcDbEntity
  8
M2
  6
CONTINUOUS
370
25
 62
     7
100
AcDbLine
 10
210.430927
 20
188.149207
 11
210.430927
 21
150.149207
  0
ARC
  5
F8
100
AcDbEntity
  8
M2
  6
CONTINUOUS
370
25
 62
     7
100
AcDbCircle
 10
206.430927
 20
188.149207
 40
4.0
100
AcDbArc
 50
0.0
 51
90.0
  0
ARC
  5
F9
100
AcDbEntity
  8
M2
  6
CONTINUOUS
370
25
 62
     7
100
AcDbCircle
 10
182.430927
 20
188.149207
 40
4.0
100
AcDbArc
 50
90.0
 51
180.0
  0
ARC
  5
FA
100
AcDbEntity
  8
M2
  6
CONTINUOUS
370
25
 62
     7
100
AcDbCircle
 10
182.430927
 20
150.149207
 40
4.0
100
AcDbArc
 50
180.0
 51
270.0
  0
ARC
  5
FB
100
AcDbEntity
  8
M2
  6
CONTINUOUS
370
25
 62
     7
100
AcDbCircle
 10
206.430927
 20
150.149207
 40
4.0
100
AcDbArc
 50
270.0
 51
360.0
  0
LINE
  5
FC
100
AcDbEntity
  8
M3
  6
CONTINUOUS
370
25
100
AcDbLine
 10
250.747297
 20
41.249994
 11
250.747297
 21
-1.421085E-014
  0
LINE
  5
FD
100
AcDbEntity
  8
M3
  6
CONTINUOUS
370
25
100
AcDbLine
 10
13.2824
 20
41.249994
 11
13.2824
 21
-7.105427E-015
  0
LINE
  5
FE
100
AcDbEntity
  8
M3
  6
CONTINUOUS
370
25
100
AcDbLine
 10
13.2824
 20
-7.105427E-015
 11
250.747297
 21
-7.105427E-015
  0
LINE
  5
FF
100
AcDbEntity
  8
M3
  6
CONTINUOUS
370
25
100
AcDbLine
 10
13.2824
 20
41.249994
 11
250.747297
 21
41.249995
  0
LINE
  5
100
100
AcDbEntity
  8
M3
  6
CONTINUOUS
370
25
100
AcDbLine
 10
170.782408
 20
27.500004
 11
170.782408
 21
41.249994
  0
LINE
  5
101
100
AcDbEntity
  8
M3
  6
CONTINUOUS
370
25
100
AcDbLine
 10
43.282409
 20
27.500004
 11
170.782408
 21
27.500004
  0
LINE
  5
102
100
AcDbEntity
  8
M3
  6
CONTINUOUS
370
25
 60
     1
100
AcDbLine
 10
193.282389
 20
27.500004
 11
193.282389
 21
41.249994
  0
LINE
  5
103
100
AcDbEntity
  8
M3
  6
CONTINUOUS
370
25
100
AcDbLine
 10
170.782408
 20
27.500004
 11
193.282389
 21
27.500004
  0
TEXT
  5
104
100
AcDbEntity
  8
M3
100
AcDbText
 10
173.433799
 20
31.249992
 40
6.25
  1
ＲＥＶ．：
 41
0.666667
  7
STANDARD
100
AcDbText
  0
LINE
  5
105
100
AcDbEntity
  8
M3
  6
CONTINUOUS
370
25
 60
     1
100
AcDbLine
 10
218.282388
 20
27.500004
 11
218.282388
 21
41.249994
  0
LINE
  5
106
100
AcDbEntity
  8
M3
  6
CONTINUOUS
370
25
100
AcDbLine
 10
193.282389
 20
27.500004
 11
250.747297
 21
27.500004
  0
TEXT
  5
107
100
AcDbEntity
  8
M3
100
AcDbText
 10
203.455985
 20
31.249992
 40
6.25
  1
００
 41
0.833333
  7
STANDARD
100
AcDbText
  0
LINE
  5
108
100
AcDbEntity
  8
M3
  6
CONTINUOUS
370
25
 60
     1
100
AcDbLine
 10
43.282409
 20
27.500004
 11
43.282409
 21
41.249994
  0
LINE
  5
109
100
AcDbEntity
  8
M3
  6
CONTINUOUS
370
25
100
AcDbLine
 10
13.2824
 20
27.500004
 11
43.282409
 21
27.500004
  0
TEXT
  5
10A
100
AcDbEntity
  8
M3
100
AcDbText
 10
15.956
 20
31.249992
 40
6.25
  1
登録名：
 41
0.833333
  7
STANDARD
100
AcDbText
  0
LINE
  5
10B
100
AcDbEntity
  8
M3
  6
CONTINUOUS
370
25
 60
     1
100
AcDbLine
 10
218.282388
 20
13.749999
 11
218.282388
 21
27.500004
  0
LINE
  5
10C
100
AcDbEntity
  8
M3
  6
CONTINUOUS
370
25
100
AcDbLine
 10
193.282389
 20
13.749999
 11
250.747297
 21
13.749999
  0
LINE
  5
10D
100
AcDbEntity
  8
M3
  6
CONTINUOUS
370
25
 60
     1
100
AcDbLine
 10
193.282389
 20
13.749999
 11
193.282389
 21
27.500004
  0
LINE
  5
10E
100
AcDbEntity
  8
M3
  6
CONTINUOUS
370
25
100
AcDbLine
 10
43.282409
 20
13.749999
 11
193.282389
 21
13.749999
  0
TEXT
  5
10F
100
AcDbEntity
  8
M3
100
AcDbText
 10
45.956016
 20
17.500007
 40
6.25
  1
表面形
 41
0.833333
  7
STANDARD
100
AcDbText
  0
LINE
  5
110
100
AcDbEntity
  8
M3
  6
CONTINUOUS
370
25
 60
     1
100
AcDbLine
 10
43.282409
 20
13.749999
 11
43.282409
 21
27.500004
  0
LINE
  5
111
100
AcDbEntity
  8
M3
  6
CONTINUOUS
370
25
100
AcDbLine
 10
13.2824
 20
13.749999
 11
43.282409
 21
13.749999
  0
TEXT
  5
112
100
AcDbEntity
  8
M3
100
AcDbText
 10
14.688651
 20
17.500007
 40
6.25
  1
接続方式：
 41
0.75
  7
STANDARD
100
AcDbText
  0
LINE
  5
113
100
AcDbEntity
  8
M3
  6
CONTINUOUS
370
25
 60
     1
100
AcDbLine
 10
218.282388
 20
-7.105427E-015
 11
218.282388
 21
13.749999
  0
LINE
  5
114
100
AcDbEntity
  8
M3
  6
CONTINUOUS
370
25
 60
     1
100
AcDbLine
 10
193.282389
 20
-7.105427E-015
 11
218.282388
 21
-7.105427E-015
  0
LINE
  5
115
100
AcDbEntity
  8
M3
  6
CONTINUOUS
370
25
 60
     1
100
AcDbLine
 10
193.282389
 20
-7.105427E-015
 11
193.282389
 21
13.749999
  0
LINE
  5
116
100
AcDbEntity
  8
M3
  6
CONTINUOUS
370
25
 60
     1
100
AcDbLine
 10
43.282409
 20
-7.105427E-015
 11
193.282389
 21
-7.105427E-015
  0
LINE
  5
117
100
AcDbEntity
  8
M3
  6
CONTINUOUS
370
25
 60
     1
100
AcDbLine
 10
43.282409
 20
-7.105427E-015
 11
43.282409
 21
13.749999
  0
LINE
  5
118
100
AcDbEntity
  8
M3
  6
CONTINUOUS
370
25
 60
     1
100
AcDbLine
 10
13.2824
 20
-7.105427E-015
 11
43.282409
 21
-7.105427E-015
  0
TEXT
  5
119
100
AcDbEntity
  8
M3
100
AcDbText
 10
14.688651
 20
3.75
 40
6.25
  1
適用形式：
 41
0.75
  7
STANDARD
100
AcDbText
  0
TEXT
  5
11A
100
AcDbEntity
  8
M3
100
AcDbText
 10
45.956016
 20
31.249992
 40
6.25
  1
Ｆ－４００Ｒ　３Ｐ
 41
0.833333
  7
STANDARD
100
AcDbText
  0
TEXT
  5
11B
100
AcDbEntity
  8
M3
100
AcDbText
 10
45.938666
 20
3.75
 40
6.25
  1
Ｓ－４００Ｓ／Ｆ－４００ＦＢ／Ｆ－４００Ｒ／Ｆ－４００ＧＢ／Ｌ－４００Ｅ
 41
0.75
  7
STANDARD
100
AcDbText
  0
ENDSEC
  0
SECTION
  2
OBJECTS
  0
DICTIONARY
  5
C
100
AcDbDictionary
  3
ACAD_GROUP
350
D
  3
ACAD_MLINESTYLE
350
E
  0
DICTIONARY
  5
D
102
{ACAD_REACTORS
330
C
102
}
100
AcDbDictionary
  0
DICTIONARY
  5
E
102
{ACAD_REACTORS
330
C
102
}
100
AcDbDictionary
  3
STANDARD
350
13
  0
MLINESTYLE
  5
13
102
{ACAD_REACTORS
330
E
102
}
100
AcDbMlineStyle
  2
STANDARD
 70
     0
  3

 62
     0
 51
90.0
 52
90.0
 71
     2
 49
0.5
 62
   256
  6
BYLAYER
 49
-0.5
 62
   256
  6
BYLAYER
  0
ENDSEC
  0
EOF
