  0
SECTION
  2
HEADER
  9
$ACADVER
  1
AC1015
  9
$INSBASE
 10
0.000000
 20
0.000000
 30
0.0
  9
$VIEWCTR
 10
7.531722
 20
4.5
  9
$VIEWSIZE
 40
9.0
  9
$SNAPMODE
 70
     0
  9
$SNAPUNIT
 10
1.0
 20
1.0
  9
$SNAPBASE
 10
0.0
 20
0.0
  9
$SNAPANG
 50
0.0
  9
$SNAPSTYLE
 70
     0
  9
$SNAPISOPAIR
 70
     0
  9
$GRIDMODE
 70
     0
  9
$GRIDUNIT
 10
0.0
 20
0.0
  9
$ORTHOMODE
 70
     0
  9
$REGENMODE
 70
     1
  9
$FILLMODE
 70
     1
  9
$QTEXTMODE
 70
     0
  9
$DRAGMODE
 70
     2
  9
$LTSCALE
  40
     1.000000
  9
$OSMODE
 70
     0
  9
$ATTMODE
 70
     1
  9
$TEXTSIZE
 40
0.2
  9
$TRACEWID
 40
0.05
  9
$TEXTSTYLE
  7
STANDARD
  9
$CELTYPE
  6
BYLAYER
  9
$CECOLOR
 62
   256
  9
$DIMSCALE
 40
1.0
  9
$DIMASZ
 40
0.18
  9
$DIMEXO
 40
0.0625
  9
$DIMDLI
 40
0.38
  9
$DIMRND
 40
0.0
  9
$DIMDLE
 40
0.0
  9
$DIMEXE
 40
0.18
  9
$DIMTP
 40
0.0
  9
$DIMTM
 40
0.0
  9
$DIMTXT
 40
0.18
  9
$DIMCEN
 40
0.09
  9
$DIMTSZ
 40
0.0
  9
$DIMADEC
 70
     0
  9
$DIMALTRND
 40
0.000000
  9
$DIMAZIN
 70
     0
  9
$DIMDSEP
 70
    46
  9
$DIMATFIT
 70
     3
  9
$DIMFRAC
 70
     0
  9
$DIMLDRBLK
  1

  9
$DIMLUNIT
 70
     2
  9
$DIMLWD
 70
   13
  9
$DIMLWE
 70
   13
  9
$DIMTMOVE
 70
     0
  9
$CELWEIGHT
370
    25
  9
$LWDISPLAY
290
    1
  9
$EXTNAMES
290
    1
  9
$DIMTOL
 70
     0
  9
$DIMLIM
 70
     0
  9
$DIMTIH
 70
     1
  9
$DIMTOH
 70
     1
  9
$DIMSE1
 70
     0
  9
$DIMSE2
 70
     0
  9
$DIMTAD
 70
     0
  9
$DIMZIN
 70
     0
  9
$DIMBLK
  1

  9
$LUNITS
 70
     2
  9
$LUPREC
 70
     4
  9
$AXISMODE
 70
     0
  9
$AXISUNIT
 10
0.0
 20
0.0
  9
$SKETCHINC
 40
0.1
  9
$FILLETRAD
 40
0.0
  9
$AUNITS
 70
     0
  9
$AUPREC
 70
     0
  9
$MENU
  1
ACAD
  9
$ELEVATION
 40
0.0
  9
$THICKNESS
 40
0.0
  9
$VIEWDIR
 10
0.0
 20
0.0
 30
1.0
  9
$LIMCHECK
 70
     0
  9
$BLIPMODE
 70
     1
  9
$CHAMFERA
 40
0.0
  9
$CHAMFERB
 40
0.0
  9
$FASTZOOM
 70
     1
  9
$SKPOLY
 70
     0
  9
$TDCREATE
 40
0000000.0000000000
  9
$TDUPDATE
 40
0000000.0000000000
  9
$TDINDWG
 40
0.0000000000
  9
$TDUSRTIMER
 40
0.0000000000
  9
$USRTIMER
 70
     1
  9
$ANGBASE
 50
0.0
  9
$ANGDIR
 70
     0
  9
$PDMODE
 70
     0
  9
$PDSIZE
 40
0.0
  9
$PLINEWID
 40
0.0
  9
$COORDS
 70
     0
  9
$USERI1
 70
     0
  9
$USERI2
 70
     0
  9
$USERI3
 70
     0
  9
$USERI4
 70
     0
  9
$USERI5
 70
     0
  9
$USERR1
 40
0.0
  9
$USERR2
 40
0.0
  9
$USERR3
 40
0.0
  9
$USERR4
 40
0.0
  9
$USERR5
 40
0.0
  9
$CLAYER
  8
M1
  9
$EXTMIN
 10
0.0
 20
0.0
  9
$EXTMAX
 10
841.0
 20
594.0
  9
$LIMMIN
 10
0.0
 20
0.0
  9
$LIMMAX
 10
841.0
 20
594.0
  9
$HANDSEED
  5
20C
  0
ENDSEC
  0
SECTION
  2
CLASSES
  0
CLASS
  1
DIMASSOC
  2
AcDbDimAssoc
  3
"AcDbDimAssoc|Product Desc:     AcDim ARX App For Dimension|Company:          Autodesk, Inc.|WEB Address:      www.autodesk.com"
 90
        0
280
     0
281
     0
  0
ENDSEC
  0
SECTION
  2
TABLES
  0
TABLE
  2
VPORT
  5
8
100
AcDbSymbolTable
 70
     2
  0
VPORT
  5
14
100
AcDbSymbolTableRecord
100
AcDbViewportTableRecord
  2
*ACTIVE
 70
     0
 10
0.0
 20
0.0
 11
1.0
 21
1.0
 12
484.0
 22
297.0
 13
0.0
 23
0.0
 14
1.0
 24
1.0
 15
0.0
 25
0.0
 16
0.0
 26
0.0
 36
1.0
 17
0.0
 27
0.0
 37
0.0
 40
594.0
 41
2.0
 42
50.0
 43
0.0
 44
0.0
 50
0.0
 51
0.0
 71
     0
 72
   100
 73
     1
 74
     1
 75
     0
 76
     0
 77
     0
 78
     0
  0
ENDTAB
  0
TABLE
  2
LTYPE
  5
5
100
AcDbSymbolTable
 70
     5
  0
LTYPE
  5
15
100
AcDbSymbolTableRecord
100
AcDbLinetypeTableRecord
  2
BYBLOCK
 70
     0
  3

 72
    65
 73
     0
 40
0.0
  0
LTYPE
  5
16
100
AcDbSymbolTableRecord
100
AcDbLinetypeTableRecord
  2
BYLAYER
 70
     0
  3

 72
    65
 73
     0
 40
0.0
  0
LTYPE
  5
17
100
AcDbSymbolTableRecord
100
AcDbLinetypeTableRecord
  2
CONTINUOUS
 70
    64
  3
Solid line
 72
    65
 73
     0
 40
0.0
  0
LTYPE
  5
18
100
AcDbSymbolTableRecord
100
AcDbLinetypeTableRecord
  2
DASHED
 70
    64
  3
__ __ __ __ __ __ __ __ __ __ __ __ __ __ __ __
 72
    65
 73
     2
 40
0.75
 49
0.5
 74
     0
 49
-0.25
 74
     0
  0
LTYPE
  5
19
100
AcDbSymbolTableRecord
100
AcDbLinetypeTableRecord
  2
DASHDOT
 70
    64
  3
__ . __ . __ . __ . __ . __ . __ . __ . __ . __
 72
    65
 73
     4
 40
1.0
 49
0.5
 74
     0
 49
-0.25
 74
     0
 49
0.0
 74
     0
 49
-0.25
 74
     0
  0
LTYPE
  5
1A
100
AcDbSymbolTableRecord
100
AcDbLinetypeTableRecord
  2
DIVIDE
 70
    64
  3
____ . . ____ . . ____ . . ____ . . ____ . . __
 72
    65
 73
     6
 40
1.25
 49
0.5
 74
     0
 49
-0.25
 74
     0
 49
0.0
 74
     0
 49
-0.25
 74
     0
 49
0.0
 74
     0
 49
-0.25
 74
     0
  0
LTYPE
  5
1B
100
AcDbSymbolTableRecord
100
AcDbLinetypeTableRecord
  2
DOT
 70
    64
  3
. . . . . . . . . . . . . . . . . . . . . . . .
 72
    65
 73
     2
 40
0.25
 49
0.0
 74
     0
 49
-0.25
 74
     0
  0
ENDTAB
  0
TABLE
  2
LAYER
  5
2
100
AcDbSymbolTable
 70
   102
  0
LAYER
  5
F
100
AcDbSymbolTableRecord
100
AcDbLayerTableRecord
  2
0
 70
     0
 62
     7
  6
CONTINUOUS
370
     -3
390
F
  0
LAYER
  5
1C
100
AcDbSymbolTableRecord
100
AcDbLayerTableRecord
  2
M1
 70
     0
 62
     3
  6
CONTINUOUS
370
     -3
390
F
  0
LAYER
  5
1D
100
AcDbSymbolTableRecord
100
AcDbLayerTableRecord
  2
M2
 70
     0
 62
     3
  6
CONTINUOUS
370
     -3
390
F
  0
LAYER
  5
1E
100
AcDbSymbolTableRecord
100
AcDbLayerTableRecord
  2
M6
 70
     0
 62
     2
  6
CONTINUOUS
370
     -3
390
F
  0
ENDTAB
  0
TABLE
  2
STYLE
  5
3
100
AcDbSymbolTable
 70
     2
  0
STYLE
  5
10
100
AcDbSymbolTableRecord
100
AcDbTextStyleTableRecord
  2
STANDARD
 70
     0
 40
0.0
 41
1.0
 50
0.0
 71
     0
 42
0.2
  3
txt
  4
BIGFONT
  0
ENDTAB
  0
TABLE
  2
VIEW
  5
6
100
AcDbSymbolTable
 70
     0
  0
ENDTAB
  0
TABLE
  2
UCS
  5
7
100
AcDbSymbolTable
 70
     0
  0
ENDTAB
  0
TABLE
  2
APPID
  5
9
100
AcDbSymbolTable
 70
     1
  0
APPID
  5
11
100
AcDbSymbolTableRecord
100
AcDbRegAppTableRecord
  2
ACAD
 70
     0
  0
ENDTAB
  0
TABLE
  2
DIMSTYLE
  5
A
100
AcDbSymbolTable
 70
     2
100
AcDbDimStyleTable
 71
     1
  0
DIMSTYLE
105
47
100
AcDbSymbolTableRecord
100
AcDbDimStyleTableRecord
  2
STANDARD
 70
     0
  3

  4

  5

  6
_OPEN
  7
_OPEN
 40
1.0
 41
3.0
 42
0.0
 43
8.0
 44
1.5
 45
0.0
 46
0.0
 47
0.0
 48
0.0
140
3.2
141
0.09
142
0.0
143
0.03937
144
1.0
145
0.0
146
1.0
147
1.0
148
0.000000
 71
     0
 72
     0
 73
     1
 74
     1
 75
     0
 76
     0
 77
     3
 78
     8
170
     0
171
     2
172
     0
173
     1
174
     0
175
     0
176
     0
177
     0
178
     0
270
     2
271
     2
272
     4
273
     2
274
     2
340
10
275
     0
278
    46
280
     0
281
     0
282
     0
283
     1
284
     0
285
     0
286
     0
287
     3
288
     0
371
   13
372
   13
  0
DIMSTYLE
105
48
100
AcDbSymbolTableRecord
100
AcDbDimStyleTableRecord
  2
LEADSTYL
 70
     0
  3

  4

  5

  6
_OPEN
  7
_OPEN
 40
1.0
 41
3.0
 42
0.0625
 43
0.38
 44
0.18
 45
0.0
 46
0.0
 47
0.0
 48
0.0
140
3.2
141
0.09
142
0.0
143
25.4
144
1.0
145
0.0
146
1.0
147
1.0
 71
     0
 72
     0
 73
     1
 74
     1
 75
     0
 76
     0
 77
     0
 78
     0
170
     0
171
     2
172
     0
173
     1
174
     0
175
     0
176
     0
177
     0
178
     0
270
     2
271
     4
272
     4
273
     2
274
     2
340
10
275
     0
280
     0
281
     0
282
     0
283
     1
284
     0
285
     0
286
     0
287
     3
288
     0
  0
ENDTAB
  0
TABLE
  2
BLOCK_RECORD
  5
1
100
AcDbSymbolTable
 70
     6
  0
BLOCK_RECORD
  5
1F
100
AcDbSymbolTableRecord
100
AcDbBlockTableRecord
  2
*MODEL_SPACE
  0
BLOCK_RECORD
  5
22
100
AcDbSymbolTableRecord
100
AcDbBlockTableRecord
  2
*PAPER_SPACE
  0
BLOCK_RECORD
  5
25
100
AcDbSymbolTableRecord
100
AcDbBlockTableRecord
  2
_NONE
  0
BLOCK_RECORD
  5
29
100
AcDbSymbolTableRecord
100
AcDbBlockTableRecord
  2
_OPEN
  0
BLOCK_RECORD
  5
2F
100
AcDbSymbolTableRecord
100
AcDbBlockTableRecord
  2
_CLOSED
  0
BLOCK_RECORD
  5
36
100
AcDbSymbolTableRecord
100
AcDbBlockTableRecord
  2
_ORIGIN
  0
BLOCK_RECORD
  5
3B
100
AcDbSymbolTableRecord
100
AcDbBlockTableRecord
  2
_DOT
  0
BLOCK_RECORD
  5
43
100
AcDbSymbolTableRecord
100
AcDbBlockTableRecord
  2
_OBLIQUE
  0
ENDTAB
  0
ENDSEC
  0
SECTION
  2
BLOCKS
  0
BLOCK
  5
20
100
AcDbEntity
  8
0
100
AcDbBlockBegin
  2
*MODEL_SPACE
 70
     0
 10
0.0
 20
0.0
 30
0.0
  3
*MODEL_SPACE
  1

  0
ENDBLK
  5
21
100
AcDbEntity
  8
0
100
AcDbBlockEnd
  0
BLOCK
  5
23
100
AcDbEntity
 67
     1
  8
0
100
AcDbBlockBegin
  2
*PAPER_SPACE
 70
     0
 10
0.0
 20
0.0
 30
0.0
  3
*PAPER_SPACE
  1

  0
ENDBLK
  5
24
100
AcDbEntity
 67
     1
  8
0
100
AcDbBlockEnd
  0
BLOCK
  5
26
100
AcDbEntity
  8
0
100
AcDbBlockBegin
  2
_NONE
 70
     0
 10
0.0
 20
0.0
  0
CIRCLE
  5
27
100
AcDbEntity
  8
0
 62
     0
370
13
100
AcDbCircle
 10
0.0
 20
0.0
 40
0.25
  0
ENDBLK
  5
28
100
AcDbEntity
  8
0
100
AcDbBlockEnd
  0
BLOCK
  5
2A
100
AcDbEntity
  8
0
100
AcDbBlockBegin
  2
_OPEN
 70
     0
 10
0.0
 20
0.0
  0
LINE
  5
2B
100
AcDbEntity
  8
0
 62
     0
370
13
100
AcDbLine
 10
-0.965926
 20
0.258819
 11
0.0
 21
0.0
  0
LINE
  5
2C
100
AcDbEntity
  8
0
 62
     0
370
13
100
AcDbLine
 10
0.0
 20
0.0
 11
-0.965926
 21
-0.258819
  0
LINE
  5
2D
100
AcDbEntity
  8
0
 62
     0
370
13
100
AcDbLine
 10
0.0
 20
0.0
 11
-1.0
 21
0.0
  0
ENDBLK
  5
2E
100
AcDbEntity
  8
0
100
AcDbBlockEnd
  0
BLOCK
  5
30
100
AcDbEntity
  8
0
100
AcDbBlockBegin
  2
_CLOSED
 70
     0
 10
0.0
 20
0.0
  0
LINE
  5
31
100
AcDbEntity
  8
0
 62
     0
370
13
100
AcDbLine
 10
-0.965926
 20
0.258819
 11
0.0
 21
0.0
  0
LINE
  5
32
100
AcDbEntity
  8
0
 62
     0
370
13
100
AcDbLine
 10
0.0
 20
0.0
 11
-0.965926
 21
-0.258819
  0
LINE
  5
33
100
AcDbEntity
  8
0
 62
     0
370
13
100
AcDbLine
 10
-0.965926
 20
0.258819
 11
-0.965926
 21
-0.258819
  0
LINE
  5
34
100
AcDbEntity
  8
0
 62
     0
370
13
100
AcDbLine
 10
0.0
 20
0.0
 11
-1.0
 21
0.0
  0
ENDBLK
  5
35
100
AcDbEntity
  8
0
100
AcDbBlockEnd
  0
BLOCK
  5
37
100
AcDbEntity
  8
0
100
AcDbBlockBegin
  2
_ORIGIN
 70
     0
 10
0.0
 20
0.0
  0
CIRCLE
  5
38
100
AcDbEntity
  8
0
 62
     0
370
13
100
AcDbCircle
 10
0.0
 20
0.0
 40
0.5
  0
LINE
  5
39
100
AcDbEntity
  8
0
 62
     0
370
13
100
AcDbLine
 10
0.0
 20
0.0
 11
-1.0
 21
0.0
  0
ENDBLK
  5
3A
100
AcDbEntity
  8
0
100
AcDbBlockEnd
  0
BLOCK
  5
3C
100
AcDbEntity
  8
0
100
AcDbBlockBegin
  2
_DOT
 70
     0
 10
0.0
 20
0.0
  0
POLYLINE
  5
3D
100
AcDbEntity
  8
0
 62
     0
100
AcDb2dPolyline
 66
     1
 70
     1
 40
0.5
 41
0.5
  0
VERTEX
  5
3E
100
AcDbEntity
  8
0
 62
     0
100
AcDbVertex
100
AcDb2dVertex
 10
-0.25
 20
0.0
 42
1.0
  0
VERTEX
  5
3F
100
AcDbEntity
  8
0
 62
     0
100
AcDbVertex
100
AcDb2dVertex
 10
0.25
 20
0.0
 42
1.0
  0
SEQEND
  5
40
100
AcDbEntity
  8
0
 62
     0
  0
LINE
  5
41
100
AcDbEntity
  8
0
 62
     0
370
13
100
AcDbLine
 10
-0.5
 20
0.0
 11
-1.0
 21
0.0
  0
ENDBLK
  5
42
100
AcDbEntity
  8
0
100
AcDbBlockEnd
  0
BLOCK
  5
44
100
AcDbEntity
  8
0
100
AcDbBlockBegin
  2
_OBLIQUE
 70
     0
 10
0.0
 20
0.0
  0
LINE
  5
45
100
AcDbEntity
  8
0
 62
     0
370
13
100
AcDbLine
 10
-0.353553
 20
-0.353553
 11
0.353553
 21
0.353553
  0
ENDBLK
  5
46
100
AcDbEntity
  8
0
100
AcDbBlockEnd
  0
ENDSEC
  0
SECTION
  2
ENTITIES
  0
LINE
  5
49
100
AcDbEntity
  8
M1
  6
CONTINUOUS
370
25
100
AcDbLine
 10
-24.84027
 20
24.186248
 11
-24.84027
 21
24.086248
  0
LINE
  5
4A
100
AcDbEntity
  8
M1
  6
CONTINUOUS
370
25
100
AcDbLine
 10
-24.84027
 20
24.086248
 11
-24.74027
 21
24.086248
  0
LINE
  5
4B
100
AcDbEntity
  8
M1
  6
DASHED
370
13
100
AcDbLine
 10
89.443184
 20
343.87608
 11
85.043184
 21
343.87608
  0
LINE
  5
4C
100
AcDbEntity
  8
M1
  6
DASHED
370
13
100
AcDbLine
 10
85.043184
 20
343.87608
 11
85.043184
 21
315.876078
  0
LINE
  5
4D
100
AcDbEntity
  8
M1
  6
DASHED
370
13
100
AcDbLine
 10
119.443186
 20
315.876078
 11
115.043186
 21
315.876078
  0
LINE
  5
4E
100
AcDbEntity
  8
M1
  6
DASHED
370
13
100
AcDbLine
 10
119.443186
 20
343.87608
 11
119.443186
 21
315.876078
  0
LINE
  5
4F
100
AcDbEntity
  8
M1
  6
DASHED
370
13
100
AcDbLine
 10
115.043186
 20
343.87608
 11
115.043186
 21
315.876078
  0
LINE
  5
50
100
AcDbEntity
  8
M1
  6
DASHED
370
13
100
AcDbLine
 10
119.443186
 20
343.87608
 11
115.043186
 21
343.87608
  0
LINE
  5
51
100
AcDbEntity
  8
M1
  6
DASHED
370
13
100
AcDbLine
 10
59.443184
 20
343.87608
 11
59.443184
 21
315.876078
  0
LINE
  5
52
100
AcDbEntity
  8
M1
  6
DASHED
370
13
100
AcDbLine
 10
59.443184
 20
315.876078
 11
55.043184
 21
315.876078
  0
LINE
  5
53
100
AcDbEntity
  8
M1
  6
DASHED
370
13
100
AcDbLine
 10
55.043184
 20
343.87608
 11
55.043184
 21
315.876078
  0
LINE
  5
54
100
AcDbEntity
  8
M1
  6
DASHED
370
13
100
AcDbLine
 10
89.443184
 20
315.876078
 11
85.043184
 21
315.876078
  0
LINE
  5
55
100
AcDbEntity
  8
M1
  6
DASHED
370
13
100
AcDbLine
 10
59.443184
 20
343.87608
 11
55.043184
 21
343.87608
  0
LINE
  5
56
100
AcDbEntity
  8
M1
  6
DASHED
370
13
100
AcDbLine
 10
89.443184
 20
343.87608
 11
89.443184
 21
315.876078
  0
LINE
  5
57
100
AcDbEntity
  8
M1
  6
DASHED
370
13
100
AcDbLine
 10
119.443186
 20
408.87608
 11
115.043186
 21
408.87608
  0
LINE
  5
58
100
AcDbEntity
  8
M1
  6
DASHED
370
13
100
AcDbLine
 10
119.443186
 20
408.87608
 11
119.443186
 21
380.87608
  0
LINE
  5
59
100
AcDbEntity
  8
M1
  6
DASHED
370
13
100
AcDbLine
 10
85.043184
 20
408.87608
 11
85.043184
 21
380.87608
  0
LINE
  5
5A
100
AcDbEntity
  8
M1
  6
DASHED
370
13
100
AcDbLine
 10
89.443184
 20
380.87608
 11
85.043184
 21
380.87608
  0
LINE
  5
5B
100
AcDbEntity
  8
M1
  6
DASHED
370
13
100
AcDbLine
 10
89.443184
 20
408.87608
 11
89.443184
 21
380.87608
  0
LINE
  5
5C
100
AcDbEntity
  8
M1
  6
DASHED
370
13
100
AcDbLine
 10
89.443184
 20
408.87608
 11
85.043184
 21
408.87608
  0
LINE
  5
5D
100
AcDbEntity
  8
M1
  6
DASHED
370
13
100
AcDbLine
 10
55.043184
 20
408.87608
 11
55.043184
 21
380.87608
  0
LINE
  5
5E
100
AcDbEntity
  8
M1
  6
DASHED
370
13
100
AcDbLine
 10
59.443184
 20
380.87608
 11
55.043184
 21
380.87608
  0
LINE
  5
5F
100
AcDbEntity
  8
M1
  6
DASHED
370
13
100
AcDbLine
 10
59.443184
 20
408.87608
 11
59.443184
 21
380.87608
  0
LINE
  5
60
100
AcDbEntity
  8
M1
  6
DASHED
370
13
100
AcDbLine
 10
119.443186
 20
380.87608
 11
115.043186
 21
380.87608
  0
LINE
  5
61
100
AcDbEntity
  8
M1
  6
DASHED
370
13
100
AcDbLine
 10
59.443184
 20
408.87608
 11
55.043184
 21
408.87608
  0
LINE
  5
62
100
AcDbEntity
  8
M1
  6
DASHED
370
13
100
AcDbLine
 10
115.043186
 20
408.87608
 11
115.043186
 21
380.87608
  0
LINE
  5
63
100
AcDbEntity
  8
M1
  6
DIVIDE
370
13
100
AcDbLine
 10
299.559768
 20
343.87608
 11
299.559768
 21
339.20835
  0
CIRCLE
  5
64
100
AcDbEntity
  8
M1
  6
CONTINUOUS
370
25
100
AcDbCircle
 10
51.243184
 20
351.87608
 40
2.0
  0
LINE
  5
65
100
AcDbEntity
  8
M1
  6
DASHDOT
370
13
100
AcDbLine
 10
46.576518
 20
351.87608
 11
55.90985
 21
351.87608
  0
LINE
  5
66
100
AcDbEntity
  8
M1
  6
DASHDOT
370
13
100
AcDbLine
 10
51.243184
 20
347.209412
 11
51.243184
 21
356.542746
  0
CIRCLE
  5
67
100
AcDbEntity
  8
M1
  6
CONTINUOUS
370
25
100
AcDbCircle
 10
123.243186
 20
351.87608
 40
2.0
  0
LINE
  5
68
100
AcDbEntity
  8
M1
  6
DASHDOT
370
13
100
AcDbLine
 10
118.576518
 20
351.87608
 11
127.909852
 21
351.87608
  0
LINE
  5
69
100
AcDbEntity
  8
M1
  6
DASHDOT
370
13
100
AcDbLine
 10
123.243186
 20
347.209412
 11
123.243186
 21
356.542746
  0
LINE
  5
6A
100
AcDbEntity
  8
M1
  6
CONTINUOUS
370
25
100
AcDbLine
 10
126.243186
 20
418.37608
 11
124.743186
 21
418.37608
  0
LINE
  5
6B
100
AcDbEntity
  8
M1
  6
CONTINUOUS
370
25
100
AcDbLine
 10
126.243186
 20
421.37608
 11
124.743186
 21
421.37608
  0
ARC
  5
6C
100
AcDbEntity
  8
M1
  6
CONTINUOUS
370
25
100
AcDbCircle
 10
124.743186
 20
419.87608
 40
1.5
100
AcDbArc
 50
90.0
 51
270.0
  0
LINE
  5
6D
100
AcDbEntity
  8
M1
  6
CONTINUOUS
370
25
100
AcDbLine
 10
126.243186
 20
321.37608
 11
124.743186
 21
321.37608
  0
LINE
  5
6E
100
AcDbEntity
  8
M1
  6
CONTINUOUS
370
25
100
AcDbLine
 10
126.243186
 20
318.37608
 11
124.743186
 21
318.37608
  0
ARC
  5
6F
100
AcDbEntity
  8
M1
  6
CONTINUOUS
370
25
100
AcDbCircle
 10
124.743186
 20
319.87608
 40
1.5
100
AcDbArc
 50
90.0
 51
270.0
  0
ARC
  5
70
100
AcDbEntity
  8
M1
  6
CONTINUOUS
370
25
100
AcDbCircle
 10
49.743184
 20
319.87608
 40
1.5
100
AcDbArc
 50
270.0
 51
450.0
  0
LINE
  5
71
100
AcDbEntity
  8
M1
  6
CONTINUOUS
370
25
100
AcDbLine
 10
48.243184
 20
321.37608
 11
49.743184
 21
321.37608
  0
LINE
  5
72
100
AcDbEntity
  8
M1
  6
CONTINUOUS
370
25
100
AcDbLine
 10
48.243184
 20
318.37608
 11
49.743184
 21
318.37608
  0
LINE
  5
73
100
AcDbEntity
  8
M1
  6
CONTINUOUS
370
25
100
AcDbLine
 10
48.243184
 20
421.37608
 11
49.743184
 21
421.37608
  0
LINE
  5
74
100
AcDbEntity
  8
M1
  6
CONTINUOUS
370
25
100
AcDbLine
 10
48.243184
 20
418.37608
 11
49.743184
 21
418.37608
  0
ARC
  5
75
100
AcDbEntity
  8
M1
  6
CONTINUOUS
370
25
100
AcDbCircle
 10
49.743184
 20
419.87608
 40
1.5
100
AcDbArc
 50
270.0
 51
450.0
  0
CIRCLE
  5
76
100
AcDbEntity
  8
M1
  6
CONTINUOUS
370
25
100
AcDbCircle
 10
100.243184
 20
328.87608
 40
1.5
  0
CIRCLE
  5
77
100
AcDbEntity
  8
M1
  6
CONTINUOUS
370
25
100
AcDbCircle
 10
74.243184
 20
328.87608
 40
1.5
  0
LINE
  5
78
100
AcDbEntity
  8
M1
  6
CONTINUOUS
370
25
100
AcDbLine
 10
99.743184
 20
315.376078
 11
100.743184
 21
315.376078
  0
LINE
  5
79
100
AcDbEntity
  8
M1
  6
CONTINUOUS
370
25
100
AcDbLine
 10
99.743184
 20
315.376078
 11
99.243184
 21
313.876078
  0
LINE
  5
7A
100
AcDbEntity
  8
M1
  6
CONTINUOUS
370
25
100
AcDbLine
 10
100.743184
 20
315.376078
 11
101.243184
 21
313.876078
  0
LINE
  5
7B
100
AcDbEntity
  8
M1
  6
CONTINUOUS
370
25
100
AcDbLine
 10
74.743184
 20
315.376078
 11
73.743184
 21
315.376078
  0
LINE
  5
7C
100
AcDbEntity
  8
M1
  6
CONTINUOUS
370
25
100
AcDbLine
 10
74.743184
 20
315.376078
 11
75.243184
 21
313.876078
  0
LINE
  5
7D
100
AcDbEntity
  8
M1
  6
CONTINUOUS
370
25
100
AcDbLine
 10
73.743184
 20
315.376078
 11
73.243184
 21
313.876078
  0
LINE
  5
7E
100
AcDbEntity
  8
M1
  6
CONTINUOUS
370
25
100
AcDbLine
 10
74.743184
 20
424.37608
 11
73.743184
 21
424.37608
  0
LINE
  5
7F
100
AcDbEntity
  8
M1
  6
CONTINUOUS
370
25
100
AcDbLine
 10
73.743184
 20
424.37608
 11
73.243184
 21
425.87608
  0
LINE
  5
80
100
AcDbEntity
  8
M1
  6
CONTINUOUS
370
25
100
AcDbLine
 10
74.743184
 20
424.37608
 11
75.243184
 21
425.87608
  0
LINE
  5
81
100
AcDbEntity
  8
M1
  6
CONTINUOUS
370
25
100
AcDbLine
 10
99.743184
 20
424.37608
 11
100.743184
 21
424.37608
  0
LINE
  5
82
100
AcDbEntity
  8
M1
  6
CONTINUOUS
370
25
100
AcDbLine
 10
99.743184
 20
424.37608
 11
99.243184
 21
425.87608
  0
LINE
  5
83
100
AcDbEntity
  8
M1
  6
CONTINUOUS
370
25
100
AcDbLine
 10
100.743184
 20
424.37608
 11
101.243184
 21
425.87608
  0
LINE
  5
84
100
AcDbEntity
  8
M1
  6
CONTINUOUS
370
25
100
AcDbLine
 10
103.243184
 20
385.67608
 11
103.243184
 21
356.87608
  0
LINE
  5
85
100
AcDbEntity
  8
M1
  6
CONTINUOUS
370
25
100
AcDbLine
 10
71.243184
 20
385.67608
 11
71.243184
 21
356.87608
  0
LINE
  5
86
100
AcDbEntity
  8
M1
  6
CONTINUOUS
370
25
100
AcDbLine
 10
101.643184
 20
387.27608
 11
72.843184
 21
387.27608
  0
LINE
  5
87
100
AcDbEntity
  8
M1
  6
CONTINUOUS
370
25
100
AcDbLine
 10
72.843184
 20
355.27608
 11
101.643184
 21
355.27608
  0
LINE
  5
88
100
AcDbEntity
  8
M1
  6
CONTINUOUS
370
25
100
AcDbLine
 10
101.643184
 20
386.27608
 11
72.843184
 21
386.27608
  0
LINE
  5
89
100
AcDbEntity
  8
M1
  6
CONTINUOUS
370
25
100
AcDbLine
 10
101.643184
 20
356.27608
 11
72.843184
 21
356.27608
  0
LINE
  5
8A
100
AcDbEntity
  8
M1
  6
CONTINUOUS
370
25
100
AcDbLine
 10
72.243184
 20
385.67608
 11
72.243184
 21
356.87608
  0
LINE
  5
8B
100
AcDbEntity
  8
M1
  6
CONTINUOUS
370
25
100
AcDbLine
 10
102.243184
 20
385.67608
 11
102.243184
 21
356.87608
  0
ARC
  5
8C
100
AcDbEntity
  8
M1
  6
CONTINUOUS
370
25
100
AcDbCircle
 10
72.843184
 20
385.67608
 40
0.6
100
AcDbArc
 50
90.0
 51
180.0
  0
ARC
  5
8D
100
AcDbEntity
  8
M1
  6
CONTINUOUS
370
25
100
AcDbCircle
 10
101.643184
 20
385.67608
 40
0.6
100
AcDbArc
 50
0.0
 51
90.0
  0
ARC
  5
8E
100
AcDbEntity
  8
M1
  6
CONTINUOUS
370
25
100
AcDbCircle
 10
72.843184
 20
356.87608
 40
0.6
100
AcDbArc
 50
180.0
 51
270.0
  0
ARC
  5
8F
100
AcDbEntity
  8
M1
  6
CONTINUOUS
370
25
100
AcDbCircle
 10
101.643184
 20
356.87608
 40
0.6
100
AcDbArc
 50
270.0
 51
360.0
  0
ARC
  5
90
100
AcDbEntity
  8
M1
  6
CONTINUOUS
370
25
100
AcDbCircle
 10
72.843184
 20
356.87608
 40
1.6
100
AcDbArc
 50
180.0
 51
270.0
  0
ARC
  5
91
100
AcDbEntity
  8
M1
  6
CONTINUOUS
370
25
100
AcDbCircle
 10
101.643184
 20
356.87608
 40
1.6
100
AcDbArc
 50
270.0
 51
360.0
  0
ARC
  5
92
100
AcDbEntity
  8
M1
  6
CONTINUOUS
370
25
100
AcDbCircle
 10
101.643184
 20
385.67608
 40
1.6
100
AcDbArc
 50
0.0
 51
90.0
  0
ARC
  5
93
100
AcDbEntity
  8
M1
  6
CONTINUOUS
370
25
100
AcDbCircle
 10
72.843184
 20
385.67608
 40
1.6
100
AcDbArc
 50
90.0
 51
180.0
  0
LINE
  5
94
100
AcDbEntity
  8
M1
  6
CONTINUOUS
370
25
100
AcDbLine
 10
94.743184
 20
382.961842
 11
94.743184
 21
361.77608
  0
LINE
  5
95
100
AcDbEntity
  8
M1
  6
CONTINUOUS
370
25
100
AcDbLine
 10
79.743184
 20
382.961842
 11
79.743184
 21
361.77608
  0
LINE
  5
96
100
AcDbEntity
  8
M1
  6
CONTINUOUS
370
25
100
AcDbLine
 10
72.243184
 20
380.77608
 11
79.743184
 21
380.77608
  0
LINE
  5
97
100
AcDbEntity
  8
M1
  6
CONTINUOUS
370
25
100
AcDbLine
 10
72.243184
 20
361.77608
 11
102.243184
 21
361.77608
  0
LINE
  5
98
100
AcDbEntity
  8
M1
  6
CONTINUOUS
370
25
100
AcDbLine
 10
80.343184
 20
383.561842
 11
94.143184
 21
383.561842
  0
LINE
  5
99
100
AcDbEntity
  8
M1
  6
CONTINUOUS
370
25
100
AcDbLine
 10
94.143184
 20
379.030144
 11
80.343184
 21
379.030144
  0
LINE
  5
9A
100
AcDbEntity
  8
M1
  6
CONTINUOUS
370
25
100
AcDbLine
 10
94.743184
 20
380.77608
 11
102.243184
 21
380.77608
  0
LINE
  5
9B
100
AcDbEntity
  8
M1
  6
CONTINUOUS
370
25
100
AcDbLine
 10
79.743184
 20
366.87608
 11
94.743184
 21
366.87608
  0
LINE
  5
9C
100
AcDbEntity
  8
M1
  6
CONTINUOUS
370
25
100
AcDbLine
 10
94.743184
 20
366.27608
 11
79.743184
 21
366.27608
  0
ARC
  5
9D
100
AcDbEntity
  8
M1
  6
CONTINUOUS
370
25
100
AcDbCircle
 10
80.343184
 20
382.961842
 40
0.6
100
AcDbArc
 50
90.0
 51
180.0
  0
ARC
  5
9E
100
AcDbEntity
  8
M1
  6
CONTINUOUS
370
25
100
AcDbCircle
 10
94.143184
 20
382.961842
 40
0.6
100
AcDbArc
 50
0.0
 51
90.0
  0
ARC
  5
9F
100
AcDbEntity
  8
M1
  6
CONTINUOUS
370
25
100
AcDbCircle
 10
80.343184
 20
379.630144
 40
0.6
100
AcDbArc
 50
180.0
 51
270.0
  0
ARC
  5
A0
100
AcDbEntity
  8
M1
  6
CONTINUOUS
370
25
100
AcDbCircle
 10
94.143184
 20
379.630144
 40
0.6
100
AcDbArc
 50
270.0
 51
360.0
  0
CIRCLE
  5
A1
100
AcDbEntity
  8
M1
  6
CONTINUOUS
370
25
100
AcDbCircle
 10
100.243184
 20
410.87608
 40
1.5
  0
CIRCLE
  5
A2
100
AcDbEntity
  8
M1
  6
CONTINUOUS
370
25
100
AcDbCircle
 10
74.243184
 20
410.87608
 40
1.5
  0
LINE
  5
A3
100
AcDbEntity
  8
M1
  6
CONTINUOUS
370
25
100
AcDbLine
 10
50.243184
 20
415.87608
 11
124.243186
 21
415.87608
  0
LINE
  5
A4
100
AcDbEntity
  8
M1
  6
CONTINUOUS
370
25
100
AcDbLine
 10
125.243186
 20
414.87608
 11
125.243186
 21
356.27608
  0
LINE
  5
A5
100
AcDbEntity
  8
M1
  6
CONTINUOUS
370
25
100
AcDbLine
 10
49.243184
 20
414.87608
 11
49.243184
 21
356.27608
  0
LINE
  5
A6
100
AcDbEntity
  8
M1
  6
CONTINUOUS
370
25
100
AcDbLine
 10
104.243184
 20
385.67608
 11
104.243184
 21
356.27608
  0
LINE
  5
A7
100
AcDbEntity
  8
M1
  6
CONTINUOUS
370
25
100
AcDbLine
 10
70.243184
 20
356.27608
 11
70.243184
 21
385.67608
  0
LINE
  5
A8
100
AcDbEntity
  8
M1
  6
CONTINUOUS
370
25
100
AcDbLine
 10
72.843184
 20
388.27608
 11
101.643184
 21
388.27608
  0
ARC
  5
A9
100
AcDbEntity
  8
M1
  6
CONTINUOUS
370
25
100
AcDbCircle
 10
124.243186
 20
414.87608
 40
1.0
100
AcDbArc
 50
0.0
 51
90.0
  0
ARC
  5
AA
100
AcDbEntity
  8
M1
  6
CONTINUOUS
370
25
100
AcDbCircle
 10
50.243184
 20
414.87608
 40
1.0
100
AcDbArc
 50
90.0
 51
180.0
  0
LINE
  5
AB
100
AcDbEntity
  8
M1
  6
CONTINUOUS
370
25
100
AcDbLine
 10
105.243184
 20
355.27608
 11
124.243186
 21
355.27608
  0
LINE
  5
AC
100
AcDbEntity
  8
M1
  6
CONTINUOUS
370
25
100
AcDbLine
 10
69.243184
 20
355.27608
 11
50.243184
 21
355.27608
  0
ARC
  5
AD
100
AcDbEntity
  8
M1
  6
CONTINUOUS
370
25
100
AcDbCircle
 10
50.243184
 20
356.27608
 40
1.0
100
AcDbArc
 50
180.0
 51
270.0
  0
ARC
  5
AE
100
AcDbEntity
  8
M1
  6
CONTINUOUS
370
25
100
AcDbCircle
 10
69.243184
 20
356.27608
 40
1.0
100
AcDbArc
 50
270.0
 51
360.0
  0
ARC
  5
AF
100
AcDbEntity
  8
M1
  6
CONTINUOUS
370
25
100
AcDbCircle
 10
105.243184
 20
356.27608
 40
1.0
100
AcDbArc
 50
180.0
 51
270.0
  0
ARC
  5
B0
100
AcDbEntity
  8
M1
  6
CONTINUOUS
370
25
100
AcDbCircle
 10
124.243186
 20
356.27608
 40
1.0
100
AcDbArc
 50
270.0
 51
360.0
  0
ARC
  5
B1
100
AcDbEntity
  8
M1
  6
CONTINUOUS
370
25
100
AcDbCircle
 10
101.643184
 20
385.67608
 40
2.6
100
AcDbArc
 50
0.0
 51
90.0
  0
ARC
  5
B2
100
AcDbEntity
  8
M1
  6
CONTINUOUS
370
25
100
AcDbCircle
 10
72.843184
 20
385.67608
 40
2.6
100
AcDbArc
 50
90.0
 51
180.0
  0
LINE
  5
B3
100
AcDbEntity
  8
M1
  6
CONTINUOUS
370
25
100
AcDbLine
 10
56.243184
 20
351.87608
 11
56.243184
 21
340.87608
  0
LINE
  5
B4
100
AcDbEntity
  8
M1
  6
CONTINUOUS
370
25
100
AcDbLine
 10
118.243186
 20
351.87608
 11
118.243186
 21
340.87608
  0
LINE
  5
B5
100
AcDbEntity
  8
M1
  6
CONTINUOUS
370
25
100
AcDbLine
 10
118.243186
 20
351.87608
 11
56.243184
 21
351.87608
  0
LINE
  5
B6
100
AcDbEntity
  8
M1
  6
CONTINUOUS
370
25
100
AcDbLine
 10
56.243184
 20
340.87608
 11
118.243186
 21
340.87608
  0
LINE
  5
B7
100
AcDbEntity
  8
M1
  6
CONTINUOUS
370
25
100
AcDbLine
 10
125.243186
 20
425.87608
 11
125.243186
 21
423.87608
  0
LINE
  5
B8
100
AcDbEntity
  8
M1
  6
CONTINUOUS
370
25
100
AcDbLine
 10
125.243186
 20
423.87608
 11
126.243186
 21
423.87608
  0
LINE
  5
B9
100
AcDbEntity
  8
M1
  6
CONTINUOUS
370
25
100
AcDbLine
 10
125.243186
 20
313.876078
 11
125.243186
 21
315.876078
  0
LINE
  5
BA
100
AcDbEntity
  8
M1
  6
CONTINUOUS
370
25
100
AcDbLine
 10
125.243186
 20
315.876078
 11
126.243186
 21
315.876078
  0
LINE
  5
BB
100
AcDbEntity
  8
M1
  6
CONTINUOUS
370
25
100
AcDbLine
 10
49.243184
 20
425.87608
 11
49.243184
 21
423.87608
  0
LINE
  5
BC
100
AcDbEntity
  8
M1
  6
CONTINUOUS
370
25
100
AcDbLine
 10
49.243184
 20
423.87608
 11
48.243184
 21
423.87608
  0
LINE
  5
BD
100
AcDbEntity
  8
M1
  6
CONTINUOUS
370
25
100
AcDbLine
 10
49.243184
 20
313.876078
 11
49.243184
 21
315.876078
  0
LINE
  5
BE
100
AcDbEntity
  8
M1
  6
CONTINUOUS
370
25
100
AcDbLine
 10
49.243184
 20
315.876078
 11
48.243184
 21
315.876078
  0
CIRCLE
  5
BF
100
AcDbEntity
  8
M1
  6
CONTINUOUS
370
25
100
AcDbCircle
 10
100.243184
 20
319.87608
 40
2.0
  0
LINE
  5
C0
100
AcDbEntity
  8
M1
  6
DASHDOT
370
13
100
AcDbLine
 10
95.576518
 20
319.87608
 11
104.909852
 21
319.87608
  0
LINE
  5
C1
100
AcDbEntity
  8
M1
  6
DASHDOT
370
13
100
AcDbLine
 10
100.243184
 20
315.209412
 11
100.243184
 21
324.542746
  0
CIRCLE
  5
C2
100
AcDbEntity
  8
M1
  6
CONTINUOUS
370
25
100
AcDbCircle
 10
74.243184
 20
319.87608
 40
2.0
  0
LINE
  5
C3
100
AcDbEntity
  8
M1
  6
DASHDOT
370
13
100
AcDbLine
 10
69.576518
 20
319.87608
 11
78.909852
 21
319.87608
  0
LINE
  5
C4
100
AcDbEntity
  8
M1
  6
DASHDOT
370
13
100
AcDbLine
 10
74.243184
 20
315.209412
 11
74.243184
 21
324.542746
  0
CIRCLE
  5
C5
100
AcDbEntity
  8
M1
  6
CONTINUOUS
370
25
100
AcDbCircle
 10
74.243184
 20
419.87608
 40
2.0
  0
LINE
  5
C6
100
AcDbEntity
  8
M1
  6
DASHDOT
370
13
100
AcDbLine
 10
69.576518
 20
419.87608
 11
78.909852
 21
419.87608
  0
LINE
  5
C7
100
AcDbEntity
  8
M1
  6
DASHDOT
370
13
100
AcDbLine
 10
74.243184
 20
415.209414
 11
74.243184
 21
424.542748
  0
CIRCLE
  5
C8
100
AcDbEntity
  8
M1
  6
CONTINUOUS
370
25
100
AcDbCircle
 10
100.243184
 20
419.87608
 40
2.0
  0
LINE
  5
C9
100
AcDbEntity
  8
M1
  6
DASHDOT
370
13
100
AcDbLine
 10
95.576518
 20
419.87608
 11
104.909852
 21
419.87608
  0
LINE
  5
CA
100
AcDbEntity
  8
M1
  6
DASHDOT
370
13
100
AcDbLine
 10
100.243184
 20
415.209414
 11
100.243184
 21
424.542748
  0
LINE
  5
CB
100
AcDbEntity
  8
M1
  6
CONTINUOUS
370
25
100
AcDbLine
 10
126.243186
 20
315.876078
 11
126.243186
 21
423.87608
  0
LINE
  5
CC
100
AcDbEntity
  8
M1
  6
CONTINUOUS
370
25
100
AcDbLine
 10
125.243186
 20
425.87608
 11
101.243184
 21
425.87608
  0
LINE
  5
CD
100
AcDbEntity
  8
M1
  6
CONTINUOUS
370
25
100
AcDbLine
 10
48.243184
 20
423.87608
 11
48.243184
 21
315.876078
  0
LINE
  5
CE
100
AcDbEntity
  8
M1
  6
CONTINUOUS
370
25
100
AcDbLine
 10
49.243184
 20
313.876078
 11
73.243184
 21
313.876078
  0
LINE
  5
CF
100
AcDbEntity
  8
M1
  6
DASHDOT
370
13
100
AcDbLine
 10
43.243184
 20
371.27608
 11
131.243186
 21
371.27608
  0
LINE
  5
D0
100
AcDbEntity
  8
M1
  6
DASHDOT
370
13
100
AcDbLine
 10
87.243184
 20
308.876078
 11
87.243184
 21
430.87608
  0
LINE
  5
D1
100
AcDbEntity
  8
M1
  6
DASHDOT
370
13
100
AcDbLine
 10
113.243186
 20
430.87608
 11
113.243186
 21
308.876078
  0
LINE
  5
D2
100
AcDbEntity
  8
M1
  6
DASHDOT
370
13
100
AcDbLine
 10
61.243184
 20
430.87608
 11
61.243184
 21
308.876078
  0
LINE
  5
D3
100
AcDbEntity
  8
M1
  6
CONTINUOUS
370
25
100
AcDbLine
 10
99.243184
 20
425.87608
 11
75.243184
 21
425.87608
  0
LINE
  5
D4
100
AcDbEntity
  8
M1
  6
CONTINUOUS
370
25
100
AcDbLine
 10
73.243184
 20
425.87608
 11
49.243184
 21
425.87608
  0
LINE
  5
D5
100
AcDbEntity
  8
M1
  6
CONTINUOUS
370
25
100
AcDbLine
 10
75.243184
 20
313.876078
 11
99.243184
 21
313.876078
  0
LINE
  5
D6
100
AcDbEntity
  8
M1
  6
CONTINUOUS
370
25
100
AcDbLine
 10
101.243184
 20
313.876078
 11
125.243186
 21
313.876078
  0
CIRCLE
  5
D7
100
AcDbEntity
  8
M1
  6
CONTINUOUS
370
25
100
AcDbCircle
 10
74.243184
 20
410.87608
 40
1.05
  0
LINE
  5
D8
100
AcDbEntity
  8
M1
  6
CONTINUOUS
370
25
100
AcDbLine
 10
74.412902
 20
410.876066
 11
75.065646
 21
411.528808
  0
LINE
  5
D9
100
AcDbEntity
  8
M1
  6
CONTINUOUS
370
25
100
AcDbLine
 10
73.590456
 20
410.053618
 11
74.243198
 21
410.70636
  0
LINE
  5
DA
100
AcDbEntity
  8
M1
  6
CONTINUOUS
370
25
100
AcDbLine
 10
74.0735
 20
410.876056
 11
73.420754
 21
410.22331
  0
LINE
  5
DB
100
AcDbEntity
  8
M1
  6
CONTINUOUS
370
25
100
AcDbLine
 10
74.89595
 20
411.69851
 11
74.243206
 21
411.045762
  0
LINE
  5
DC
100
AcDbEntity
  8
M1
  6
CONTINUOUS
370
25
100
AcDbLine
 10
74.243204
 20
411.045764
 11
73.88965
 21
411.399318
  0
LINE
  5
DD
100
AcDbEntity
  8
M1
  6
CONTINUOUS
370
25
100
AcDbLine
 10
74.766456
 20
410.522512
 11
74.412902
 21
410.876066
  0
LINE
  5
DE
100
AcDbEntity
  8
M1
  6
CONTINUOUS
370
25
100
AcDbLine
 10
74.243198
 20
410.70636
 11
74.59675
 21
410.352806
  0
LINE
  5
DF
100
AcDbEntity
  8
M1
  6
CONTINUOUS
370
25
100
AcDbLine
 10
73.719946
 20
411.229612
 11
74.073498
 21
410.876058
  0
LINE
  5
E0
100
AcDbEntity
  8
M1
  6
CONTINUOUS
370
25
100
AcDbLine
 10
74.59675
 20
410.352806
 11
74.766456
 21
410.522512
  0
LINE
  5
E1
100
AcDbEntity
  8
M1
  6
CONTINUOUS
370
25
100
AcDbLine
 10
73.88965
 20
411.399318
 11
73.719946
 21
411.229612
  0
CIRCLE
  5
E2
100
AcDbEntity
  8
M1
  6
CONTINUOUS
370
25
100
AcDbCircle
 10
74.243184
 20
410.87608
 40
1.15
  0
LINE
  5
E3
100
AcDbEntity
  8
M1
  6
DASHDOT
370
13
100
AcDbLine
 10
72.5721
 20
410.87608
 11
75.914268
 21
410.87608
  0
LINE
  5
E4
100
AcDbEntity
  8
M1
  6
DASHDOT
370
13
100
AcDbLine
 10
74.243184
 20
409.204996
 11
74.243184
 21
412.547164
  0
CIRCLE
  5
E5
100
AcDbEntity
  8
M1
  6
CONTINUOUS
370
25
100
AcDbCircle
 10
74.243184
 20
328.87608
 40
1.05
  0
LINE
  5
E6
100
AcDbEntity
  8
M1
  6
CONTINUOUS
370
25
100
AcDbLine
 10
74.412902
 20
328.876064
 11
75.065646
 21
329.528806
  0
LINE
  5
E7
100
AcDbEntity
  8
M1
  6
CONTINUOUS
370
25
100
AcDbLine
 10
73.590456
 20
328.053616
 11
74.243198
 21
328.706358
  0
LINE
  5
E8
100
AcDbEntity
  8
M1
  6
CONTINUOUS
370
25
100
AcDbLine
 10
74.0735
 20
328.876056
 11
73.420754
 21
328.223308
  0
LINE
  5
E9
100
AcDbEntity
  8
M1
  6
CONTINUOUS
370
25
100
AcDbLine
 10
74.89595
 20
329.69851
 11
74.243206
 21
329.04576
  0
LINE
  5
EA
100
AcDbEntity
  8
M1
  6
CONTINUOUS
370
25
100
AcDbLine
 10
74.243204
 20
329.045762
 11
73.88965
 21
329.399316
  0
LINE
  5
EB
100
AcDbEntity
  8
M1
  6
CONTINUOUS
370
25
100
AcDbLine
 10
74.766456
 20
328.52251
 11
74.412902
 21
328.876064
  0
LINE
  5
EC
100
AcDbEntity
  8
M1
  6
CONTINUOUS
370
25
100
AcDbLine
 10
74.243198
 20
328.706358
 11
74.59675
 21
328.352806
  0
LINE
  5
ED
100
AcDbEntity
  8
M1
  6
CONTINUOUS
370
25
100
AcDbLine
 10
73.719946
 20
329.229612
 11
74.073498
 21
328.876058
  0
LINE
  5
EE
100
AcDbEntity
  8
M1
  6
CONTINUOUS
370
25
100
AcDbLine
 10
74.59675
 20
328.352806
 11
74.766456
 21
328.52251
  0
LINE
  5
EF
100
AcDbEntity
  8
M1
  6
CONTINUOUS
370
25
100
AcDbLine
 10
73.88965
 20
329.399316
 11
73.719946
 21
329.229612
  0
CIRCLE
  5
F0
100
AcDbEntity
  8
M1
  6
CONTINUOUS
370
25
100
AcDbCircle
 10
74.243184
 20
328.87608
 40
1.15
  0
LINE
  5
F1
100
AcDbEntity
  8
M1
  6
DASHDOT
370
13
100
AcDbLine
 10
72.5721
 20
328.87608
 11
75.914268
 21
328.87608
  0
LINE
  5
F2
100
AcDbEntity
  8
M1
  6
DASHDOT
370
13
100
AcDbLine
 10
74.243184
 20
327.204996
 11
74.243184
 21
330.547164
  0
CIRCLE
  5
F3
100
AcDbEntity
  8
M1
  6
CONTINUOUS
370
25
100
AcDbCircle
 10
49.743184
 20
319.87608
 40
1.05
  0
LINE
  5
F4
100
AcDbEntity
  8
M1
  6
CONTINUOUS
370
25
100
AcDbLine
 10
49.912902
 20
319.876064
 11
50.565644
 21
320.528806
  0
LINE
  5
F5
100
AcDbEntity
  8
M1
  6
CONTINUOUS
370
25
100
AcDbLine
 10
49.090454
 20
319.053616
 11
49.743198
 21
319.706358
  0
LINE
  5
F6
100
AcDbEntity
  8
M1
  6
CONTINUOUS
370
25
100
AcDbLine
 10
49.5735
 20
319.876056
 11
48.920754
 21
319.223308
  0
LINE
  5
F7
100
AcDbEntity
  8
M1
  6
CONTINUOUS
370
25
100
AcDbLine
 10
50.39595
 20
320.69851
 11
49.743206
 21
320.04576
  0
LINE
  5
F8
100
AcDbEntity
  8
M1
  6
CONTINUOUS
370
25
100
AcDbLine
 10
49.743204
 20
320.045762
 11
49.38965
 21
320.399316
  0
LINE
  5
F9
100
AcDbEntity
  8
M1
  6
CONTINUOUS
370
25
100
AcDbLine
 10
50.266456
 20
319.52251
 11
49.912902
 21
319.876064
  0
LINE
  5
FA
100
AcDbEntity
  8
M1
  6
CONTINUOUS
370
25
100
AcDbLine
 10
49.743198
 20
319.706358
 11
50.09675
 21
319.352806
  0
LINE
  5
FB
100
AcDbEntity
  8
M1
  6
CONTINUOUS
370
25
100
AcDbLine
 10
49.219944
 20
320.22961
 11
49.573498
 21
319.876058
  0
LINE
  5
FC
100
AcDbEntity
  8
M1
  6
CONTINUOUS
370
25
100
AcDbLine
 10
50.09675
 20
319.352806
 11
50.266456
 21
319.52251
  0
LINE
  5
FD
100
AcDbEntity
  8
M1
  6
CONTINUOUS
370
25
100
AcDbLine
 10
49.38965
 20
320.399316
 11
49.219944
 21
320.22961
  0
CIRCLE
  5
FE
100
AcDbEntity
  8
M1
  6
CONTINUOUS
370
25
100
AcDbCircle
 10
49.743184
 20
319.87608
 40
1.15
  0
LINE
  5
FF
100
AcDbEntity
  8
M1
  6
DASHDOT
370
13
100
AcDbLine
 10
48.0721
 20
319.87608
 11
51.414268
 21
319.876078
  0
LINE
  5
100
100
AcDbEntity
  8
M1
  6
DASHDOT
370
13
100
AcDbLine
 10
49.743184
 20
318.204996
 11
49.743184
 21
321.547162
  0
CIRCLE
  5
101
100
AcDbEntity
  8
M1
  6
CONTINUOUS
370
25
100
AcDbCircle
 10
124.743186
 20
319.87608
 40
1.05
  0
LINE
  5
102
100
AcDbEntity
  8
M1
  6
CONTINUOUS
370
25
100
AcDbLine
 10
124.912904
 20
319.876064
 11
125.565646
 21
320.528806
  0
LINE
  5
103
100
AcDbEntity
  8
M1
  6
CONTINUOUS
370
25
100
AcDbLine
 10
124.090456
 20
319.053616
 11
124.743198
 21
319.706358
  0
LINE
  5
104
100
AcDbEntity
  8
M1
  6
CONTINUOUS
370
25
100
AcDbLine
 10
124.573502
 20
319.876056
 11
123.920754
 21
319.223308
  0
LINE
  5
105
100
AcDbEntity
  8
M1
  6
CONTINUOUS
370
25
100
AcDbLine
 10
125.395952
 20
320.69851
 11
124.743206
 21
320.04576
  0
LINE
  5
106
100
AcDbEntity
  8
M1
  6
CONTINUOUS
370
25
100
AcDbLine
 10
124.743204
 20
320.045762
 11
124.389652
 21
320.399316
  0
LINE
  5
107
100
AcDbEntity
  8
M1
  6
CONTINUOUS
370
25
100
AcDbLine
 10
125.266456
 20
319.52251
 11
124.912904
 21
319.876064
  0
LINE
  5
108
100
AcDbEntity
  8
M1
  6
CONTINUOUS
370
25
100
AcDbLine
 10
124.743198
 20
319.706358
 11
125.096752
 21
319.352806
  0
LINE
  5
109
100
AcDbEntity
  8
M1
  6
CONTINUOUS
370
25
100
AcDbLine
 10
124.219946
 20
320.22961
 11
124.5735
 21
319.876058
  0
LINE
  5
10A
100
AcDbEntity
  8
M1
  6
CONTINUOUS
370
25
100
AcDbLine
 10
125.096752
 20
319.352806
 11
125.266456
 21
319.52251
  0
LINE
  5
10B
100
AcDbEntity
  8
M1
  6
CONTINUOUS
370
25
100
AcDbLine
 10
124.389652
 20
320.399316
 11
124.219946
 21
320.22961
  0
CIRCLE
  5
10C
100
AcDbEntity
  8
M1
  6
CONTINUOUS
370
25
100
AcDbCircle
 10
124.743186
 20
319.87608
 40
1.15
  0
LINE
  5
10D
100
AcDbEntity
  8
M1
  6
DASHDOT
370
13
100
AcDbLine
 10
123.072102
 20
319.87608
 11
126.41427
 21
319.876078
  0
LINE
  5
10E
100
AcDbEntity
  8
M1
  6
DASHDOT
370
13
100
AcDbLine
 10
124.743186
 20
318.204996
 11
124.743186
 21
321.547162
  0
CIRCLE
  5
10F
100
AcDbEntity
  8
M1
  6
CONTINUOUS
370
25
100
AcDbCircle
 10
49.743184
 20
419.87608
 40
1.05
  0
LINE
  5
110
100
AcDbEntity
  8
M1
  6
CONTINUOUS
370
25
100
AcDbLine
 10
49.912902
 20
419.876066
 11
50.565644
 21
420.528808
  0
LINE
  5
111
100
AcDbEntity
  8
M1
  6
CONTINUOUS
370
25
100
AcDbLine
 10
49.090454
 20
419.053618
 11
49.743198
 21
419.70636
  0
LINE
  5
112
100
AcDbEntity
  8
M1
  6
CONTINUOUS
370
25
100
AcDbLine
 10
49.5735
 20
419.876056
 11
48.920754
 21
419.22331
  0
LINE
  5
113
100
AcDbEntity
  8
M1
  6
CONTINUOUS
370
25
100
AcDbLine
 10
50.39595
 20
420.69851
 11
49.743206
 21
420.045762
  0
LINE
  5
114
100
AcDbEntity
  8
M1
  6
CONTINUOUS
370
25
100
AcDbLine
 10
49.743204
 20
420.045764
 11
49.38965
 21
420.399318
  0
LINE
  5
115
100
AcDbEntity
  8
M1
  6
CONTINUOUS
370
25
100
AcDbLine
 10
50.266456
 20
419.522512
 11
49.912902
 21
419.876066
  0
LINE
  5
116
100
AcDbEntity
  8
M1
  6
CONTINUOUS
370
25
100
AcDbLine
 10
49.743198
 20
419.70636
 11
50.09675
 21
419.352806
  0
LINE
  5
117
100
AcDbEntity
  8
M1
  6
CONTINUOUS
370
25
100
AcDbLine
 10
49.219944
 20
420.229612
 11
49.573498
 21
419.876058
  0
LINE
  5
118
100
AcDbEntity
  8
M1
  6
CONTINUOUS
370
25
100
AcDbLine
 10
50.09675
 20
419.352806
 11
50.266456
 21
419.522512
  0
LINE
  5
119
100
AcDbEntity
  8
M1
  6
CONTINUOUS
370
25
100
AcDbLine
 10
49.38965
 20
420.399318
 11
49.219944
 21
420.229612
  0
CIRCLE
  5
11A
100
AcDbEntity
  8
M1
  6
CONTINUOUS
370
25
100
AcDbCircle
 10
49.743184
 20
419.87608
 40
1.15
  0
LINE
  5
11B
100
AcDbEntity
  8
M1
  6
DASHDOT
370
13
100
AcDbLine
 10
48.0721
 20
419.87608
 11
51.414268
 21
419.87608
  0
LINE
  5
11C
100
AcDbEntity
  8
M1
  6
DASHDOT
370
13
100
AcDbLine
 10
49.743184
 20
418.204996
 11
49.743184
 21
421.547164
  0
CIRCLE
  5
11D
100
AcDbEntity
  8
M1
  6
CONTINUOUS
370
25
100
AcDbCircle
 10
100.243184
 20
328.87608
 40
1.05
  0
LINE
  5
11E
100
AcDbEntity
  8
M1
  6
CONTINUOUS
370
25
100
AcDbLine
 10
100.412904
 20
328.876064
 11
101.065646
 21
329.528806
  0
LINE
  5
11F
100
AcDbEntity
  8
M1
  6
CONTINUOUS
370
25
100
AcDbLine
 10
99.590456
 20
328.053616
 11
100.243198
 21
328.706358
  0
LINE
  5
120
100
AcDbEntity
  8
M1
  6
CONTINUOUS
370
25
100
AcDbLine
 10
100.073502
 20
328.876056
 11
99.420754
 21
328.223308
  0
LINE
  5
121
100
AcDbEntity
  8
M1
  6
CONTINUOUS
370
25
100
AcDbLine
 10
100.89595
 20
329.69851
 11
100.243206
 21
329.04576
  0
LINE
  5
122
100
AcDbEntity
  8
M1
  6
CONTINUOUS
370
25
100
AcDbLine
 10
100.243204
 20
329.045762
 11
99.88965
 21
329.399316
  0
LINE
  5
123
100
AcDbEntity
  8
M1
  6
CONTINUOUS
370
25
100
AcDbLine
 10
100.766456
 20
328.52251
 11
100.412904
 21
328.876064
  0
LINE
  5
124
100
AcDbEntity
  8
M1
  6
CONTINUOUS
370
25
100
AcDbLine
 10
100.243198
 20
328.706358
 11
100.596752
 21
328.352806
  0
LINE
  5
125
100
AcDbEntity
  8
M1
  6
CONTINUOUS
370
25
100
AcDbLine
 10
99.719946
 20
329.229612
 11
100.0735
 21
328.876058
  0
LINE
  5
126
100
AcDbEntity
  8
M1
  6
CONTINUOUS
370
25
100
AcDbLine
 10
100.596752
 20
328.352806
 11
100.766456
 21
328.52251
  0
LINE
  5
127
100
AcDbEntity
  8
M1
  6
CONTINUOUS
370
25
100
AcDbLine
 10
99.88965
 20
329.399316
 11
99.719946
 21
329.229612
  0
CIRCLE
  5
128
100
AcDbEntity
  8
M1
  6
CONTINUOUS
370
25
100
AcDbCircle
 10
100.243184
 20
328.87608
 40
1.15
  0
LINE
  5
129
100
AcDbEntity
  8
M1
  6
DASHDOT
370
13
100
AcDbLine
 10
98.572102
 20
328.87608
 11
101.914268
 21
328.87608
  0
LINE
  5
12A
100
AcDbEntity
  8
M1
  6
DASHDOT
370
13
100
AcDbLine
 10
100.243184
 20
327.204996
 11
100.243184
 21
330.547164
  0
CIRCLE
  5
12B
100
AcDbEntity
  8
M1
  6
CONTINUOUS
370
25
100
AcDbCircle
 10
124.743186
 20
419.87608
 40
1.05
  0
LINE
  5
12C
100
AcDbEntity
  8
M1
  6
CONTINUOUS
370
25
100
AcDbLine
 10
124.912904
 20
419.876066
 11
125.565646
 21
420.528808
  0
LINE
  5
12D
100
AcDbEntity
  8
M1
  6
CONTINUOUS
370
25
100
AcDbLine
 10
124.090456
 20
419.053618
 11
124.743198
 21
419.70636
  0
LINE
  5
12E
100
AcDbEntity
  8
M1
  6
CONTINUOUS
370
25
100
AcDbLine
 10
124.573502
 20
419.876056
 11
123.920754
 21
419.22331
  0
LINE
  5
12F
100
AcDbEntity
  8
M1
  6
CONTINUOUS
370
25
100
AcDbLine
 10
125.395952
 20
420.69851
 11
124.743206
 21
420.045762
  0
LINE
  5
130
100
AcDbEntity
  8
M1
  6
CONTINUOUS
370
25
100
AcDbLine
 10
124.743204
 20
420.045764
 11
124.389652
 21
420.399318
  0
LINE
  5
131
100
AcDbEntity
  8
M1
  6
CONTINUOUS
370
25
100
AcDbLine
 10
125.266456
 20
419.522512
 11
124.912904
 21
419.876066
  0
LINE
  5
132
100
AcDbEntity
  8
M1
  6
CONTINUOUS
370
25
100
AcDbLine
 10
124.743198
 20
419.70636
 11
125.096752
 21
419.352806
  0
LINE
  5
133
100
AcDbEntity
  8
M1
  6
CONTINUOUS
370
25
100
AcDbLine
 10
124.219946
 20
420.229612
 11
124.5735
 21
419.876058
  0
LINE
  5
134
100
AcDbEntity
  8
M1
  6
CONTINUOUS
370
25
100
AcDbLine
 10
125.096752
 20
419.352806
 11
125.266456
 21
419.522512
  0
LINE
  5
135
100
AcDbEntity
  8
M1
  6
CONTINUOUS
370
25
100
AcDbLine
 10
124.389652
 20
420.399318
 11
124.219946
 21
420.229612
  0
CIRCLE
  5
136
100
AcDbEntity
  8
M1
  6
CONTINUOUS
370
25
100
AcDbCircle
 10
124.743186
 20
419.87608
 40
1.15
  0
LINE
  5
137
100
AcDbEntity
  8
M1
  6
DASHDOT
370
13
100
AcDbLine
 10
123.072102
 20
419.87608
 11
126.41427
 21
419.87608
  0
LINE
  5
138
100
AcDbEntity
  8
M1
  6
DASHDOT
370
13
100
AcDbLine
 10
124.743186
 20
418.204996
 11
124.743186
 21
421.547164
  0
CIRCLE
  5
139
100
AcDbEntity
  8
M1
  6
CONTINUOUS
370
25
100
AcDbCircle
 10
100.243184
 20
410.87608
 40
1.05
  0
LINE
  5
13A
100
AcDbEntity
  8
M1
  6
CONTINUOUS
370
25
100
AcDbLine
 10
100.412904
 20
410.876066
 11
101.065646
 21
411.528808
  0
LINE
  5
13B
100
AcDbEntity
  8
M1
  6
CONTINUOUS
370
25
100
AcDbLine
 10
99.590456
 20
410.053618
 11
100.243198
 21
410.70636
  0
LINE
  5
13C
100
AcDbEntity
  8
M1
  6
CONTINUOUS
370
25
100
AcDbLine
 10
100.073502
 20
410.876056
 11
99.420754
 21
410.22331
  0
LINE
  5
13D
100
AcDbEntity
  8
M1
  6
CONTINUOUS
370
25
100
AcDbLine
 10
100.89595
 20
411.69851
 11
100.243206
 21
411.045762
  0
LINE
  5
13E
100
AcDbEntity
  8
M1
  6
CONTINUOUS
370
25
100
AcDbLine
 10
100.243204
 20
411.045764
 11
99.88965
 21
411.399318
  0
LINE
  5
13F
100
AcDbEntity
  8
M1
  6
CONTINUOUS
370
25
100
AcDbLine
 10
100.766456
 20
410.522512
 11
100.412904
 21
410.876066
  0
LINE
  5
140
100
AcDbEntity
  8
M1
  6
CONTINUOUS
370
25
100
AcDbLine
 10
100.243198
 20
410.70636
 11
100.596752
 21
410.352806
  0
LINE
  5
141
100
AcDbEntity
  8
M1
  6
CONTINUOUS
370
25
100
AcDbLine
 10
99.719946
 20
411.229612
 11
100.0735
 21
410.876058
  0
LINE
  5
142
100
AcDbEntity
  8
M1
  6
CONTINUOUS
370
25
100
AcDbLine
 10
100.596752
 20
410.352806
 11
100.766456
 21
410.522512
  0
LINE
  5
143
100
AcDbEntity
  8
M1
  6
CONTINUOUS
370
25
100
AcDbLine
 10
99.88965
 20
411.399318
 11
99.719946
 21
411.229612
  0
CIRCLE
  5
144
100
AcDbEntity
  8
M1
  6
CONTINUOUS
370
25
100
AcDbCircle
 10
100.243184
 20
410.87608
 40
1.15
  0
LINE
  5
145
100
AcDbEntity
  8
M1
  6
DASHDOT
370
13
100
AcDbLine
 10
98.572102
 20
410.87608
 11
101.914268
 21
410.87608
  0
LINE
  5
146
100
AcDbEntity
  8
M1
  6
DASHDOT
370
13
100
AcDbLine
 10
100.243184
 20
409.204996
 11
100.243184
 21
412.547164
  0
LINE
  5
147
100
AcDbEntity
  8
M1
  6
DASHDOT
370
13
100
AcDbLine
 10
117.243186
 20
378.99146
 11
117.243186
 21
410.384582
  0
LINE
  5
148
100
AcDbEntity
  8
M1
  6
DASHDOT
370
13
100
AcDbLine
 10
57.243184
 20
378.99146
 11
57.243184
 21
410.384582
  0
LINE
  5
149
100
AcDbEntity
  8
M1
  6
DASHDOT
370
13
100
AcDbLine
 10
117.243186
 20
313.99146
 11
117.243186
 21
345.38458
  0
LINE
  5
14A
100
AcDbEntity
  8
M1
  6
DASHDOT
370
13
100
AcDbLine
 10
57.243184
 20
313.99146
 11
57.243184
 21
345.38458
  0
ARC
  5
14B
100
AcDbEntity
  8
M1
  6
CONTINUOUS
370
25
100
AcDbCircle
 10
226.477024
 20
379.167406
 40
0.4
100
AcDbArc
 50
162.0
 51
252.0
  0
ARC
  5
14C
100
AcDbEntity
  8
M1
  6
CONTINUOUS
370
25
100
AcDbCircle
 10
237.959768
 20
386.27608
 40
1.0
100
AcDbArc
 50
90.0
 51
180.0
  0
ARC
  5
14D
100
AcDbEntity
  8
M1
  6
CONTINUOUS
370
13
100
AcDbCircle
 10
257.559768
 20
371.27608
 40
32.4
100
AcDbArc
 50
166.425369
 51
180.0
  0
ARC
  5
14E
100
AcDbEntity
  8
M1
  6
CONTINUOUS
370
25
100
AcDbCircle
 10
227.774894
 20
383.161842
 40
0.4
100
AcDbArc
 50
72.0
 51
162.0
  0
LINE
  5
14F
100
AcDbEntity
  8
M1
  6
DASHDOT
370
13
100
AcDbLine
 10
257.559768
 20
371.27608
 11
225.392316
 21
363.255834
  0
LINE
  5
150
100
AcDbEntity
  8
M1
  6
DASHDOT
370
13
100
AcDbLine
 10
257.559768
 20
371.27608
 11
225.633996
 21
360.902768
  0
ARC
  5
151
100
AcDbEntity
  8
M1
  6
CONTINUOUS
370
25
100
AcDbCircle
 10
237.959768
 20
356.27608
 40
1.0
100
AcDbArc
 50
180.0
 51
270.0
  0
LINE
  5
152
100
AcDbEntity
  8
M1
  6
DASHDOT
370
13
100
AcDbLine
 10
257.559768
 20
371.27608
 11
224.170732
 21
373.025926
  0
LINE
  5
153
100
AcDbEntity
  8
M1
  6
CONTINUOUS
370
25
100
AcDbLine
 10
236.959768
 20
386.27608
 11
236.959768
 21
356.27608
  0
LINE
  5
154
100
AcDbEntity
  8
M1
  6
DASHDOT
370
13
100
AcDbLine
 10
257.559768
 20
381.598706
 11
257.559768
 21
358.971338
  0
LINE
  5
155
100
AcDbEntity
  8
M1
  6
CONTINUOUS
370
25
100
AcDbLine
 10
241.159768
 20
387.27608
 11
237.959768
 21
387.27608
  0
LINE
  5
156
100
AcDbEntity
  8
M1
  6
CONTINUOUS
370
25
100
AcDbLine
 10
241.159768
 20
355.27608
 11
237.959768
 21
355.27608
  0
LINE
  5
157
100
AcDbEntity
  8
M1
  6
CONTINUOUS
370
25
100
AcDbLine
 10
227.898502
 20
383.542266
 11
236.959768
 21
380.598082
  0
LINE
  5
158
100
AcDbEntity
  8
M1
  6
CONTINUOUS
370
25
100
AcDbLine
 10
226.0966
 20
379.291012
 11
227.394472
 21
383.28545
  0
LINE
  5
159
100
AcDbEntity
  8
M1
  6
DASHDOT
370
13
100
AcDbLine
 10
257.559768
 20
371.27608
 11
225.633996
 21
381.649392
  0
LINE
  5
15A
100
AcDbEntity
  8
M1
  6
CONTINUOUS
370
25
100
AcDbLine
 10
226.353416
 20
378.786982
 11
236.959768
 21
375.34077
  0
LINE
  5
15B
100
AcDbEntity
  8
M1
  6
CONTINUOUS
370
25
100
AcDbLine
 10
260.159768
 20
425.87608
 11
260.159768
 21
313.876078
  0
LINE
  5
15C
100
AcDbEntity
  8
M1
  6
DASHDOT
370
13
100
AcDbLine
 10
219.512196
 20
371.27608
 11
294.826436
 21
371.27608
  0
LINE
  5
15D
100
AcDbEntity
  8
M1
  6
CONTINUOUS
370
25
100
AcDbLine
 10
288.159768
 20
315.876078
 11
241.159768
 21
315.876078
  0
LINE
  5
15E
100
AcDbEntity
  8
M1
  6
CONTINUOUS
370
25
100
AcDbLine
 10
288.159768
 20
423.87608
 11
241.159768
 21
423.87608
  0
LINE
  5
15F
100
AcDbEntity
  8
M1
  6
CONTINUOUS
370
25
100
AcDbLine
 10
288.159768
 20
425.87608
 11
241.159768
 21
425.87608
  0
LINE
  5
160
100
AcDbEntity
  8
M1
  6
CONTINUOUS
370
25
100
AcDbLine
 10
288.159768
 20
313.876078
 11
288.159768
 21
425.87608
  0
LINE
  5
161
100
AcDbEntity
  8
M1
  6
CONTINUOUS
370
25
100
AcDbLine
 10
241.159768
 20
313.876078
 11
288.159768
 21
313.876078
  0
LINE
  5
162
100
AcDbEntity
  8
M1
  6
CONTINUOUS
370
25
100
AcDbLine
 10
241.159768
 20
425.87608
 11
241.159768
 21
313.876078
  0
LINE
  5
163
100
AcDbEntity
  8
M1
  6
DASHDOT
370
13
100
AcDbLine
 10
284.533796
 20
394.87608
 11
337.068344
 21
394.87608
  0
LINE
  5
164
100
AcDbEntity
  8
M1
  6
CONTINUOUS
370
25
100
AcDbLine
 10
334.55977
 20
408.87608
 11
334.55977
 21
380.87608
  0
LINE
  5
165
100
AcDbEntity
  8
M1
  6
CONTINUOUS
370
25
100
AcDbLine
 10
292.159768
 20
408.87608
 11
292.159768
 21
380.87608
  0
LINE
  5
166
100
AcDbEntity
  8
M1
  6
CONTINUOUS
370
25
100
AcDbLine
 10
288.159768
 20
380.87608
 11
334.55977
 21
380.87608
  0
LINE
  5
167
100
AcDbEntity
  8
M1
  6
CONTINUOUS
370
25
100
AcDbLine
 10
288.159768
 20
408.87608
 11
334.55977
 21
408.87608
  0
LINE
  5
168
100
AcDbEntity
  8
M1
  6
CONTINUOUS
370
25
100
AcDbLine
 10
292.979766
 20
390.876076
 11
292.479766
 21
391.16475
  0
LINE
  5
169
100
AcDbEntity
  8
M1
  6
CONTINUOUS
370
25
100
AcDbLine
 10
292.979766
 20
390.587404
 11
292.479766
 21
390.876078
  0
LINE
  5
16A
100
AcDbEntity
  8
M1
  6
CONTINUOUS
370
25
100
AcDbLine
 10
292.479766
 20
389.036078
 11
292.979766
 21
389.036078
  0
LINE
  5
16B
100
AcDbEntity
  8
M1
  6
CONTINUOUS
370
25
100
AcDbLine
 10
292.979766
 20
389.036078
 11
292.979766
 21
392.716078
  0
LINE
  5
16C
100
AcDbEntity
  8
M1
  6
CONTINUOUS
370
25
100
AcDbLine
 10
292.159768
 20
388.676076
 11
292.479766
 21
388.676076
  0
LINE
  5
16D
100
AcDbEntity
  8
M1
  6
CONTINUOUS
370
25
100
AcDbLine
 10
292.479766
 20
388.676076
 11
292.479766
 21
393.076076
  0
LINE
  5
16E
100
AcDbEntity
  8
M1
  6
CONTINUOUS
370
25
100
AcDbLine
 10
292.479766
 20
393.076076
 11
292.159768
 21
393.076076
  0
LINE
  5
16F
100
AcDbEntity
  8
M1
  6
CONTINUOUS
370
25
100
AcDbLine
 10
292.159768
 20
393.076076
 11
292.159768
 21
388.676076
  0
LINE
  5
170
100
AcDbEntity
  8
M1
  6
CONTINUOUS
370
25
100
AcDbLine
 10
292.479766
 20
392.716078
 11
292.479766
 21
389.036078
  0
LINE
  5
171
100
AcDbEntity
  8
M1
  6
CONTINUOUS
370
25
100
AcDbLine
 10
294.979766
 20
389.483918
 11
294.979766
 21
392.268244
  0
LINE
  5
172
100
AcDbEntity
  8
M1
  6
DASHDOT
370
13
100
AcDbLine
 10
295.7061
 20
390.876078
 11
288.379766
 21
390.876078
  0
LINE
  5
173
100
AcDbEntity
  8
M1
  6
CONTINUOUS
370
25
100
AcDbLine
 10
292.979766
 20
392.476076
 11
292.979766
 21
389.276076
  0
LINE
  5
174
100
AcDbEntity
  8
M1
  6
CONTINUOUS
370
25
100
AcDbLine
 10
292.979766
 20
389.276076
 11
294.859768
 21
389.276076
  0
LINE
  5
175
100
AcDbEntity
  8
M1
  6
CONTINUOUS
370
25
100
AcDbLine
 10
294.979766
 20
392.268244
 11
294.859778
 21
392.476076
  0
LINE
  5
176
100
AcDbEntity
  8
M1
  6
CONTINUOUS
370
25
100
AcDbLine
 10
292.979766
 20
392.716078
 11
292.479766
 21
392.716078
  0
LINE
  5
177
100
AcDbEntity
  8
M1
  6
CONTINUOUS
370
25
100
AcDbLine
 10
294.859768
 20
389.276076
 11
294.859768
 21
392.476076
  0
LINE
  5
178
100
AcDbEntity
  8
M1
  6
CONTINUOUS
370
25
100
AcDbLine
 10
294.979766
 20
389.483918
 11
294.859768
 21
389.276076
  0
LINE
  5
179
100
AcDbEntity
  8
M1
  6
CONTINUOUS
370
25
100
AcDbLine
 10
294.859778
 20
392.476076
 11
292.979766
 21
392.476076
  0
CIRCLE
  5
17A
100
AcDbEntity
  8
M1
  6
CONTINUOUS
370
25
100
AcDbCircle
 10
325.75977
 20
403.57608
 40
1.8
  0
LINE
  5
17B
100
AcDbEntity
  8
M1
  6
DASHDOT
370
13
100
AcDbLine
 10
321.293102
 20
403.57608
 11
330.226436
 21
403.57608
  0
LINE
  5
17C
100
AcDbEntity
  8
M1
  6
DASHDOT
370
13
100
AcDbLine
 10
325.75977
 20
399.109414
 11
325.75977
 21
408.042746
  0
CIRCLE
  5
17D
100
AcDbEntity
  8
M1
  6
CONTINUOUS
370
25
100
AcDbCircle
 10
308.359768
 20
403.57608
 40
1.8
  0
LINE
  5
17E
100
AcDbEntity
  8
M1
  6
DASHDOT
370
13
100
AcDbLine
 10
303.893102
 20
403.57608
 11
312.826436
 21
403.57608
  0
LINE
  5
17F
100
AcDbEntity
  8
M1
  6
DASHDOT
370
13
100
AcDbLine
 10
308.359768
 20
399.109414
 11
308.359768
 21
408.042746
  0
LINE
  5
180
100
AcDbEntity
  8
M1
  6
CONTINUOUS
370
25
100
AcDbLine
 10
292.979766
 20
398.876078
 11
292.479766
 21
399.164752
  0
LINE
  5
181
100
AcDbEntity
  8
M1
  6
CONTINUOUS
370
25
100
AcDbLine
 10
292.979766
 20
398.587406
 11
292.479766
 21
398.87608
  0
LINE
  5
182
100
AcDbEntity
  8
M1
  6
CONTINUOUS
370
25
100
AcDbLine
 10
292.479766
 20
397.03608
 11
292.979766
 21
397.03608
  0
LINE
  5
183
100
AcDbEntity
  8
M1
  6
CONTINUOUS
370
25
100
AcDbLine
 10
292.979766
 20
397.03608
 11
292.979766
 21
400.71608
  0
LINE
  5
184
100
AcDbEntity
  8
M1
  6
CONTINUOUS
370
25
100
AcDbLine
 10
292.159768
 20
396.676078
 11
292.479766
 21
396.676078
  0
LINE
  5
185
100
AcDbEntity
  8
M1
  6
CONTINUOUS
370
25
100
AcDbLine
 10
292.479766
 20
396.676078
 11
292.479766
 21
401.076078
  0
LINE
  5
186
100
AcDbEntity
  8
M1
  6
CONTINUOUS
370
25
100
AcDbLine
 10
292.479766
 20
401.076078
 11
292.159768
 21
401.076078
  0
LINE
  5
187
100
AcDbEntity
  8
M1
  6
CONTINUOUS
370
25
100
AcDbLine
 10
292.159768
 20
401.076078
 11
292.159768
 21
396.676078
  0
LINE
  5
188
100
AcDbEntity
  8
M1
  6
CONTINUOUS
370
25
100
AcDbLine
 10
292.479766
 20
400.71608
 11
292.479766
 21
397.03608
  0
LINE
  5
189
100
AcDbEntity
  8
M1
  6
CONTINUOUS
370
25
100
AcDbLine
 10
294.979766
 20
397.48392
 11
294.979766
 21
400.268246
  0
LINE
  5
18A
100
AcDbEntity
  8
M1
  6
DASHDOT
370
13
100
AcDbLine
 10
295.7061
 20
398.87608
 11
288.379766
 21
398.87608
  0
LINE
  5
18B
100
AcDbEntity
  8
M1
  6
CONTINUOUS
370
25
100
AcDbLine
 10
292.979766
 20
400.476078
 11
292.979766
 21
397.276078
  0
LINE
  5
18C
100
AcDbEntity
  8
M1
  6
CONTINUOUS
370
25
100
AcDbLine
 10
292.979766
 20
397.276078
 11
294.859768
 21
397.276078
  0
LINE
  5
18D
100
AcDbEntity
  8
M1
  6
CONTINUOUS
370
25
100
AcDbLine
 10
294.979766
 20
400.268246
 11
294.859778
 21
400.476078
  0
LINE
  5
18E
100
AcDbEntity
  8
M1
  6
CONTINUOUS
370
25
100
AcDbLine
 10
292.979766
 20
400.71608
 11
292.479766
 21
400.71608
  0
LINE
  5
18F
100
AcDbEntity
  8
M1
  6
CONTINUOUS
370
25
100
AcDbLine
 10
294.859768
 20
397.276078
 11
294.859768
 21
400.476078
  0
LINE
  5
190
100
AcDbEntity
  8
M1
  6
CONTINUOUS
370
25
100
AcDbLine
 10
294.979766
 20
397.48392
 11
294.859768
 21
397.276078
  0
LINE
  5
191
100
AcDbEntity
  8
M1
  6
CONTINUOUS
370
25
100
AcDbLine
 10
294.859778
 20
400.476078
 11
292.979766
 21
400.476078
  0
CIRCLE
  5
192
100
AcDbEntity
  8
M1
  6
CONTINUOUS
370
25
100
AcDbCircle
 10
325.75977
 20
386.17608
 40
1.8
  0
LINE
  5
193
100
AcDbEntity
  8
M1
  6
DASHDOT
370
13
100
AcDbLine
 10
321.293102
 20
386.17608
 11
330.226436
 21
386.17608
  0
LINE
  5
194
100
AcDbEntity
  8
M1
  6
DASHDOT
370
13
100
AcDbLine
 10
325.75977
 20
381.709414
 11
325.75977
 21
390.642746
  0
CIRCLE
  5
195
100
AcDbEntity
  8
M1
  6
CONTINUOUS
370
25
100
AcDbCircle
 10
308.359768
 20
386.17608
 40
1.8
  0
LINE
  5
196
100
AcDbEntity
  8
M1
  6
DASHDOT
370
13
100
AcDbLine
 10
303.893102
 20
386.17608
 11
312.826436
 21
386.17608
  0
LINE
  5
197
100
AcDbEntity
  8
M1
  6
DASHDOT
370
13
100
AcDbLine
 10
308.359768
 20
381.709414
 11
308.359768
 21
390.642746
  0
LINE
  5
198
100
AcDbEntity
  8
M1
  6
DASHDOT
370
13
100
AcDbLine
 10
284.533796
 20
329.87608
 11
337.068344
 21
329.87608
  0
LINE
  5
199
100
AcDbEntity
  8
M1
  6
CONTINUOUS
370
25
100
AcDbLine
 10
334.55977
 20
343.87608
 11
334.55977
 21
315.876078
  0
LINE
  5
19A
100
AcDbEntity
  8
M1
  6
CONTINUOUS
370
25
100
AcDbLine
 10
292.159768
 20
343.87608
 11
292.159768
 21
315.876078
  0
LINE
  5
19B
100
AcDbEntity
  8
M1
  6
CONTINUOUS
370
25
100
AcDbLine
 10
288.159768
 20
315.876078
 11
334.55977
 21
315.876078
  0
LINE
  5
19C
100
AcDbEntity
  8
M1
  6
CONTINUOUS
370
25
100
AcDbLine
 10
288.159768
 20
343.87608
 11
334.55977
 21
343.87608
  0
LINE
  5
19D
100
AcDbEntity
  8
M1
  6
CONTINUOUS
370
25
100
AcDbLine
 10
292.979766
 20
325.876074
 11
292.479766
 21
326.16475
  0
LINE
  5
19E
100
AcDbEntity
  8
M1
  6
CONTINUOUS
370
25
100
AcDbLine
 10
292.979766
 20
325.587402
 11
292.479766
 21
325.876078
  0
LINE
  5
19F
100
AcDbEntity
  8
M1
  6
CONTINUOUS
370
25
100
AcDbLine
 10
292.479766
 20
324.036078
 11
292.979766
 21
324.036078
  0
LINE
  5
1A0
100
AcDbEntity
  8
M1
  6
CONTINUOUS
370
25
100
AcDbLine
 10
292.979766
 20
324.036078
 11
292.979766
 21
327.716076
  0
LINE
  5
1A1
100
AcDbEntity
  8
M1
  6
CONTINUOUS
370
25
100
AcDbLine
 10
292.159768
 20
323.676076
 11
292.479766
 21
323.676076
  0
LINE
  5
1A2
100
AcDbEntity
  8
M1
  6
CONTINUOUS
370
25
100
AcDbLine
 10
292.479766
 20
323.676076
 11
292.479766
 21
328.076076
  0
LINE
  5
1A3
100
AcDbEntity
  8
M1
  6
CONTINUOUS
370
25
100
AcDbLine
 10
292.479766
 20
328.076076
 11
292.159768
 21
328.076076
  0
LINE
  5
1A4
100
AcDbEntity
  8
M1
  6
CONTINUOUS
370
25
100
AcDbLine
 10
292.159768
 20
328.076076
 11
292.159768
 21
323.676076
  0
LINE
  5
1A5
100
AcDbEntity
  8
M1
  6
CONTINUOUS
370
25
100
AcDbLine
 10
292.479766
 20
327.716076
 11
292.479766
 21
324.036078
  0
LINE
  5
1A6
100
AcDbEntity
  8
M1
  6
CONTINUOUS
370
25
100
AcDbLine
 10
294.979766
 20
324.483918
 11
294.979766
 21
327.268244
  0
LINE
  5
1A7
100
AcDbEntity
  8
M1
  6
DASHDOT
370
13
100
AcDbLine
 10
295.7061
 20
325.876078
 11
288.379766
 21
325.876078
  0
LINE
  5
1A8
100
AcDbEntity
  8
M1
  6
CONTINUOUS
370
25
100
AcDbLine
 10
292.979766
 20
327.476074
 11
292.979766
 21
324.276074
  0
LINE
  5
1A9
100
AcDbEntity
  8
M1
  6
CONTINUOUS
370
25
100
AcDbLine
 10
292.979766
 20
324.276074
 11
294.859768
 21
324.276074
  0
LINE
  5
1AA
100
AcDbEntity
  8
M1
  6
CONTINUOUS
370
25
100
AcDbLine
 10
294.979766
 20
327.268244
 11
294.859778
 21
327.476074
  0
LINE
  5
1AB
100
AcDbEntity
  8
M1
  6
CONTINUOUS
370
25
100
AcDbLine
 10
292.979766
 20
327.716076
 11
292.479766
 21
327.716076
  0
LINE
  5
1AC
100
AcDbEntity
  8
M1
  6
CONTINUOUS
370
25
100
AcDbLine
 10
294.859768
 20
324.276074
 11
294.859768
 21
327.476074
  0
LINE
  5
1AD
100
AcDbEntity
  8
M1
  6
CONTINUOUS
370
25
100
AcDbLine
 10
294.979766
 20
324.483918
 11
294.859768
 21
324.276074
  0
LINE
  5
1AE
100
AcDbEntity
  8
M1
  6
CONTINUOUS
370
25
100
AcDbLine
 10
294.859778
 20
327.476074
 11
292.979766
 21
327.476074
  0
CIRCLE
  5
1AF
100
AcDbEntity
  8
M1
  6
CONTINUOUS
370
25
100
AcDbCircle
 10
325.75977
 20
338.57608
 40
1.8
  0
LINE
  5
1B0
100
AcDbEntity
  8
M1
  6
DASHDOT
370
13
100
AcDbLine
 10
321.293102
 20
338.57608
 11
330.226436
 21
338.57608
  0
LINE
  5
1B1
100
AcDbEntity
  8
M1
  6
DASHDOT
370
13
100
AcDbLine
 10
325.75977
 20
334.109412
 11
325.75977
 21
343.042746
  0
CIRCLE
  5
1B2
100
AcDbEntity
  8
M1
  6
CONTINUOUS
370
25
100
AcDbCircle
 10
308.359768
 20
338.57608
 40
1.8
  0
LINE
  5
1B3
100
AcDbEntity
  8
M1
  6
DASHDOT
370
13
100
AcDbLine
 10
303.893102
 20
338.57608
 11
312.826436
 21
338.57608
  0
LINE
  5
1B4
100
AcDbEntity
  8
M1
  6
DASHDOT
370
13
100
AcDbLine
 10
308.359768
 20
334.109412
 11
308.359768
 21
343.042746
  0
LINE
  5
1B5
100
AcDbEntity
  8
M1
  6
CONTINUOUS
370
25
100
AcDbLine
 10
292.979766
 20
333.876076
 11
292.479766
 21
334.164752
  0
LINE
  5
1B6
100
AcDbEntity
  8
M1
  6
CONTINUOUS
370
25
100
AcDbLine
 10
292.979766
 20
333.587404
 11
292.479766
 21
333.87608
  0
LINE
  5
1B7
100
AcDbEntity
  8
M1
  6
CONTINUOUS
370
25
100
AcDbLine
 10
292.479766
 20
332.03608
 11
292.979766
 21
332.03608
  0
LINE
  5
1B8
100
AcDbEntity
  8
M1
  6
CONTINUOUS
370
25
100
AcDbLine
 10
292.979766
 20
332.03608
 11
292.979766
 21
335.716078
  0
LINE
  5
1B9
100
AcDbEntity
  8
M1
  6
CONTINUOUS
370
25
100
AcDbLine
 10
292.159768
 20
331.676078
 11
292.479766
 21
331.676078
  0
LINE
  5
1BA
100
AcDbEntity
  8
M1
  6
CONTINUOUS
370
25
100
AcDbLine
 10
292.479766
 20
331.676078
 11
292.479766
 21
336.076078
  0
LINE
  5
1BB
100
AcDbEntity
  8
M1
  6
CONTINUOUS
370
25
100
AcDbLine
 10
292.479766
 20
336.076078
 11
292.159768
 21
336.076078
  0
LINE
  5
1BC
100
AcDbEntity
  8
M1
  6
CONTINUOUS
370
25
100
AcDbLine
 10
292.159768
 20
336.076078
 11
292.159768
 21
331.676078
  0
LINE
  5
1BD
100
AcDbEntity
  8
M1
  6
CONTINUOUS
370
25
100
AcDbLine
 10
292.479766
 20
335.716078
 11
292.479766
 21
332.03608
  0
LINE
  5
1BE
100
AcDbEntity
  8
M1
  6
CONTINUOUS
370
25
100
AcDbLine
 10
294.979766
 20
332.48392
 11
294.979766
 21
335.268246
  0
LINE
  5
1BF
100
AcDbEntity
  8
M1
  6
DASHDOT
370
13
100
AcDbLine
 10
295.7061
 20
333.87608
 11
288.379766
 21
333.87608
  0
LINE
  5
1C0
100
AcDbEntity
  8
M1
  6
CONTINUOUS
370
25
100
AcDbLine
 10
292.979766
 20
335.476076
 11
292.979766
 21
332.276076
  0
LINE
  5
1C1
100
AcDbEntity
  8
M1
  6
CONTINUOUS
370
25
100
AcDbLine
 10
292.979766
 20
332.276076
 11
294.859768
 21
332.276076
  0
LINE
  5
1C2
100
AcDbEntity
  8
M1
  6
CONTINUOUS
370
25
100
AcDbLine
 10
294.979766
 20
335.268246
 11
294.859778
 21
335.476076
  0
LINE
  5
1C3
100
AcDbEntity
  8
M1
  6
CONTINUOUS
370
25
100
AcDbLine
 10
292.979766
 20
335.716078
 11
292.479766
 21
335.716078
  0
LINE
  5
1C4
100
AcDbEntity
  8
M1
  6
CONTINUOUS
370
25
100
AcDbLine
 10
294.859768
 20
332.276076
 11
294.859768
 21
335.476076
  0
LINE
  5
1C5
100
AcDbEntity
  8
M1
  6
CONTINUOUS
370
25
100
AcDbLine
 10
294.979766
 20
332.48392
 11
294.859768
 21
332.276076
  0
LINE
  5
1C6
100
AcDbEntity
  8
M1
  6
CONTINUOUS
370
25
100
AcDbLine
 10
294.859778
 20
335.476076
 11
292.979766
 21
335.476076
  0
CIRCLE
  5
1C7
100
AcDbEntity
  8
M1
  6
CONTINUOUS
370
25
100
AcDbCircle
 10
325.75977
 20
321.17608
 40
1.8
  0
LINE
  5
1C8
100
AcDbEntity
  8
M1
  6
DASHDOT
370
13
100
AcDbLine
 10
321.293102
 20
321.17608
 11
330.226436
 21
321.17608
  0
LINE
  5
1C9
100
AcDbEntity
  8
M1
  6
DASHDOT
370
13
100
AcDbLine
 10
325.75977
 20
316.709412
 11
325.75977
 21
325.642746
  0
CIRCLE
  5
1CA
100
AcDbEntity
  8
M1
  6
CONTINUOUS
370
25
100
AcDbCircle
 10
308.359768
 20
321.17608
 40
1.8
  0
LINE
  5
1CB
100
AcDbEntity
  8
M1
  6
DASHDOT
370
13
100
AcDbLine
 10
303.893102
 20
321.17608
 11
312.826436
 21
321.17608
  0
LINE
  5
1CC
100
AcDbEntity
  8
M1
  6
DASHDOT
370
13
100
AcDbLine
 10
308.359768
 20
316.709412
 11
308.359768
 21
325.642746
  0
CIRCLE
  5
1CD
100
AcDbEntity
  8
M1
  6
CONTINUOUS
370
25
100
AcDbCircle
 10
100.243184
 20
256.364928
 40
1.2
  0
LINE
  5
1CE
100
AcDbEntity
  8
M1
  6
DASHDOT
370
13
100
AcDbLine
 10
96.376518
 20
256.364928
 11
104.109852
 21
256.364928
  0
LINE
  5
1CF
100
AcDbEntity
  8
M1
  6
DASHDOT
370
13
100
AcDbLine
 10
100.243184
 20
252.498262
 11
100.243184
 21
260.231596
  0
CIRCLE
  5
1D0
100
AcDbEntity
  8
M1
  6
CONTINUOUS
370
25
100
AcDbCircle
 10
123.243186
 20
188.364928
 40
1.2
  0
LINE
  5
1D1
100
AcDbEntity
  8
M1
  6
DASHDOT
370
13
100
AcDbLine
 10
119.376518
 20
188.364928
 11
127.109852
 21
188.364928
  0
LINE
  5
1D2
100
AcDbEntity
  8
M1
  6
DASHDOT
370
13
100
AcDbLine
 10
123.243186
 20
184.498262
 11
123.243186
 21
192.231594
  0
LINE
  5
1D3
100
AcDbEntity
  8
M1
  6
DASHDOT
370
13
100
AcDbLine
 10
51.243184
 20
184.498262
 11
51.243184
 21
192.231594
  0
CIRCLE
  5
1D4
100
AcDbEntity
  8
M1
  6
CONTINUOUS
370
25
100
AcDbCircle
 10
51.243184
 20
188.364928
 40
1.2
  0
LINE
  5
1D5
100
AcDbEntity
  8
M1
  6
DASHDOT
370
13
100
AcDbLine
 10
55.10985
 20
188.364928
 11
47.376518
 21
188.364928
  0
LINE
  5
1D6
100
AcDbEntity
  8
M1
  6
DIVIDE
370
13
100
AcDbLine
 10
126.243186
 20
150.364928
 11
126.243186
 21
262.364928
  0
LINE
  5
1D7
100
AcDbEntity
  8
M1
  6
DIVIDE
370
13
100
AcDbLine
 10
126.243186
 20
262.364928
 11
48.243184
 21
262.364928
  0
LINE
  5
1D8
100
AcDbEntity
  8
M1
  6
DIVIDE
370
13
100
AcDbLine
 10
48.243184
 20
262.364928
 11
48.243184
 21
150.364928
  0
LINE
  5
1D9
100
AcDbEntity
  8
M1
  6
DIVIDE
370
13
100
AcDbLine
 10
48.243184
 20
150.364928
 11
126.243186
 21
150.364928
  0
LINE
  5
1DA
100
AcDbEntity
  8
M1
  6
DASHDOT
370
13
100
AcDbLine
 10
41.576518
 20
207.764928
 11
132.909852
 21
207.764928
  0
LINE
  5
1DB
100
AcDbEntity
  8
M1
  6
DASHDOT
370
13
100
AcDbLine
 10
87.243184
 20
143.69826
 11
87.243184
 21
269.031596
  0
CIRCLE
  5
1DC
100
AcDbEntity
  8
M1
  6
CONTINUOUS
370
25
100
AcDbCircle
 10
74.243184
 20
256.364928
 40
1.2
  0
LINE
  5
1DD
100
AcDbEntity
  8
M1
  6
DASHDOT
370
13
100
AcDbLine
 10
70.376518
 20
256.364928
 11
78.109852
 21
256.364928
  0
LINE
  5
1DE
100
AcDbEntity
  8
M1
  6
DASHDOT
370
13
100
AcDbLine
 10
74.243184
 20
252.498262
 11
74.243184
 21
260.231596
  0
LINE
  5
1DF
100
AcDbEntity
  8
M1
  6
CONTINUOUS
370
25
100
AcDbLine
 10
29.601888
 20
262.364928
 11
143.849288
 21
262.364928
  0
LINE
  5
1E0
100
AcDbEntity
  8
M1
  6
CONTINUOUS
370
25
100
AcDbLine
 10
29.223954
 20
252.364928
 11
143.471354
 21
252.364928
  0
LINE
  5
1E1
100
AcDbEntity
  8
M1
  6
DASHED
370
13
100
AcDbLine
 10
144.088386
 20
260.864928
 11
29.840984
 21
260.864928
  0
SPLINE
  5
1E2
100
AcDbEntity
  8
M1
  6
CONTINUOUS
370
25
100
AcDbSpline
210
0.0
220
0.0
230
-1.0
 70
     8
 71
     3
 72
    14
 73
    10
 43
0.0000001
 40
0.0
 40
0.0
 40
0.0
 40
0.0
 40
1.0
 40
1.0
 40
1.0
 40
2.0
 40
2.0
 40
2.0
 40
3.0
 40
3.0
 40
3.0
 40
3.0
 10
143.849288
 20
262.364928
 10
144.049204
 20
261.463424
 10
144.16037
 20
260.602068
 10
144.092748
 20
259.821592
 10
143.95847
 20
258.271816
 10
143.119242
 20
257.040948
 10
142.95979
 20
255.66741
 10
142.83909
 20
254.627702
 10
143.10789
 20
253.50625
 10
143.471354
 20
252.364928
  0
SPLINE
  5
1E3
100
AcDbEntity
  8
M1
  6
CONTINUOUS
370
25
100
AcDbSpline
210
0.0
220
0.0
230
-1.0
 70
     8
 71
     3
 72
    14
 73
    10
 43
0.0000001
 40
0.0
 40
0.0
 40
0.0
 40
0.0
 40
1.0
 40
1.0
 40
1.0
 40
2.0
 40
2.0
 40
2.0
 40
3.0
 40
3.0
 40
3.0
 40
3.0
 10
29.601888
 20
262.364928
 10
29.801804
 20
261.463424
 10
29.91297
 20
260.602068
 10
29.845348
 20
259.821592
 10
29.71107
 20
258.271816
 10
28.871842
 20
257.040948
 10
28.712388
 20
255.66741
 10
28.59169
 20
254.627702
 10
28.86049
 20
253.50625
 10
29.223954
 20
252.364928
  0
LINE
  5
1E4
100
AcDbEntity
  8
M1
  6
DASHED
370
13
100
AcDbLine
 10
144.088386
 20
192.864928
 11
29.840984
 21
192.864928
  0
LINE
  5
1E5
100
AcDbEntity
  8
M1
  6
CONTINUOUS
370
25
100
AcDbLine
 10
29.601888
 20
194.364928
 11
143.849288
 21
194.364928
  0
LINE
  5
1E6
100
AcDbEntity
  8
M1
  6
CONTINUOUS
370
25
100
AcDbLine
 10
29.223954
 20
184.364928
 11
143.471354
 21
184.364928
  0
SPLINE
  5
1E7
100
AcDbEntity
  8
M1
  6
CONTINUOUS
370
25
100
AcDbSpline
210
0.0
220
0.0
230
-1.0
 70
     8
 71
     3
 72
    14
 73
    10
 43
0.0000001
 40
0.0
 40
0.0
 40
0.0
 40
0.0
 40
1.0
 40
1.0
 40
1.0
 40
2.0
 40
2.0
 40
2.0
 40
3.0
 40
3.0
 40
3.0
 40
3.0
 10
143.849288
 20
194.364928
 10
144.049204
 20
193.463422
 10
144.16037
 20
192.602066
 10
144.092748
 20
191.82159
 10
143.95847
 20
190.271816
 10
143.119242
 20
189.040946
 10
142.95979
 20
187.667408
 10
142.83909
 20
186.627702
 10
143.10789
 20
185.506248
 10
143.471354
 20
184.364928
  0
SPLINE
  5
1E8
100
AcDbEntity
  8
M1
  6
CONTINUOUS
370
25
100
AcDbSpline
210
0.0
220
0.0
230
-1.0
 70
     8
 71
     3
 72
    14
 73
    10
 43
0.0000001
 40
0.0
 40
0.0
 40
0.0
 40
0.0
 40
1.0
 40
1.0
 40
1.0
 40
2.0
 40
2.0
 40
2.0
 40
3.0
 40
3.0
 40
3.0
 40
3.0
 10
29.601888
 20
194.364928
 10
29.801804
 20
193.463422
 10
29.91297
 20
192.602066
 10
29.845348
 20
191.82159
 10
29.71107
 20
190.271816
 10
28.871842
 20
189.040946
 10
28.712388
 20
187.667408
 10
28.59169
 20
186.627702
 10
28.86049
 20
185.506248
 10
29.223954
 20
184.364928
  0
ARC
  5
1E9
100
AcDbEntity
  8
M1
  6
DASHED
370
13
100
AcDbCircle
 10
312.877024
 20
200.756254
 40
0.4
100
AcDbArc
 50
162.0
 51
252.0
  0
ARC
  5
1EA
100
AcDbEntity
  8
M1
  6
CONTINUOUS
370
25
100
AcDbCircle
 10
324.35977
 20
207.864928
 40
1.0
100
AcDbArc
 50
90.0
 51
180.0
  0
ARC
  5
1EB
100
AcDbEntity
  8
M1
  6
DASHED
370
13
100
AcDbCircle
 10
314.174896
 20
204.75069
 40
0.4
100
AcDbArc
 50
72.0
 51
162.0
  0
ARC
  5
1EC
100
AcDbEntity
  8
M1
  6
CONTINUOUS
370
25
100
AcDbCircle
 10
324.35977
 20
177.864928
 40
1.0
100
AcDbArc
 50
180.0
 51
270.0
  0
LINE
  5
1ED
100
AcDbEntity
  8
M1
  6
CONTINUOUS
370
25
100
AcDbLine
 10
323.35977
 20
207.864928
 11
323.35977
 21
177.864928
  0
LINE
  5
1EE
100
AcDbEntity
  8
M1
  6
CONTINUOUS
370
25
100
AcDbLine
 10
327.55977
 20
208.864928
 11
324.35977
 21
208.864928
  0
LINE
  5
1EF
100
AcDbEntity
  8
M1
  6
CONTINUOUS
370
25
100
AcDbLine
 10
327.55977
 20
176.864928
 11
324.35977
 21
176.864928
  0
LINE
  5
1F0
100
AcDbEntity
  8
M1
  6
DASHED
370
13
100
AcDbLine
 10
314.298504
 20
205.131114
 11
322.097166
 21
202.597174
  0
LINE
  5
1F1
100
AcDbEntity
  8
M1
  6
DASHED
370
13
100
AcDbLine
 10
312.496602
 20
200.87986
 11
313.794474
 21
204.874298
  0
LINE
  5
1F2
100
AcDbEntity
  8
M1
  6
DASHDOT
370
13
100
AcDbLine
 10
343.95977
 20
192.864928
 11
247.994534
 21
224.045924
  0
LINE
  5
1F3
100
AcDbEntity
  8
M1
  6
DASHED
370
13
100
AcDbLine
 10
312.753418
 20
200.37583
 11
320.552082
 21
197.841892
  0
LINE
  5
1F4
100
AcDbEntity
  8
M1
  6
DASHDOT
370
13
100
AcDbLine
 10
243.283786
 20
192.864928
 11
354.901852
 21
192.864928
  0
LINE
  5
1F5
100
AcDbEntity
  8
M1
  6
CONTINUOUS
370
25
100
AcDbLine
 10
346.55977
 20
247.464928
 11
327.55977
 21
247.464928
  0
LINE
  5
1F6
100
AcDbEntity
  8
M1
  6
CONTINUOUS
370
25
100
AcDbLine
 10
327.55977
 20
135.464928
 11
346.55977
 21
135.464928
  0
LINE
  5
1F7
100
AcDbEntity
  8
M1
  6
CONTINUOUS
370
25
100
AcDbLine
 10
327.55977
 20
247.464928
 11
327.55977
 21
135.464928
  0
LINE
  5
1F8
100
AcDbEntity
  8
M1
  6
CONTINUOUS
370
25
100
AcDbLine
 10
322.097166
 20
202.597174
 11
323.35977
 21
202.18693
  0
LINE
  5
1F9
100
AcDbEntity
  8
M1
  6
CONTINUOUS
370
25
100
AcDbLine
 10
320.552082
 20
197.841892
 11
323.35977
 21
196.929618
  0
LINE
  5
1FA
100
AcDbEntity
  8
M1
  6
DASHDOT
370
13
100
AcDbLine
 10
343.95977
 20
197.294276
 11
343.95977
 21
188.068964
  0
LINE
  5
1FB
100
AcDbEntity
  8
M1
  6
CONTINUOUS
370
25
100
AcDbLine
 10
252.099406
 20
225.340824
 11
308.782376
 21
206.923412
  0
LINE
  5
1FC
100
AcDbEntity
  8
M1
  6
CONTINUOUS
370
25
100
AcDbLine
 10
250.55432
 20
220.585542
 11
307.23729
 21
202.16813
  0
LINE
  5
1FD
100
AcDbEntity
  8
M1
  6
CONTINUOUS
370
25
100
AcDbLine
 10
252.099406
 20
225.340824
 11
250.55432
 21
220.585542
  0
LINE
  5
1FE
100
AcDbEntity
  8
M1
  6
CONTINUOUS
370
25
100
AcDbLine
 10
306.619256
 20
200.266016
 11
319.934048
 21
195.939778
  0
LINE
  5
1FF
100
AcDbEntity
  8
M1
  6
CONTINUOUS
370
25
100
AcDbLine
 10
309.40041
 20
208.825524
 11
322.7152
 21
204.499286
  0
LINE
  5
200
100
AcDbEntity
  8
M1
  6
CONTINUOUS
370
25
100
AcDbLine
 10
322.7152
 20
204.499286
 11
319.934048
 21
195.939778
  0
LINE
  5
201
100
AcDbEntity
  8
M1
  6
CONTINUOUS
370
25
100
AcDbLine
 10
309.40041
 20
208.825524
 11
306.619256
 21
200.266016
  0
ARC
  5
202
100
AcDbEntity
  8
M1
  6
CONTINUOUS
370
13
100
AcDbCircle
 10
343.95977
 20
192.864928
 40
97.400002
100
AcDbArc
 50
162.0
 51
180.0
  0
LINE
  5
203
100
AcDbEntity
  8
M2
  6
CONTINUOUS
370
50
 62
     7
100
AcDbLine
 10
398.680412
 20
19.601204
 11
398.680412
 21
569.601204
  0
LINE
  5
204
100
AcDbEntity
  8
M2
  6
CONTINUOUS
370
50
 62
     7
100
AcDbLine
 10
18.680412
 20
569.601204
 11
398.680412
 21
569.601204
  0
LINE
  5
205
100
AcDbEntity
  8
M2
  6
CONTINUOUS
370
50
 62
     7
100
AcDbLine
 10
18.680412
 20
569.601204
 11
18.680412
 21
19.601204
  0
LINE
  5
206
100
AcDbEntity
  8
M2
  6
CONTINUOUS
370
50
 62
     7
100
AcDbLine
 10
18.680412
 20
19.601204
 11
398.680412
 21
19.601204
  0
LINE
  5
207
100
AcDbEntity
  8
M6
  6
CONTINUOUS
370
13
100
AcDbLine
 10
47.681304
 20
123.16726
 11
117.961304
 21
123.16726
  0
TEXT
  5
208
100
AcDbEntity
  8
M6
100
AcDbText
 10
47.960194
 20
123.667259
 40
5.0
  1
ＤＲＩＬＬＩＮＧ　ＰＬＡＮ．
 41
0.833333
  7
STANDARD
100
AcDbText
  0
LINE
  5
209
100
AcDbEntity
  8
M6
  6
CONTINUOUS
370
13
100
AcDbLine
 10
231.534867
 20
123.16726
 11
301.814867
 21
123.16726
  0
TEXT
  5
20A
100
AcDbEntity
  8
M6
100
AcDbText
 10
231.813756
 20
123.667259
 40
5.0
  1
ＳＣＡＬＥ　１：１０
 41
0.833333
  7
STANDARD
100
AcDbText
  0
ENDSEC
  0
SECTION
  2
OBJECTS
  0
DICTIONARY
  5
C
100
AcDbDictionary
  3
ACAD_GROUP
350
D
  3
ACAD_MLINESTYLE
350
E
  0
DICTIONARY
  5
D
102
{ACAD_REACTORS
330
C
102
}
100
AcDbDictionary
  0
DICTIONARY
  5
E
102
{ACAD_REACTORS
330
C
102
}
100
AcDbDictionary
  3
STANDARD
350
13
  0
MLINESTYLE
  5
13
102
{ACAD_REACTORS
330
E
102
}
100
AcDbMlineStyle
  2
STANDARD
 70
     0
  3

 62
     0
 51
90.0
 52
90.0
 71
     2
 49
0.5
 62
   256
  6
BYLAYER
 49
-0.5
 62
   256
  6
BYLAYER
  0
ENDSEC
  0
EOF
