  0
SECTION
  2
HEADER
  9
$ACADVER
  1
AC1015
  9
$INSBASE
 10
0.000000
 20
0.000000
 30
0.0
  9
$VIEWCTR
 10
7.531722
 20
4.5
  9
$VIEWSIZE
 40
9.0
  9
$SNAPMODE
 70
     0
  9
$SNAPUNIT
 10
1.0
 20
1.0
  9
$SNAPBASE
 10
0.0
 20
0.0
  9
$SNAPANG
 50
0.0
  9
$SNAPSTYLE
 70
     0
  9
$SNAPISOPAIR
 70
     0
  9
$GRIDMODE
 70
     0
  9
$GRIDUNIT
 10
0.0
 20
0.0
  9
$ORTHOMODE
 70
     0
  9
$REGENMODE
 70
     1
  9
$FILLMODE
 70
     1
  9
$QTEXTMODE
 70
     0
  9
$DRAGMODE
 70
     2
  9
$LTSCALE
  40
     1.000000
  9
$OSMODE
 70
     0
  9
$ATTMODE
 70
     1
  9
$TEXTSIZE
 40
0.2
  9
$TRACEWID
 40
0.05
  9
$TEXTSTYLE
  7
STANDARD
  9
$CELTYPE
  6
BYLAYER
  9
$CECOLOR
 62
   256
  9
$DIMSCALE
 40
1.0
  9
$DIMASZ
 40
0.18
  9
$DIMEXO
 40
0.0625
  9
$DIMDLI
 40
0.38
  9
$DIMRND
 40
0.0
  9
$DIMDLE
 40
0.0
  9
$DIMEXE
 40
0.18
  9
$DIMTP
 40
0.0
  9
$DIMTM
 40
0.0
  9
$DIMTXT
 40
0.18
  9
$DIMCEN
 40
0.09
  9
$DIMTSZ
 40
0.0
  9
$DIMADEC
 70
     0
  9
$DIMALTRND
 40
0.000000
  9
$DIMAZIN
 70
     0
  9
$DIMDSEP
 70
    46
  9
$DIMATFIT
 70
     3
  9
$DIMFRAC
 70
     0
  9
$DIMLDRBLK
  1

  9
$DIMLUNIT
 70
     2
  9
$DIMLWD
 70
   13
  9
$DIMLWE
 70
   13
  9
$DIMTMOVE
 70
     0
  9
$CELWEIGHT
370
    25
  9
$LWDISPLAY
290
    1
  9
$EXTNAMES
290
    1
  9
$DIMTOL
 70
     0
  9
$DIMLIM
 70
     0
  9
$DIMTIH
 70
     1
  9
$DIMTOH
 70
     1
  9
$DIMSE1
 70
     0
  9
$DIMSE2
 70
     0
  9
$DIMTAD
 70
     0
  9
$DIMZIN
 70
     0
  9
$DIMBLK
  1

  9
$LUNITS
 70
     2
  9
$LUPREC
 70
     4
  9
$AXISMODE
 70
     0
  9
$AXISUNIT
 10
0.0
 20
0.0
  9
$SKETCHINC
 40
0.1
  9
$FILLETRAD
 40
0.0
  9
$AUNITS
 70
     0
  9
$AUPREC
 70
     0
  9
$MENU
  1
ACAD
  9
$ELEVATION
 40
0.0
  9
$THICKNESS
 40
0.0
  9
$VIEWDIR
 10
0.0
 20
0.0
 30
1.0
  9
$LIMCHECK
 70
     0
  9
$BLIPMODE
 70
     1
  9
$CHAMFERA
 40
0.0
  9
$CHAMFERB
 40
0.0
  9
$FASTZOOM
 70
     1
  9
$SKPOLY
 70
     0
  9
$TDCREATE
 40
0000000.0000000000
  9
$TDUPDATE
 40
0000000.0000000000
  9
$TDINDWG
 40
0.0000000000
  9
$TDUSRTIMER
 40
0.0000000000
  9
$USRTIMER
 70
     1
  9
$ANGBASE
 50
0.0
  9
$ANGDIR
 70
     0
  9
$PDMODE
 70
     0
  9
$PDSIZE
 40
0.0
  9
$PLINEWID
 40
0.0
  9
$COORDS
 70
     0
  9
$USERI1
 70
     0
  9
$USERI2
 70
     0
  9
$USERI3
 70
     0
  9
$USERI4
 70
     0
  9
$USERI5
 70
     0
  9
$USERR1
 40
0.0
  9
$USERR2
 40
0.0
  9
$USERR3
 40
0.0
  9
$USERR4
 40
0.0
  9
$USERR5
 40
0.0
  9
$CLAYER
  8
M1
  9
$EXTMIN
 10
0.0
 20
0.0
  9
$EXTMAX
 10
841.0
 20
594.0
  9
$LIMMIN
 10
0.0
 20
0.0
  9
$LIMMAX
 10
841.0
 20
594.0
  9
$HANDSEED
  5
162
  0
ENDSEC
  0
SECTION
  2
CLASSES
  0
CLASS
  1
DIMASSOC
  2
AcDbDimAssoc
  3
"AcDbDimAssoc|Product Desc:     AcDim ARX App For Dimension|Company:          Autodesk, Inc.|WEB Address:      www.autodesk.com"
 90
        0
280
     0
281
     0
  0
ENDSEC
  0
SECTION
  2
TABLES
  0
TABLE
  2
VPORT
  5
8
100
AcDbSymbolTable
 70
     2
  0
VPORT
  5
14
100
AcDbSymbolTableRecord
100
AcDbViewportTableRecord
  2
*ACTIVE
 70
     0
 10
0.0
 20
0.0
 11
1.0
 21
1.0
 12
484.0
 22
297.0
 13
0.0
 23
0.0
 14
1.0
 24
1.0
 15
0.0
 25
0.0
 16
0.0
 26
0.0
 36
1.0
 17
0.0
 27
0.0
 37
0.0
 40
594.0
 41
2.0
 42
50.0
 43
0.0
 44
0.0
 50
0.0
 51
0.0
 71
     0
 72
   100
 73
     1
 74
     1
 75
     0
 76
     0
 77
     0
 78
     0
  0
ENDTAB
  0
TABLE
  2
LTYPE
  5
5
100
AcDbSymbolTable
 70
     5
  0
LTYPE
  5
15
100
AcDbSymbolTableRecord
100
AcDbLinetypeTableRecord
  2
BYBLOCK
 70
     0
  3

 72
    65
 73
     0
 40
0.0
  0
LTYPE
  5
16
100
AcDbSymbolTableRecord
100
AcDbLinetypeTableRecord
  2
BYLAYER
 70
     0
  3

 72
    65
 73
     0
 40
0.0
  0
LTYPE
  5
17
100
AcDbSymbolTableRecord
100
AcDbLinetypeTableRecord
  2
CONTINUOUS
 70
    64
  3
Solid line
 72
    65
 73
     0
 40
0.0
  0
LTYPE
  5
18
100
AcDbSymbolTableRecord
100
AcDbLinetypeTableRecord
  2
DASHED
 70
    64
  3
__ __ __ __ __ __ __ __ __ __ __ __ __ __ __ __
 72
    65
 73
     2
 40
0.75
 49
0.5
 74
     0
 49
-0.25
 74
     0
  0
LTYPE
  5
19
100
AcDbSymbolTableRecord
100
AcDbLinetypeTableRecord
  2
DASHDOT
 70
    64
  3
__ . __ . __ . __ . __ . __ . __ . __ . __ . __
 72
    65
 73
     4
 40
1.0
 49
0.5
 74
     0
 49
-0.25
 74
     0
 49
0.0
 74
     0
 49
-0.25
 74
     0
  0
LTYPE
  5
1A
100
AcDbSymbolTableRecord
100
AcDbLinetypeTableRecord
  2
DIVIDE
 70
    64
  3
____ . . ____ . . ____ . . ____ . . ____ . . __
 72
    65
 73
     6
 40
1.25
 49
0.5
 74
     0
 49
-0.25
 74
     0
 49
0.0
 74
     0
 49
-0.25
 74
     0
 49
0.0
 74
     0
 49
-0.25
 74
     0
  0
LTYPE
  5
1B
100
AcDbSymbolTableRecord
100
AcDbLinetypeTableRecord
  2
DOT
 70
    64
  3
. . . . . . . . . . . . . . . . . . . . . . . .
 72
    65
 73
     2
 40
0.25
 49
0.0
 74
     0
 49
-0.25
 74
     0
  0
ENDTAB
  0
TABLE
  2
LAYER
  5
2
100
AcDbSymbolTable
 70
   102
  0
LAYER
  5
F
100
AcDbSymbolTableRecord
100
AcDbLayerTableRecord
  2
0
 70
     0
 62
     7
  6
CONTINUOUS
370
     -3
390
F
  0
LAYER
  5
1C
100
AcDbSymbolTableRecord
100
AcDbLayerTableRecord
  2
M1
 70
     0
 62
     3
  6
CONTINUOUS
370
     -3
390
F
  0
LAYER
  5
1D
100
AcDbSymbolTableRecord
100
AcDbLayerTableRecord
  2
M2
 70
     0
 62
     3
  6
CONTINUOUS
370
     -3
390
F
  0
LAYER
  5
1E
100
AcDbSymbolTableRecord
100
AcDbLayerTableRecord
  2
M3
 70
     0
 62
     3
  6
CONTINUOUS
370
     -3
390
F
  0
LAYER
  5
1F
100
AcDbSymbolTableRecord
100
AcDbLayerTableRecord
  2
M7
 70
     0
 62
     2
  6
CONTINUOUS
370
     -3
390
F
  0
ENDTAB
  0
TABLE
  2
STYLE
  5
3
100
AcDbSymbolTable
 70
     2
  0
STYLE
  5
10
100
AcDbSymbolTableRecord
100
AcDbTextStyleTableRecord
  2
STANDARD
 70
     0
 40
0.0
 41
1.0
 50
0.0
 71
     0
 42
0.2
  3
txt
  4
BIGFONT
  0
ENDTAB
  0
TABLE
  2
VIEW
  5
6
100
AcDbSymbolTable
 70
     0
  0
ENDTAB
  0
TABLE
  2
UCS
  5
7
100
AcDbSymbolTable
 70
     0
  0
ENDTAB
  0
TABLE
  2
APPID
  5
9
100
AcDbSymbolTable
 70
     1
  0
APPID
  5
11
100
AcDbSymbolTableRecord
100
AcDbRegAppTableRecord
  2
ACAD
 70
     0
  0
ENDTAB
  0
TABLE
  2
DIMSTYLE
  5
A
100
AcDbSymbolTable
 70
     2
100
AcDbDimStyleTable
 71
     1
  0
DIMSTYLE
105
48
100
AcDbSymbolTableRecord
100
AcDbDimStyleTableRecord
  2
STANDARD
 70
     0
  3

  4

  5

  6
_OPEN
  7
_OPEN
 40
1.0
 41
3.0
 42
0.0
 43
8.0
 44
1.5
 45
0.0
 46
0.0
 47
0.0
 48
0.0
140
3.2
141
0.09
142
0.0
143
0.03937
144
1.0
145
0.0
146
1.0
147
1.0
148
0.000000
 71
     0
 72
     0
 73
     1
 74
     1
 75
     0
 76
     0
 77
     3
 78
     8
170
     0
171
     2
172
     0
173
     1
174
     0
175
     0
176
     0
177
     0
178
     0
270
     2
271
     2
272
     4
273
     2
274
     2
340
10
275
     0
278
    46
280
     0
281
     0
282
     0
283
     1
284
     0
285
     0
286
     0
287
     3
288
     0
371
   13
372
   13
  0
DIMSTYLE
105
49
100
AcDbSymbolTableRecord
100
AcDbDimStyleTableRecord
  2
LEADSTYL
 70
     0
  3

  4

  5

  6
_OPEN
  7
_OPEN
 40
1.0
 41
3.0
 42
0.0625
 43
0.38
 44
0.18
 45
0.0
 46
0.0
 47
0.0
 48
0.0
140
3.2
141
0.09
142
0.0
143
25.4
144
1.0
145
0.0
146
1.0
147
1.0
 71
     0
 72
     0
 73
     1
 74
     1
 75
     0
 76
     0
 77
     0
 78
     0
170
     0
171
     2
172
     0
173
     1
174
     0
175
     0
176
     0
177
     0
178
     0
270
     2
271
     4
272
     4
273
     2
274
     2
340
10
275
     0
280
     0
281
     0
282
     0
283
     1
284
     0
285
     0
286
     0
287
     3
288
     0
  0
ENDTAB
  0
TABLE
  2
BLOCK_RECORD
  5
1
100
AcDbSymbolTable
 70
     6
  0
BLOCK_RECORD
  5
20
100
AcDbSymbolTableRecord
100
AcDbBlockTableRecord
  2
*MODEL_SPACE
  0
BLOCK_RECORD
  5
23
100
AcDbSymbolTableRecord
100
AcDbBlockTableRecord
  2
*PAPER_SPACE
  0
BLOCK_RECORD
  5
26
100
AcDbSymbolTableRecord
100
AcDbBlockTableRecord
  2
_NONE
  0
BLOCK_RECORD
  5
2A
100
AcDbSymbolTableRecord
100
AcDbBlockTableRecord
  2
_OPEN
  0
BLOCK_RECORD
  5
30
100
AcDbSymbolTableRecord
100
AcDbBlockTableRecord
  2
_CLOSED
  0
BLOCK_RECORD
  5
37
100
AcDbSymbolTableRecord
100
AcDbBlockTableRecord
  2
_ORIGIN
  0
BLOCK_RECORD
  5
3C
100
AcDbSymbolTableRecord
100
AcDbBlockTableRecord
  2
_DOT
  0
BLOCK_RECORD
  5
44
100
AcDbSymbolTableRecord
100
AcDbBlockTableRecord
  2
_OBLIQUE
  0
ENDTAB
  0
ENDSEC
  0
SECTION
  2
BLOCKS
  0
BLOCK
  5
21
100
AcDbEntity
  8
0
100
AcDbBlockBegin
  2
*MODEL_SPACE
 70
     0
 10
0.0
 20
0.0
 30
0.0
  3
*MODEL_SPACE
  1

  0
ENDBLK
  5
22
100
AcDbEntity
  8
0
100
AcDbBlockEnd
  0
BLOCK
  5
24
100
AcDbEntity
 67
     1
  8
0
100
AcDbBlockBegin
  2
*PAPER_SPACE
 70
     0
 10
0.0
 20
0.0
 30
0.0
  3
*PAPER_SPACE
  1

  0
ENDBLK
  5
25
100
AcDbEntity
 67
     1
  8
0
100
AcDbBlockEnd
  0
BLOCK
  5
27
100
AcDbEntity
  8
0
100
AcDbBlockBegin
  2
_NONE
 70
     0
 10
0.0
 20
0.0
  0
CIRCLE
  5
28
100
AcDbEntity
  8
0
 62
     0
370
13
100
AcDbCircle
 10
0.0
 20
0.0
 40
0.25
  0
ENDBLK
  5
29
100
AcDbEntity
  8
0
100
AcDbBlockEnd
  0
BLOCK
  5
2B
100
AcDbEntity
  8
0
100
AcDbBlockBegin
  2
_OPEN
 70
     0
 10
0.0
 20
0.0
  0
LINE
  5
2C
100
AcDbEntity
  8
0
 62
     0
370
13
100
AcDbLine
 10
-0.965926
 20
0.258819
 11
0.0
 21
0.0
  0
LINE
  5
2D
100
AcDbEntity
  8
0
 62
     0
370
13
100
AcDbLine
 10
0.0
 20
0.0
 11
-0.965926
 21
-0.258819
  0
LINE
  5
2E
100
AcDbEntity
  8
0
 62
     0
370
13
100
AcDbLine
 10
0.0
 20
0.0
 11
-1.0
 21
0.0
  0
ENDBLK
  5
2F
100
AcDbEntity
  8
0
100
AcDbBlockEnd
  0
BLOCK
  5
31
100
AcDbEntity
  8
0
100
AcDbBlockBegin
  2
_CLOSED
 70
     0
 10
0.0
 20
0.0
  0
LINE
  5
32
100
AcDbEntity
  8
0
 62
     0
370
13
100
AcDbLine
 10
-0.965926
 20
0.258819
 11
0.0
 21
0.0
  0
LINE
  5
33
100
AcDbEntity
  8
0
 62
     0
370
13
100
AcDbLine
 10
0.0
 20
0.0
 11
-0.965926
 21
-0.258819
  0
LINE
  5
34
100
AcDbEntity
  8
0
 62
     0
370
13
100
AcDbLine
 10
-0.965926
 20
0.258819
 11
-0.965926
 21
-0.258819
  0
LINE
  5
35
100
AcDbEntity
  8
0
 62
     0
370
13
100
AcDbLine
 10
0.0
 20
0.0
 11
-1.0
 21
0.0
  0
ENDBLK
  5
36
100
AcDbEntity
  8
0
100
AcDbBlockEnd
  0
BLOCK
  5
38
100
AcDbEntity
  8
0
100
AcDbBlockBegin
  2
_ORIGIN
 70
     0
 10
0.0
 20
0.0
  0
CIRCLE
  5
39
100
AcDbEntity
  8
0
 62
     0
370
13
100
AcDbCircle
 10
0.0
 20
0.0
 40
0.5
  0
LINE
  5
3A
100
AcDbEntity
  8
0
 62
     0
370
13
100
AcDbLine
 10
0.0
 20
0.0
 11
-1.0
 21
0.0
  0
ENDBLK
  5
3B
100
AcDbEntity
  8
0
100
AcDbBlockEnd
  0
BLOCK
  5
3D
100
AcDbEntity
  8
0
100
AcDbBlockBegin
  2
_DOT
 70
     0
 10
0.0
 20
0.0
  0
POLYLINE
  5
3E
100
AcDbEntity
  8
0
 62
     0
100
AcDb2dPolyline
 66
     1
 70
     1
 40
0.5
 41
0.5
  0
VERTEX
  5
3F
100
AcDbEntity
  8
0
 62
     0
100
AcDbVertex
100
AcDb2dVertex
 10
-0.25
 20
0.0
 42
1.0
  0
VERTEX
  5
40
100
AcDbEntity
  8
0
 62
     0
100
AcDbVertex
100
AcDb2dVertex
 10
0.25
 20
0.0
 42
1.0
  0
SEQEND
  5
41
100
AcDbEntity
  8
0
 62
     0
  0
LINE
  5
42
100
AcDbEntity
  8
0
 62
     0
370
13
100
AcDbLine
 10
-0.5
 20
0.0
 11
-1.0
 21
0.0
  0
ENDBLK
  5
43
100
AcDbEntity
  8
0
100
AcDbBlockEnd
  0
BLOCK
  5
45
100
AcDbEntity
  8
0
100
AcDbBlockBegin
  2
_OBLIQUE
 70
     0
 10
0.0
 20
0.0
  0
LINE
  5
46
100
AcDbEntity
  8
0
 62
     0
370
13
100
AcDbLine
 10
-0.353553
 20
-0.353553
 11
0.353553
 21
0.353553
  0
ENDBLK
  5
47
100
AcDbEntity
  8
0
100
AcDbBlockEnd
  0
ENDSEC
  0
SECTION
  2
ENTITIES
  0
LINE
  5
4A
100
AcDbEntity
  8
M1
  6
CONTINUOUS
370
25
100
AcDbLine
 10
-24.84027
 20
24.186248
 11
-24.84027
 21
24.086248
  0
LINE
  5
4B
100
AcDbEntity
  8
M1
  6
CONTINUOUS
370
25
100
AcDbLine
 10
-24.84027
 20
24.086248
 11
-24.74027
 21
24.086248
  0
CIRCLE
  5
4C
100
AcDbEntity
  8
M1
  6
CONTINUOUS
370
25
100
AcDbCircle
 10
188.293221
 20
461.78658
 40
3.0
  0
TEXT
  5
4D
100
AcDbEntity
  8
M1
100
AcDbText
 10
186.649887
 20
459.776581
 40
4.02
  1
Ｎ
 41
0.721393
  7
STANDARD
100
AcDbText
  0
CIRCLE
  5
4E
100
AcDbEntity
  8
M1
  6
CONTINUOUS
370
25
100
AcDbCircle
 10
175.493223
 20
405.449688
 40
2.0
  0
CIRCLE
  5
4F
100
AcDbEntity
  8
M1
  6
CONTINUOUS
370
25
100
AcDbCircle
 10
115.093221
 20
134.599542
 40
1.2
  0
CIRCLE
  5
50
100
AcDbEntity
  8
M1
  6
CONTINUOUS
370
25
100
AcDbCircle
 10
175.493223
 20
134.599542
 40
1.2
  0
CIRCLE
  5
51
100
AcDbEntity
  8
M1
  6
CONTINUOUS
370
25
100
AcDbCircle
 10
134.793221
 20
196.799544
 40
1.2
  0
CIRCLE
  5
52
100
AcDbEntity
  8
M1
  6
CONTINUOUS
370
25
100
AcDbCircle
 10
155.793223
 20
196.799544
 40
1.2
  0
LINE
  5
53
100
AcDbEntity
  8
M1
  6
DASHED
370
13
100
AcDbLine
 10
102.543823
 20
191.999544
 11
211.087237
 21
191.999544
  0
LINE
  5
54
100
AcDbEntity
  8
M1
  6
DIVIDE
370
13
 62
     7
100
AcDbLine
 10
199.093223
 20
246.150662
 11
199.093223
 21
336.150662
  0
LINE
  5
55
100
AcDbEntity
  8
M1
  6
DIVIDE
370
13
 62
     7
100
AcDbLine
 10
199.093223
 20
336.150662
 11
113.293221
 21
336.150662
  0
LINE
  5
56
100
AcDbEntity
  8
M1
  6
DIVIDE
370
13
 62
     7
100
AcDbLine
 10
113.293221
 20
336.150662
 11
113.293221
 21
246.150662
  0
LINE
  5
57
100
AcDbEntity
  8
M1
  6
DIVIDE
370
13
 62
     7
100
AcDbLine
 10
113.293221
 20
246.150662
 11
199.093223
 21
246.150662
  0
LINE
  5
58
100
AcDbEntity
  8
M1
  6
DASHDOT
370
13
 62
     7
100
AcDbLine
 10
106.626555
 20
284.750662
 11
205.759889
 21
284.750662
  0
LINE
  5
59
100
AcDbEntity
  8
M1
  6
DASHDOT
370
13
 62
     7
100
AcDbLine
 10
145.293221
 20
239.483996
 11
145.293221
 21
342.81733
  0
LINE
  5
5A
100
AcDbEntity
  8
M1
  6
CONTINUOUS
370
25
 62
     7
100
AcDbLine
 10
135.393221
 20
299.150662
 11
155.193223
 21
299.150662
  0
LINE
  5
5B
100
AcDbEntity
  8
M1
  6
CONTINUOUS
370
25
 62
     7
100
AcDbLine
 10
133.393221
 20
297.150662
 11
133.393221
 21
272.350662
  0
LINE
  5
5C
100
AcDbEntity
  8
M1
  6
CONTINUOUS
370
25
 62
     7
100
AcDbLine
 10
135.393221
 20
270.350662
 11
155.193223
 21
270.350662
  0
LINE
  5
5D
100
AcDbEntity
  8
M1
  6
CONTINUOUS
370
25
 62
     7
100
AcDbLine
 10
157.193223
 20
297.150662
 11
157.193223
 21
272.350662
  0
ARC
  5
5E
100
AcDbEntity
  8
M1
  6
CONTINUOUS
370
25
 62
     7
100
AcDbCircle
 10
155.193223
 20
272.350662
 40
2.0
100
AcDbArc
 50
270.0
 51
360.0
  0
ARC
  5
5F
100
AcDbEntity
  8
M1
  6
CONTINUOUS
370
25
 62
     7
100
AcDbCircle
 10
155.193223
 20
297.150662
 40
2.0
100
AcDbArc
 50
0.0
 51
90.0
  0
ARC
  5
60
100
AcDbEntity
  8
M1
  6
CONTINUOUS
370
25
 62
     7
100
AcDbCircle
 10
135.393221
 20
297.150662
 40
2.0
100
AcDbArc
 50
90.0
 51
180.0
  0
ARC
  5
61
100
AcDbEntity
  8
M1
  6
CONTINUOUS
370
25
 62
     7
100
AcDbCircle
 10
135.393221
 20
272.350662
 40
2.0
100
AcDbArc
 50
180.0
 51
270.0
  0
LINE
  5
62
100
AcDbEntity
  8
M1
  6
CONTINUOUS
370
25
 62
     7
100
AcDbLine
 10
139.293221
 20
425.349142
 11
151.293223
 21
425.349142
  0
LINE
  5
63
100
AcDbEntity
  8
M1
  6
CONTINUOUS
370
25
 62
     7
100
AcDbLine
 10
139.293221
 20
432.101792
 11
139.293221
 21
412.849688
  0
LINE
  5
64
100
AcDbEntity
  8
M1
  6
CONTINUOUS
370
25
 62
     7
100
AcDbLine
 10
150.693223
 20
428.809148
 11
139.893221
 21
428.809148
  0
ARC
  5
65
100
AcDbEntity
  8
M1
  6
CONTINUOUS
370
25
 62
     7
100
AcDbCircle
 10
139.893221
 20
429.409148
 40
0.6
100
AcDbArc
 50
180.0
 51
270.0
  0
ARC
  5
66
100
AcDbEntity
  8
M1
  6
CONTINUOUS
370
25
 62
     7
100
AcDbCircle
 10
150.693223
 20
429.409148
 40
0.6
100
AcDbArc
 50
270.0
 51
360.0
  0
ARC
  5
67
100
AcDbEntity
  8
M1
  6
CONTINUOUS
370
25
 62
     7
100
AcDbCircle
 10
150.693223
 20
432.101792
 40
0.6
100
AcDbArc
 50
0.0
 51
90.0
  0
ARC
  5
68
100
AcDbEntity
  8
M1
  6
CONTINUOUS
370
25
 62
     7
100
AcDbCircle
 10
139.893221
 20
432.101792
 40
0.6
100
AcDbArc
 50
90.0
 51
180.0
  0
LINE
  5
69
100
AcDbEntity
  8
M1
  6
DASHDOT
370
13
 62
     7
100
AcDbLine
 10
170.826555
 20
405.449688
 11
180.159889
 21
405.449688
  0
LINE
  5
6A
100
AcDbEntity
  8
M1
  6
DASHDOT
370
13
 62
     7
100
AcDbLine
 10
175.493223
 20
400.783022
 11
175.493223
 21
410.116356
  0
LINE
  5
6B
100
AcDbEntity
  8
M1
  6
CONTINUOUS
370
25
 62
     7
100
AcDbLine
 10
139.893221
 20
432.701792
 11
150.693223
 21
432.701792
  0
LINE
  5
6C
100
AcDbEntity
  8
M1
  6
CONTINUOUS
370
25
 62
     7
100
AcDbLine
 10
151.293223
 20
432.101792
 11
151.293223
 21
412.849688
  0
LINE
  5
6D
100
AcDbEntity
  8
M1
  6
CONTINUOUS
370
25
 62
     7
100
AcDbLine
 10
115.093221
 20
407.449688
 11
113.293221
 21
407.449688
  0
LINE
  5
6E
100
AcDbEntity
  8
M1
  6
CONTINUOUS
370
25
 62
     7
100
AcDbLine
 10
115.093221
 20
403.449688
 11
113.293221
 21
403.449688
  0
CIRCLE
  5
6F
100
AcDbEntity
  8
M1
  6
CONTINUOUS
370
25
 62
     7
100
AcDbCircle
 10
134.793221
 20
467.64969
 40
2.0
  0
LINE
  5
70
100
AcDbEntity
  8
M1
  6
DASHDOT
370
13
 62
     7
100
AcDbLine
 10
130.126555
 20
467.64969
 11
139.459889
 21
467.64969
  0
LINE
  5
71
100
AcDbEntity
  8
M1
  6
DASHDOT
370
13
 62
     7
100
AcDbLine
 10
134.793221
 20
462.983022
 11
134.793221
 21
472.316356
  0
CIRCLE
  5
72
100
AcDbEntity
  8
M1
  6
CONTINUOUS
370
25
 62
     7
100
AcDbCircle
 10
155.793223
 20
467.64969
 40
2.0
  0
LINE
  5
73
100
AcDbEntity
  8
M1
  6
DASHDOT
370
13
 62
     7
100
AcDbLine
 10
151.126555
 20
467.64969
 11
160.459889
 21
467.64969
  0
LINE
  5
74
100
AcDbEntity
  8
M1
  6
DASHDOT
370
13
 62
     7
100
AcDbLine
 10
155.793223
 20
462.983022
 11
155.793223
 21
472.316356
  0
LINE
  5
75
100
AcDbEntity
  8
M1
  6
DASHDOT
370
13
 62
     7
100
AcDbLine
 10
110.426555
 20
405.449688
 11
119.759889
 21
405.449688
  0
LINE
  5
76
100
AcDbEntity
  8
M1
  6
DASHDOT
370
13
 62
     7
100
AcDbLine
 10
115.093221
 20
400.783022
 11
115.093221
 21
410.116356
  0
ARC
  5
77
100
AcDbEntity
  8
M1
  6
CONTINUOUS
370
25
 62
     7
100
AcDbCircle
 10
115.093221
 20
405.449688
 40
2.0
100
AcDbArc
 50
270.0
 51
450.0
  0
LINE
  5
78
100
AcDbEntity
  8
M1
  6
CONTINUOUS
370
25
 62
     7
100
AcDbLine
 10
199.093223
 20
382.649688
 11
199.093223
 21
472.64969
  0
LINE
  5
79
100
AcDbEntity
  8
M1
  6
CONTINUOUS
370
25
 62
     7
100
AcDbLine
 10
199.093223
 20
472.64969
 11
113.293221
 21
472.64969
  0
LINE
  5
7A
100
AcDbEntity
  8
M1
  6
CONTINUOUS
370
25
 62
     7
100
AcDbLine
 10
113.293221
 20
472.64969
 11
113.293221
 21
382.649688
  0
LINE
  5
7B
100
AcDbEntity
  8
M1
  6
CONTINUOUS
370
25
 62
     7
100
AcDbLine
 10
113.293221
 20
382.649688
 11
199.093223
 21
382.649688
  0
LINE
  5
7C
100
AcDbEntity
  8
M1
  6
DASHDOT
370
13
 62
     7
100
AcDbLine
 10
106.626555
 20
421.249688
 11
205.759889
 21
421.249688
  0
LINE
  5
7D
100
AcDbEntity
  8
M1
  6
DASHDOT
370
13
 62
     7
100
AcDbLine
 10
145.293221
 20
374.614154
 11
145.293221
 21
479.316356
  0
LINE
  5
7E
100
AcDbEntity
  8
M1
  6
CONTINUOUS
370
25
 62
     7
100
AcDbLine
 10
156.793223
 20
434.249688
 11
156.793223
 21
408.249688
  0
LINE
  5
7F
100
AcDbEntity
  8
M1
  6
CONTINUOUS
370
25
 62
     7
100
AcDbLine
 10
133.793221
 20
434.249688
 11
133.793221
 21
408.249688
  0
LINE
  5
80
100
AcDbEntity
  8
M1
  6
CONTINUOUS
370
25
 62
     7
100
AcDbLine
 10
134.793221
 20
435.249688
 11
155.793223
 21
435.249688
  0
LINE
  5
81
100
AcDbEntity
  8
M1
  6
CONTINUOUS
370
25
 62
     7
100
AcDbLine
 10
134.793221
 20
407.249688
 11
155.793223
 21
407.249688
  0
LINE
  5
82
100
AcDbEntity
  8
M1
  6
CONTINUOUS
370
25
 62
     7
100
AcDbLine
 10
133.793221
 20
429.649688
 11
139.293221
 21
429.649688
  0
LINE
  5
83
100
AcDbEntity
  8
M1
  6
CONTINUOUS
370
25
 62
     7
100
AcDbLine
 10
133.793221
 20
412.849688
 11
156.793223
 21
412.849688
  0
LINE
  5
84
100
AcDbEntity
  8
M1
  6
CONTINUOUS
370
25
 62
     7
100
AcDbLine
 10
139.093221
 20
429.649688
 11
139.093221
 21
412.849688
  0
LINE
  5
85
100
AcDbEntity
  8
M1
  6
CONTINUOUS
370
25
 62
     7
100
AcDbLine
 10
151.493223
 20
429.649688
 11
151.493223
 21
412.849688
  0
LINE
  5
86
100
AcDbEntity
  8
M1
  6
CONTINUOUS
370
25
 62
     7
100
AcDbLine
 10
151.293223
 20
429.649688
 11
156.793223
 21
429.649688
  0
LINE
  5
87
100
AcDbEntity
  8
M1
  6
DASHED
370
13
 62
     7
100
AcDbLine
 10
168.293223
 20
452.84969
 11
168.293223
 21
434.849688
  0
LINE
  5
88
100
AcDbEntity
  8
M1
  6
DASHED
370
13
 62
     7
100
AcDbLine
 10
164.293223
 20
452.84969
 11
164.293223
 21
434.849688
  0
LINE
  5
89
100
AcDbEntity
  8
M1
  6
DASHED
370
13
 62
     7
100
AcDbLine
 10
164.293223
 20
452.84969
 11
168.293223
 21
452.84969
  0
LINE
  5
8A
100
AcDbEntity
  8
M1
  6
DASHED
370
13
 62
     7
100
AcDbLine
 10
164.293223
 20
434.849688
 11
168.293223
 21
434.849688
  0
LINE
  5
8B
100
AcDbEntity
  8
M1
  6
DASHDOT
370
13
 62
     7
100
AcDbLine
 10
166.293223
 20
456.400272
 11
166.293223
 21
375.258378
  0
LINE
  5
8C
100
AcDbEntity
  8
M1
  6
DASHED
370
13
 62
     7
100
AcDbLine
 10
164.293223
 20
394.649688
 11
168.293223
 21
394.649688
  0
LINE
  5
8D
100
AcDbEntity
  8
M1
  6
DASHED
370
13
 62
     7
100
AcDbLine
 10
164.293223
 20
394.649688
 11
164.293223
 21
376.749688
  0
LINE
  5
8E
100
AcDbEntity
  8
M1
  6
DASHED
370
13
 62
     7
100
AcDbLine
 10
164.293223
 20
382.749688
 11
168.293223
 21
382.749688
  0
LINE
  5
8F
100
AcDbEntity
  8
M1
  6
DASHED
370
13
 62
     7
100
AcDbLine
 10
168.293223
 20
394.649688
 11
168.293223
 21
376.749688
  0
LINE
  5
90
100
AcDbEntity
  8
M1
  6
DASHED
370
13
 62
     7
100
AcDbLine
 10
143.293221
 20
452.84969
 11
147.293223
 21
452.84969
  0
LINE
  5
91
100
AcDbEntity
  8
M1
  6
DASHED
370
13
 62
     7
100
AcDbLine
 10
143.293221
 20
452.84969
 11
143.293221
 21
434.849688
  0
LINE
  5
92
100
AcDbEntity
  8
M1
  6
DASHED
370
13
 62
     7
100
AcDbLine
 10
143.293221
 20
434.849688
 11
147.293223
 21
434.849688
  0
LINE
  5
93
100
AcDbEntity
  8
M1
  6
DASHED
370
13
 62
     7
100
AcDbLine
 10
147.293223
 20
452.84969
 11
147.293223
 21
434.849688
  0
LINE
  5
94
100
AcDbEntity
  8
M1
  6
DASHED
370
13
 62
     7
100
AcDbLine
 10
143.293221
 20
394.649688
 11
147.293223
 21
394.649688
  0
LINE
  5
95
100
AcDbEntity
  8
M1
  6
DASHED
370
13
 62
     7
100
AcDbLine
 10
147.293223
 20
394.649688
 11
147.293223
 21
376.749688
  0
LINE
  5
96
100
AcDbEntity
  8
M1
  6
DASHED
370
13
 62
     7
100
AcDbLine
 10
143.293221
 20
394.649688
 11
143.293221
 21
376.749688
  0
LINE
  5
97
100
AcDbEntity
  8
M1
  6
DASHED
370
13
 62
     7
100
AcDbLine
 10
143.293221
 20
382.749688
 11
147.293223
 21
382.749688
  0
LINE
  5
98
100
AcDbEntity
  8
M1
  6
DASHED
370
13
 62
     7
100
AcDbLine
 10
122.293221
 20
452.84969
 11
126.293221
 21
452.84969
  0
LINE
  5
99
100
AcDbEntity
  8
M1
  6
DASHED
370
13
 62
     7
100
AcDbLine
 10
122.293221
 20
452.84969
 11
122.293221
 21
434.849688
  0
LINE
  5
9A
100
AcDbEntity
  8
M1
  6
DASHED
370
13
 62
     7
100
AcDbLine
 10
122.293221
 20
434.849688
 11
126.293221
 21
434.849688
  0
LINE
  5
9B
100
AcDbEntity
  8
M1
  6
DASHED
370
13
 62
     7
100
AcDbLine
 10
126.293221
 20
452.84969
 11
126.293221
 21
434.849688
  0
LINE
  5
9C
100
AcDbEntity
  8
M1
  6
DASHED
370
13
 62
     7
100
AcDbLine
 10
122.293221
 20
394.649688
 11
126.293221
 21
394.649688
  0
LINE
  5
9D
100
AcDbEntity
  8
M1
  6
DASHED
370
13
 62
     7
100
AcDbLine
 10
126.293221
 20
394.649688
 11
126.293221
 21
376.749688
  0
LINE
  5
9E
100
AcDbEntity
  8
M1
  6
DASHED
370
13
 62
     7
100
AcDbLine
 10
122.293221
 20
394.649688
 11
122.293221
 21
376.749688
  0
LINE
  5
9F
100
AcDbEntity
  8
M1
  6
DASHED
370
13
 62
     7
100
AcDbLine
 10
122.293221
 20
382.749688
 11
126.293221
 21
382.749688
  0
LINE
  5
A0
100
AcDbEntity
  8
M1
  6
DASHDOT
370
13
 62
     7
100
AcDbLine
 10
124.293221
 20
456.400272
 11
124.293221
 21
375.258378
  0
ARC
  5
A1
100
AcDbEntity
  8
M1
  6
CONTINUOUS
370
25
 62
     7
100
AcDbCircle
 10
134.793221
 20
434.249688
 40
1.0
100
AcDbArc
 50
90.0
 51
180.0
  0
ARC
  5
A2
100
AcDbEntity
  8
M1
  6
CONTINUOUS
370
25
 62
     7
100
AcDbCircle
 10
134.793221
 20
408.249688
 40
1.0
100
AcDbArc
 50
180.0
 51
270.0
  0
ARC
  5
A3
100
AcDbEntity
  8
M1
  6
CONTINUOUS
370
25
 62
     7
100
AcDbCircle
 10
155.793223
 20
408.249688
 40
1.0
100
AcDbArc
 50
270.0
 51
360.0
  0
ARC
  5
A4
100
AcDbEntity
  8
M1
  6
CONTINUOUS
370
25
 62
     7
100
AcDbCircle
 10
155.793223
 20
434.249688
 40
1.0
100
AcDbArc
 50
0.0
 51
90.0
  0
LINE
  5
A5
100
AcDbEntity
  8
M1
  6
CONTINUOUS
370
25
 62
     7
100
AcDbLine
 10
117.493221
 20
382.749688
 11
117.493221
 21
376.749688
  0
LINE
  5
A6
100
AcDbEntity
  8
M1
  6
CONTINUOUS
370
25
 62
     7
100
AcDbLine
 10
117.493221
 20
376.749688
 11
131.093221
 21
376.749688
  0
LINE
  5
A7
100
AcDbEntity
  8
M1
  6
CONTINUOUS
370
25
 62
     7
100
AcDbLine
 10
131.093221
 20
382.749688
 11
131.093221
 21
376.749688
  0
LINE
  5
A8
100
AcDbEntity
  8
M1
  6
CONTINUOUS
370
25
 62
     7
100
AcDbLine
 10
138.493221
 20
382.649688
 11
138.493221
 21
376.649688
  0
LINE
  5
A9
100
AcDbEntity
  8
M1
  6
CONTINUOUS
370
25
 62
     7
100
AcDbLine
 10
138.493221
 20
376.649688
 11
152.093223
 21
376.649688
  0
LINE
  5
AA
100
AcDbEntity
  8
M1
  6
CONTINUOUS
370
25
 62
     7
100
AcDbLine
 10
152.093223
 20
382.649688
 11
152.093223
 21
376.649688
  0
LINE
  5
AB
100
AcDbEntity
  8
M1
  6
CONTINUOUS
370
25
 62
     7
100
AcDbLine
 10
159.493223
 20
382.649688
 11
159.493223
 21
376.649688
  0
LINE
  5
AC
100
AcDbEntity
  8
M1
  6
CONTINUOUS
370
25
 62
     7
100
AcDbLine
 10
159.493223
 20
376.649688
 11
173.093223
 21
376.649688
  0
LINE
  5
AD
100
AcDbEntity
  8
M1
  6
CONTINUOUS
370
25
 62
     7
100
AcDbLine
 10
173.093223
 20
382.649688
 11
173.093223
 21
376.649688
  0
LINE
  5
AE
100
AcDbEntity
  8
M1
  6
DASHED
370
13
 62
     7
100
AcDbLine
 10
186.293223
 20
452.84969
 11
190.293223
 21
452.84969
  0
LINE
  5
AF
100
AcDbEntity
  8
M1
  6
DASHED
370
13
 62
     7
100
AcDbLine
 10
190.293223
 20
452.84969
 11
190.293223
 21
434.849688
  0
LINE
  5
B0
100
AcDbEntity
  8
M1
  6
DASHED
370
13
 62
     7
100
AcDbLine
 10
186.293223
 20
452.84969
 11
186.293223
 21
434.849688
  0
LINE
  5
B1
100
AcDbEntity
  8
M1
  6
DASHED
370
13
 62
     7
100
AcDbLine
 10
186.293223
 20
434.849688
 11
190.293223
 21
434.849688
  0
LINE
  5
B2
100
AcDbEntity
  8
M1
  6
DASHED
370
13
 62
     7
100
AcDbLine
 10
186.293223
 20
394.649688
 11
190.293223
 21
394.649688
  0
LINE
  5
B3
100
AcDbEntity
  8
M1
  6
DASHED
370
13
 62
     7
100
AcDbLine
 10
186.293223
 20
394.649688
 11
186.293223
 21
376.749688
  0
LINE
  5
B4
100
AcDbEntity
  8
M1
  6
DASHED
370
13
 62
     7
100
AcDbLine
 10
190.293223
 20
394.649688
 11
190.293223
 21
376.749688
  0
LINE
  5
B5
100
AcDbEntity
  8
M1
  6
CONTINUOUS
370
25
 62
     7
100
AcDbLine
 10
181.493223
 20
382.649688
 11
181.493223
 21
376.649688
  0
LINE
  5
B6
100
AcDbEntity
  8
M1
  6
CONTINUOUS
370
25
 62
     7
100
AcDbLine
 10
181.493223
 20
376.649688
 11
195.093223
 21
376.649688
  0
LINE
  5
B7
100
AcDbEntity
  8
M1
  6
CONTINUOUS
370
25
 62
     7
100
AcDbLine
 10
195.093223
 20
382.649688
 11
195.093223
 21
376.649688
  0
LINE
  5
B8
100
AcDbEntity
  8
M1
  6
DASHDOT
370
13
 62
     7
100
AcDbLine
 10
188.293223
 20
456.400272
 11
188.293223
 21
375.258378
  0
LINE
  5
B9
100
AcDbEntity
  8
M1
  6
CONTINUOUS
370
25
 62
   114
100
AcDbLine
 10
311.426963
 20
469.6097
 11
309.826959
 21
469.6097
  0
LINE
  5
BA
100
AcDbEntity
  8
M1
  6
CONTINUOUS
370
25
 62
   114
100
AcDbLine
 10
309.826965
 20
469.60969
 11
309.826965
 21
465.689694
  0
LINE
  5
BB
100
AcDbEntity
  8
M1
  6
CONTINUOUS
370
25
 62
   114
100
AcDbLine
 10
309.826963
 20
465.689698
 11
311.426963
 21
465.689698
  0
LINE
  5
BC
100
AcDbEntity
  8
M1
  6
CONTINUOUS
370
25
 62
   114
100
AcDbLine
 10
311.426965
 20
465.6897
 11
311.426965
 21
469.609702
  0
LINE
  5
BD
100
AcDbEntity
  8
M1
  6
DASHDOT
370
13
 62
   114
100
AcDbLine
 10
313.126963
 20
467.64969
 11
308.726959
 21
467.64969
  0
LINE
  5
BE
100
AcDbEntity
  8
M1
  6
CONTINUOUS
370
25
 62
   114
100
AcDbLine
 10
311.426963
 20
466.669696
 11
309.826963
 21
466.669696
  0
LINE
  5
BF
100
AcDbEntity
  8
M1
  6
CONTINUOUS
370
25
 62
   114
100
AcDbLine
 10
311.426963
 20
468.629694
 11
309.826959
 21
468.629694
  0
LINE
  5
C0
100
AcDbEntity
  8
M1
  6
DASHED
370
13
 62
     6
100
AcDbLine
 10
309.506967
 20
462.84969
 11
318.306967
 21
462.84969
  0
LINE
  5
C1
100
AcDbEntity
  8
M1
  6
DASHED
370
13
 62
     6
100
AcDbLine
 10
318.306967
 20
462.84969
 11
318.306967
 21
461.64969
  0
LINE
  5
C2
100
AcDbEntity
  8
M1
  6
DASHED
370
13
 62
     6
100
AcDbLine
 10
308.306967
 20
461.64969
 11
318.306967
 21
461.64969
  0
LINE
  5
C3
100
AcDbEntity
  8
M1
  6
DASHED
370
13
 62
     6
100
AcDbLine
 10
309.506967
 20
471.64969
 11
309.506967
 21
462.84969
  0
LINE
  5
C4
100
AcDbEntity
  8
M1
  6
DASHED
370
13
 62
     6
100
AcDbLine
 10
308.306967
 20
471.64969
 11
308.306967
 21
461.64969
  0
LINE
  5
C5
100
AcDbEntity
  8
M1
  6
DASHED
370
13
 62
     6
100
AcDbLine
 10
308.306967
 20
471.64969
 11
309.506967
 21
471.64969
  0
LINE
  5
C6
100
AcDbEntity
  8
M1
  6
DASHED
370
13
 62
     6
100
AcDbLine
 10
309.506967
 20
410.249688
 11
318.306967
 21
410.249688
  0
LINE
  5
C7
100
AcDbEntity
  8
M1
  6
DASHED
370
13
 62
     6
100
AcDbLine
 10
318.306967
 20
410.249688
 11
318.306967
 21
411.449688
  0
LINE
  5
C8
100
AcDbEntity
  8
M1
  6
DASHED
370
13
 62
     6
100
AcDbLine
 10
308.306967
 20
411.449688
 11
318.306967
 21
411.449688
  0
LINE
  5
C9
100
AcDbEntity
  8
M1
  6
DASHED
370
13
 62
     6
100
AcDbLine
 10
309.506967
 20
401.449688
 11
309.506967
 21
410.249688
  0
LINE
  5
CA
100
AcDbEntity
  8
M1
  6
DASHED
370
13
 62
     6
100
AcDbLine
 10
308.306967
 20
401.449688
 11
308.306967
 21
411.449688
  0
LINE
  5
CB
100
AcDbEntity
  8
M1
  6
DASHED
370
13
 62
     6
100
AcDbLine
 10
308.306967
 20
401.449688
 11
309.506967
 21
401.449688
  0
LINE
  5
CC
100
AcDbEntity
  8
M1
  6
CONTINUOUS
370
25
 62
   114
100
AcDbLine
 10
311.426963
 20
407.409698
 11
309.826959
 21
407.409698
  0
LINE
  5
CD
100
AcDbEntity
  8
M1
  6
CONTINUOUS
370
25
 62
   114
100
AcDbLine
 10
309.826965
 20
407.40969
 11
309.826965
 21
403.489694
  0
LINE
  5
CE
100
AcDbEntity
  8
M1
  6
CONTINUOUS
370
25
 62
   114
100
AcDbLine
 10
309.826963
 20
403.489696
 11
311.426963
 21
403.489696
  0
LINE
  5
CF
100
AcDbEntity
  8
M1
  6
CONTINUOUS
370
25
 62
   114
100
AcDbLine
 10
311.426965
 20
403.4897
 11
311.426965
 21
407.409702
  0
LINE
  5
D0
100
AcDbEntity
  8
M1
  6
DASHDOT
370
13
 62
   114
100
AcDbLine
 10
317.715013
 20
405.449688
 11
304.738465
 21
405.449688
  0
LINE
  5
D1
100
AcDbEntity
  8
M1
  6
CONTINUOUS
370
25
 62
   114
100
AcDbLine
 10
311.426963
 20
404.469696
 11
309.826963
 21
404.469696
  0
LINE
  5
D2
100
AcDbEntity
  8
M1
  6
CONTINUOUS
370
25
 62
   114
100
AcDbLine
 10
311.426963
 20
406.429694
 11
309.826959
 21
406.429694
  0
LINE
  5
D3
100
AcDbEntity
  8
M1
  6
CONTINUOUS
370
25
 62
     2
100
AcDbLine
 10
309.506967
 20
403.24969
 11
309.826965
 21
403.24969
  0
LINE
  5
D4
100
AcDbEntity
  8
M1
  6
CONTINUOUS
370
25
 62
     2
100
AcDbLine
 10
309.826965
 20
403.24969
 11
309.826965
 21
407.64969
  0
LINE
  5
D5
100
AcDbEntity
  8
M1
  6
CONTINUOUS
370
25
 62
     2
100
AcDbLine
 10
309.826965
 20
407.64969
 11
309.506967
 21
407.64969
  0
LINE
  5
D6
100
AcDbEntity
  8
M1
  6
CONTINUOUS
370
25
 62
     2
100
AcDbLine
 10
309.506967
 20
407.64969
 11
309.506967
 21
403.24969
  0
LINE
  5
D7
100
AcDbEntity
  8
M1
  6
DASHDOT
370
13
 62
     2
100
AcDbLine
 10
309.206965
 20
405.449688
 11
310.426965
 21
405.44969
  0
LINE
  5
D8
100
AcDbEntity
  8
M1
  6
CONTINUOUS
370
25
 62
     2
100
AcDbLine
 10
309.506967
 20
465.449692
 11
309.826965
 21
465.449692
  0
LINE
  5
D9
100
AcDbEntity
  8
M1
  6
CONTINUOUS
370
25
 62
     2
100
AcDbLine
 10
309.826965
 20
465.449692
 11
309.826965
 21
469.849692
  0
LINE
  5
DA
100
AcDbEntity
  8
M1
  6
CONTINUOUS
370
25
 62
     2
100
AcDbLine
 10
309.826965
 20
469.849692
 11
309.506967
 21
469.849692
  0
LINE
  5
DB
100
AcDbEntity
  8
M1
  6
CONTINUOUS
370
25
 62
     2
100
AcDbLine
 10
309.506967
 20
469.849692
 11
309.506967
 21
465.449692
  0
LINE
  5
DC
100
AcDbEntity
  8
M1
  6
DASHDOT
370
13
 62
     2
100
AcDbLine
 10
309.206965
 20
467.649688
 11
310.426965
 21
467.649692
  0
LINE
  5
DD
100
AcDbEntity
  8
M1
  6
DASHED
370
13
 62
   234
100
AcDbLine
 10
288.426957
 20
466.049692
 11
290.306967
 21
466.049692
  0
LINE
  5
DE
100
AcDbEntity
  8
M1
  6
DASHED
370
13
 62
   234
100
AcDbLine
 10
290.306967
 20
466.049692
 11
290.306967
 21
469.249692
  0
LINE
  5
DF
100
AcDbEntity
  8
M1
  6
DASHED
370
13
 62
   234
100
AcDbLine
 10
290.306967
 20
469.249692
 11
288.426965
 21
469.249692
  0
LINE
  5
E0
100
AcDbEntity
  8
M1
  6
DASHED
370
13
 62
   234
100
AcDbLine
 10
288.306967
 20
469.04185
 11
288.306967
 21
466.257524
  0
LINE
  5
E1
100
AcDbEntity
  8
M1
  6
DASHED
370
13
 62
   234
100
AcDbLine
 10
290.306967
 20
466.64969
 11
308.306967
 21
466.64969
  0
LINE
  5
E2
100
AcDbEntity
  8
M1
  6
CONTINUOUS
370
25
 62
   234
100
AcDbLine
 10
314.066967
 20
466.64969
 11
314.066967
 21
468.64969
  0
LINE
  5
E3
100
AcDbEntity
  8
M1
  6
CONTINUOUS
370
25
 62
   234
100
AcDbLine
 10
314.066967
 20
468.64969
 11
311.426965
 21
468.64969
  0
LINE
  5
E4
100
AcDbEntity
  8
M1
  6
DASHDOT
370
13
 62
   234
100
AcDbLine
 10
279.580633
 20
467.64969
 11
315.066967
 21
467.64969
  0
LINE
  5
E5
100
AcDbEntity
  8
M1
  6
DASHED
370
13
 62
   234
100
AcDbLine
 10
288.426965
 20
469.249692
 11
288.426965
 21
466.049692
  0
LINE
  5
E6
100
AcDbEntity
  8
M1
  6
DASHED
370
13
 62
   234
100
AcDbLine
 10
288.306967
 20
469.04185
 11
288.426965
 21
469.249692
  0
LINE
  5
E7
100
AcDbEntity
  8
M1
  6
DASHED
370
13
 62
   234
100
AcDbLine
 10
288.306967
 20
466.257524
 11
288.426957
 21
466.049692
  0
LINE
  5
E8
100
AcDbEntity
  8
M1
  6
DASHED
370
13
 62
   234
100
AcDbLine
 10
308.306967
 20
468.64969
 11
290.306967
 21
468.64969
  0
LINE
  5
E9
100
AcDbEntity
  8
M1
  6
CONTINUOUS
370
25
 62
   234
100
AcDbLine
 10
311.426965
 20
466.64969
 11
314.066967
 21
466.64969
  0
LINE
  5
EA
100
AcDbEntity
  8
M1
  6
CONTINUOUS
370
25
 62
   234
100
AcDbLine
 10
314.066967
 20
406.449688
 11
311.426965
 21
406.449688
  0
LINE
  5
EB
100
AcDbEntity
  8
M1
  6
CONTINUOUS
370
25
 62
   234
100
AcDbLine
 10
314.066967
 20
404.449688
 11
314.066967
 21
406.449688
  0
LINE
  5
EC
100
AcDbEntity
  8
M1
  6
CONTINUOUS
370
25
 62
   234
100
AcDbLine
 10
311.426965
 20
404.449688
 11
314.066967
 21
404.449688
  0
LINE
  5
ED
100
AcDbEntity
  8
M1
  6
DASHDOT
370
13
 62
     7
100
AcDbLine
 10
263.766865
 20
421.249688
 11
323.547199
 21
421.249688
  0
LINE
  5
EE
100
AcDbEntity
  8
M1
  6
CONTINUOUS
370
25
 62
     7
100
AcDbLine
 10
308.306967
 20
472.64969
 11
308.306967
 21
382.649688
  0
LINE
  5
EF
100
AcDbEntity
  8
M1
  6
CONTINUOUS
370
25
 62
     7
100
AcDbLine
 10
271.306967
 20
472.64969
 11
271.306967
 21
382.649688
  0
LINE
  5
F0
100
AcDbEntity
  8
M1
  6
CONTINUOUS
370
25
 62
     7
100
AcDbLine
 10
271.306967
 20
472.64969
 11
308.306967
 21
472.64969
  0
LINE
  5
F1
100
AcDbEntity
  8
M1
  6
CONTINUOUS
370
25
 62
     7
100
AcDbLine
 10
271.306967
 20
382.649688
 11
308.306967
 21
382.649688
  0
LINE
  5
F2
100
AcDbEntity
  8
M1
  6
CONTINUOUS
370
25
 62
     7
100
AcDbLine
 10
269.306967
 20
435.249688
 11
269.306967
 21
407.249688
  0
LINE
  5
F3
100
AcDbEntity
  8
M1
  6
CONTINUOUS
370
25
 62
     7
100
AcDbLine
 10
269.306967
 20
407.249688
 11
271.306967
 21
407.249688
  0
LINE
  5
F4
100
AcDbEntity
  8
M1
  6
CONTINUOUS
370
25
 62
     7
100
AcDbLine
 10
269.306967
 20
435.249688
 11
271.306967
 21
435.249688
  0
LINE
  5
F5
100
AcDbEntity
  8
M1
  6
DASHDOT
370
13
 62
     7
100
AcDbLine
 10
259.306967
 20
421.649688
 11
259.306967
 21
418.198726
  0
LINE
  5
F6
100
AcDbEntity
  8
M1
  6
DASHDOT
370
13
 62
     7
100
AcDbLine
 10
288.306967
 20
426.792528
 11
288.306967
 21
416.622696
  0
LINE
  5
F7
100
AcDbEntity
  8
M1
  6
DASHDOT
370
13
 62
     7
100
AcDbLine
 10
298.566455
 20
421.649688
 11
239.771991
 21
421.649688
  0
LINE
  5
F8
100
AcDbEntity
  8
M1
  6
DASHDOT
370
13
 62
     7
100
AcDbLine
 10
288.306967
 20
421.649688
 11
257.208453
 21
431.93454
  0
LINE
  5
F9
100
AcDbEntity
  8
M1
  6
DASHDOT
370
13
 62
     7
100
AcDbLine
 10
288.306967
 20
421.649688
 11
256.049503
 21
415.961828
  0
LINE
  5
FA
100
AcDbEntity
  8
M1
  6
DASHDOT
370
13
 62
     7
100
AcDbLine
 10
288.306967
 20
421.649688
 11
255.847225
 21
426.038418
  0
LINE
  5
FB
100
AcDbEntity
  8
M1
  6
DASHDOT
370
13
 62
     7
100
AcDbLine
 10
288.306967
 20
421.649688
 11
256.712805
 21
413.006504
  0
LINE
  5
FC
100
AcDbEntity
  8
M1
  6
CONTINUOUS
370
25
 62
     7
100
AcDbLine
 10
261.417313
 20
432.701792
 11
260.129943
 21
428.809148
  0
LINE
  5
FD
100
AcDbEntity
  8
M1
  6
CONTINUOUS
370
25
 62
     7
100
AcDbLine
 10
269.306967
 20
430.448098
 11
261.417313
 21
432.701792
  0
LINE
  5
FE
100
AcDbEntity
  8
M1
  6
CONTINUOUS
370
25
 62
     7
100
AcDbLine
 10
260.129943
 20
428.809148
 11
269.306967
 21
425.349142
  0
ARC
  5
FF
100
AcDbEntity
  8
M1
  6
DASHDOT
370
13
 62
     7
100
AcDbCircle
 10
288.306967
 20
421.649688
 40
29.0
100
AcDbArc
 50
161.7
 51
180.0
  0
LINE
  5
100
100
AcDbEntity
  8
M1
  6
CONTINUOUS
370
25
 62
     7
100
AcDbLine
 10
308.306967
 20
434.849688
 11
338.306967
 21
434.849688
  0
LINE
  5
101
100
AcDbEntity
  8
M1
  6
DASHDOT
370
13
 62
     7
100
AcDbLine
 10
302.057371
 20
443.84969
 11
340.841107
 21
443.84969
  0
LINE
  5
102
100
AcDbEntity
  8
M1
  6
CONTINUOUS
370
25
 62
     7
100
AcDbLine
 10
308.306967
 20
452.84969
 11
338.306967
 21
452.84969
  0
LINE
  5
103
100
AcDbEntity
  8
M1
  6
CONTINUOUS
370
25
 62
     7
100
AcDbLine
 10
338.306967
 20
452.84969
 11
338.306967
 21
434.849688
  0
LINE
  5
104
100
AcDbEntity
  8
M1
  6
DASHDOT
370
13
 62
     7
100
AcDbLine
 10
330.540301
 20
447.84969
 11
338.073635
 21
447.84969
  0
LINE
  5
105
100
AcDbEntity
  8
M1
  6
DASHDOT
370
13
 62
     7
100
AcDbLine
 10
334.306967
 20
444.083022
 11
334.306967
 21
451.616356
  0
LINE
  5
106
100
AcDbEntity
  8
M1
  6
DASHDOT
370
13
 62
     7
100
AcDbLine
 10
322.540301
 20
447.84969
 11
330.073635
 21
447.84969
  0
LINE
  5
107
100
AcDbEntity
  8
M1
  6
DASHDOT
370
13
 62
     7
100
AcDbLine
 10
326.306967
 20
444.083022
 11
326.306967
 21
451.616356
  0
LINE
  5
108
100
AcDbEntity
  8
M1
  6
DASHDOT
370
13
 62
     7
100
AcDbLine
 10
322.540301
 20
439.849688
 11
330.073635
 21
439.849688
  0
LINE
  5
109
100
AcDbEntity
  8
M1
  6
DASHDOT
370
13
 62
     7
100
AcDbLine
 10
326.306967
 20
436.083022
 11
326.306967
 21
443.616356
  0
LINE
  5
10A
100
AcDbEntity
  8
M1
  6
DASHDOT
370
13
 62
     7
100
AcDbLine
 10
330.540301
 20
439.849688
 11
338.073635
 21
439.849688
  0
LINE
  5
10B
100
AcDbEntity
  8
M1
  6
DASHDOT
370
13
 62
     7
100
AcDbLine
 10
334.306967
 20
436.083022
 11
334.306967
 21
443.616356
  0
ARC
  5
10C
100
AcDbEntity
  8
M1
  6
DASHDOT
370
13
 62
     7
100
AcDbCircle
 10
288.306967
 20
421.649688
 40
48.534976
100
AcDbArc
 50
161.7
 51
180.472207
  0
LINE
  5
10D
100
AcDbEntity
  8
M1
  6
CONTINUOUS
370
13
 62
     7
100
AcDbLine
 10
322.306967
 20
450.34969
 11
322.306967
 21
450.199354
  0
CIRCLE
  5
10E
100
AcDbEntity
  8
M1
  6
CONTINUOUS
370
25
 62
     7
100
AcDbCircle
 10
334.306967
 20
447.84969
 40
1.4
  0
CIRCLE
  5
10F
100
AcDbEntity
  8
M1
  6
CONTINUOUS
370
25
 62
     7
100
AcDbCircle
 10
326.306967
 20
447.84969
 40
1.4
  0
CIRCLE
  5
110
100
AcDbEntity
  8
M1
  6
CONTINUOUS
370
25
 62
     7
100
AcDbCircle
 10
326.306967
 20
439.849688
 40
1.4
  0
CIRCLE
  5
111
100
AcDbEntity
  8
M1
  6
CONTINUOUS
370
25
 62
     7
100
AcDbCircle
 10
334.306967
 20
439.849688
 40
1.4
  0
LINE
  5
112
100
AcDbEntity
  8
M1
  6
CONTINUOUS
370
25
 62
     7
100
AcDbLine
 10
303.306967
 20
376.649688
 11
338.306967
 21
376.649688
  0
LINE
  5
113
100
AcDbEntity
  8
M1
  6
DASHDOT
370
13
 62
     7
100
AcDbLine
 10
302.057371
 20
385.649688
 11
340.841107
 21
385.649688
  0
LINE
  5
114
100
AcDbEntity
  8
M1
  6
CONTINUOUS
370
25
 62
     7
100
AcDbLine
 10
308.306967
 20
394.649688
 11
338.306967
 21
394.649688
  0
LINE
  5
115
100
AcDbEntity
  8
M1
  6
CONTINUOUS
370
25
 62
     7
100
AcDbLine
 10
338.306967
 20
394.649688
 11
338.306967
 21
376.649688
  0
LINE
  5
116
100
AcDbEntity
  8
M1
  6
DASHDOT
370
13
 62
     7
100
AcDbLine
 10
330.540301
 20
389.649688
 11
338.073635
 21
389.649688
  0
LINE
  5
117
100
AcDbEntity
  8
M1
  6
DASHDOT
370
13
 62
     7
100
AcDbLine
 10
334.306967
 20
385.883022
 11
334.306967
 21
393.416354
  0
LINE
  5
118
100
AcDbEntity
  8
M1
  6
DASHDOT
370
13
 62
     7
100
AcDbLine
 10
322.540301
 20
389.649688
 11
330.073635
 21
389.649688
  0
LINE
  5
119
100
AcDbEntity
  8
M1
  6
DASHDOT
370
13
 62
     7
100
AcDbLine
 10
326.306967
 20
385.883022
 11
326.306967
 21
393.416354
  0
LINE
  5
11A
100
AcDbEntity
  8
M1
  6
DASHDOT
370
13
 62
     7
100
AcDbLine
 10
322.540301
 20
381.649688
 11
330.073635
 21
381.649688
  0
LINE
  5
11B
100
AcDbEntity
  8
M1
  6
DASHDOT
370
13
 62
     7
100
AcDbLine
 10
326.306967
 20
377.883022
 11
326.306967
 21
385.416354
  0
LINE
  5
11C
100
AcDbEntity
  8
M1
  6
DASHDOT
370
13
 62
     7
100
AcDbLine
 10
330.540301
 20
381.649688
 11
338.073635
 21
381.649688
  0
LINE
  5
11D
100
AcDbEntity
  8
M1
  6
DASHDOT
370
13
 62
     7
100
AcDbLine
 10
334.306967
 20
377.883022
 11
334.306967
 21
385.416354
  0
CIRCLE
  5
11E
100
AcDbEntity
  8
M1
  6
CONTINUOUS
370
25
 62
     7
100
AcDbCircle
 10
334.306967
 20
389.649688
 40
1.4
  0
CIRCLE
  5
11F
100
AcDbEntity
  8
M1
  6
CONTINUOUS
370
25
 62
     7
100
AcDbCircle
 10
326.306967
 20
389.649688
 40
1.4
  0
CIRCLE
  5
120
100
AcDbEntity
  8
M1
  6
CONTINUOUS
370
25
 62
     7
100
AcDbCircle
 10
326.306967
 20
381.649688
 40
1.4
  0
CIRCLE
  5
121
100
AcDbEntity
  8
M1
  6
CONTINUOUS
370
25
 62
     7
100
AcDbCircle
 10
334.306967
 20
381.649688
 40
1.4
  0
LINE
  5
122
100
AcDbEntity
  8
M1
  6
CONTINUOUS
370
25
 62
     7
100
AcDbLine
 10
303.306967
 20
382.649688
 11
303.306967
 21
376.649688
  0
LINE
  5
123
100
AcDbEntity
  8
M1
  6
CONTINUOUS
370
25
 62
     7
100
AcDbLine
 10
306.306967
 20
382.649688
 11
306.306967
 21
376.649688
  0
LINE
  5
124
100
AcDbEntity
  8
M1
  6
DASHED
370
13
 62
     7
100
AcDbLine
 10
290.306967
 20
469.64969
 11
271.306967
 21
469.64969
  0
LINE
  5
125
100
AcDbEntity
  8
M1
  6
DASHED
370
13
 62
     7
100
AcDbLine
 10
290.306967
 20
465.64969
 11
271.306967
 21
465.64969
  0
LINE
  5
126
100
AcDbEntity
  8
M1
  6
DASHED
370
13
 62
     7
100
AcDbLine
 10
290.306967
 20
469.64969
 11
290.306967
 21
465.64969
  0
LINE
  5
127
100
AcDbEntity
  8
M1
  6
DASHED
370
13
 62
     7
100
AcDbLine
 10
308.306967
 20
466.44969
 11
290.306967
 21
466.44969
  0
LINE
  5
128
100
AcDbEntity
  8
M1
  6
DASHED
370
13
 62
     7
100
AcDbLine
 10
308.306967
 20
468.84969
 11
290.306967
 21
468.84969
  0
LINE
  5
129
100
AcDbEntity
  8
M1
  6
DASHDOT
370
13
 62
     7
100
AcDbLine
 10
270.013213
 20
467.64969
 11
316.287065
 21
467.64969
  0
LINE
  5
12A
100
AcDbEntity
  8
M1
  6
DASHED
370
13
 62
   253
100
AcDbLine
 10
269.306967
 20
432.146412
 11
260.192483
 21
435.16074
  0
LINE
  5
12B
100
AcDbEntity
  8
M1
  6
DASHED
370
13
 62
   253
100
AcDbLine
 10
260.192483
 20
435.16074
 11
257.680543
 21
427.565336
  0
LINE
  5
12C
100
AcDbEntity
  8
M1
  6
DASHED
370
13
 62
   253
100
AcDbLine
 10
257.680543
 20
427.565336
 11
266.795027
 21
424.551008
  0
LINE
  5
12D
100
AcDbEntity
  8
M1
  6
DASHED
370
13
 62
   253
100
AcDbLine
 10
266.795027
 20
424.551008
 11
269.306967
 21
432.146412
  0
LINE
  5
12E
100
AcDbEntity
  8
M1
  6
DASHED
370
13
 62
   253
100
AcDbLine
 10
257.680543
 20
427.565336
 11
249.580443
 21
431.94622
  0
LINE
  5
12F
100
AcDbEntity
  8
M1
  6
DASHED
370
13
 62
   253
100
AcDbLine
 10
260.192483
 20
435.16074
 11
251.077589
 21
436.47317
  0
ARC
  5
130
100
AcDbEntity
  8
M1
  6
DASHED
370
13
 62
   253
100
AcDbCircle
 10
246.593981
 20
435.44494
 40
4.6
100
AcDbArc
 50
12.916355
 51
310.483645
  0
SPLINE
  5
131
100
AcDbEntity
  8
M1
  6
CONTINUOUS
370
25
100
AcDbSpline
210
0.0
220
0.0
230
-1.0
 70
     8
 71
     3
 72
    14
 73
    10
 43
0.0000001
 40
0.0
 40
0.0
 40
0.0
 40
0.0
 40
1.0
 40
1.0
 40
1.0
 40
2.0
 40
2.0
 40
2.0
 40
3.0
 40
3.0
 40
3.0
 40
3.0
 10
211.802069
 20
200.799544
 10
212.001985
 20
199.898038
 10
212.113151
 20
199.036682
 10
212.045529
 20
198.256206
 10
211.911251
 20
196.706432
 10
211.072023
 20
195.475562
 10
210.912571
 20
194.102024
 10
210.791871
 20
193.062318
 10
211.060671
 20
191.940864
 10
211.424135
 20
190.799544
  0
LINE
  5
132
100
AcDbEntity
  8
M1
  6
CONTINUOUS
370
25
100
AcDbLine
 10
102.880719
 20
190.799544
 11
211.424135
 21
190.799544
  0
LINE
  5
133
100
AcDbEntity
  8
M1
  6
CONTINUOUS
370
25
100
AcDbLine
 10
103.258653
 20
200.799544
 11
211.802069
 21
200.799544
  0
SPLINE
  5
134
100
AcDbEntity
  8
M1
  6
CONTINUOUS
370
25
100
AcDbSpline
210
0.0
220
0.0
230
-1.0
 70
     8
 71
     3
 72
    14
 73
    10
 43
0.0000001
 40
0.0
 40
0.0
 40
0.0
 40
0.0
 40
1.0
 40
1.0
 40
1.0
 40
2.0
 40
2.0
 40
2.0
 40
3.0
 40
3.0
 40
3.0
 40
3.0
 10
103.258653
 20
200.799544
 10
103.458569
 20
199.898038
 10
103.569737
 20
199.036682
 10
103.502113
 20
198.256206
 10
103.367835
 20
196.706432
 10
102.528607
 20
195.475562
 10
102.369155
 20
194.102024
 10
102.248455
 20
193.062318
 10
102.517255
 20
191.940864
 10
102.880719
 20
190.799544
  0
SPLINE
  5
135
100
AcDbEntity
  8
M1
  6
CONTINUOUS
370
25
100
AcDbSpline
210
0.0
220
0.0
230
-1.0
 70
     8
 71
     3
 72
    14
 73
    10
 43
0.0000001
 40
0.0
 40
0.0
 40
0.0
 40
0.0
 40
1.0
 40
1.0
 40
1.0
 40
2.0
 40
2.0
 40
2.0
 40
3.0
 40
3.0
 40
3.0
 40
3.0
 10
211.802069
 20
140.599542
 10
212.001985
 20
139.698038
 10
212.113151
 20
138.836682
 10
212.045529
 20
138.056206
 10
211.911251
 20
136.50643
 10
211.072023
 20
135.275562
 10
210.912571
 20
133.902024
 10
210.791871
 20
132.862316
 10
211.060671
 20
131.740864
 10
211.424135
 20
130.599542
  0
LINE
  5
136
100
AcDbEntity
  8
M1
  6
CONTINUOUS
370
25
100
AcDbLine
 10
102.880719
 20
130.599542
 11
211.424135
 21
130.599542
  0
LINE
  5
137
100
AcDbEntity
  8
M1
  6
CONTINUOUS
370
25
100
AcDbLine
 10
103.258653
 20
140.599542
 11
211.802069
 21
140.599542
  0
LINE
  5
138
100
AcDbEntity
  8
M1
  6
DASHED
370
13
100
AcDbLine
 10
212.011143
 20
139.399542
 11
103.467729
 21
139.399542
  0
SPLINE
  5
139
100
AcDbEntity
  8
M1
  6
CONTINUOUS
370
25
100
AcDbSpline
210
0.0
220
0.0
230
-1.0
 70
     8
 71
     3
 72
    14
 73
    10
 43
0.0000001
 40
0.0
 40
0.0
 40
0.0
 40
0.0
 40
1.0
 40
1.0
 40
1.0
 40
2.0
 40
2.0
 40
2.0
 40
3.0
 40
3.0
 40
3.0
 40
3.0
 10
103.258653
 20
140.599542
 10
103.458569
 20
139.698038
 10
103.569737
 20
138.836682
 10
103.502113
 20
138.056206
 10
103.367835
 20
136.50643
 10
102.528607
 20
135.275562
 10
102.369155
 20
133.902024
 10
102.248455
 20
132.862316
 10
102.517255
 20
131.740864
 10
102.880719
 20
130.599542
  0
LINE
  5
13A
100
AcDbEntity
  8
M1
  6
DASHDOT
370
13
 62
     7
100
AcDbLine
 10
170.826555
 20
134.599542
 11
180.159889
 21
134.599542
  0
LINE
  5
13B
100
AcDbEntity
  8
M1
  6
DASHDOT
370
13
 62
     7
100
AcDbLine
 10
175.493223
 20
129.932876
 11
175.493223
 21
139.26621
  0
LINE
  5
13C
100
AcDbEntity
  8
M1
  6
DASHDOT
370
13
 62
     7
100
AcDbLine
 10
130.126555
 20
196.799544
 11
139.459889
 21
196.799544
  0
LINE
  5
13D
100
AcDbEntity
  8
M1
  6
DASHDOT
370
13
 62
     7
100
AcDbLine
 10
134.793221
 20
192.132878
 11
134.793221
 21
201.46621
  0
LINE
  5
13E
100
AcDbEntity
  8
M1
  6
DASHDOT
370
13
 62
     7
100
AcDbLine
 10
151.126555
 20
196.799544
 11
160.459889
 21
196.799544
  0
LINE
  5
13F
100
AcDbEntity
  8
M1
  6
DASHDOT
370
13
 62
     7
100
AcDbLine
 10
155.793223
 20
192.132878
 11
155.793223
 21
201.46621
  0
LINE
  5
140
100
AcDbEntity
  8
M1
  6
DASHDOT
370
13
 62
     7
100
AcDbLine
 10
110.426555
 20
134.599542
 11
119.759889
 21
134.599542
  0
LINE
  5
141
100
AcDbEntity
  8
M1
  6
DASHDOT
370
13
 62
     7
100
AcDbLine
 10
115.093221
 20
129.932876
 11
115.093221
 21
139.26621
  0
LINE
  5
142
100
AcDbEntity
  8
M1
  6
DIVIDE
370
13
 62
     7
100
AcDbLine
 10
199.093223
 20
111.799542
 11
199.093223
 21
201.799544
  0
LINE
  5
143
100
AcDbEntity
  8
M1
  6
DIVIDE
370
13
 62
     7
100
AcDbLine
 10
199.093223
 20
201.799544
 11
113.293221
 21
201.799544
  0
LINE
  5
144
100
AcDbEntity
  8
M1
  6
DIVIDE
370
13
 62
     7
100
AcDbLine
 10
113.293221
 20
201.799544
 11
113.293221
 21
111.799542
  0
LINE
  5
145
100
AcDbEntity
  8
M1
  6
DIVIDE
370
13
 62
     7
100
AcDbLine
 10
113.293221
 20
111.799542
 11
117.493221
 21
111.799542
  0
LINE
  5
146
100
AcDbEntity
  8
M1
  6
DASHDOT
370
13
 62
     7
100
AcDbLine
 10
106.626555
 20
150.399544
 11
205.759889
 21
150.399544
  0
LINE
  5
147
100
AcDbEntity
  8
M1
  6
DASHDOT
370
13
 62
     7
100
AcDbLine
 10
145.293221
 20
105.132876
 11
145.293221
 21
208.46621
  0
LINE
  5
148
100
AcDbEntity
  8
M1
  6
DIVIDE
370
13
100
AcDbLine
 10
173.093223
 20
111.799542
 11
173.093223
 21
105.799542
  0
LINE
  5
149
100
AcDbEntity
  8
M1
  6
DIVIDE
370
13
100
AcDbLine
 10
159.493223
 20
105.799542
 11
173.093223
 21
105.799542
  0
LINE
  5
14A
100
AcDbEntity
  8
M1
  6
DIVIDE
370
13
100
AcDbLine
 10
159.493223
 20
111.799542
 11
159.493223
 21
105.799542
  0
LINE
  5
14B
100
AcDbEntity
  8
M1
  6
DIVIDE
370
13
100
AcDbLine
 10
152.093223
 20
111.799542
 11
152.093223
 21
105.799542
  0
LINE
  5
14C
100
AcDbEntity
  8
M1
  6
DIVIDE
370
13
100
AcDbLine
 10
138.493221
 20
105.799542
 11
152.093223
 21
105.799542
  0
LINE
  5
14D
100
AcDbEntity
  8
M1
  6
DIVIDE
370
13
100
AcDbLine
 10
138.493221
 20
111.799542
 11
138.493221
 21
105.799542
  0
LINE
  5
14E
100
AcDbEntity
  8
M1
  6
DIVIDE
370
13
100
AcDbLine
 10
131.093221
 20
111.899542
 11
131.093221
 21
105.899542
  0
LINE
  5
14F
100
AcDbEntity
  8
M1
  6
DIVIDE
370
13
100
AcDbLine
 10
117.493221
 20
111.899542
 11
117.493221
 21
105.899542
  0
LINE
  5
150
100
AcDbEntity
  8
M1
  6
DIVIDE
370
13
100
AcDbLine
 10
117.493221
 20
105.899542
 11
131.093221
 21
105.899542
  0
LINE
  5
151
100
AcDbEntity
  8
M1
  6
DIVIDE
370
13
 62
     7
100
AcDbLine
 10
173.093223
 20
111.799542
 11
181.493223
 21
111.799542
  0
LINE
  5
152
100
AcDbEntity
  8
M1
  6
DIVIDE
370
13
 62
     7
100
AcDbLine
 10
152.093223
 20
111.799542
 11
159.493223
 21
111.799542
  0
LINE
  5
153
100
AcDbEntity
  8
M1
  6
DIVIDE
370
13
 62
     7
100
AcDbLine
 10
131.093221
 20
111.799542
 11
138.493221
 21
111.799542
  0
LINE
  5
154
100
AcDbEntity
  8
M1
  6
DIVIDE
370
13
100
AcDbLine
 10
181.493223
 20
111.799542
 11
181.493223
 21
105.799542
  0
LINE
  5
155
100
AcDbEntity
  8
M1
  6
DIVIDE
370
13
100
AcDbLine
 10
181.493223
 20
105.799542
 11
195.093223
 21
105.799542
  0
LINE
  5
156
100
AcDbEntity
  8
M1
  6
DIVIDE
370
13
100
AcDbLine
 10
195.093223
 20
111.799542
 11
195.093223
 21
105.799542
  0
LINE
  5
157
100
AcDbEntity
  8
M1
  6
DIVIDE
370
13
 62
     7
100
AcDbLine
 10
195.093223
 20
111.799542
 11
199.093223
 21
111.799542
  0
LINE
  5
158
100
AcDbEntity
  8
M2
  6
CONTINUOUS
370
50
 62
     7
100
AcDbLine
 10
398.680412
 20
19.601204
 11
398.680412
 21
569.601204
  0
LINE
  5
159
100
AcDbEntity
  8
M2
  6
CONTINUOUS
370
50
 62
     7
100
AcDbLine
 10
18.680412
 20
569.601204
 11
398.680412
 21
569.601204
  0
LINE
  5
15A
100
AcDbEntity
  8
M2
  6
CONTINUOUS
370
50
 62
     7
100
AcDbLine
 10
18.680412
 20
569.601204
 11
18.680412
 21
19.601204
  0
LINE
  5
15B
100
AcDbEntity
  8
M2
  6
CONTINUOUS
370
50
 62
     7
100
AcDbLine
 10
18.680412
 20
19.601204
 11
398.680412
 21
19.601204
  0
TEXT
  5
15C
100
AcDbEntity
  8
M3
100
AcDbText
 10
131.705069
 20
272.350663
 40
8.0
  1
（ＨＯＬＥ）
 41
0.479167
  7
STANDARD
100
AcDbText
  0
LINE
  5
15D
100
AcDbEntity
  8
M7
  6
CONTINUOUS
370
13
100
AcDbLine
 10
115.648841
 20
92.673346
 11
185.928839
 21
92.673346
  0
TEXT
  5
15E
100
AcDbEntity
  8
M7
100
AcDbText
 10
115.927729
 20
93.173348
 40
5.0
  1
ＤＲＩＬＬＩＮＧ　ＰＬＡＮ．
 41
0.833333
  7
STANDARD
100
AcDbText
  0
LINE
  5
15F
100
AcDbEntity
  8
M7
  6
CONTINUOUS
370
13
100
AcDbLine
 10
266.440277
 20
348.635771
 11
315.79923
 21
348.635771
  0
TEXT
  5
160
100
AcDbEntity
  8
M7
100
AcDbText
 10
266.719165
 20
349.135773
 40
5.0
  1
ＳＣＡＬＥ　１：１０
 41
0.833333
  7
STANDARD
100
AcDbText
  0
ENDSEC
  0
SECTION
  2
OBJECTS
  0
DICTIONARY
  5
C
100
AcDbDictionary
  3
ACAD_GROUP
350
D
  3
ACAD_MLINESTYLE
350
E
  0
DICTIONARY
  5
D
102
{ACAD_REACTORS
330
C
102
}
100
AcDbDictionary
  0
DICTIONARY
  5
E
102
{ACAD_REACTORS
330
C
102
}
100
AcDbDictionary
  3
STANDARD
350
13
  0
MLINESTYLE
  5
13
102
{ACAD_REACTORS
330
E
102
}
100
AcDbMlineStyle
  2
STANDARD
 70
     0
  3

 62
     0
 51
90.0
 52
90.0
 71
     2
 49
0.5
 62
   256
  6
BYLAYER
 49
-0.5
 62
   256
  6
BYLAYER
  0
ENDSEC
  0
EOF
