  0
SECTION
  2
HEADER
  9
$ACADVER
  1
AC1015
  9
$INSBASE
 10
0.000000
 20
0.000000
 30
0.0
  9
$VIEWCTR
 10
7.531722
 20
4.5
  9
$VIEWSIZE
 40
9.0
  9
$SNAPMODE
 70
     0
  9
$SNAPUNIT
 10
1.0
 20
1.0
  9
$SNAPBASE
 10
0.0
 20
0.0
  9
$SNAPANG
 50
0.0
  9
$SNAPSTYLE
 70
     0
  9
$SNAPISOPAIR
 70
     0
  9
$GRIDMODE
 70
     0
  9
$GRIDUNIT
 10
0.0
 20
0.0
  9
$ORTHOMODE
 70
     0
  9
$REGENMODE
 70
     1
  9
$FILLMODE
 70
     1
  9
$QTEXTMODE
 70
     0
  9
$DRAGMODE
 70
     2
  9
$LTSCALE
  40
     1.000000
  9
$OSMODE
 70
     0
  9
$ATTMODE
 70
     1
  9
$TEXTSIZE
 40
0.2
  9
$TRACEWID
 40
0.05
  9
$TEXTSTYLE
  7
STANDARD
  9
$CELTYPE
  6
BYLAYER
  9
$CECOLOR
 62
   256
  9
$DIMSCALE
 40
1.0
  9
$DIMASZ
 40
0.18
  9
$DIMEXO
 40
0.0625
  9
$DIMDLI
 40
0.38
  9
$DIMRND
 40
0.0
  9
$DIMDLE
 40
0.0
  9
$DIMEXE
 40
0.18
  9
$DIMTP
 40
0.0
  9
$DIMTM
 40
0.0
  9
$DIMTXT
 40
0.18
  9
$DIMCEN
 40
0.09
  9
$DIMTSZ
 40
0.0
  9
$DIMADEC
 70
     0
  9
$DIMALTRND
 40
0.000000
  9
$DIMAZIN
 70
     0
  9
$DIMDSEP
 70
    46
  9
$DIMATFIT
 70
     3
  9
$DIMFRAC
 70
     0
  9
$DIMLDRBLK
  1

  9
$DIMLUNIT
 70
     2
  9
$DIMLWD
 70
   13
  9
$DIMLWE
 70
   13
  9
$DIMTMOVE
 70
     0
  9
$CELWEIGHT
370
    25
  9
$LWDISPLAY
290
    1
  9
$EXTNAMES
290
    1
  9
$DIMTOL
 70
     0
  9
$DIMLIM
 70
     0
  9
$DIMTIH
 70
     1
  9
$DIMTOH
 70
     1
  9
$DIMSE1
 70
     0
  9
$DIMSE2
 70
     0
  9
$DIMTAD
 70
     0
  9
$DIMZIN
 70
     0
  9
$DIMBLK
  1

  9
$LUNITS
 70
     2
  9
$LUPREC
 70
     4
  9
$AXISMODE
 70
     0
  9
$AXISUNIT
 10
0.0
 20
0.0
  9
$SKETCHINC
 40
0.1
  9
$FILLETRAD
 40
0.0
  9
$AUNITS
 70
     0
  9
$AUPREC
 70
     0
  9
$MENU
  1
ACAD
  9
$ELEVATION
 40
0.0
  9
$THICKNESS
 40
0.0
  9
$VIEWDIR
 10
0.0
 20
0.0
 30
1.0
  9
$LIMCHECK
 70
     0
  9
$BLIPMODE
 70
     1
  9
$CHAMFERA
 40
0.0
  9
$CHAMFERB
 40
0.0
  9
$FASTZOOM
 70
     1
  9
$SKPOLY
 70
     0
  9
$TDCREATE
 40
0000000.0000000000
  9
$TDUPDATE
 40
0000000.0000000000
  9
$TDINDWG
 40
0.0000000000
  9
$TDUSRTIMER
 40
0.0000000000
  9
$USRTIMER
 70
     1
  9
$ANGBASE
 50
0.0
  9
$ANGDIR
 70
     0
  9
$PDMODE
 70
     0
  9
$PDSIZE
 40
0.0
  9
$PLINEWID
 40
0.0
  9
$COORDS
 70
     0
  9
$USERI1
 70
     0
  9
$USERI2
 70
     0
  9
$USERI3
 70
     0
  9
$USERI4
 70
     0
  9
$USERI5
 70
     0
  9
$USERR1
 40
0.0
  9
$USERR2
 40
0.0
  9
$USERR3
 40
0.0
  9
$USERR4
 40
0.0
  9
$USERR5
 40
0.0
  9
$CLAYER
  8
M1
  9
$EXTMIN
 10
0.0
 20
0.0
  9
$EXTMAX
 10
841.0
 20
594.0
  9
$LIMMIN
 10
0.0
 20
0.0
  9
$LIMMAX
 10
841.0
 20
594.0
  9
$HANDSEED
  5
151
  0
ENDSEC
  0
SECTION
  2
CLASSES
  0
CLASS
  1
DIMASSOC
  2
AcDbDimAssoc
  3
"AcDbDimAssoc|Product Desc:     AcDim ARX App For Dimension|Company:          Autodesk, Inc.|WEB Address:      www.autodesk.com"
 90
        0
280
     0
281
     0
  0
ENDSEC
  0
SECTION
  2
TABLES
  0
TABLE
  2
VPORT
  5
8
100
AcDbSymbolTable
 70
     2
  0
VPORT
  5
14
100
AcDbSymbolTableRecord
100
AcDbViewportTableRecord
  2
*ACTIVE
 70
     0
 10
0.0
 20
0.0
 11
1.0
 21
1.0
 12
484.0
 22
297.0
 13
0.0
 23
0.0
 14
1.0
 24
1.0
 15
0.0
 25
0.0
 16
0.0
 26
0.0
 36
1.0
 17
0.0
 27
0.0
 37
0.0
 40
594.0
 41
2.0
 42
50.0
 43
0.0
 44
0.0
 50
0.0
 51
0.0
 71
     0
 72
   100
 73
     1
 74
     1
 75
     0
 76
     0
 77
     0
 78
     0
  0
ENDTAB
  0
TABLE
  2
LTYPE
  5
5
100
AcDbSymbolTable
 70
     5
  0
LTYPE
  5
15
100
AcDbSymbolTableRecord
100
AcDbLinetypeTableRecord
  2
BYBLOCK
 70
     0
  3

 72
    65
 73
     0
 40
0.0
  0
LTYPE
  5
16
100
AcDbSymbolTableRecord
100
AcDbLinetypeTableRecord
  2
BYLAYER
 70
     0
  3

 72
    65
 73
     0
 40
0.0
  0
LTYPE
  5
17
100
AcDbSymbolTableRecord
100
AcDbLinetypeTableRecord
  2
CONTINUOUS
 70
    64
  3
Solid line
 72
    65
 73
     0
 40
0.0
  0
LTYPE
  5
18
100
AcDbSymbolTableRecord
100
AcDbLinetypeTableRecord
  2
DASHED
 70
    64
  3
__ __ __ __ __ __ __ __ __ __ __ __ __ __ __ __
 72
    65
 73
     2
 40
0.75
 49
0.5
 74
     0
 49
-0.25
 74
     0
  0
LTYPE
  5
19
100
AcDbSymbolTableRecord
100
AcDbLinetypeTableRecord
  2
DASHDOT
 70
    64
  3
__ . __ . __ . __ . __ . __ . __ . __ . __ . __
 72
    65
 73
     4
 40
1.0
 49
0.5
 74
     0
 49
-0.25
 74
     0
 49
0.0
 74
     0
 49
-0.25
 74
     0
  0
LTYPE
  5
1A
100
AcDbSymbolTableRecord
100
AcDbLinetypeTableRecord
  2
DIVIDE
 70
    64
  3
____ . . ____ . . ____ . . ____ . . ____ . . __
 72
    65
 73
     6
 40
1.25
 49
0.5
 74
     0
 49
-0.25
 74
     0
 49
0.0
 74
     0
 49
-0.25
 74
     0
 49
0.0
 74
     0
 49
-0.25
 74
     0
  0
LTYPE
  5
1B
100
AcDbSymbolTableRecord
100
AcDbLinetypeTableRecord
  2
DOT
 70
    64
  3
. . . . . . . . . . . . . . . . . . . . . . . .
 72
    65
 73
     2
 40
0.25
 49
0.0
 74
     0
 49
-0.25
 74
     0
  0
ENDTAB
  0
TABLE
  2
LAYER
  5
2
100
AcDbSymbolTable
 70
   102
  0
LAYER
  5
F
100
AcDbSymbolTableRecord
100
AcDbLayerTableRecord
  2
0
 70
     0
 62
     7
  6
CONTINUOUS
370
     -3
390
F
  0
LAYER
  5
1C
100
AcDbSymbolTableRecord
100
AcDbLayerTableRecord
  2
M1
 70
     0
 62
     3
  6
CONTINUOUS
370
     -3
390
F
  0
LAYER
  5
1D
100
AcDbSymbolTableRecord
100
AcDbLayerTableRecord
  2
M2
 70
     0
 62
     3
  6
CONTINUOUS
370
     -3
390
F
  0
LAYER
  5
1E
100
AcDbSymbolTableRecord
100
AcDbLayerTableRecord
  2
M3
 70
     0
 62
     3
  6
CONTINUOUS
370
     -3
390
F
  0
LAYER
  5
1F
100
AcDbSymbolTableRecord
100
AcDbLayerTableRecord
  2
M7
 70
     0
 62
     2
  6
CONTINUOUS
370
     -3
390
F
  0
ENDTAB
  0
TABLE
  2
STYLE
  5
3
100
AcDbSymbolTable
 70
     2
  0
STYLE
  5
10
100
AcDbSymbolTableRecord
100
AcDbTextStyleTableRecord
  2
STANDARD
 70
     0
 40
0.0
 41
1.0
 50
0.0
 71
     0
 42
0.2
  3
txt
  4
BIGFONT
  0
ENDTAB
  0
TABLE
  2
VIEW
  5
6
100
AcDbSymbolTable
 70
     0
  0
ENDTAB
  0
TABLE
  2
UCS
  5
7
100
AcDbSymbolTable
 70
     0
  0
ENDTAB
  0
TABLE
  2
APPID
  5
9
100
AcDbSymbolTable
 70
     1
  0
APPID
  5
11
100
AcDbSymbolTableRecord
100
AcDbRegAppTableRecord
  2
ACAD
 70
     0
  0
ENDTAB
  0
TABLE
  2
DIMSTYLE
  5
A
100
AcDbSymbolTable
 70
     2
100
AcDbDimStyleTable
 71
     1
  0
DIMSTYLE
105
48
100
AcDbSymbolTableRecord
100
AcDbDimStyleTableRecord
  2
STANDARD
 70
     0
  3

  4

  5

  6
_OPEN
  7
_OPEN
 40
1.0
 41
3.0
 42
0.0
 43
8.0
 44
1.5
 45
0.0
 46
0.0
 47
0.0
 48
0.0
140
3.2
141
0.09
142
0.0
143
0.03937
144
1.0
145
0.0
146
1.0
147
1.0
148
0.000000
 71
     0
 72
     0
 73
     1
 74
     1
 75
     0
 76
     0
 77
     3
 78
     8
170
     0
171
     2
172
     0
173
     1
174
     0
175
     0
176
     0
177
     0
178
     0
270
     2
271
     2
272
     4
273
     2
274
     2
340
10
275
     0
278
    46
280
     0
281
     0
282
     0
283
     1
284
     0
285
     0
286
     0
287
     3
288
     0
371
   13
372
   13
  0
DIMSTYLE
105
49
100
AcDbSymbolTableRecord
100
AcDbDimStyleTableRecord
  2
LEADSTYL
 70
     0
  3

  4

  5

  6
_OPEN
  7
_OPEN
 40
1.0
 41
3.0
 42
0.0625
 43
0.38
 44
0.18
 45
0.0
 46
0.0
 47
0.0
 48
0.0
140
3.2
141
0.09
142
0.0
143
25.4
144
1.0
145
0.0
146
1.0
147
1.0
 71
     0
 72
     0
 73
     1
 74
     1
 75
     0
 76
     0
 77
     0
 78
     0
170
     0
171
     2
172
     0
173
     1
174
     0
175
     0
176
     0
177
     0
178
     0
270
     2
271
     4
272
     4
273
     2
274
     2
340
10
275
     0
280
     0
281
     0
282
     0
283
     1
284
     0
285
     0
286
     0
287
     3
288
     0
  0
ENDTAB
  0
TABLE
  2
BLOCK_RECORD
  5
1
100
AcDbSymbolTable
 70
     6
  0
BLOCK_RECORD
  5
20
100
AcDbSymbolTableRecord
100
AcDbBlockTableRecord
  2
*MODEL_SPACE
  0
BLOCK_RECORD
  5
23
100
AcDbSymbolTableRecord
100
AcDbBlockTableRecord
  2
*PAPER_SPACE
  0
BLOCK_RECORD
  5
26
100
AcDbSymbolTableRecord
100
AcDbBlockTableRecord
  2
_NONE
  0
BLOCK_RECORD
  5
2A
100
AcDbSymbolTableRecord
100
AcDbBlockTableRecord
  2
_OPEN
  0
BLOCK_RECORD
  5
30
100
AcDbSymbolTableRecord
100
AcDbBlockTableRecord
  2
_CLOSED
  0
BLOCK_RECORD
  5
37
100
AcDbSymbolTableRecord
100
AcDbBlockTableRecord
  2
_ORIGIN
  0
BLOCK_RECORD
  5
3C
100
AcDbSymbolTableRecord
100
AcDbBlockTableRecord
  2
_DOT
  0
BLOCK_RECORD
  5
44
100
AcDbSymbolTableRecord
100
AcDbBlockTableRecord
  2
_OBLIQUE
  0
ENDTAB
  0
ENDSEC
  0
SECTION
  2
BLOCKS
  0
BLOCK
  5
21
100
AcDbEntity
  8
0
100
AcDbBlockBegin
  2
*MODEL_SPACE
 70
     0
 10
0.0
 20
0.0
 30
0.0
  3
*MODEL_SPACE
  1

  0
ENDBLK
  5
22
100
AcDbEntity
  8
0
100
AcDbBlockEnd
  0
BLOCK
  5
24
100
AcDbEntity
 67
     1
  8
0
100
AcDbBlockBegin
  2
*PAPER_SPACE
 70
     0
 10
0.0
 20
0.0
 30
0.0
  3
*PAPER_SPACE
  1

  0
ENDBLK
  5
25
100
AcDbEntity
 67
     1
  8
0
100
AcDbBlockEnd
  0
BLOCK
  5
27
100
AcDbEntity
  8
0
100
AcDbBlockBegin
  2
_NONE
 70
     0
 10
0.0
 20
0.0
  0
CIRCLE
  5
28
100
AcDbEntity
  8
0
 62
     0
370
13
100
AcDbCircle
 10
0.0
 20
0.0
 40
0.25
  0
ENDBLK
  5
29
100
AcDbEntity
  8
0
100
AcDbBlockEnd
  0
BLOCK
  5
2B
100
AcDbEntity
  8
0
100
AcDbBlockBegin
  2
_OPEN
 70
     0
 10
0.0
 20
0.0
  0
LINE
  5
2C
100
AcDbEntity
  8
0
 62
     0
370
13
100
AcDbLine
 10
-0.965926
 20
0.258819
 11
0.0
 21
0.0
  0
LINE
  5
2D
100
AcDbEntity
  8
0
 62
     0
370
13
100
AcDbLine
 10
0.0
 20
0.0
 11
-0.965926
 21
-0.258819
  0
LINE
  5
2E
100
AcDbEntity
  8
0
 62
     0
370
13
100
AcDbLine
 10
0.0
 20
0.0
 11
-1.0
 21
0.0
  0
ENDBLK
  5
2F
100
AcDbEntity
  8
0
100
AcDbBlockEnd
  0
BLOCK
  5
31
100
AcDbEntity
  8
0
100
AcDbBlockBegin
  2
_CLOSED
 70
     0
 10
0.0
 20
0.0
  0
LINE
  5
32
100
AcDbEntity
  8
0
 62
     0
370
13
100
AcDbLine
 10
-0.965926
 20
0.258819
 11
0.0
 21
0.0
  0
LINE
  5
33
100
AcDbEntity
  8
0
 62
     0
370
13
100
AcDbLine
 10
0.0
 20
0.0
 11
-0.965926
 21
-0.258819
  0
LINE
  5
34
100
AcDbEntity
  8
0
 62
     0
370
13
100
AcDbLine
 10
-0.965926
 20
0.258819
 11
-0.965926
 21
-0.258819
  0
LINE
  5
35
100
AcDbEntity
  8
0
 62
     0
370
13
100
AcDbLine
 10
0.0
 20
0.0
 11
-1.0
 21
0.0
  0
ENDBLK
  5
36
100
AcDbEntity
  8
0
100
AcDbBlockEnd
  0
BLOCK
  5
38
100
AcDbEntity
  8
0
100
AcDbBlockBegin
  2
_ORIGIN
 70
     0
 10
0.0
 20
0.0
  0
CIRCLE
  5
39
100
AcDbEntity
  8
0
 62
     0
370
13
100
AcDbCircle
 10
0.0
 20
0.0
 40
0.5
  0
LINE
  5
3A
100
AcDbEntity
  8
0
 62
     0
370
13
100
AcDbLine
 10
0.0
 20
0.0
 11
-1.0
 21
0.0
  0
ENDBLK
  5
3B
100
AcDbEntity
  8
0
100
AcDbBlockEnd
  0
BLOCK
  5
3D
100
AcDbEntity
  8
0
100
AcDbBlockBegin
  2
_DOT
 70
     0
 10
0.0
 20
0.0
  0
POLYLINE
  5
3E
100
AcDbEntity
  8
0
 62
     0
100
AcDb2dPolyline
 66
     1
 70
     1
 40
0.5
 41
0.5
  0
VERTEX
  5
3F
100
AcDbEntity
  8
0
 62
     0
100
AcDbVertex
100
AcDb2dVertex
 10
-0.25
 20
0.0
 42
1.0
  0
VERTEX
  5
40
100
AcDbEntity
  8
0
 62
     0
100
AcDbVertex
100
AcDb2dVertex
 10
0.25
 20
0.0
 42
1.0
  0
SEQEND
  5
41
100
AcDbEntity
  8
0
 62
     0
  0
LINE
  5
42
100
AcDbEntity
  8
0
 62
     0
370
13
100
AcDbLine
 10
-0.5
 20
0.0
 11
-1.0
 21
0.0
  0
ENDBLK
  5
43
100
AcDbEntity
  8
0
100
AcDbBlockEnd
  0
BLOCK
  5
45
100
AcDbEntity
  8
0
100
AcDbBlockBegin
  2
_OBLIQUE
 70
     0
 10
0.0
 20
0.0
  0
LINE
  5
46
100
AcDbEntity
  8
0
 62
     0
370
13
100
AcDbLine
 10
-0.353553
 20
-0.353553
 11
0.353553
 21
0.353553
  0
ENDBLK
  5
47
100
AcDbEntity
  8
0
100
AcDbBlockEnd
  0
ENDSEC
  0
SECTION
  2
ENTITIES
  0
LINE
  5
4A
100
AcDbEntity
  8
M1
  6
CONTINUOUS
370
25
100
AcDbLine
 10
-24.84027
 20
24.186248
 11
-24.84027
 21
24.086248
  0
LINE
  5
4B
100
AcDbEntity
  8
M1
  6
CONTINUOUS
370
25
100
AcDbLine
 10
-24.84027
 20
24.086248
 11
-24.74027
 21
24.086248
  0
CIRCLE
  5
4C
100
AcDbEntity
  8
M1
  6
CONTINUOUS
370
25
100
AcDbCircle
 10
93.882398
 20
143.281454
 40
1.2
  0
CIRCLE
  5
4D
100
AcDbEntity
  8
M1
  6
CONTINUOUS
370
25
100
AcDbCircle
 10
154.282398
 20
143.281454
 40
1.2
  0
CIRCLE
  5
4E
100
AcDbEntity
  8
M1
  6
CONTINUOUS
370
25
100
AcDbCircle
 10
113.582398
 20
205.481456
 40
1.2
  0
CIRCLE
  5
4F
100
AcDbEntity
  8
M1
  6
CONTINUOUS
370
25
100
AcDbCircle
 10
134.582398
 20
205.481456
 40
1.2
  0
LINE
  5
50
100
AcDbEntity
  8
M1
  6
DASHED
370
13
100
AcDbLine
 10
81.332998
 20
200.681456
 11
168.076414
 21
200.681456
  0
LINE
  5
51
100
AcDbEntity
  8
M1
  6
DIVIDE
370
13
100
AcDbLine
 10
96.282398
 20
120.581454
 11
96.282398
 21
114.581454
  0
LINE
  5
52
100
AcDbEntity
  8
M1
  6
DIVIDE
370
13
 62
     7
100
AcDbLine
 10
92.082398
 20
120.481454
 11
96.282398
 21
120.481454
  0
LINE
  5
53
100
AcDbEntity
  8
M1
  6
DIVIDE
370
13
100
AcDbLine
 10
96.282398
 20
114.581454
 11
109.882398
 21
114.581454
  0
LINE
  5
54
100
AcDbEntity
  8
M1
  6
DIVIDE
370
13
100
AcDbLine
 10
109.882398
 20
120.581454
 11
109.882398
 21
114.581454
  0
LINE
  5
55
100
AcDbEntity
  8
M1
  6
DIVIDE
370
13
 62
     7
100
AcDbLine
 10
109.882398
 20
120.481454
 11
117.282398
 21
120.481454
  0
LINE
  5
56
100
AcDbEntity
  8
M1
  6
DIVIDE
370
13
100
AcDbLine
 10
117.282398
 20
120.481454
 11
117.282398
 21
114.481454
  0
LINE
  5
57
100
AcDbEntity
  8
M1
  6
DIVIDE
370
13
100
AcDbLine
 10
117.282398
 20
114.481454
 11
130.882398
 21
114.481454
  0
LINE
  5
58
100
AcDbEntity
  8
M1
  6
DIVIDE
370
13
100
AcDbLine
 10
130.882398
 20
120.481454
 11
130.882398
 21
114.481454
  0
LINE
  5
59
100
AcDbEntity
  8
M1
  6
DIVIDE
370
13
 62
     7
100
AcDbLine
 10
130.882398
 20
120.481454
 11
138.282398
 21
120.481454
  0
LINE
  5
5A
100
AcDbEntity
  8
M1
  6
DIVIDE
370
13
100
AcDbLine
 10
138.282398
 20
120.481454
 11
138.282398
 21
114.481454
  0
LINE
  5
5B
100
AcDbEntity
  8
M1
  6
DIVIDE
370
13
100
AcDbLine
 10
138.282398
 20
114.481454
 11
151.882398
 21
114.481454
  0
LINE
  5
5C
100
AcDbEntity
  8
M1
  6
DIVIDE
370
13
100
AcDbLine
 10
151.882398
 20
120.481454
 11
151.882398
 21
114.481454
  0
LINE
  5
5D
100
AcDbEntity
  8
M1
  6
DIVIDE
370
13
 62
     7
100
AcDbLine
 10
151.882398
 20
120.481454
 11
156.082398
 21
120.481454
  0
SPLINE
  5
5E
100
AcDbEntity
  8
M1
  6
CONTINUOUS
370
25
100
AcDbSpline
210
0.0
220
0.0
230
-1.0
 70
     8
 71
     3
 72
    14
 73
    10
 43
0.0000001
 40
0.0
 40
0.0
 40
0.0
 40
0.0
 40
1.0
 40
1.0
 40
1.0
 40
2.0
 40
2.0
 40
2.0
 40
3.0
 40
3.0
 40
3.0
 40
3.0
 10
168.791244
 20
149.281454
 10
168.99116
 20
148.37995
 10
169.102328
 20
147.518592
 10
169.034704
 20
146.738118
 10
168.900426
 20
145.188342
 10
168.061198
 20
143.957472
 10
167.901746
 20
142.583934
 10
167.781046
 20
141.544228
 10
168.049846
 20
140.422776
 10
168.41331
 20
139.281454
  0
LINE
  5
5F
100
AcDbEntity
  8
M1
  6
CONTINUOUS
370
25
100
AcDbLine
 10
81.669896
 20
139.281454
 11
168.41331
 21
139.281454
  0
LINE
  5
60
100
AcDbEntity
  8
M1
  6
CONTINUOUS
370
25
100
AcDbLine
 10
82.04783
 20
149.281454
 11
168.791244
 21
149.281454
  0
LINE
  5
61
100
AcDbEntity
  8
M1
  6
DASHED
370
13
100
AcDbLine
 10
169.00032
 20
148.081454
 11
82.256904
 21
148.081454
  0
SPLINE
  5
62
100
AcDbEntity
  8
M1
  6
CONTINUOUS
370
25
100
AcDbSpline
210
0.0
220
0.0
230
-1.0
 70
     8
 71
     3
 72
    14
 73
    10
 43
0.0000001
 40
0.0
 40
0.0
 40
0.0
 40
0.0
 40
1.0
 40
1.0
 40
1.0
 40
2.0
 40
2.0
 40
2.0
 40
3.0
 40
3.0
 40
3.0
 40
3.0
 10
82.04783
 20
149.281454
 10
82.247746
 20
148.37995
 10
82.358912
 20
147.518592
 10
82.291288
 20
146.738118
 10
82.157012
 20
145.188342
 10
81.317782
 20
143.957472
 10
81.15833
 20
142.583934
 10
81.037632
 20
141.544228
 10
81.30643
 20
140.422776
 10
81.669896
 20
139.281454
  0
SPLINE
  5
63
100
AcDbEntity
  8
M1
  6
CONTINUOUS
370
25
100
AcDbSpline
210
0.0
220
0.0
230
-1.0
 70
     8
 71
     3
 72
    14
 73
    10
 43
0.0000001
 40
0.0
 40
0.0
 40
0.0
 40
0.0
 40
1.0
 40
1.0
 40
1.0
 40
2.0
 40
2.0
 40
2.0
 40
3.0
 40
3.0
 40
3.0
 40
3.0
 10
168.791244
 20
209.481456
 10
168.99116
 20
208.57995
 10
169.102328
 20
207.718594
 10
169.034704
 20
206.938118
 10
168.900426
 20
205.388342
 10
168.061198
 20
204.157474
 10
167.901746
 20
202.783936
 10
167.781046
 20
201.74423
 10
168.049846
 20
200.622776
 10
168.41331
 20
199.481456
  0
LINE
  5
64
100
AcDbEntity
  8
M1
  6
CONTINUOUS
370
25
100
AcDbLine
 10
81.669896
 20
199.481456
 11
168.41331
 21
199.481456
  0
LINE
  5
65
100
AcDbEntity
  8
M1
  6
CONTINUOUS
370
25
100
AcDbLine
 10
82.04783
 20
209.481456
 11
168.791244
 21
209.481456
  0
SPLINE
  5
66
100
AcDbEntity
  8
M1
  6
CONTINUOUS
370
25
100
AcDbSpline
210
0.0
220
0.0
230
-1.0
 70
     8
 71
     3
 72
    14
 73
    10
 43
0.0000001
 40
0.0
 40
0.0
 40
0.0
 40
0.0
 40
1.0
 40
1.0
 40
1.0
 40
2.0
 40
2.0
 40
2.0
 40
3.0
 40
3.0
 40
3.0
 40
3.0
 10
82.04783
 20
209.481456
 10
82.247746
 20
208.57995
 10
82.358912
 20
207.718594
 10
82.291288
 20
206.938118
 10
82.157012
 20
205.388342
 10
81.317782
 20
204.157474
 10
81.15833
 20
202.783936
 10
81.037632
 20
201.74423
 10
81.30643
 20
200.622776
 10
81.669896
 20
199.481456
  0
LINE
  5
67
100
AcDbEntity
  8
M1
  6
DASHDOT
370
13
 62
     7
100
AcDbLine
 10
149.615732
 20
143.281454
 11
158.949064
 21
143.281454
  0
LINE
  5
68
100
AcDbEntity
  8
M1
  6
DASHDOT
370
13
 62
     7
100
AcDbLine
 10
154.282398
 20
138.614788
 11
154.282398
 21
147.948122
  0
LINE
  5
69
100
AcDbEntity
  8
M1
  6
DASHDOT
370
13
 62
     7
100
AcDbLine
 10
108.91573
 20
205.481456
 11
118.249064
 21
205.481456
  0
LINE
  5
6A
100
AcDbEntity
  8
M1
  6
DASHDOT
370
13
 62
     7
100
AcDbLine
 10
113.582398
 20
200.814788
 11
113.582398
 21
210.148122
  0
LINE
  5
6B
100
AcDbEntity
  8
M1
  6
DASHDOT
370
13
 62
     7
100
AcDbLine
 10
129.915732
 20
205.481456
 11
139.249064
 21
205.481456
  0
LINE
  5
6C
100
AcDbEntity
  8
M1
  6
DASHDOT
370
13
 62
     7
100
AcDbLine
 10
134.582398
 20
200.814788
 11
134.582398
 21
210.148122
  0
LINE
  5
6D
100
AcDbEntity
  8
M1
  6
DASHDOT
370
13
 62
     7
100
AcDbLine
 10
89.21573
 20
143.281454
 11
98.549064
 21
143.281454
  0
LINE
  5
6E
100
AcDbEntity
  8
M1
  6
DASHDOT
370
13
 62
     7
100
AcDbLine
 10
93.882398
 20
138.614788
 11
93.882398
 21
147.948122
  0
LINE
  5
6F
100
AcDbEntity
  8
M1
  6
DIVIDE
370
13
 62
     7
100
AcDbLine
 10
156.082398
 20
120.481454
 11
156.082398
 21
210.481456
  0
LINE
  5
70
100
AcDbEntity
  8
M1
  6
DIVIDE
370
13
 62
     7
100
AcDbLine
 10
156.082398
 20
210.481456
 11
92.082398
 21
210.481456
  0
LINE
  5
71
100
AcDbEntity
  8
M1
  6
DIVIDE
370
13
 62
     7
100
AcDbLine
 10
92.082398
 20
210.481456
 11
92.082398
 21
120.481454
  0
LINE
  5
72
100
AcDbEntity
  8
M1
  6
DASHDOT
370
13
 62
     7
100
AcDbLine
 10
85.41573
 20
159.081454
 11
162.749064
 21
159.081454
  0
LINE
  5
73
100
AcDbEntity
  8
M1
  6
DASHDOT
370
13
 62
     7
100
AcDbLine
 10
124.082398
 20
113.814788
 11
124.082398
 21
217.148122
  0
LINE
  5
74
100
AcDbEntity
  8
M1
  6
DIVIDE
370
13
 62
     7
100
AcDbLine
 10
156.082398
 20
237.256479
 11
156.082398
 21
327.256481
  0
LINE
  5
75
100
AcDbEntity
  8
M1
  6
DIVIDE
370
13
 62
     7
100
AcDbLine
 10
156.082398
 20
327.256481
 11
92.082398
 21
327.256481
  0
LINE
  5
76
100
AcDbEntity
  8
M1
  6
DIVIDE
370
13
 62
     7
100
AcDbLine
 10
92.082398
 20
327.256481
 11
92.082398
 21
237.256479
  0
LINE
  5
77
100
AcDbEntity
  8
M1
  6
DIVIDE
370
13
 62
     7
100
AcDbLine
 10
92.082398
 20
237.256479
 11
156.082398
 21
237.256479
  0
LINE
  5
78
100
AcDbEntity
  8
M1
  6
DASHDOT
370
13
 62
     7
100
AcDbLine
 10
85.41573
 20
275.856479
 11
162.749064
 21
275.856479
  0
LINE
  5
79
100
AcDbEntity
  8
M1
  6
DASHDOT
370
13
 62
     7
100
AcDbLine
 10
124.082398
 20
230.589813
 11
124.082398
 21
333.923147
  0
LINE
  5
7A
100
AcDbEntity
  8
M1
  6
CONTINUOUS
370
25
 62
     7
100
AcDbLine
 10
114.182398
 20
290.256479
 11
133.982398
 21
290.256479
  0
LINE
  5
7B
100
AcDbEntity
  8
M1
  6
CONTINUOUS
370
25
 62
     7
100
AcDbLine
 10
112.182398
 20
288.256479
 11
112.182398
 21
263.456479
  0
LINE
  5
7C
100
AcDbEntity
  8
M1
  6
CONTINUOUS
370
25
 62
     7
100
AcDbLine
 10
114.182398
 20
261.456479
 11
133.982398
 21
261.456479
  0
LINE
  5
7D
100
AcDbEntity
  8
M1
  6
CONTINUOUS
370
25
 62
     7
100
AcDbLine
 10
135.982398
 20
288.256479
 11
135.982398
 21
263.456479
  0
ARC
  5
7E
100
AcDbEntity
  8
M1
  6
CONTINUOUS
370
25
 62
     7
100
AcDbCircle
 10
133.982398
 20
263.456479
 40
2.0
100
AcDbArc
 50
270.0
 51
360.0
  0
ARC
  5
7F
100
AcDbEntity
  8
M1
  6
CONTINUOUS
370
25
 62
     7
100
AcDbCircle
 10
133.982398
 20
288.256479
 40
2.0
100
AcDbArc
 50
0.0
 51
90.0
  0
ARC
  5
80
100
AcDbEntity
  8
M1
  6
CONTINUOUS
370
25
 62
     7
100
AcDbCircle
 10
114.182398
 20
288.256479
 40
2.0
100
AcDbArc
 50
90.0
 51
180.0
  0
ARC
  5
81
100
AcDbEntity
  8
M1
  6
CONTINUOUS
370
25
 62
     7
100
AcDbCircle
 10
114.182398
 20
263.456479
 40
2.0
100
AcDbArc
 50
180.0
 51
270.0
  0
LINE
  5
82
100
AcDbEntity
  8
M1
  6
CONTINUOUS
370
25
 62
     7
100
AcDbLine
 10
118.082398
 20
406.585066
 11
130.082398
 21
406.585066
  0
ARC
  5
83
100
AcDbEntity
  8
M1
  6
CONTINUOUS
370
25
 62
     7
100
AcDbCircle
 10
154.282398
 20
386.685612
 40
2.0
100
AcDbArc
 50
90.0
 51
270.0
  0
LINE
  5
84
100
AcDbEntity
  8
M1
  6
CONTINUOUS
370
25
 62
     7
100
AcDbLine
 10
118.082398
 20
413.337716
 11
118.082398
 21
394.085612
  0
LINE
  5
85
100
AcDbEntity
  8
M1
  6
CONTINUOUS
370
25
 62
     7
100
AcDbLine
 10
129.482398
 20
410.045072
 11
118.682398
 21
410.045072
  0
ARC
  5
86
100
AcDbEntity
  8
M1
  6
CONTINUOUS
370
25
 62
     7
100
AcDbCircle
 10
118.682398
 20
410.645072
 40
0.6
100
AcDbArc
 50
180.0
 51
270.0
  0
ARC
  5
87
100
AcDbEntity
  8
M1
  6
CONTINUOUS
370
25
 62
     7
100
AcDbCircle
 10
129.482398
 20
410.645072
 40
0.6
100
AcDbArc
 50
270.0
 51
360.0
  0
ARC
  5
88
100
AcDbEntity
  8
M1
  6
CONTINUOUS
370
25
 62
     7
100
AcDbCircle
 10
129.482398
 20
413.337716
 40
0.6
100
AcDbArc
 50
0.0
 51
90.0
  0
ARC
  5
89
100
AcDbEntity
  8
M1
  6
CONTINUOUS
370
25
 62
     7
100
AcDbCircle
 10
118.682398
 20
413.337716
 40
0.6
100
AcDbArc
 50
90.0
 51
180.0
  0
LINE
  5
8A
100
AcDbEntity
  8
M1
  6
CONTINUOUS
370
25
 62
     7
100
AcDbLine
 10
154.282398
 20
384.685612
 11
156.082398
 21
384.685612
  0
LINE
  5
8B
100
AcDbEntity
  8
M1
  6
CONTINUOUS
370
25
 62
     7
100
AcDbLine
 10
154.282398
 20
388.685612
 11
156.082398
 21
388.685612
  0
LINE
  5
8C
100
AcDbEntity
  8
M1
  6
DASHDOT
370
13
 62
     7
100
AcDbLine
 10
149.615732
 20
386.685612
 11
158.949064
 21
386.685612
  0
LINE
  5
8D
100
AcDbEntity
  8
M1
  6
DASHDOT
370
13
 62
     7
100
AcDbLine
 10
154.282398
 20
382.018946
 11
154.282398
 21
391.352278
  0
LINE
  5
8E
100
AcDbEntity
  8
M1
  6
CONTINUOUS
370
25
 62
     7
100
AcDbLine
 10
118.682398
 20
413.937716
 11
129.482398
 21
413.937716
  0
LINE
  5
8F
100
AcDbEntity
  8
M1
  6
CONTINUOUS
370
25
 62
     7
100
AcDbLine
 10
130.082398
 20
413.337716
 11
130.082398
 21
394.085612
  0
LINE
  5
90
100
AcDbEntity
  8
M1
  6
CONTINUOUS
370
25
 62
     7
100
AcDbLine
 10
93.882398
 20
388.685612
 11
92.082398
 21
388.685612
  0
LINE
  5
91
100
AcDbEntity
  8
M1
  6
CONTINUOUS
370
25
 62
     7
100
AcDbLine
 10
93.882398
 20
384.685612
 11
92.082398
 21
384.685612
  0
CIRCLE
  5
92
100
AcDbEntity
  8
M1
  6
CONTINUOUS
370
25
 62
     7
100
AcDbCircle
 10
113.582398
 20
448.885612
 40
2.0
  0
LINE
  5
93
100
AcDbEntity
  8
M1
  6
DASHDOT
370
13
 62
     7
100
AcDbLine
 10
108.91573
 20
448.885612
 11
118.249064
 21
448.885612
  0
LINE
  5
94
100
AcDbEntity
  8
M1
  6
DASHDOT
370
13
 62
     7
100
AcDbLine
 10
113.582398
 20
444.218946
 11
113.582398
 21
453.55228
  0
CIRCLE
  5
95
100
AcDbEntity
  8
M1
  6
CONTINUOUS
370
25
 62
     7
100
AcDbCircle
 10
134.582398
 20
448.885612
 40
2.0
  0
LINE
  5
96
100
AcDbEntity
  8
M1
  6
DASHDOT
370
13
 62
     7
100
AcDbLine
 10
129.915732
 20
448.885612
 11
139.249064
 21
448.885612
  0
LINE
  5
97
100
AcDbEntity
  8
M1
  6
DASHDOT
370
13
 62
     7
100
AcDbLine
 10
134.582398
 20
444.218946
 11
134.582398
 21
453.55228
  0
LINE
  5
98
100
AcDbEntity
  8
M1
  6
DASHDOT
370
13
 62
     7
100
AcDbLine
 10
89.21573
 20
386.685612
 11
98.549064
 21
386.685612
  0
LINE
  5
99
100
AcDbEntity
  8
M1
  6
DASHDOT
370
13
 62
     7
100
AcDbLine
 10
93.882398
 20
382.018946
 11
93.882398
 21
391.352278
  0
ARC
  5
9A
100
AcDbEntity
  8
M1
  6
CONTINUOUS
370
25
 62
     7
100
AcDbCircle
 10
93.882398
 20
386.685612
 40
2.0
100
AcDbArc
 50
270.0
 51
450.0
  0
LINE
  5
9B
100
AcDbEntity
  8
M1
  6
CONTINUOUS
370
25
 62
     7
100
AcDbLine
 10
156.082398
 20
363.885612
 11
156.082398
 21
453.885612
  0
LINE
  5
9C
100
AcDbEntity
  8
M1
  6
CONTINUOUS
370
25
 62
     7
100
AcDbLine
 10
156.082398
 20
453.885612
 11
92.082398
 21
453.885612
  0
LINE
  5
9D
100
AcDbEntity
  8
M1
  6
CONTINUOUS
370
25
 62
     7
100
AcDbLine
 10
92.082398
 20
453.885612
 11
92.082398
 21
363.885612
  0
LINE
  5
9E
100
AcDbEntity
  8
M1
  6
CONTINUOUS
370
25
 62
     7
100
AcDbLine
 10
92.082398
 20
363.885612
 11
156.082398
 21
363.885612
  0
LINE
  5
9F
100
AcDbEntity
  8
M1
  6
DASHDOT
370
13
 62
     7
100
AcDbLine
 10
85.41573
 20
402.485612
 11
162.749064
 21
402.485612
  0
LINE
  5
A0
100
AcDbEntity
  8
M1
  6
DASHDOT
370
13
 62
     7
100
AcDbLine
 10
124.082398
 20
357.218946
 11
124.082398
 21
460.55228
  0
LINE
  5
A1
100
AcDbEntity
  8
M1
  6
CONTINUOUS
370
25
 62
     7
100
AcDbLine
 10
135.582398
 20
415.485612
 11
135.582398
 21
389.485612
  0
LINE
  5
A2
100
AcDbEntity
  8
M1
  6
CONTINUOUS
370
25
 62
     7
100
AcDbLine
 10
112.582398
 20
415.485612
 11
112.582398
 21
389.485612
  0
LINE
  5
A3
100
AcDbEntity
  8
M1
  6
CONTINUOUS
370
25
 62
     7
100
AcDbLine
 10
113.582398
 20
416.485612
 11
134.582398
 21
416.485612
  0
LINE
  5
A4
100
AcDbEntity
  8
M1
  6
CONTINUOUS
370
25
 62
     7
100
AcDbLine
 10
113.582398
 20
388.485612
 11
134.582398
 21
388.485612
  0
LINE
  5
A5
100
AcDbEntity
  8
M1
  6
CONTINUOUS
370
25
 62
     7
100
AcDbLine
 10
112.582398
 20
410.885612
 11
118.082398
 21
410.885612
  0
LINE
  5
A6
100
AcDbEntity
  8
M1
  6
CONTINUOUS
370
25
 62
     7
100
AcDbLine
 10
112.582398
 20
394.085612
 11
135.582398
 21
394.085612
  0
LINE
  5
A7
100
AcDbEntity
  8
M1
  6
CONTINUOUS
370
25
 62
     7
100
AcDbLine
 10
117.882398
 20
410.885612
 11
117.882398
 21
394.085612
  0
LINE
  5
A8
100
AcDbEntity
  8
M1
  6
CONTINUOUS
370
25
 62
     7
100
AcDbLine
 10
130.282398
 20
410.885612
 11
130.282398
 21
394.085612
  0
LINE
  5
A9
100
AcDbEntity
  8
M1
  6
CONTINUOUS
370
25
 62
     7
100
AcDbLine
 10
130.082398
 20
410.885612
 11
135.582398
 21
410.885612
  0
LINE
  5
AA
100
AcDbEntity
  8
M1
  6
DASHED
370
13
 62
     7
100
AcDbLine
 10
147.082398
 20
434.085612
 11
147.082398
 21
416.085612
  0
LINE
  5
AB
100
AcDbEntity
  8
M1
  6
DASHED
370
13
 62
     7
100
AcDbLine
 10
143.082398
 20
434.085612
 11
143.082398
 21
416.085612
  0
LINE
  5
AC
100
AcDbEntity
  8
M1
  6
DASHED
370
13
 62
     7
100
AcDbLine
 10
143.082398
 20
434.085612
 11
147.082398
 21
434.085612
  0
LINE
  5
AD
100
AcDbEntity
  8
M1
  6
DASHED
370
13
 62
     7
100
AcDbLine
 10
143.082398
 20
416.085612
 11
147.082398
 21
416.085612
  0
LINE
  5
AE
100
AcDbEntity
  8
M1
  6
DASHDOT
370
13
 62
     7
100
AcDbLine
 10
145.082398
 20
437.636196
 11
145.082398
 21
358.73748
  0
LINE
  5
AF
100
AcDbEntity
  8
M1
  6
DASHED
370
13
 62
     7
100
AcDbLine
 10
143.082398
 20
375.885612
 11
147.082398
 21
375.885612
  0
LINE
  5
B0
100
AcDbEntity
  8
M1
  6
DASHED
370
13
 62
     7
100
AcDbLine
 10
143.082398
 20
375.885612
 11
143.082398
 21
357.985612
  0
LINE
  5
B1
100
AcDbEntity
  8
M1
  6
DASHED
370
13
 62
     7
100
AcDbLine
 10
143.082398
 20
363.985612
 11
147.082398
 21
363.985612
  0
LINE
  5
B2
100
AcDbEntity
  8
M1
  6
DASHED
370
13
 62
     7
100
AcDbLine
 10
147.082398
 20
375.885612
 11
147.082398
 21
357.985612
  0
LINE
  5
B3
100
AcDbEntity
  8
M1
  6
DASHED
370
13
 62
     7
100
AcDbLine
 10
122.082398
 20
434.085612
 11
126.082398
 21
434.085612
  0
LINE
  5
B4
100
AcDbEntity
  8
M1
  6
DASHED
370
13
 62
     7
100
AcDbLine
 10
122.082398
 20
434.085612
 11
122.082398
 21
416.085612
  0
LINE
  5
B5
100
AcDbEntity
  8
M1
  6
DASHED
370
13
 62
     7
100
AcDbLine
 10
122.082398
 20
416.085612
 11
126.082398
 21
416.085612
  0
LINE
  5
B6
100
AcDbEntity
  8
M1
  6
DASHED
370
13
 62
     7
100
AcDbLine
 10
126.082398
 20
434.085612
 11
126.082398
 21
416.085612
  0
LINE
  5
B7
100
AcDbEntity
  8
M1
  6
DASHED
370
13
 62
     7
100
AcDbLine
 10
122.082398
 20
375.885612
 11
126.082398
 21
375.885612
  0
LINE
  5
B8
100
AcDbEntity
  8
M1
  6
DASHED
370
13
 62
     7
100
AcDbLine
 10
126.082398
 20
375.885612
 11
126.082398
 21
357.985612
  0
LINE
  5
B9
100
AcDbEntity
  8
M1
  6
DASHED
370
13
 62
     7
100
AcDbLine
 10
122.082398
 20
375.885612
 11
122.082398
 21
357.985612
  0
LINE
  5
BA
100
AcDbEntity
  8
M1
  6
DASHED
370
13
 62
     7
100
AcDbLine
 10
122.082398
 20
363.985612
 11
126.082398
 21
363.985612
  0
LINE
  5
BB
100
AcDbEntity
  8
M1
  6
DASHED
370
13
 62
     7
100
AcDbLine
 10
101.082398
 20
434.085612
 11
105.082398
 21
434.085612
  0
LINE
  5
BC
100
AcDbEntity
  8
M1
  6
DASHED
370
13
 62
     7
100
AcDbLine
 10
101.082398
 20
434.085612
 11
101.082398
 21
416.085612
  0
LINE
  5
BD
100
AcDbEntity
  8
M1
  6
DASHED
370
13
 62
     7
100
AcDbLine
 10
101.082398
 20
416.085612
 11
105.082398
 21
416.085612
  0
LINE
  5
BE
100
AcDbEntity
  8
M1
  6
DASHED
370
13
 62
     7
100
AcDbLine
 10
105.082398
 20
434.085612
 11
105.082398
 21
416.085612
  0
LINE
  5
BF
100
AcDbEntity
  8
M1
  6
DASHED
370
13
 62
     7
100
AcDbLine
 10
101.082398
 20
375.885612
 11
105.082398
 21
375.885612
  0
LINE
  5
C0
100
AcDbEntity
  8
M1
  6
DASHED
370
13
 62
     7
100
AcDbLine
 10
105.082398
 20
375.885612
 11
105.082398
 21
357.985612
  0
LINE
  5
C1
100
AcDbEntity
  8
M1
  6
DASHED
370
13
 62
     7
100
AcDbLine
 10
101.082398
 20
375.885612
 11
101.082398
 21
357.985612
  0
LINE
  5
C2
100
AcDbEntity
  8
M1
  6
DASHED
370
13
 62
     7
100
AcDbLine
 10
101.082398
 20
363.985612
 11
105.082398
 21
363.985612
  0
LINE
  5
C3
100
AcDbEntity
  8
M1
  6
DASHDOT
370
13
 62
     7
100
AcDbLine
 10
103.082398
 20
437.636196
 11
103.082398
 21
358.73748
  0
ARC
  5
C4
100
AcDbEntity
  8
M1
  6
CONTINUOUS
370
25
 62
     7
100
AcDbCircle
 10
113.582398
 20
415.485612
 40
1.0
100
AcDbArc
 50
90.0
 51
180.0
  0
ARC
  5
C5
100
AcDbEntity
  8
M1
  6
CONTINUOUS
370
25
 62
     7
100
AcDbCircle
 10
113.582398
 20
389.485612
 40
1.0
100
AcDbArc
 50
180.0
 51
270.0
  0
ARC
  5
C6
100
AcDbEntity
  8
M1
  6
CONTINUOUS
370
25
 62
     7
100
AcDbCircle
 10
134.582398
 20
389.485612
 40
1.0
100
AcDbArc
 50
270.0
 51
360.0
  0
ARC
  5
C7
100
AcDbEntity
  8
M1
  6
CONTINUOUS
370
25
 62
     7
100
AcDbCircle
 10
134.582398
 20
415.485612
 40
1.0
100
AcDbArc
 50
0.0
 51
90.0
  0
LINE
  5
C8
100
AcDbEntity
  8
M1
  6
CONTINUOUS
370
25
 62
     7
100
AcDbLine
 10
96.282398
 20
363.985612
 11
96.282398
 21
357.985612
  0
LINE
  5
C9
100
AcDbEntity
  8
M1
  6
CONTINUOUS
370
25
 62
     7
100
AcDbLine
 10
96.282398
 20
357.985612
 11
109.882398
 21
357.985612
  0
LINE
  5
CA
100
AcDbEntity
  8
M1
  6
CONTINUOUS
370
25
 62
     7
100
AcDbLine
 10
109.882398
 20
363.985612
 11
109.882398
 21
357.985612
  0
LINE
  5
CB
100
AcDbEntity
  8
M1
  6
CONTINUOUS
370
25
 62
     7
100
AcDbLine
 10
117.282398
 20
363.885612
 11
117.282398
 21
357.885612
  0
LINE
  5
CC
100
AcDbEntity
  8
M1
  6
CONTINUOUS
370
25
 62
     7
100
AcDbLine
 10
117.282398
 20
357.885612
 11
130.882398
 21
357.885612
  0
LINE
  5
CD
100
AcDbEntity
  8
M1
  6
CONTINUOUS
370
25
 62
     7
100
AcDbLine
 10
130.882398
 20
363.885612
 11
130.882398
 21
357.885612
  0
LINE
  5
CE
100
AcDbEntity
  8
M1
  6
CONTINUOUS
370
25
 62
     7
100
AcDbLine
 10
138.282398
 20
363.885612
 11
138.282398
 21
357.885612
  0
LINE
  5
CF
100
AcDbEntity
  8
M1
  6
CONTINUOUS
370
25
 62
     7
100
AcDbLine
 10
138.282398
 20
357.885612
 11
151.882398
 21
357.885612
  0
LINE
  5
D0
100
AcDbEntity
  8
M1
  6
CONTINUOUS
370
25
 62
     7
100
AcDbLine
 10
151.882398
 20
363.885612
 11
151.882398
 21
357.885612
  0
LINE
  5
D1
100
AcDbEntity
  8
M1
  6
DASHED
370
13
 62
   234
100
AcDbLine
 10
264.752206
 20
447.285616
 11
266.632216
 21
447.285616
  0
LINE
  5
D2
100
AcDbEntity
  8
M1
  6
DASHED
370
13
 62
   234
100
AcDbLine
 10
266.632216
 20
447.285616
 11
266.632216
 21
450.485616
  0
LINE
  5
D3
100
AcDbEntity
  8
M1
  6
DASHED
370
13
 62
   234
100
AcDbLine
 10
266.632216
 20
450.485616
 11
264.752214
 21
450.485616
  0
LINE
  5
D4
100
AcDbEntity
  8
M1
  6
DASHED
370
13
 62
   234
100
AcDbLine
 10
264.632216
 20
450.277772
 11
264.632216
 21
447.493446
  0
LINE
  5
D5
100
AcDbEntity
  8
M1
  6
DASHED
370
13
 62
   234
100
AcDbLine
 10
266.632216
 20
447.885612
 11
284.632216
 21
447.885612
  0
LINE
  5
D6
100
AcDbEntity
  8
M1
  6
CONTINUOUS
370
25
 62
   234
100
AcDbLine
 10
290.392216
 20
447.885612
 11
290.392216
 21
449.885612
  0
LINE
  5
D7
100
AcDbEntity
  8
M1
  6
CONTINUOUS
370
25
 62
   234
100
AcDbLine
 10
290.392216
 20
449.885612
 11
287.752216
 21
449.885612
  0
LINE
  5
D8
100
AcDbEntity
  8
M1
  6
DASHDOT
370
13
 62
   234
100
AcDbLine
 10
255.905882
 20
448.885612
 11
291.392216
 21
448.885612
  0
LINE
  5
D9
100
AcDbEntity
  8
M1
  6
DASHED
370
13
 62
   234
100
AcDbLine
 10
264.752214
 20
450.485616
 11
264.752214
 21
447.285616
  0
LINE
  5
DA
100
AcDbEntity
  8
M1
  6
DASHED
370
13
 62
   234
100
AcDbLine
 10
264.632216
 20
450.277772
 11
264.752214
 21
450.485616
  0
LINE
  5
DB
100
AcDbEntity
  8
M1
  6
DASHED
370
13
 62
   234
100
AcDbLine
 10
264.632216
 20
447.493446
 11
264.752206
 21
447.285616
  0
LINE
  5
DC
100
AcDbEntity
  8
M1
  6
DASHED
370
13
 62
   234
100
AcDbLine
 10
284.632216
 20
449.885612
 11
266.632216
 21
449.885612
  0
LINE
  5
DD
100
AcDbEntity
  8
M1
  6
CONTINUOUS
370
25
 62
   234
100
AcDbLine
 10
287.752216
 20
447.885612
 11
290.392216
 21
447.885612
  0
LINE
  5
DE
100
AcDbEntity
  8
M1
  6
CONTINUOUS
370
25
 62
   234
100
AcDbLine
 10
290.392216
 20
387.685612
 11
287.752216
 21
387.685612
  0
LINE
  5
DF
100
AcDbEntity
  8
M1
  6
CONTINUOUS
370
25
 62
   234
100
AcDbLine
 10
290.392216
 20
385.685612
 11
290.392216
 21
387.685612
  0
LINE
  5
E0
100
AcDbEntity
  8
M1
  6
CONTINUOUS
370
25
 62
   234
100
AcDbLine
 10
287.752216
 20
385.685612
 11
290.392216
 21
385.685612
  0
LINE
  5
E1
100
AcDbEntity
  8
M1
  6
CONTINUOUS
370
25
 62
     2
100
AcDbLine
 10
285.832216
 20
446.685614
 11
286.152214
 21
446.685614
  0
LINE
  5
E2
100
AcDbEntity
  8
M1
  6
CONTINUOUS
370
25
 62
     2
100
AcDbLine
 10
286.152214
 20
446.685614
 11
286.152214
 21
451.085614
  0
LINE
  5
E3
100
AcDbEntity
  8
M1
  6
CONTINUOUS
370
25
 62
     2
100
AcDbLine
 10
286.152214
 20
451.085614
 11
285.832216
 21
451.085614
  0
LINE
  5
E4
100
AcDbEntity
  8
M1
  6
CONTINUOUS
370
25
 62
     2
100
AcDbLine
 10
285.832216
 20
451.085614
 11
285.832216
 21
446.685614
  0
LINE
  5
E5
100
AcDbEntity
  8
M1
  6
DASHDOT
370
13
 62
     2
100
AcDbLine
 10
285.532214
 20
448.885612
 11
286.752216
 21
448.885614
  0
LINE
  5
E6
100
AcDbEntity
  8
M1
  6
CONTINUOUS
370
25
 62
   114
100
AcDbLine
 10
287.752212
 20
450.845622
 11
286.152208
 21
450.845622
  0
LINE
  5
E7
100
AcDbEntity
  8
M1
  6
CONTINUOUS
370
25
 62
   114
100
AcDbLine
 10
286.152214
 20
450.845614
 11
286.152214
 21
446.925618
  0
LINE
  5
E8
100
AcDbEntity
  8
M1
  6
CONTINUOUS
370
25
 62
   114
100
AcDbLine
 10
286.152212
 20
446.925622
 11
287.752212
 21
446.925622
  0
LINE
  5
E9
100
AcDbEntity
  8
M1
  6
CONTINUOUS
370
25
 62
   114
100
AcDbLine
 10
287.752216
 20
446.925624
 11
287.752216
 21
450.845626
  0
LINE
  5
EA
100
AcDbEntity
  8
M1
  6
DASHDOT
370
13
 62
   114
100
AcDbLine
 10
289.452212
 20
448.885612
 11
285.052208
 21
448.885612
  0
LINE
  5
EB
100
AcDbEntity
  8
M1
  6
CONTINUOUS
370
25
 62
   114
100
AcDbLine
 10
287.752212
 20
447.90562
 11
286.152212
 21
447.90562
  0
LINE
  5
EC
100
AcDbEntity
  8
M1
  6
CONTINUOUS
370
25
 62
   114
100
AcDbLine
 10
287.752212
 20
449.865618
 11
286.152208
 21
449.865618
  0
LINE
  5
ED
100
AcDbEntity
  8
M1
  6
DASHED
370
13
 62
     6
100
AcDbLine
 10
285.832216
 20
444.085612
 11
294.632216
 21
444.085612
  0
LINE
  5
EE
100
AcDbEntity
  8
M1
  6
DASHED
370
13
 62
     6
100
AcDbLine
 10
294.632216
 20
444.085612
 11
294.632216
 21
442.885612
  0
LINE
  5
EF
100
AcDbEntity
  8
M1
  6
DASHED
370
13
 62
     6
100
AcDbLine
 10
284.632216
 20
442.885612
 11
294.632216
 21
442.885612
  0
LINE
  5
F0
100
AcDbEntity
  8
M1
  6
DASHED
370
13
 62
     6
100
AcDbLine
 10
285.832216
 20
452.885612
 11
285.832216
 21
444.085612
  0
LINE
  5
F1
100
AcDbEntity
  8
M1
  6
DASHED
370
13
 62
     6
100
AcDbLine
 10
284.632216
 20
452.885612
 11
284.632216
 21
442.885612
  0
LINE
  5
F2
100
AcDbEntity
  8
M1
  6
DASHED
370
13
 62
     6
100
AcDbLine
 10
284.632216
 20
452.885612
 11
285.832216
 21
452.885612
  0
LINE
  5
F3
100
AcDbEntity
  8
M1
  6
DASHED
370
13
 62
     6
100
AcDbLine
 10
285.832216
 20
391.485612
 11
294.632216
 21
391.485612
  0
LINE
  5
F4
100
AcDbEntity
  8
M1
  6
DASHED
370
13
 62
     6
100
AcDbLine
 10
294.632216
 20
391.485612
 11
294.632216
 21
392.685612
  0
LINE
  5
F5
100
AcDbEntity
  8
M1
  6
DASHED
370
13
 62
     6
100
AcDbLine
 10
284.632216
 20
392.685612
 11
294.632216
 21
392.685612
  0
LINE
  5
F6
100
AcDbEntity
  8
M1
  6
DASHED
370
13
 62
     6
100
AcDbLine
 10
285.832216
 20
382.685612
 11
285.832216
 21
391.485612
  0
LINE
  5
F7
100
AcDbEntity
  8
M1
  6
DASHED
370
13
 62
     6
100
AcDbLine
 10
284.632216
 20
382.685612
 11
284.632216
 21
392.685612
  0
LINE
  5
F8
100
AcDbEntity
  8
M1
  6
DASHED
370
13
 62
     6
100
AcDbLine
 10
284.632216
 20
382.685612
 11
285.832216
 21
382.685612
  0
LINE
  5
F9
100
AcDbEntity
  8
M1
  6
CONTINUOUS
370
25
 62
   114
100
AcDbLine
 10
287.752212
 20
388.645622
 11
286.152208
 21
388.645622
  0
LINE
  5
FA
100
AcDbEntity
  8
M1
  6
CONTINUOUS
370
25
 62
   114
100
AcDbLine
 10
286.152214
 20
388.645612
 11
286.152214
 21
384.725618
  0
LINE
  5
FB
100
AcDbEntity
  8
M1
  6
CONTINUOUS
370
25
 62
   114
100
AcDbLine
 10
286.152212
 20
384.72562
 11
287.752212
 21
384.72562
  0
LINE
  5
FC
100
AcDbEntity
  8
M1
  6
CONTINUOUS
370
25
 62
   114
100
AcDbLine
 10
287.752216
 20
384.725624
 11
287.752216
 21
388.645624
  0
LINE
  5
FD
100
AcDbEntity
  8
M1
  6
DASHDOT
370
13
 62
   114
100
AcDbLine
 10
294.040264
 20
386.685612
 11
281.063716
 21
386.685612
  0
LINE
  5
FE
100
AcDbEntity
  8
M1
  6
CONTINUOUS
370
25
 62
   114
100
AcDbLine
 10
287.752212
 20
385.70562
 11
286.152212
 21
385.70562
  0
LINE
  5
FF
100
AcDbEntity
  8
M1
  6
CONTINUOUS
370
25
 62
   114
100
AcDbLine
 10
287.752212
 20
387.665616
 11
286.152208
 21
387.665616
  0
LINE
  5
100
100
AcDbEntity
  8
M1
  6
CONTINUOUS
370
25
 62
     2
100
AcDbLine
 10
285.832216
 20
384.485614
 11
286.152214
 21
384.485614
  0
LINE
  5
101
100
AcDbEntity
  8
M1
  6
CONTINUOUS
370
25
 62
     2
100
AcDbLine
 10
286.152214
 20
384.485614
 11
286.152214
 21
388.885614
  0
LINE
  5
102
100
AcDbEntity
  8
M1
  6
CONTINUOUS
370
25
 62
     2
100
AcDbLine
 10
286.152214
 20
388.885614
 11
285.832216
 21
388.885614
  0
LINE
  5
103
100
AcDbEntity
  8
M1
  6
CONTINUOUS
370
25
 62
     2
100
AcDbLine
 10
285.832216
 20
388.885614
 11
285.832216
 21
384.485614
  0
LINE
  5
104
100
AcDbEntity
  8
M1
  6
DASHDOT
370
13
 62
     2
100
AcDbLine
 10
285.532214
 20
386.68561
 11
286.752216
 21
386.685614
  0
LINE
  5
105
100
AcDbEntity
  8
M1
  6
DASHED
370
13
 62
   253
100
AcDbLine
 10
245.632216
 20
413.382336
 11
236.517732
 21
416.396664
  0
LINE
  5
106
100
AcDbEntity
  8
M1
  6
DASHED
370
13
 62
   253
100
AcDbLine
 10
236.517732
 20
416.396664
 11
234.005792
 21
408.80126
  0
LINE
  5
107
100
AcDbEntity
  8
M1
  6
DASHED
370
13
 62
   253
100
AcDbLine
 10
234.005792
 20
408.80126
 11
243.120276
 21
405.786932
  0
LINE
  5
108
100
AcDbEntity
  8
M1
  6
DASHED
370
13
 62
   253
100
AcDbLine
 10
243.120276
 20
405.786932
 11
245.632216
 21
413.382336
  0
LINE
  5
109
100
AcDbEntity
  8
M1
  6
DASHED
370
13
 62
   253
100
AcDbLine
 10
234.005792
 20
408.80126
 11
225.905692
 21
413.182144
  0
LINE
  5
10A
100
AcDbEntity
  8
M1
  6
DASHED
370
13
 62
   253
100
AcDbLine
 10
236.517732
 20
416.396664
 11
227.402838
 21
417.709094
  0
ARC
  5
10B
100
AcDbEntity
  8
M1
  6
DASHED
370
13
 62
   253
100
AcDbCircle
 10
222.91923
 20
416.680864
 40
4.6
100
AcDbArc
 50
12.916355
 51
310.483645
  0
LINE
  5
10C
100
AcDbEntity
  8
M1
  6
DASHDOT
370
13
 62
     7
100
AcDbLine
 10
240.092114
 20
402.485612
 11
299.872448
 21
402.485612
  0
LINE
  5
10D
100
AcDbEntity
  8
M1
  6
CONTINUOUS
370
25
 62
     7
100
AcDbLine
 10
284.632216
 20
453.885612
 11
284.632216
 21
363.885612
  0
LINE
  5
10E
100
AcDbEntity
  8
M1
  6
CONTINUOUS
370
25
 62
     7
100
AcDbLine
 10
247.632216
 20
453.885612
 11
247.632216
 21
363.885612
  0
LINE
  5
10F
100
AcDbEntity
  8
M1
  6
CONTINUOUS
370
25
 62
     7
100
AcDbLine
 10
247.632216
 20
453.885612
 11
284.632216
 21
453.885612
  0
LINE
  5
110
100
AcDbEntity
  8
M1
  6
CONTINUOUS
370
25
 62
     7
100
AcDbLine
 10
247.632216
 20
363.885612
 11
284.632216
 21
363.885612
  0
LINE
  5
111
100
AcDbEntity
  8
M1
  6
CONTINUOUS
370
25
 62
     7
100
AcDbLine
 10
245.632216
 20
416.485612
 11
245.632216
 21
388.485612
  0
LINE
  5
112
100
AcDbEntity
  8
M1
  6
CONTINUOUS
370
25
 62
     7
100
AcDbLine
 10
245.632216
 20
388.485612
 11
247.632216
 21
388.485612
  0
LINE
  5
113
100
AcDbEntity
  8
M1
  6
CONTINUOUS
370
25
 62
     7
100
AcDbLine
 10
245.632216
 20
416.485612
 11
247.632216
 21
416.485612
  0
LINE
  5
114
100
AcDbEntity
  8
M1
  6
DASHDOT
370
13
 62
     7
100
AcDbLine
 10
235.632216
 20
402.885612
 11
235.632216
 21
399.43465
  0
LINE
  5
115
100
AcDbEntity
  8
M1
  6
DASHDOT
370
13
 62
     7
100
AcDbLine
 10
264.632216
 20
408.02845
 11
264.632216
 21
397.85862
  0
LINE
  5
116
100
AcDbEntity
  8
M1
  6
DASHDOT
370
13
 62
     7
100
AcDbLine
 10
274.891706
 20
402.885612
 11
216.09724
 21
402.885612
  0
LINE
  5
117
100
AcDbEntity
  8
M1
  6
DASHDOT
370
13
 62
     7
100
AcDbLine
 10
264.632216
 20
402.885612
 11
233.533702
 21
413.170462
  0
LINE
  5
118
100
AcDbEntity
  8
M1
  6
DASHDOT
370
13
 62
     7
100
AcDbLine
 10
264.632216
 20
402.885612
 11
232.374752
 21
397.19775
  0
LINE
  5
119
100
AcDbEntity
  8
M1
  6
DASHDOT
370
13
 62
     7
100
AcDbLine
 10
264.632216
 20
402.885612
 11
232.172474
 21
407.274342
  0
LINE
  5
11A
100
AcDbEntity
  8
M1
  6
DASHDOT
370
13
 62
     7
100
AcDbLine
 10
264.632216
 20
402.885612
 11
233.038054
 21
394.242428
  0
LINE
  5
11B
100
AcDbEntity
  8
M1
  6
CONTINUOUS
370
25
 62
     7
100
AcDbLine
 10
237.742562
 20
413.937716
 11
236.455192
 21
410.045072
  0
LINE
  5
11C
100
AcDbEntity
  8
M1
  6
CONTINUOUS
370
25
 62
     7
100
AcDbLine
 10
245.632216
 20
411.68402
 11
237.742562
 21
413.937716
  0
LINE
  5
11D
100
AcDbEntity
  8
M1
  6
CONTINUOUS
370
25
 62
     7
100
AcDbLine
 10
236.455192
 20
410.045072
 11
245.632216
 21
406.585066
  0
ARC
  5
11E
100
AcDbEntity
  8
M1
  6
DASHDOT
370
13
 62
     7
100
AcDbCircle
 10
264.632216
 20
402.885612
 40
29.0
100
AcDbArc
 50
161.7
 51
180.0
  0
LINE
  5
11F
100
AcDbEntity
  8
M1
  6
CONTINUOUS
370
25
 62
     7
100
AcDbLine
 10
284.632216
 20
416.085612
 11
314.632218
 21
416.085612
  0
LINE
  5
120
100
AcDbEntity
  8
M1
  6
DASHDOT
370
13
 62
     7
100
AcDbLine
 10
278.38262
 20
425.085612
 11
317.166358
 21
425.085612
  0
LINE
  5
121
100
AcDbEntity
  8
M1
  6
CONTINUOUS
370
25
 62
     7
100
AcDbLine
 10
284.632216
 20
434.085612
 11
314.632218
 21
434.085612
  0
LINE
  5
122
100
AcDbEntity
  8
M1
  6
CONTINUOUS
370
25
 62
     7
100
AcDbLine
 10
314.632218
 20
434.085612
 11
314.632218
 21
416.085612
  0
LINE
  5
123
100
AcDbEntity
  8
M1
  6
DASHDOT
370
13
 62
     7
100
AcDbLine
 10
306.86555
 20
429.085612
 11
314.398884
 21
429.085612
  0
LINE
  5
124
100
AcDbEntity
  8
M1
  6
DASHDOT
370
13
 62
     7
100
AcDbLine
 10
310.632218
 20
425.318946
 11
310.632218
 21
432.85228
  0
LINE
  5
125
100
AcDbEntity
  8
M1
  6
DASHDOT
370
13
 62
     7
100
AcDbLine
 10
298.86555
 20
429.085612
 11
306.398884
 21
429.085612
  0
LINE
  5
126
100
AcDbEntity
  8
M1
  6
DASHDOT
370
13
 62
     7
100
AcDbLine
 10
302.632218
 20
425.318946
 11
302.632218
 21
432.85228
  0
LINE
  5
127
100
AcDbEntity
  8
M1
  6
DASHDOT
370
13
 62
     7
100
AcDbLine
 10
298.86555
 20
421.085612
 11
306.398884
 21
421.085612
  0
LINE
  5
128
100
AcDbEntity
  8
M1
  6
DASHDOT
370
13
 62
     7
100
AcDbLine
 10
302.632218
 20
417.318946
 11
302.632218
 21
424.85228
  0
LINE
  5
129
100
AcDbEntity
  8
M1
  6
DASHDOT
370
13
 62
     7
100
AcDbLine
 10
306.86555
 20
421.085612
 11
314.398884
 21
421.085612
  0
LINE
  5
12A
100
AcDbEntity
  8
M1
  6
DASHDOT
370
13
 62
     7
100
AcDbLine
 10
310.632218
 20
417.318946
 11
310.632218
 21
424.85228
  0
ARC
  5
12B
100
AcDbEntity
  8
M1
  6
DASHDOT
370
13
 62
     7
100
AcDbCircle
 10
264.632216
 20
402.885612
 40
48.534976
100
AcDbArc
 50
161.7
 51
180.472207
  0
LINE
  5
12C
100
AcDbEntity
  8
M1
  6
CONTINUOUS
370
13
 62
     7
100
AcDbLine
 10
298.632218
 20
431.585612
 11
298.632218
 21
431.435278
  0
CIRCLE
  5
12D
100
AcDbEntity
  8
M1
  6
CONTINUOUS
370
25
 62
     7
100
AcDbCircle
 10
310.632218
 20
429.085612
 40
1.4
  0
CIRCLE
  5
12E
100
AcDbEntity
  8
M1
  6
CONTINUOUS
370
25
 62
     7
100
AcDbCircle
 10
302.632218
 20
429.085612
 40
1.4
  0
CIRCLE
  5
12F
100
AcDbEntity
  8
M1
  6
CONTINUOUS
370
25
 62
     7
100
AcDbCircle
 10
302.632218
 20
421.085612
 40
1.4
  0
CIRCLE
  5
130
100
AcDbEntity
  8
M1
  6
CONTINUOUS
370
25
 62
     7
100
AcDbCircle
 10
310.632218
 20
421.085612
 40
1.4
  0
LINE
  5
131
100
AcDbEntity
  8
M1
  6
CONTINUOUS
370
25
 62
     7
100
AcDbLine
 10
279.632216
 20
357.885612
 11
314.632218
 21
357.885612
  0
LINE
  5
132
100
AcDbEntity
  8
M1
  6
DASHDOT
370
13
 62
     7
100
AcDbLine
 10
278.38262
 20
366.885612
 11
317.166358
 21
366.885612
  0
LINE
  5
133
100
AcDbEntity
  8
M1
  6
CONTINUOUS
370
25
 62
     7
100
AcDbLine
 10
284.632216
 20
375.885612
 11
314.632218
 21
375.885612
  0
LINE
  5
134
100
AcDbEntity
  8
M1
  6
CONTINUOUS
370
25
 62
     7
100
AcDbLine
 10
314.632218
 20
375.885612
 11
314.632218
 21
357.885612
  0
LINE
  5
135
100
AcDbEntity
  8
M1
  6
DASHDOT
370
13
 62
     7
100
AcDbLine
 10
306.86555
 20
370.885612
 11
314.398884
 21
370.885612
  0
LINE
  5
136
100
AcDbEntity
  8
M1
  6
DASHDOT
370
13
 62
     7
100
AcDbLine
 10
310.632218
 20
367.118946
 11
310.632218
 21
374.652278
  0
LINE
  5
137
100
AcDbEntity
  8
M1
  6
DASHDOT
370
13
 62
     7
100
AcDbLine
 10
298.86555
 20
370.885612
 11
306.398884
 21
370.885612
  0
LINE
  5
138
100
AcDbEntity
  8
M1
  6
DASHDOT
370
13
 62
     7
100
AcDbLine
 10
302.632218
 20
367.118946
 11
302.632218
 21
374.652278
  0
LINE
  5
139
100
AcDbEntity
  8
M1
  6
DASHDOT
370
13
 62
     7
100
AcDbLine
 10
298.86555
 20
362.885612
 11
306.398884
 21
362.885612
  0
LINE
  5
13A
100
AcDbEntity
  8
M1
  6
DASHDOT
370
13
 62
     7
100
AcDbLine
 10
302.632218
 20
359.118944
 11
302.632218
 21
366.652278
  0
LINE
  5
13B
100
AcDbEntity
  8
M1
  6
DASHDOT
370
13
 62
     7
100
AcDbLine
 10
306.86555
 20
362.885612
 11
314.398884
 21
362.885612
  0
LINE
  5
13C
100
AcDbEntity
  8
M1
  6
DASHDOT
370
13
 62
     7
100
AcDbLine
 10
310.632218
 20
359.118944
 11
310.632218
 21
366.652278
  0
CIRCLE
  5
13D
100
AcDbEntity
  8
M1
  6
CONTINUOUS
370
25
 62
     7
100
AcDbCircle
 10
310.632218
 20
370.885612
 40
1.4
  0
CIRCLE
  5
13E
100
AcDbEntity
  8
M1
  6
CONTINUOUS
370
25
 62
     7
100
AcDbCircle
 10
302.632218
 20
370.885612
 40
1.4
  0
CIRCLE
  5
13F
100
AcDbEntity
  8
M1
  6
CONTINUOUS
370
25
 62
     7
100
AcDbCircle
 10
302.632218
 20
362.885612
 40
1.4
  0
CIRCLE
  5
140
100
AcDbEntity
  8
M1
  6
CONTINUOUS
370
25
 62
     7
100
AcDbCircle
 10
310.632218
 20
362.885612
 40
1.4
  0
LINE
  5
141
100
AcDbEntity
  8
M1
  6
CONTINUOUS
370
25
 62
     7
100
AcDbLine
 10
279.632216
 20
363.885612
 11
279.632216
 21
357.885612
  0
LINE
  5
142
100
AcDbEntity
  8
M1
  6
CONTINUOUS
370
25
 62
     7
100
AcDbLine
 10
282.632216
 20
363.885612
 11
282.632216
 21
357.885612
  0
LINE
  5
143
100
AcDbEntity
  8
M1
  6
DASHED
370
13
 62
     7
100
AcDbLine
 10
266.632216
 20
450.885612
 11
247.632216
 21
450.885612
  0
LINE
  5
144
100
AcDbEntity
  8
M1
  6
DASHED
370
13
 62
     7
100
AcDbLine
 10
266.632216
 20
446.885612
 11
247.632216
 21
446.885612
  0
LINE
  5
145
100
AcDbEntity
  8
M1
  6
DASHED
370
13
 62
     7
100
AcDbLine
 10
266.632216
 20
450.885612
 11
266.632216
 21
446.885612
  0
LINE
  5
146
100
AcDbEntity
  8
M1
  6
DASHED
370
13
 62
     7
100
AcDbLine
 10
284.632216
 20
447.685612
 11
266.632216
 21
447.685612
  0
LINE
  5
147
100
AcDbEntity
  8
M1
  6
DASHED
370
13
 62
     7
100
AcDbLine
 10
284.632216
 20
450.085612
 11
266.632216
 21
450.085612
  0
LINE
  5
148
100
AcDbEntity
  8
M1
  6
DASHDOT
370
13
 62
     7
100
AcDbLine
 10
246.338462
 20
448.885612
 11
292.612314
 21
448.885612
  0
LINE
  5
149
100
AcDbEntity
  8
M2
  6
CONTINUOUS
370
50
 62
     7
100
AcDbLine
 10
398.680412
 20
19.601204
 11
398.680412
 21
569.601204
  0
LINE
  5
14A
100
AcDbEntity
  8
M2
  6
CONTINUOUS
370
50
 62
     7
100
AcDbLine
 10
18.680412
 20
569.601204
 11
398.680412
 21
569.601204
  0
LINE
  5
14B
100
AcDbEntity
  8
M2
  6
CONTINUOUS
370
50
 62
     7
100
AcDbLine
 10
18.680412
 20
569.601204
 11
18.680412
 21
19.601204
  0
LINE
  5
14C
100
AcDbEntity
  8
M2
  6
CONTINUOUS
370
50
 62
     7
100
AcDbLine
 10
18.680412
 20
19.601204
 11
398.680412
 21
19.601204
  0
TEXT
  5
14D
100
AcDbEntity
  8
M3
100
AcDbText
 10
110.435302
 20
263.456489
 40
8.0
  1
（ＨＯＬＥ）
 41
0.479167
  7
STANDARD
100
AcDbText
  0
LINE
  5
14E
100
AcDbEntity
  8
M7
  6
CONTINUOUS
370
13
100
AcDbLine
 10
91.262866
 20
102.124586
 11
161.542864
 21
102.124586
  0
TEXT
  5
14F
100
AcDbEntity
  8
M7
100
AcDbText
 10
91.541755
 20
102.624586
 40
5.0
  1
ＤＲＩＬＬＩＮＧ　ＰＬＡＮ．
 41
0.833333
  7
STANDARD
100
AcDbText
  0
ENDSEC
  0
SECTION
  2
OBJECTS
  0
DICTIONARY
  5
C
100
AcDbDictionary
  3
ACAD_GROUP
350
D
  3
ACAD_MLINESTYLE
350
E
  0
DICTIONARY
  5
D
102
{ACAD_REACTORS
330
C
102
}
100
AcDbDictionary
  0
DICTIONARY
  5
E
102
{ACAD_REACTORS
330
C
102
}
100
AcDbDictionary
  3
STANDARD
350
13
  0
MLINESTYLE
  5
13
102
{ACAD_REACTORS
330
E
102
}
100
AcDbMlineStyle
  2
STANDARD
 70
     0
  3

 62
     0
 51
90.0
 52
90.0
 71
     2
 49
0.5
 62
   256
  6
BYLAYER
 49
-0.5
 62
   256
  6
BYLAYER
  0
ENDSEC
  0
EOF
