  0
SECTION
  2
HEADER
  9
$ACADVER
  1
AC1015
  9
$INSBASE
 10
0.000000
 20
0.000000
 30
0.0
  9
$VIEWCTR
 10
7.531722
 20
4.5
  9
$VIEWSIZE
 40
9.0
  9
$SNAPMODE
 70
     0
  9
$SNAPUNIT
 10
1.0
 20
1.0
  9
$SNAPBASE
 10
0.0
 20
0.0
  9
$SNAPANG
 50
0.0
  9
$SNAPSTYLE
 70
     0
  9
$SNAPISOPAIR
 70
     0
  9
$GRIDMODE
 70
     0
  9
$GRIDUNIT
 10
0.0
 20
0.0
  9
$ORTHOMODE
 70
     0
  9
$REGENMODE
 70
     1
  9
$FILLMODE
 70
     1
  9
$QTEXTMODE
 70
     0
  9
$DRAGMODE
 70
     2
  9
$LTSCALE
  40
     1.000000
  9
$OSMODE
 70
     0
  9
$ATTMODE
 70
     1
  9
$TEXTSIZE
 40
0.2
  9
$TRACEWID
 40
0.05
  9
$TEXTSTYLE
  7
STANDARD
  9
$CELTYPE
  6
BYLAYER
  9
$CECOLOR
 62
   256
  9
$DIMSCALE
 40
1.0
  9
$DIMASZ
 40
0.18
  9
$DIMEXO
 40
0.0625
  9
$DIMDLI
 40
0.38
  9
$DIMRND
 40
0.0
  9
$DIMDLE
 40
0.0
  9
$DIMEXE
 40
0.18
  9
$DIMTP
 40
0.0
  9
$DIMTM
 40
0.0
  9
$DIMTXT
 40
0.18
  9
$DIMCEN
 40
0.09
  9
$DIMTSZ
 40
0.0
  9
$DIMADEC
 70
     0
  9
$DIMALTRND
 40
0.000000
  9
$DIMAZIN
 70
     0
  9
$DIMDSEP
 70
    46
  9
$DIMATFIT
 70
     3
  9
$DIMFRAC
 70
     0
  9
$DIMLDRBLK
  1

  9
$DIMLUNIT
 70
     2
  9
$DIMLWD
 70
   13
  9
$DIMLWE
 70
   13
  9
$DIMTMOVE
 70
     0
  9
$CELWEIGHT
370
    25
  9
$LWDISPLAY
290
    1
  9
$EXTNAMES
290
    1
  9
$DIMTOL
 70
     0
  9
$DIMLIM
 70
     0
  9
$DIMTIH
 70
     1
  9
$DIMTOH
 70
     1
  9
$DIMSE1
 70
     0
  9
$DIMSE2
 70
     0
  9
$DIMTAD
 70
     0
  9
$DIMZIN
 70
     0
  9
$DIMBLK
  1

  9
$LUNITS
 70
     2
  9
$LUPREC
 70
     4
  9
$AXISMODE
 70
     0
  9
$AXISUNIT
 10
0.0
 20
0.0
  9
$SKETCHINC
 40
0.1
  9
$FILLETRAD
 40
0.0
  9
$AUNITS
 70
     0
  9
$AUPREC
 70
     0
  9
$MENU
  1
ACAD
  9
$ELEVATION
 40
0.0
  9
$THICKNESS
 40
0.0
  9
$VIEWDIR
 10
0.0
 20
0.0
 30
1.0
  9
$LIMCHECK
 70
     0
  9
$BLIPMODE
 70
     1
  9
$CHAMFERA
 40
0.0
  9
$CHAMFERB
 40
0.0
  9
$FASTZOOM
 70
     1
  9
$SKPOLY
 70
     0
  9
$TDCREATE
 40
0000000.0000000000
  9
$TDUPDATE
 40
0000000.0000000000
  9
$TDINDWG
 40
0.0000000000
  9
$TDUSRTIMER
 40
0.0000000000
  9
$USRTIMER
 70
     1
  9
$ANGBASE
 50
0.0
  9
$ANGDIR
 70
     0
  9
$PDMODE
 70
     0
  9
$PDSIZE
 40
0.0
  9
$PLINEWID
 40
0.0
  9
$COORDS
 70
     0
  9
$USERI1
 70
     0
  9
$USERI2
 70
     0
  9
$USERI3
 70
     0
  9
$USERI4
 70
     0
  9
$USERI5
 70
     0
  9
$USERR1
 40
0.0
  9
$USERR2
 40
0.0
  9
$USERR3
 40
0.0
  9
$USERR4
 40
0.0
  9
$USERR5
 40
0.0
  9
$CLAYER
  8
M1
  9
$EXTMIN
 10
0.0
 20
0.0
  9
$EXTMAX
 10
841.0
 20
594.0
  9
$LIMMIN
 10
0.0
 20
0.0
  9
$LIMMAX
 10
841.0
 20
594.0
  9
$HANDSEED
  5
13B
  0
ENDSEC
  0
SECTION
  2
CLASSES
  0
CLASS
  1
DIMASSOC
  2
AcDbDimAssoc
  3
"AcDbDimAssoc|Product Desc:     AcDim ARX App For Dimension|Company:          Autodesk, Inc.|WEB Address:      www.autodesk.com"
 90
        0
280
     0
281
     0
  0
ENDSEC
  0
SECTION
  2
TABLES
  0
TABLE
  2
VPORT
  5
8
100
AcDbSymbolTable
 70
     2
  0
VPORT
  5
14
100
AcDbSymbolTableRecord
100
AcDbViewportTableRecord
  2
*ACTIVE
 70
     0
 10
0.0
 20
0.0
 11
1.0
 21
1.0
 12
484.0
 22
297.0
 13
0.0
 23
0.0
 14
1.0
 24
1.0
 15
0.0
 25
0.0
 16
0.0
 26
0.0
 36
1.0
 17
0.0
 27
0.0
 37
0.0
 40
594.0
 41
2.0
 42
50.0
 43
0.0
 44
0.0
 50
0.0
 51
0.0
 71
     0
 72
   100
 73
     1
 74
     1
 75
     0
 76
     0
 77
     0
 78
     0
  0
ENDTAB
  0
TABLE
  2
LTYPE
  5
5
100
AcDbSymbolTable
 70
     5
  0
LTYPE
  5
15
100
AcDbSymbolTableRecord
100
AcDbLinetypeTableRecord
  2
BYBLOCK
 70
     0
  3

 72
    65
 73
     0
 40
0.0
  0
LTYPE
  5
16
100
AcDbSymbolTableRecord
100
AcDbLinetypeTableRecord
  2
BYLAYER
 70
     0
  3

 72
    65
 73
     0
 40
0.0
  0
LTYPE
  5
17
100
AcDbSymbolTableRecord
100
AcDbLinetypeTableRecord
  2
CONTINUOUS
 70
    64
  3
Solid line
 72
    65
 73
     0
 40
0.0
  0
LTYPE
  5
18
100
AcDbSymbolTableRecord
100
AcDbLinetypeTableRecord
  2
DASHED
 70
    64
  3
__ __ __ __ __ __ __ __ __ __ __ __ __ __ __ __
 72
    65
 73
     2
 40
0.75
 49
0.5
 74
     0
 49
-0.25
 74
     0
  0
LTYPE
  5
19
100
AcDbSymbolTableRecord
100
AcDbLinetypeTableRecord
  2
DASHDOT
 70
    64
  3
__ . __ . __ . __ . __ . __ . __ . __ . __ . __
 72
    65
 73
     4
 40
1.0
 49
0.5
 74
     0
 49
-0.25
 74
     0
 49
0.0
 74
     0
 49
-0.25
 74
     0
  0
LTYPE
  5
1A
100
AcDbSymbolTableRecord
100
AcDbLinetypeTableRecord
  2
DIVIDE
 70
    64
  3
____ . . ____ . . ____ . . ____ . . ____ . . __
 72
    65
 73
     6
 40
1.25
 49
0.5
 74
     0
 49
-0.25
 74
     0
 49
0.0
 74
     0
 49
-0.25
 74
     0
 49
0.0
 74
     0
 49
-0.25
 74
     0
  0
LTYPE
  5
1B
100
AcDbSymbolTableRecord
100
AcDbLinetypeTableRecord
  2
DOT
 70
    64
  3
. . . . . . . . . . . . . . . . . . . . . . . .
 72
    65
 73
     2
 40
0.25
 49
0.0
 74
     0
 49
-0.25
 74
     0
  0
ENDTAB
  0
TABLE
  2
LAYER
  5
2
100
AcDbSymbolTable
 70
   102
  0
LAYER
  5
F
100
AcDbSymbolTableRecord
100
AcDbLayerTableRecord
  2
0
 70
     0
 62
     7
  6
CONTINUOUS
370
     -3
390
F
  0
LAYER
  5
1C
100
AcDbSymbolTableRecord
100
AcDbLayerTableRecord
  2
M1
 70
     0
 62
     3
  6
CONTINUOUS
370
     -3
390
F
  0
LAYER
  5
1D
100
AcDbSymbolTableRecord
100
AcDbLayerTableRecord
  2
M2
 70
     0
 62
     3
  6
CONTINUOUS
370
     -3
390
F
  0
LAYER
  5
1E
100
AcDbSymbolTableRecord
100
AcDbLayerTableRecord
  2
M3
 70
     0
 62
     3
  6
CONTINUOUS
370
     -3
390
F
  0
LAYER
  5
1F
100
AcDbSymbolTableRecord
100
AcDbLayerTableRecord
  2
M7
 70
     0
 62
     2
  6
CONTINUOUS
370
     -3
390
F
  0
ENDTAB
  0
TABLE
  2
STYLE
  5
3
100
AcDbSymbolTable
 70
     2
  0
STYLE
  5
10
100
AcDbSymbolTableRecord
100
AcDbTextStyleTableRecord
  2
STANDARD
 70
     0
 40
0.0
 41
1.0
 50
0.0
 71
     0
 42
0.2
  3
txt
  4
BIGFONT
  0
ENDTAB
  0
TABLE
  2
VIEW
  5
6
100
AcDbSymbolTable
 70
     0
  0
ENDTAB
  0
TABLE
  2
UCS
  5
7
100
AcDbSymbolTable
 70
     0
  0
ENDTAB
  0
TABLE
  2
APPID
  5
9
100
AcDbSymbolTable
 70
     1
  0
APPID
  5
11
100
AcDbSymbolTableRecord
100
AcDbRegAppTableRecord
  2
ACAD
 70
     0
  0
ENDTAB
  0
TABLE
  2
DIMSTYLE
  5
A
100
AcDbSymbolTable
 70
     2
100
AcDbDimStyleTable
 71
     1
  0
DIMSTYLE
105
48
100
AcDbSymbolTableRecord
100
AcDbDimStyleTableRecord
  2
STANDARD
 70
     0
  3

  4

  5

  6
_OPEN
  7
_OPEN
 40
1.0
 41
3.0
 42
0.0
 43
8.0
 44
1.5
 45
0.0
 46
0.0
 47
0.0
 48
0.0
140
3.2
141
0.09
142
0.0
143
0.03937
144
1.0
145
0.0
146
1.0
147
1.0
148
0.000000
 71
     0
 72
     0
 73
     1
 74
     1
 75
     0
 76
     0
 77
     3
 78
     8
170
     0
171
     2
172
     0
173
     1
174
     0
175
     0
176
     0
177
     0
178
     0
270
     2
271
     2
272
     4
273
     2
274
     2
340
10
275
     0
278
    46
280
     0
281
     0
282
     0
283
     1
284
     0
285
     0
286
     0
287
     3
288
     0
371
   13
372
   13
  0
DIMSTYLE
105
49
100
AcDbSymbolTableRecord
100
AcDbDimStyleTableRecord
  2
LEADSTYL
 70
     0
  3

  4

  5

  6
_OPEN
  7
_OPEN
 40
1.0
 41
3.0
 42
0.0625
 43
0.38
 44
0.18
 45
0.0
 46
0.0
 47
0.0
 48
0.0
140
3.2
141
0.09
142
0.0
143
25.4
144
1.0
145
0.0
146
1.0
147
1.0
 71
     0
 72
     0
 73
     1
 74
     1
 75
     0
 76
     0
 77
     0
 78
     0
170
     0
171
     2
172
     0
173
     1
174
     0
175
     0
176
     0
177
     0
178
     0
270
     2
271
     4
272
     4
273
     2
274
     2
340
10
275
     0
280
     0
281
     0
282
     0
283
     1
284
     0
285
     0
286
     0
287
     3
288
     0
  0
ENDTAB
  0
TABLE
  2
BLOCK_RECORD
  5
1
100
AcDbSymbolTable
 70
     6
  0
BLOCK_RECORD
  5
20
100
AcDbSymbolTableRecord
100
AcDbBlockTableRecord
  2
*MODEL_SPACE
  0
BLOCK_RECORD
  5
23
100
AcDbSymbolTableRecord
100
AcDbBlockTableRecord
  2
*PAPER_SPACE
  0
BLOCK_RECORD
  5
26
100
AcDbSymbolTableRecord
100
AcDbBlockTableRecord
  2
_NONE
  0
BLOCK_RECORD
  5
2A
100
AcDbSymbolTableRecord
100
AcDbBlockTableRecord
  2
_OPEN
  0
BLOCK_RECORD
  5
30
100
AcDbSymbolTableRecord
100
AcDbBlockTableRecord
  2
_CLOSED
  0
BLOCK_RECORD
  5
37
100
AcDbSymbolTableRecord
100
AcDbBlockTableRecord
  2
_ORIGIN
  0
BLOCK_RECORD
  5
3C
100
AcDbSymbolTableRecord
100
AcDbBlockTableRecord
  2
_DOT
  0
BLOCK_RECORD
  5
44
100
AcDbSymbolTableRecord
100
AcDbBlockTableRecord
  2
_OBLIQUE
  0
ENDTAB
  0
ENDSEC
  0
SECTION
  2
BLOCKS
  0
BLOCK
  5
21
100
AcDbEntity
  8
0
100
AcDbBlockBegin
  2
*MODEL_SPACE
 70
     0
 10
0.0
 20
0.0
 30
0.0
  3
*MODEL_SPACE
  1

  0
ENDBLK
  5
22
100
AcDbEntity
  8
0
100
AcDbBlockEnd
  0
BLOCK
  5
24
100
AcDbEntity
 67
     1
  8
0
100
AcDbBlockBegin
  2
*PAPER_SPACE
 70
     0
 10
0.0
 20
0.0
 30
0.0
  3
*PAPER_SPACE
  1

  0
ENDBLK
  5
25
100
AcDbEntity
 67
     1
  8
0
100
AcDbBlockEnd
  0
BLOCK
  5
27
100
AcDbEntity
  8
0
100
AcDbBlockBegin
  2
_NONE
 70
     0
 10
0.0
 20
0.0
  0
CIRCLE
  5
28
100
AcDbEntity
  8
0
 62
     0
370
13
100
AcDbCircle
 10
0.0
 20
0.0
 40
0.25
  0
ENDBLK
  5
29
100
AcDbEntity
  8
0
100
AcDbBlockEnd
  0
BLOCK
  5
2B
100
AcDbEntity
  8
0
100
AcDbBlockBegin
  2
_OPEN
 70
     0
 10
0.0
 20
0.0
  0
LINE
  5
2C
100
AcDbEntity
  8
0
 62
     0
370
13
100
AcDbLine
 10
-0.965926
 20
0.258819
 11
0.0
 21
0.0
  0
LINE
  5
2D
100
AcDbEntity
  8
0
 62
     0
370
13
100
AcDbLine
 10
0.0
 20
0.0
 11
-0.965926
 21
-0.258819
  0
LINE
  5
2E
100
AcDbEntity
  8
0
 62
     0
370
13
100
AcDbLine
 10
0.0
 20
0.0
 11
-1.0
 21
0.0
  0
ENDBLK
  5
2F
100
AcDbEntity
  8
0
100
AcDbBlockEnd
  0
BLOCK
  5
31
100
AcDbEntity
  8
0
100
AcDbBlockBegin
  2
_CLOSED
 70
     0
 10
0.0
 20
0.0
  0
LINE
  5
32
100
AcDbEntity
  8
0
 62
     0
370
13
100
AcDbLine
 10
-0.965926
 20
0.258819
 11
0.0
 21
0.0
  0
LINE
  5
33
100
AcDbEntity
  8
0
 62
     0
370
13
100
AcDbLine
 10
0.0
 20
0.0
 11
-0.965926
 21
-0.258819
  0
LINE
  5
34
100
AcDbEntity
  8
0
 62
     0
370
13
100
AcDbLine
 10
-0.965926
 20
0.258819
 11
-0.965926
 21
-0.258819
  0
LINE
  5
35
100
AcDbEntity
  8
0
 62
     0
370
13
100
AcDbLine
 10
0.0
 20
0.0
 11
-1.0
 21
0.0
  0
ENDBLK
  5
36
100
AcDbEntity
  8
0
100
AcDbBlockEnd
  0
BLOCK
  5
38
100
AcDbEntity
  8
0
100
AcDbBlockBegin
  2
_ORIGIN
 70
     0
 10
0.0
 20
0.0
  0
CIRCLE
  5
39
100
AcDbEntity
  8
0
 62
     0
370
13
100
AcDbCircle
 10
0.0
 20
0.0
 40
0.5
  0
LINE
  5
3A
100
AcDbEntity
  8
0
 62
     0
370
13
100
AcDbLine
 10
0.0
 20
0.0
 11
-1.0
 21
0.0
  0
ENDBLK
  5
3B
100
AcDbEntity
  8
0
100
AcDbBlockEnd
  0
BLOCK
  5
3D
100
AcDbEntity
  8
0
100
AcDbBlockBegin
  2
_DOT
 70
     0
 10
0.0
 20
0.0
  0
POLYLINE
  5
3E
100
AcDbEntity
  8
0
 62
     0
100
AcDb2dPolyline
 66
     1
 70
     1
 40
0.5
 41
0.5
  0
VERTEX
  5
3F
100
AcDbEntity
  8
0
 62
     0
100
AcDbVertex
100
AcDb2dVertex
 10
-0.25
 20
0.0
 42
1.0
  0
VERTEX
  5
40
100
AcDbEntity
  8
0
 62
     0
100
AcDbVertex
100
AcDb2dVertex
 10
0.25
 20
0.0
 42
1.0
  0
SEQEND
  5
41
100
AcDbEntity
  8
0
 62
     0
  0
LINE
  5
42
100
AcDbEntity
  8
0
 62
     0
370
13
100
AcDbLine
 10
-0.5
 20
0.0
 11
-1.0
 21
0.0
  0
ENDBLK
  5
43
100
AcDbEntity
  8
0
100
AcDbBlockEnd
  0
BLOCK
  5
45
100
AcDbEntity
  8
0
100
AcDbBlockBegin
  2
_OBLIQUE
 70
     0
 10
0.0
 20
0.0
  0
LINE
  5
46
100
AcDbEntity
  8
0
 62
     0
370
13
100
AcDbLine
 10
-0.353553
 20
-0.353553
 11
0.353553
 21
0.353553
  0
ENDBLK
  5
47
100
AcDbEntity
  8
0
100
AcDbBlockEnd
  0
ENDSEC
  0
SECTION
  2
ENTITIES
  0
LINE
  5
4A
100
AcDbEntity
  8
M1
  6
CONTINUOUS
370
25
100
AcDbLine
 10
-24.84027
 20
24.186248
 11
-24.84027
 21
24.086248
  0
LINE
  5
4B
100
AcDbEntity
  8
M1
  6
CONTINUOUS
370
25
100
AcDbLine
 10
-24.84027
 20
24.086248
 11
-24.74027
 21
24.086248
  0
LINE
  5
4C
100
AcDbEntity
  8
M1
  6
DASHDOT
370
13
100
AcDbLine
 10
299.50966
 20
383.72065
 11
270.951226
 21
385.217334
  0
LINE
  5
4D
100
AcDbEntity
  8
M1
  6
DASHDOT
370
13
100
AcDbLine
 10
299.50966
 20
383.72065
 11
271.0996
 21
381.734026
  0
CIRCLE
  5
4E
100
AcDbEntity
  8
M1
  6
DASHED
370
13
100
AcDbCircle
 10
269.235254
 20
395.952304
 40
2.3
  0
LINE
  5
4F
100
AcDbEntity
  8
M1
  6
DASHDOT
370
13
100
AcDbLine
 10
299.50966
 20
383.72065
 11
271.342882
 21
379.259472
  0
ARC
  5
50
100
AcDbEntity
  8
M1
  6
DASHED
370
13
100
AcDbCircle
 10
269.235254
 20
395.952304
 40
3.2
100
AcDbArc
 50
4.608667
 51
311.391333
  0
ARC
  5
51
100
AcDbEntity
  8
M1
  6
CONTINUOUS
370
13
100
AcDbCircle
 10
301.809514
 20
384.28065
 40
37.799832
100
AcDbArc
 50
159.999913
 51
180.0
  0
LINE
  5
52
100
AcDbEntity
  8
M1
  6
DASHED
370
13
100
AcDbLine
 10
279.851944
 20
394.467074
 11
272.424908
 21
396.209424
  0
LINE
  5
53
100
AcDbEntity
  8
M1
  6
DASHDOT
370
13
100
AcDbLine
 10
299.50966
 20
383.72065
 11
264.566652
 21
397.838542
  0
LINE
  5
54
100
AcDbEntity
  8
M1
  6
DASHED
370
13
100
AcDbLine
 10
271.35109
 20
393.55163
 11
277.90399
 21
389.645718
  0
LINE
  5
55
100
AcDbEntity
  8
M1
  6
DASHDOT
370
13
100
AcDbLine
 10
267.35262
 20
383.72065
 11
308.586726
 21
383.72065
  0
LINE
  5
56
100
AcDbEntity
  8
M1
  6
CONTINUOUS
370
25
100
AcDbLine
 10
321.40966
 20
351.68065
 11
319.40966
 21
351.68065
  0
LINE
  5
57
100
AcDbEntity
  8
M1
  6
CONTINUOUS
370
25
100
AcDbLine
 10
326.20966
 20
348.48065
 11
326.20966
 21
349.68065
  0
LINE
  5
58
100
AcDbEntity
  8
M1
  6
CONTINUOUS
370
25
100
AcDbLine
 10
321.80966
 20
352.68065
 11
319.40966
 21
352.68065
  0
LINE
  5
59
100
AcDbEntity
  8
M1
  6
CONTINUOUS
370
25
100
AcDbLine
 10
318.20966
 20
356.48065
 11
319.40966
 21
356.48065
  0
LINE
  5
5A
100
AcDbEntity
  8
M1
  6
DASHED
370
13
100
AcDbLine
 10
311.20966
 20
355.18065
 11
311.20966
 21
351.78065
  0
ARC
  5
5B
100
AcDbEntity
  8
M1
  6
CONTINUOUS
370
25
100
AcDbCircle
 10
320.60966
 20
418.480652
 40
1.2
100
AcDbArc
 50
180.0
 51
270.0
  0
ARC
  5
5C
100
AcDbEntity
  8
M1
  6
CONTINUOUS
370
13
100
AcDbCircle
 10
301.809514
 20
384.28065
 40
21.799886
100
AcDbArc
 50
161.631436
 51
180.0
  0
LINE
  5
5D
100
AcDbEntity
  8
M1
  6
DASHED
370
13
100
AcDbLine
 10
279.851944
 20
394.467074
 11
286.713104
 21
391.694986
  0
LINE
  5
5E
100
AcDbEntity
  8
M1
  6
DASHED
370
13
100
AcDbLine
 10
279.851944
 20
394.467074
 11
277.90399
 21
389.645718
  0
LINE
  5
5F
100
AcDbEntity
  8
M1
  6
DASHED
370
13
100
AcDbLine
 10
312.60966
 20
354.28065
 11
318.20966
 21
354.28065
  0
LINE
  5
60
100
AcDbEntity
  8
M1
  6
DASHED
370
13
100
AcDbLine
 10
312.60966
 20
352.68065
 11
318.20966
 21
352.68065
  0
LINE
  5
61
100
AcDbEntity
  8
M1
  6
CONTINUOUS
370
25
100
AcDbLine
 10
321.40966
 20
351.68065
 11
321.40966
 21
355.28065
  0
LINE
  5
62
100
AcDbEntity
  8
M1
  6
DASHDOT
370
13
100
AcDbLine
 10
284.788596
 20
384.28065
 11
324.20966
 21
384.28065
  0
LINE
  5
63
100
AcDbEntity
  8
M1
  6
DASHED
370
13
100
AcDbLine
 10
291.80966
 20
355.18065
 11
312.60966
 21
355.18065
  0
LINE
  5
64
100
AcDbEntity
  8
M1
  6
CONTINUOUS
370
25
100
AcDbLine
 10
319.40966
 20
354.28065
 11
321.80966
 21
354.28065
  0
LINE
  5
65
100
AcDbEntity
  8
M1
  6
CONTINUOUS
370
25
100
AcDbLine
 10
321.80966
 20
352.68065
 11
321.80966
 21
354.28065
  0
LINE
  5
66
100
AcDbEntity
  8
M1
  6
CONTINUOUS
370
25
100
AcDbLine
 10
321.40966
 20
355.28065
 11
319.40966
 21
355.28065
  0
LINE
  5
67
100
AcDbEntity
  8
M1
  6
DASHED
370
13
100
AcDbLine
 10
291.80966
 20
351.78065
 11
312.60966
 21
351.78065
  0
LINE
  5
68
100
AcDbEntity
  8
M1
  6
CONTINUOUS
370
25
100
AcDbLine
 10
318.20966
 20
350.28065
 11
318.20966
 21
348.48065
  0
LINE
  5
69
100
AcDbEntity
  8
M1
  6
DASHDOT
370
13
100
AcDbLine
 10
311.97636
 20
339.68065
 11
302.63156
 21
339.68065
  0
LINE
  5
6A
100
AcDbEntity
  8
M1
  6
CONTINUOUS
370
25
100
AcDbLine
 10
280.83207
 20
390.080498
 11
287.127476
 21
387.352046
  0
LINE
  5
6B
100
AcDbEntity
  8
M1
  6
DASHDOT
370
13
100
AcDbLine
 10
299.50966
 20
387.75133
 11
299.50966
 21
380.131764
  0
LINE
  5
6C
100
AcDbEntity
  8
M1
  6
DASHED
370
13
100
AcDbLine
 10
318.20966
 20
446.280652
 11
318.20966
 21
424.280652
  0
LINE
  5
6D
100
AcDbEntity
  8
M1
  6
DASHED
370
13
100
AcDbLine
 10
299.20966
 20
446.280652
 11
318.20966
 21
446.280652
  0
LINE
  5
6E
100
AcDbEntity
  8
M1
  6
DASHED
370
13
100
AcDbLine
 10
299.20966
 20
424.280652
 11
299.20966
 21
446.280652
  0
LINE
  5
6F
100
AcDbEntity
  8
M1
  6
DASHED
370
13
100
AcDbLine
 10
284.76515
 20
386.87363
 11
286.713104
 21
391.694986
  0
LINE
  5
70
100
AcDbEntity
  8
M1
  6
DASHED
370
13
100
AcDbLine
 10
277.90399
 20
389.645718
 11
284.76515
 21
386.87363
  0
ARC
  5
71
100
AcDbEntity
  8
M1
  6
CONTINUOUS
370
25
100
AcDbCircle
 10
320.60966
 20
350.88065
 40
1.2
100
AcDbArc
 50
180.0
 51
270.0
  0
ARC
  5
72
100
AcDbEntity
  8
M1
  6
CONTINUOUS
370
25
100
AcDbCircle
 10
301.80966
 20
384.28065
 40
15.0
100
AcDbArc
 50
156.926082
 51
180.0
  0
ARC
  5
73
100
AcDbEntity
  8
M1
  6
CONTINUOUS
370
25
100
AcDbCircle
 10
301.80966
 20
384.28065
 40
15.0
100
AcDbArc
 50
180.0
 51
203.073914
  0
LINE
  5
74
100
AcDbEntity
  8
M1
  6
CONTINUOUS
370
25
100
AcDbLine
 10
280.83207
 20
390.080498
 11
281.656206
 21
392.120304
  0
LINE
  5
75
100
AcDbEntity
  8
M1
  6
CONTINUOUS
370
25
100
AcDbLine
 10
287.859144
 20
389.792736
 11
281.656206
 21
392.120304
  0
ARC
  5
76
100
AcDbEntity
  8
M1
  6
CONTINUOUS
370
25
100
AcDbCircle
 10
318.60966
 20
418.680846
 40
0.8
100
AcDbArc
 50
359.94597
 51
360.0
  0
LINE
  5
77
100
AcDbEntity
  8
M1
  6
CONTINUOUS
370
25
100
AcDbLine
 10
326.20966
 20
416.080652
 11
326.20966
 21
417.280652
  0
LINE
  5
78
100
AcDbEntity
  8
M1
  6
CONTINUOUS
370
25
100
AcDbLine
 10
321.80966
 20
421.880652
 11
319.40966
 21
421.880652
  0
LINE
  5
79
100
AcDbEntity
  8
M1
  6
CONTINUOUS
370
25
100
AcDbLine
 10
319.40966
 20
420.280652
 11
321.80966
 21
420.280652
  0
LINE
  5
7A
100
AcDbEntity
  8
M1
  6
CONTINUOUS
370
25
100
AcDbLine
 10
291.80966
 20
356.28065
 11
291.80966
 21
350.28065
  0
LINE
  5
7B
100
AcDbEntity
  8
M1
  6
CONTINUOUS
370
25
100
AcDbLine
 10
312.00966
 20
444.280652
 11
312.00966
 21
424.280652
  0
LINE
  5
7C
100
AcDbEntity
  8
M1
  6
CONTINUOUS
370
25
100
AcDbLine
 10
288.00966
 20
378.401842
 11
288.00966
 21
374.78065
  0
LINE
  5
7D
100
AcDbEntity
  8
M1
  6
CONTINUOUS
370
25
100
AcDbLine
 10
288.00966
 20
390.15946
 11
288.00966
 21
393.78065
  0
LINE
  5
7E
100
AcDbEntity
  8
M1
  6
CONTINUOUS
370
25
100
AcDbLine
 10
288.00966
 20
393.78065
 11
290.20966
 21
393.78065
  0
LINE
  5
7F
100
AcDbEntity
  8
M1
  6
CONTINUOUS
370
25
100
AcDbLine
 10
305.00966
 20
330.28065
 11
309.00966
 21
330.28065
  0
LINE
  5
80
100
AcDbEntity
  8
M1
  6
CONTINUOUS
370
25
100
AcDbLine
 10
321.40966
 20
422.880652
 11
321.40966
 21
419.280652
  0
LINE
  5
81
100
AcDbEntity
  8
M1
  6
CONTINUOUS
370
25
100
AcDbLine
 10
318.20966
 20
424.280652
 11
318.20966
 21
426.080652
  0
LINE
  5
82
100
AcDbEntity
  8
M1
  6
CONTINUOUS
370
25
100
AcDbLine
 10
320.60966
 20
417.280652
 11
326.20966
 21
417.280652
  0
LINE
  5
83
100
AcDbEntity
  8
M1
  6
CONTINUOUS
370
25
100
AcDbLine
 10
321.40966
 20
422.880652
 11
319.40966
 21
422.880652
  0
LINE
  5
84
100
AcDbEntity
  8
M1
  6
CONTINUOUS
370
25
100
AcDbLine
 10
319.40966
 20
418.480652
 11
319.40966
 21
424.080652
  0
LINE
  5
85
100
AcDbEntity
  8
M1
  6
CONTINUOUS
370
25
100
AcDbLine
 10
321.40966
 20
419.280652
 11
319.40966
 21
419.280652
  0
LINE
  5
86
100
AcDbEntity
  8
M1
  6
CONTINUOUS
370
25
100
AcDbLine
 10
321.80966
 20
421.880652
 11
321.80966
 21
420.280652
  0
LINE
  5
87
100
AcDbEntity
  8
M1
  6
CONTINUOUS
370
25
100
AcDbLine
 10
309.00966
 20
350.28065
 11
309.00966
 21
330.28065
  0
LINE
  5
88
100
AcDbEntity
  8
M1
  6
CONTINUOUS
370
25
100
AcDbLine
 10
326.20966
 20
416.080652
 11
318.20966
 21
416.080652
  0
LINE
  5
89
100
AcDbEntity
  8
M1
  6
CONTINUOUS
370
25
100
AcDbLine
 10
319.40966
 20
350.88065
 11
319.40966
 21
356.48065
  0
LINE
  5
8A
100
AcDbEntity
  8
M1
  6
CONTINUOUS
370
25
100
AcDbLine
 10
317.60966
 20
430.280652
 11
317.60966
 21
424.280652
  0
LINE
  5
8B
100
AcDbEntity
  8
M1
  6
CONTINUOUS
370
25
100
AcDbLine
 10
320.60966
 20
349.68065
 11
326.20966
 21
349.68065
  0
LINE
  5
8C
100
AcDbEntity
  8
M1
  6
DASHDOT
370
13
100
AcDbLine
 10
310.145428
 20
353.48065
 11
324.80966
 21
353.48065
  0
LINE
  5
8D
100
AcDbEntity
  8
M1
  6
DASHDOT
370
13
100
AcDbLine
 10
308.741618
 20
441.280652
 11
319.16469
 21
441.280652
  0
LINE
  5
8E
100
AcDbEntity
  8
M1
  6
CONTINUOUS
370
25
100
AcDbLine
 10
291.80966
 20
350.28065
 11
318.20966
 21
350.28065
  0
LINE
  5
8F
100
AcDbEntity
  8
M1
  6
CONTINUOUS
370
25
100
AcDbLine
 10
291.80966
 20
424.280652
 11
318.20966
 21
424.280652
  0
LINE
  5
90
100
AcDbEntity
  8
M1
  6
CONTINUOUS
370
25
100
AcDbLine
 10
316.00966
 20
444.280652
 11
316.00966
 21
424.280652
  0
LINE
  5
91
100
AcDbEntity
  8
M1
  6
CONTINUOUS
370
25
100
AcDbLine
 10
290.20966
 20
356.28065
 11
291.80966
 21
356.28065
  0
LINE
  5
92
100
AcDbEntity
  8
M1
  6
DASHDOT
370
13
100
AcDbLine
 10
302.63156
 20
333.28065
 11
311.97636
 21
333.28065
  0
LINE
  5
93
100
AcDbEntity
  8
M1
  6
CONTINUOUS
370
25
100
AcDbLine
 10
290.20966
 20
418.280652
 11
290.20966
 21
356.28065
  0
LINE
  5
94
100
AcDbEntity
  8
M1
  6
DASHDOT
370
13
100
AcDbLine
 10
308.741618
 20
434.880652
 11
319.16469
 21
434.880652
  0
LINE
  5
95
100
AcDbEntity
  8
M1
  6
DASHDOT
370
13
100
AcDbLine
 10
315.296184
 20
421.080652
 11
325.372796
 21
421.080652
  0
LINE
  5
96
100
AcDbEntity
  8
M1
  6
CONTINUOUS
370
25
100
AcDbLine
 10
291.80966
 20
418.280652
 11
291.80966
 21
424.280652
  0
LINE
  5
97
100
AcDbEntity
  8
M1
  6
CONTINUOUS
370
25
100
AcDbLine
 10
316.00966
 20
444.280652
 11
312.00966
 21
444.280652
  0
LINE
  5
98
100
AcDbEntity
  8
M1
  6
CONTINUOUS
370
25
100
AcDbLine
 10
318.20966
 20
430.280652
 11
317.60966
 21
430.280652
  0
LINE
  5
99
100
AcDbEntity
  8
M1
  6
CONTINUOUS
370
25
100
AcDbLine
 10
326.20966
 20
348.48065
 11
318.20966
 21
348.48065
  0
LINE
  5
9A
100
AcDbEntity
  8
M1
  6
CONTINUOUS
370
25
100
AcDbLine
 10
288.00966
 20
374.78065
 11
290.20966
 21
374.78065
  0
LINE
  5
9B
100
AcDbEntity
  8
M1
  6
DASHED
370
13
100
AcDbLine
 10
312.60966
 20
355.18065
 11
312.60966
 21
351.78065
  0
LINE
  5
9C
100
AcDbEntity
  8
M1
  6
CONTINUOUS
370
25
100
AcDbLine
 10
318.20966
 20
424.080652
 11
319.40966
 21
424.080652
  0
LINE
  5
9D
100
AcDbEntity
  8
M1
  6
CONTINUOUS
370
25
100
AcDbLine
 10
305.00966
 20
350.28065
 11
305.00966
 21
330.28065
  0
LINE
  5
9E
100
AcDbEntity
  8
M1
  6
CONTINUOUS
370
25
100
AcDbLine
 10
318.20966
 20
424.280652
 11
318.20966
 21
350.28065
  0
LINE
  5
9F
100
AcDbEntity
  8
M1
  6
CONTINUOUS
370
25
100
AcDbLine
 10
290.20966
 20
418.280652
 11
291.80966
 21
418.280652
  0
LINE
  5
A0
100
AcDbEntity
  8
M1
  6
CONTINUOUS
370
25
100
AcDbLine
 10
318.20966
 20
430.280652
 11
318.20966
 21
424.280652
  0
LINE
  5
A1
100
AcDbEntity
  8
M1
  6
CONTINUOUS
370
25
 62
     7
100
AcDbLine
 10
111.233656
 20
329.72065
 11
120.23363
 21
329.72065
  0
LINE
  5
A2
100
AcDbEntity
  8
M1
  6
CONTINUOUS
370
25
 62
     7
100
AcDbLine
 10
83.233668
 20
349.72065
 11
83.233668
 21
329.72065
  0
LINE
  5
A3
100
AcDbEntity
  8
M1
  6
CONTINUOUS
370
25
 62
     7
100
AcDbLine
 10
97.233668
 20
443.720652
 11
106.233656
 21
443.720652
  0
LINE
  5
A4
100
AcDbEntity
  8
M1
  6
CONTINUOUS
370
25
 62
     7
100
AcDbLine
 10
83.233668
 20
329.72065
 11
92.233668
 21
329.72065
  0
LINE
  5
A5
100
AcDbEntity
  8
M1
  6
CONTINUOUS
370
25
 62
     7
100
AcDbLine
 10
111.233656
 20
443.720652
 11
120.23363
 21
443.720652
  0
LINE
  5
A6
100
AcDbEntity
  8
M1
  6
CONTINUOUS
370
25
 62
     7
100
AcDbLine
 10
97.233668
 20
329.72065
 11
106.233656
 21
329.72065
  0
LINE
  5
A7
100
AcDbEntity
  8
M1
  6
CONTINUOUS
370
25
 62
     7
100
AcDbLine
 10
120.23363
 20
423.720652
 11
120.23363
 21
443.720652
  0
LINE
  5
A8
100
AcDbEntity
  8
M1
  6
CONTINUOUS
370
25
 62
     7
100
AcDbLine
 10
93.933668
 20
392.32065
 11
109.533668
 21
392.32065
  0
LINE
  5
A9
100
AcDbEntity
  8
M1
  6
CONTINUOUS
370
25
 62
     7
100
AcDbLine
 10
111.233656
 20
423.720652
 11
111.233656
 21
443.720652
  0
LINE
  5
AA
100
AcDbEntity
  8
M1
  6
CONTINUOUS
370
25
 62
     7
100
AcDbLine
 10
80.733666
 20
349.72065
 11
83.233668
 21
349.72065
  0
LINE
  5
AB
100
AcDbEntity
  8
M1
  6
CONTINUOUS
370
25
 62
     7
100
AcDbLine
 10
92.233668
 20
349.72065
 11
92.233668
 21
329.72065
  0
LINE
  5
AC
100
AcDbEntity
  8
M1
  6
CONTINUOUS
370
25
 62
     7
100
AcDbLine
 10
80.733666
 20
423.720652
 11
83.233668
 21
423.720652
  0
CIRCLE
  5
AD
100
AcDbEntity
  8
M1
  6
CONTINUOUS
370
25
 62
     7
100
AcDbCircle
 10
115.733656
 20
332.72065
 40
1.3
  0
LINE
  5
AE
100
AcDbEntity
  8
M1
  6
CONTINUOUS
370
25
 62
     7
100
AcDbLine
 10
92.233668
 20
423.720652
 11
92.233668
 21
443.720652
  0
LINE
  5
AF
100
AcDbEntity
  8
M1
  6
CONTINUOUS
370
25
 62
     7
100
AcDbLine
 10
97.233668
 20
423.720652
 11
97.233668
 21
443.720652
  0
LINE
  5
B0
100
AcDbEntity
  8
M1
  6
CONTINUOUS
370
25
 62
     7
100
AcDbLine
 10
122.733632
 20
355.72065
 11
80.733666
 21
355.72065
  0
LINE
  5
B1
100
AcDbEntity
  8
M1
  6
CONTINUOUS
370
25
 62
     7
100
AcDbLine
 10
106.233656
 20
349.72065
 11
106.233656
 21
329.72065
  0
CIRCLE
  5
B2
100
AcDbEntity
  8
M1
  6
CONTINUOUS
370
25
 62
     7
100
AcDbCircle
 10
115.733656
 20
440.720652
 40
1.3
  0
LINE
  5
B3
100
AcDbEntity
  8
M1
  6
CONTINUOUS
370
25
 62
     7
100
AcDbLine
 10
97.233668
 20
349.72065
 11
97.233668
 21
329.72065
  0
CIRCLE
  5
B4
100
AcDbEntity
  8
M1
  6
CONTINUOUS
370
25
 62
     7
100
AcDbCircle
 10
101.733668
 20
339.12065
 40
1.3
  0
CIRCLE
  5
B5
100
AcDbEntity
  8
M1
  6
CONTINUOUS
370
25
 62
     7
100
AcDbCircle
 10
87.733668
 20
339.12065
 40
1.3
  0
CIRCLE
  5
B6
100
AcDbEntity
  8
M1
  6
CONTINUOUS
370
25
 62
     7
100
AcDbCircle
 10
115.733656
 20
339.12065
 40
1.3
  0
CIRCLE
  5
B7
100
AcDbEntity
  8
M1
  6
CONTINUOUS
370
25
 62
     7
100
AcDbCircle
 10
101.733668
 20
440.720652
 40
1.3
  0
CIRCLE
  5
B8
100
AcDbEntity
  8
M1
  6
CONTINUOUS
370
25
 62
     7
100
AcDbCircle
 10
87.733668
 20
434.320652
 40
1.3
  0
CIRCLE
  5
B9
100
AcDbEntity
  8
M1
  6
CONTINUOUS
370
25
 62
     7
100
AcDbCircle
 10
115.733656
 20
434.320652
 40
1.3
  0
CIRCLE
  5
BA
100
AcDbEntity
  8
M1
  6
CONTINUOUS
370
25
 62
     7
100
AcDbCircle
 10
87.733668
 20
440.720652
 40
1.3
  0
CIRCLE
  5
BB
100
AcDbEntity
  8
M1
  6
CONTINUOUS
370
25
 62
     7
100
AcDbCircle
 10
115.733656
 20
440.720652
 40
1.3
  0
LINE
  5
BC
100
AcDbEntity
  8
M1
  6
CONTINUOUS
370
25
 62
     7
100
AcDbLine
 10
97.233668
 20
423.720652
 11
106.233656
 21
423.720652
  0
CIRCLE
  5
BD
100
AcDbEntity
  8
M1
  6
CONTINUOUS
370
25
 62
     7
100
AcDbCircle
 10
108.733656
 20
352.92065
 40
1.7
  0
CIRCLE
  5
BE
100
AcDbEntity
  8
M1
  6
CONTINUOUS
370
25
 62
     7
100
AcDbCircle
 10
94.733668
 20
420.520602
 40
1.7
  0
CIRCLE
  5
BF
100
AcDbEntity
  8
M1
  6
CONTINUOUS
370
25
 62
     7
100
AcDbCircle
 10
94.733668
 20
352.92065
 40
1.7
  0
CIRCLE
  5
C0
100
AcDbEntity
  8
M1
  6
CONTINUOUS
370
25
 62
     7
100
AcDbCircle
 10
101.733668
 20
434.320652
 40
1.3
  0
CIRCLE
  5
C1
100
AcDbEntity
  8
M1
  6
CONTINUOUS
370
25
 62
     7
100
AcDbCircle
 10
108.733656
 20
420.520602
 40
1.7
  0
LINE
  5
C2
100
AcDbEntity
  8
M1
  6
CONTINUOUS
370
25
 62
     7
100
AcDbLine
 10
97.233668
 20
378.22065
 11
106.233668
 21
378.22065
  0
LINE
  5
C3
100
AcDbEntity
  8
M1
  6
CONTINUOUS
370
25
 62
     7
100
AcDbLine
 10
93.933668
 20
373.32065
 11
109.533668
 21
373.32065
  0
LINE
  5
C4
100
AcDbEntity
  8
M1
  6
CONTINUOUS
370
25
 62
     7
100
AcDbLine
 10
97.233668
 20
389.22065
 11
106.233668
 21
389.22065
  0
LINE
  5
C5
100
AcDbEntity
  8
M1
  6
CONTINUOUS
370
25
 62
     7
100
AcDbLine
 10
109.533668
 20
392.32065
 11
109.533668
 21
373.32065
  0
LINE
  5
C6
100
AcDbEntity
  8
M1
  6
CONTINUOUS
370
25
 62
     7
100
AcDbLine
 10
97.233668
 20
389.22065
 11
97.233668
 21
378.22065
  0
CIRCLE
  5
C7
100
AcDbEntity
  8
M1
  6
CONTINUOUS
370
25
 62
     7
100
AcDbCircle
 10
87.733668
 20
332.72065
 40
1.3
  0
LINE
  5
C8
100
AcDbEntity
  8
M1
  6
CONTINUOUS
370
25
 62
     7
100
AcDbLine
 10
111.233656
 20
423.720652
 11
120.23363
 21
423.720652
  0
CIRCLE
  5
C9
100
AcDbEntity
  8
M1
  6
CONTINUOUS
370
25
 62
     7
100
AcDbCircle
 10
101.733668
 20
332.72065
 40
1.3
  0
LINE
  5
CA
100
AcDbEntity
  8
M1
  6
CONTINUOUS
370
25
 62
     7
100
AcDbLine
 10
83.233668
 20
423.720652
 11
92.233668
 21
423.720652
  0
LINE
  5
CB
100
AcDbEntity
  8
M1
  6
CONTINUOUS
370
25
 62
     7
100
AcDbLine
 10
97.233668
 20
349.72065
 11
106.233656
 21
349.72065
  0
LINE
  5
CC
100
AcDbEntity
  8
M1
  6
CONTINUOUS
370
25
 62
     7
100
AcDbLine
 10
83.233668
 20
349.72065
 11
92.233668
 21
349.72065
  0
LINE
  5
CD
100
AcDbEntity
  8
M1
  6
DASHDOT
370
13
 62
     7
100
AcDbLine
 10
112.733656
 20
332.72065
 11
118.73363
 21
332.72065
  0
LINE
  5
CE
100
AcDbEntity
  8
M1
  6
DASHDOT
370
13
 62
     7
100
AcDbLine
 10
112.733656
 20
339.12065
 11
118.73363
 21
339.12065
  0
LINE
  5
CF
100
AcDbEntity
  8
M1
  6
DASHDOT
370
13
 62
     7
100
AcDbLine
 10
98.733668
 20
332.72065
 11
104.733656
 21
332.72065
  0
LINE
  5
D0
100
AcDbEntity
  8
M1
  6
DASHDOT
370
13
 62
     7
100
AcDbLine
 10
84.733668
 20
339.12065
 11
90.733668
 21
339.12065
  0
LINE
  5
D1
100
AcDbEntity
  8
M1
  6
DASHDOT
370
13
 62
     7
100
AcDbLine
 10
98.733668
 20
339.12065
 11
104.733656
 21
339.12065
  0
LINE
  5
D2
100
AcDbEntity
  8
M1
  6
DASHDOT
370
13
 62
     7
100
AcDbLine
 10
74.970236
 20
383.72065
 11
128.733632
 21
383.72065
  0
LINE
  5
D3
100
AcDbEntity
  8
M1
  6
DASHDOT
370
13
 62
     7
100
AcDbLine
 10
87.733668
 20
430.320652
 11
87.733668
 21
448.583396
  0
LINE
  5
D4
100
AcDbEntity
  8
M1
  6
DASHDOT
370
13
 62
     7
100
AcDbLine
 10
84.733668
 20
332.72065
 11
90.733668
 21
332.72065
  0
LINE
  5
D5
100
AcDbEntity
  8
M1
  6
DASHDOT
370
13
 62
     7
100
AcDbLine
 10
112.733656
 20
440.720652
 11
118.73363
 21
440.720652
  0
LINE
  5
D6
100
AcDbEntity
  8
M1
  6
DASHDOT
370
13
 62
     7
100
AcDbLine
 10
98.733668
 20
434.320652
 11
104.733656
 21
434.320652
  0
LINE
  5
D7
100
AcDbEntity
  8
M1
  6
DASHDOT
370
13
 62
     7
100
AcDbLine
 10
98.733668
 20
440.720652
 11
104.733656
 21
440.720652
  0
LINE
  5
D8
100
AcDbEntity
  8
M1
  6
DASHDOT
370
13
 62
     7
100
AcDbLine
 10
108.733656
 20
355.92065
 11
108.733656
 21
349.92065
  0
LINE
  5
D9
100
AcDbEntity
  8
M1
  6
DASHDOT
370
13
 62
     7
100
AcDbLine
 10
105.733656
 20
420.520602
 11
111.733656
 21
420.520602
  0
LINE
  5
DA
100
AcDbEntity
  8
M1
  6
DASHDOT
370
13
 62
     7
100
AcDbLine
 10
105.733656
 20
352.92065
 11
111.733656
 21
352.92065
  0
LINE
  5
DB
100
AcDbEntity
  8
M1
  6
DASHDOT
370
13
 62
     7
100
AcDbLine
 10
87.733668
 20
343.12065
 11
87.733668
 21
327.034756
  0
LINE
  5
DC
100
AcDbEntity
  8
M1
  6
DASHDOT
370
13
 62
     7
100
AcDbLine
 10
101.733668
 20
448.583396
 11
101.733668
 21
327.034756
  0
LINE
  5
DD
100
AcDbEntity
  8
M1
  6
DASHDOT
370
13
 62
     7
100
AcDbLine
 10
115.733656
 20
343.12065
 11
115.733656
 21
327.034756
  0
LINE
  5
DE
100
AcDbEntity
  8
M1
  6
DASHDOT
370
13
 62
     7
100
AcDbLine
 10
91.733668
 20
420.520602
 11
97.733668
 21
420.520602
  0
LINE
  5
DF
100
AcDbEntity
  8
M1
  6
DASHDOT
370
13
 62
     7
100
AcDbLine
 10
84.733668
 20
434.320652
 11
90.733668
 21
434.320652
  0
LINE
  5
E0
100
AcDbEntity
  8
M1
  6
DASHDOT
370
13
 62
     7
100
AcDbLine
 10
91.733668
 20
352.92065
 11
97.733668
 21
352.92065
  0
LINE
  5
E1
100
AcDbEntity
  8
M1
  6
DASHDOT
370
13
 62
     7
100
AcDbLine
 10
94.733668
 20
423.520652
 11
94.733668
 21
417.520602
  0
LINE
  5
E2
100
AcDbEntity
  8
M1
  6
DASHDOT
370
13
 62
     7
100
AcDbLine
 10
108.733656
 20
423.520652
 11
108.733656
 21
417.520602
  0
LINE
  5
E3
100
AcDbEntity
  8
M1
  6
CONTINUOUS
370
25
 62
     7
100
AcDbLine
 10
80.733666
 20
371.32065
 11
122.733668
 21
371.32065
  0
LINE
  5
E4
100
AcDbEntity
  8
M1
  6
CONTINUOUS
370
25
 62
     7
100
AcDbLine
 10
80.733666
 20
359.72065
 11
122.733668
 21
359.72065
  0
LINE
  5
E5
100
AcDbEntity
  8
M1
  6
CONTINUOUS
370
25
 62
     7
100
AcDbLine
 10
80.733666
 20
423.720652
 11
80.733666
 21
349.72065
  0
LINE
  5
E6
100
AcDbEntity
  8
M1
  6
CONTINUOUS
370
25
 62
     7
100
AcDbLine
 10
122.733632
 20
423.720652
 11
122.733632
 21
349.72065
  0
LINE
  5
E7
100
AcDbEntity
  8
M1
  6
CONTINUOUS
370
25
 62
     7
100
AcDbLine
 10
120.23363
 20
349.72065
 11
120.23363
 21
329.72065
  0
LINE
  5
E8
100
AcDbEntity
  8
M1
  6
CONTINUOUS
370
25
 62
     7
100
AcDbLine
 10
111.233656
 20
349.72065
 11
111.233656
 21
329.72065
  0
LINE
  5
E9
100
AcDbEntity
  8
M1
  6
CONTINUOUS
370
25
 62
     7
100
AcDbLine
 10
106.233656
 20
423.720652
 11
106.233656
 21
443.720652
  0
LINE
  5
EA
100
AcDbEntity
  8
M1
  6
CONTINUOUS
370
25
 62
     7
100
AcDbLine
 10
111.233656
 20
349.72065
 11
120.23363
 21
349.72065
  0
LINE
  5
EB
100
AcDbEntity
  8
M1
  6
CONTINUOUS
370
25
 62
     7
100
AcDbLine
 10
83.233668
 20
423.720652
 11
83.233668
 21
443.720652
  0
LINE
  5
EC
100
AcDbEntity
  8
M1
  6
CONTINUOUS
370
25
 62
     7
100
AcDbLine
 10
106.233668
 20
389.22065
 11
106.233668
 21
378.22065
  0
LINE
  5
ED
100
AcDbEntity
  8
M1
  6
CONTINUOUS
370
25
 62
     7
100
AcDbLine
 10
122.733632
 20
417.720602
 11
80.733666
 21
417.720602
  0
LINE
  5
EE
100
AcDbEntity
  8
M1
  6
CONTINUOUS
370
25
 62
     7
100
AcDbLine
 10
92.233668
 20
423.720652
 11
97.233668
 21
423.720652
  0
LINE
  5
EF
100
AcDbEntity
  8
M1
  6
CONTINUOUS
370
25
 62
     7
100
AcDbLine
 10
120.23363
 20
423.720652
 11
122.733632
 21
423.720652
  0
LINE
  5
F0
100
AcDbEntity
  8
M1
  6
DASHDOT
370
13
 62
     7
100
AcDbLine
 10
84.733668
 20
440.720652
 11
90.733668
 21
440.720652
  0
LINE
  5
F1
100
AcDbEntity
  8
M1
  6
DASHDOT
370
13
 62
     7
100
AcDbLine
 10
112.733656
 20
434.320652
 11
118.73363
 21
434.320652
  0
LINE
  5
F2
100
AcDbEntity
  8
M1
  6
DASHDOT
370
13
 62
     7
100
AcDbLine
 10
115.733656
 20
430.320652
 11
115.733656
 21
448.583396
  0
LINE
  5
F3
100
AcDbEntity
  8
M1
  6
DASHDOT
370
13
 62
     7
100
AcDbLine
 10
94.733668
 20
355.92065
 11
94.733668
 21
349.92065
  0
LINE
  5
F4
100
AcDbEntity
  8
M1
  6
CONTINUOUS
370
25
 62
     7
100
AcDbLine
 10
120.23363
 20
349.72065
 11
122.733632
 21
349.72065
  0
LINE
  5
F5
100
AcDbEntity
  8
M1
  6
CONTINUOUS
370
25
 62
     7
100
AcDbLine
 10
93.933668
 20
392.32065
 11
93.933668
 21
373.32065
  0
LINE
  5
F6
100
AcDbEntity
  8
M1
  6
CONTINUOUS
370
25
 62
     7
100
AcDbLine
 10
106.233656
 20
423.720652
 11
111.233656
 21
423.720652
  0
LINE
  5
F7
100
AcDbEntity
  8
M1
  6
CONTINUOUS
370
25
 62
     7
100
AcDbLine
 10
83.233668
 20
443.720652
 11
92.233668
 21
443.720652
  0
LINE
  5
F8
100
AcDbEntity
  8
M1
  6
CONTINUOUS
370
25
 62
     7
100
AcDbLine
 10
106.233656
 20
349.72065
 11
111.233656
 21
349.72065
  0
LINE
  5
F9
100
AcDbEntity
  8
M1
  6
CONTINUOUS
370
25
 62
     7
100
AcDbLine
 10
92.233668
 20
349.72065
 11
97.233668
 21
349.72065
  0
LINE
  5
FA
100
AcDbEntity
  8
M1
  6
CONTINUOUS
370
25
 62
     7
100
AcDbLine
 10
83.233668
 20
430.320652
 11
84.77044
 21
430.320652
  0
LINE
  5
FB
100
AcDbEntity
  8
M1
  6
CONTINUOUS
370
13
 62
     7
100
AcDbLine
 10
80.733666
 20
429.720652
 11
83.233668
 21
429.720652
  0
LINE
  5
FC
100
AcDbEntity
  8
M1
  6
CONTINUOUS
370
13
 62
     7
100
AcDbLine
 10
80.733666
 20
429.720652
 11
80.733666
 21
423.720652
  0
LINE
  5
FD
100
AcDbEntity
  8
M1
  6
CONTINUOUS
370
13
 62
     7
100
AcDbLine
 10
92.233668
 20
429.720652
 11
97.233668
 21
429.720652
  0
LINE
  5
FE
100
AcDbEntity
  8
M1
  6
CONTINUOUS
370
13
 62
     7
100
AcDbLine
 10
106.233668
 20
429.720652
 11
111.233668
 21
429.720652
  0
LINE
  5
FF
100
AcDbEntity
  8
M1
  6
CONTINUOUS
370
13
 62
     7
100
AcDbLine
 10
120.233668
 20
429.720652
 11
122.733632
 21
429.720652
  0
LINE
  5
100
100
AcDbEntity
  8
M1
  6
CONTINUOUS
370
13
 62
     7
100
AcDbLine
 10
122.733632
 20
429.720652
 11
122.733632
 21
423.720652
  0
LINE
  5
101
100
AcDbEntity
  8
M1
  6
DASHED
370
13
100
AcDbLine
 10
109.133668
 20
423.720652
 11
109.133668
 21
445.720652
  0
LINE
  5
102
100
AcDbEntity
  8
M1
  6
DASHED
370
13
100
AcDbLine
 10
108.333668
 20
445.720652
 11
109.133668
 21
445.720652
  0
LINE
  5
103
100
AcDbEntity
  8
M1
  6
DASHED
370
13
100
AcDbLine
 10
108.333668
 20
423.720652
 11
108.333668
 21
445.720652
  0
LINE
  5
104
100
AcDbEntity
  8
M1
  6
DASHED
370
13
100
AcDbLine
 10
95.133668
 20
423.720652
 11
95.133668
 21
445.720652
  0
LINE
  5
105
100
AcDbEntity
  8
M1
  6
DASHED
370
13
100
AcDbLine
 10
94.333668
 20
445.720652
 11
95.133668
 21
445.720652
  0
LINE
  5
106
100
AcDbEntity
  8
M1
  6
DASHED
370
13
100
AcDbLine
 10
94.333668
 20
423.720652
 11
94.333668
 21
445.720652
  0
LINE
  5
107
100
AcDbEntity
  8
M1
  6
DIVIDE
370
13
 62
     7
100
AcDbLine
 10
122.733668
 20
41.842138
 11
122.733668
 21
115.842138
  0
LINE
  5
108
100
AcDbEntity
  8
M1
  6
DIVIDE
370
13
 62
     7
100
AcDbLine
 10
136.733668
 20
115.842138
 11
80.733666
 21
115.842138
  0
LINE
  5
109
100
AcDbEntity
  8
M1
  6
DIVIDE
370
13
 62
     7
100
AcDbLine
 10
80.733666
 20
115.842138
 11
80.733666
 21
41.842138
  0
LINE
  5
10A
100
AcDbEntity
  8
M1
  6
DIVIDE
370
13
 62
     7
100
AcDbLine
 10
80.733666
 20
41.842138
 11
136.733668
 21
41.842138
  0
LINE
  5
10B
100
AcDbEntity
  8
M1
  6
DASHDOT
370
13
 62
     7
100
AcDbLine
 10
74.067
 20
75.842138
 11
139.400334
 21
75.842138
  0
LINE
  5
10C
100
AcDbEntity
  8
M1
  6
DASHDOT
370
13
 62
     7
100
AcDbLine
 10
101.733668
 20
35.175472
 11
101.733668
 21
122.508806
  0
LINE
  5
10D
100
AcDbEntity
  8
M1
  6
CONTINUOUS
370
25
 62
   253
100
AcDbLine
 10
70.882496
 20
115.642138
 11
145.625912
 21
115.642138
  0
LINE
  5
10E
100
AcDbEntity
  8
M1
  6
CONTINUOUS
370
25
 62
   253
100
AcDbLine
 10
70.03261
 20
107.642138
 11
144.776024
 21
107.642138
  0
SPLINE
  5
10F
100
AcDbEntity
  8
M1
  6
CONTINUOUS
370
25
 62
   253
100
AcDbSpline
210
0.0
220
0.0
230
-1.0
 70
     8
 71
     3
 72
    14
 73
    10
 43
0.0000001
 40
0.0
 40
0.0
 40
0.0
 40
0.0
 40
1.0
 40
1.0
 40
1.0
 40
2.0
 40
2.0
 40
2.0
 40
3.0
 40
3.0
 40
3.0
 40
3.0
 10
145.625912
 20
115.642138
 10
145.700828
 20
115.102858
 10
145.72811
 20
114.585128
 10
145.685974
 20
114.098802
 10
145.551696
 20
112.549026
 10
144.712468
 20
111.318156
 10
144.553016
 20
109.94462
 10
144.467804
 20
109.21061
 10
144.576722
 20
108.43586
 10
144.776024
 20
107.642138
  0
LINE
  5
110
100
AcDbEntity
  8
M1
  6
DASHED
370
13
 62
   253
100
AcDbLine
 10
69.811622
 20
108.842138
 11
144.555038
 21
108.842138
  0
SPLINE
  5
111
100
AcDbEntity
  8
M1
  6
CONTINUOUS
370
25
 62
   253
100
AcDbSpline
210
0.0
220
0.0
230
-1.0
 70
     8
 71
     3
 72
    14
 73
    10
 43
0.0000001
 40
0.0
 40
0.0
 40
0.0
 40
0.0
 40
1.0
 40
1.0
 40
1.0
 40
2.0
 40
2.0
 40
2.0
 40
3.0
 40
3.0
 40
3.0
 40
3.0
 10
70.882496
 20
115.642138
 10
70.957414
 20
115.102858
 10
70.984696
 20
114.585128
 10
70.942558
 20
114.098802
 10
70.808282
 20
112.549026
 10
69.969052
 20
111.318156
 10
69.8096
 20
109.94462
 10
69.72439
 20
109.21061
 10
69.833306
 20
108.43586
 10
70.03261
 20
107.642138
  0
CIRCLE
  5
112
100
AcDbEntity
  8
M1
  6
CONTINUOUS
370
25
 62
   253
100
AcDbCircle
 10
108.733668
 20
112.642138
 40
1.0
  0
CIRCLE
  5
113
100
AcDbEntity
  8
M1
  6
CONTINUOUS
370
25
 62
   253
100
AcDbCircle
 10
94.733668
 20
112.642138
 40
1.0
  0
LINE
  5
114
100
AcDbEntity
  8
M1
  6
DASHDOT
370
13
 62
   253
100
AcDbLine
 10
105.167
 20
112.642138
 11
112.300334
 21
112.642138
  0
LINE
  5
115
100
AcDbEntity
  8
M1
  6
DASHDOT
370
13
 62
   253
100
AcDbLine
 10
108.733668
 20
109.075472
 11
108.733668
 21
116.208806
  0
LINE
  5
116
100
AcDbEntity
  8
M1
  6
DASHDOT
370
13
 62
   253
100
AcDbLine
 10
91.167
 20
112.642138
 11
98.300334
 21
112.642138
  0
LINE
  5
117
100
AcDbEntity
  8
M1
  6
DASHDOT
370
13
 62
   253
100
AcDbLine
 10
94.733668
 20
109.075472
 11
94.733668
 21
116.208806
  0
LINE
  5
118
100
AcDbEntity
  8
M1
  6
CONTINUOUS
370
25
 62
   253
100
AcDbLine
 10
70.882496
 20
48.042138
 11
145.625912
 21
48.042138
  0
LINE
  5
119
100
AcDbEntity
  8
M1
  6
CONTINUOUS
370
25
 62
   253
100
AcDbLine
 10
70.03261
 20
40.042138
 11
144.776024
 21
40.042138
  0
SPLINE
  5
11A
100
AcDbEntity
  8
M1
  6
CONTINUOUS
370
25
 62
   253
100
AcDbSpline
210
0.0
220
0.0
230
-1.0
 70
     8
 71
     3
 72
    14
 73
    10
 43
0.0000001
 40
0.0
 40
0.0
 40
0.0
 40
0.0
 40
1.0
 40
1.0
 40
1.0
 40
2.0
 40
2.0
 40
2.0
 40
3.0
 40
3.0
 40
3.0
 40
3.0
 10
145.625912
 20
48.042138
 10
145.700828
 20
47.502858
 10
145.72811
 20
46.985128
 10
145.685974
 20
46.4988
 10
145.551696
 20
44.949026
 10
144.712468
 20
43.718156
 10
144.553016
 20
42.344618
 10
144.467804
 20
41.61061
 10
144.576722
 20
40.835858
 10
144.776024
 20
40.042138
  0
LINE
  5
11B
100
AcDbEntity
  8
M1
  6
DASHED
370
13
 62
   253
100
AcDbLine
 10
69.811622
 20
41.242138
 11
144.555038
 21
41.242138
  0
SPLINE
  5
11C
100
AcDbEntity
  8
M1
  6
CONTINUOUS
370
25
 62
   253
100
AcDbSpline
210
0.0
220
0.0
230
-1.0
 70
     8
 71
     3
 72
    14
 73
    10
 43
0.0000001
 40
0.0
 40
0.0
 40
0.0
 40
0.0
 40
1.0
 40
1.0
 40
1.0
 40
2.0
 40
2.0
 40
2.0
 40
3.0
 40
3.0
 40
3.0
 40
3.0
 10
70.882496
 20
48.042138
 10
70.957414
 20
47.502858
 10
70.984696
 20
46.985128
 10
70.942558
 20
46.4988
 10
70.808282
 20
44.949026
 10
69.969052
 20
43.718156
 10
69.8096
 20
42.344618
 10
69.72439
 20
41.61061
 10
69.833306
 20
40.835858
 10
70.03261
 20
40.042138
  0
CIRCLE
  5
11D
100
AcDbEntity
  8
M1
  6
CONTINUOUS
370
25
 62
   253
100
AcDbCircle
 10
108.733668
 20
45.042138
 40
1.0
  0
CIRCLE
  5
11E
100
AcDbEntity
  8
M1
  6
CONTINUOUS
370
25
 62
   253
100
AcDbCircle
 10
94.733668
 20
45.042138
 40
1.0
  0
LINE
  5
11F
100
AcDbEntity
  8
M1
  6
DASHDOT
370
13
 62
   253
100
AcDbLine
 10
105.167
 20
45.042138
 11
112.300334
 21
45.042138
  0
LINE
  5
120
100
AcDbEntity
  8
M1
  6
DASHDOT
370
13
 62
   253
100
AcDbLine
 10
108.733668
 20
41.475472
 11
108.733668
 21
48.608804
  0
LINE
  5
121
100
AcDbEntity
  8
M1
  6
DASHDOT
370
13
 62
   253
100
AcDbLine
 10
91.167
 20
45.042138
 11
98.300334
 21
45.042138
  0
LINE
  5
122
100
AcDbEntity
  8
M1
  6
DASHDOT
370
13
 62
   253
100
AcDbLine
 10
94.733668
 20
41.475472
 11
94.733668
 21
48.608804
  0
LINE
  5
123
100
AcDbEntity
  8
M1
  6
DIVIDE
370
13
 62
     7
100
AcDbLine
 10
124.033668
 20
172.047478
 11
124.033668
 21
246.047478
  0
LINE
  5
124
100
AcDbEntity
  8
M1
  6
DIVIDE
370
13
 62
     7
100
AcDbLine
 10
124.033668
 20
246.047478
 11
82.033666
 21
246.047478
  0
LINE
  5
125
100
AcDbEntity
  8
M1
  6
DIVIDE
370
13
 62
     7
100
AcDbLine
 10
82.033666
 20
246.047478
 11
82.033666
 21
172.047478
  0
LINE
  5
126
100
AcDbEntity
  8
M1
  6
DIVIDE
370
13
 62
     7
100
AcDbLine
 10
82.033666
 20
172.047478
 11
124.033668
 21
172.047478
  0
LINE
  5
127
100
AcDbEntity
  8
M1
  6
DASHDOT
370
13
 62
     7
100
AcDbLine
 10
75.367
 20
206.047478
 11
144.938842
 21
206.047478
  0
LINE
  5
128
100
AcDbEntity
  8
M1
  6
DASHDOT
370
13
 62
     7
100
AcDbLine
 10
103.033668
 20
165.38081
 11
103.033668
 21
252.714144
  0
LINE
  5
129
100
AcDbEntity
  8
M1
  6
CONTINUOUS
370
25
 62
     7
100
AcDbLine
 10
96.133668
 20
215.847478
 11
109.933668
 21
215.847478
  0
LINE
  5
12A
100
AcDbEntity
  8
M1
  6
CONTINUOUS
370
25
 62
     7
100
AcDbLine
 10
94.933668
 20
214.647478
 11
94.933668
 21
197.447478
  0
LINE
  5
12B
100
AcDbEntity
  8
M1
  6
CONTINUOUS
370
25
 62
     7
100
AcDbLine
 10
96.133668
 20
196.247478
 11
109.933668
 21
196.247478
  0
LINE
  5
12C
100
AcDbEntity
  8
M1
  6
CONTINUOUS
370
25
 62
     7
100
AcDbLine
 10
111.133668
 20
214.647478
 11
111.133668
 21
197.447478
  0
ARC
  5
12D
100
AcDbEntity
  8
M1
  6
CONTINUOUS
370
25
 62
     7
100
AcDbCircle
 10
109.933668
 20
197.447478
 40
1.2
100
AcDbArc
 50
270.0
 51
360.0
  0
ARC
  5
12E
100
AcDbEntity
  8
M1
  6
CONTINUOUS
370
25
 62
     7
100
AcDbCircle
 10
109.933668
 20
214.647478
 40
1.2
100
AcDbArc
 50
0.0
 51
90.0
  0
ARC
  5
12F
100
AcDbEntity
  8
M1
  6
CONTINUOUS
370
25
 62
     7
100
AcDbCircle
 10
96.133668
 20
214.647478
 40
1.2
100
AcDbArc
 50
90.0
 51
180.0
  0
ARC
  5
130
100
AcDbEntity
  8
M1
  6
CONTINUOUS
370
25
 62
     7
100
AcDbCircle
 10
96.133668
 20
197.447478
 40
1.2
100
AcDbArc
 50
180.0
 51
270.0
  0
LINE
  5
131
100
AcDbEntity
  8
M2
  6
CONTINUOUS
370
50
 62
     7
100
AcDbLine
 10
398.680412
 20
19.601204
 11
398.680412
 21
569.601204
  0
LINE
  5
132
100
AcDbEntity
  8
M2
  6
CONTINUOUS
370
50
 62
     7
100
AcDbLine
 10
18.680412
 20
569.601204
 11
398.680412
 21
569.601204
  0
LINE
  5
133
100
AcDbEntity
  8
M2
  6
CONTINUOUS
370
50
 62
     7
100
AcDbLine
 10
18.680412
 20
569.601204
 11
18.680412
 21
19.601204
  0
LINE
  5
134
100
AcDbEntity
  8
M2
  6
CONTINUOUS
370
50
 62
     7
100
AcDbLine
 10
18.680412
 20
19.601204
 11
398.680412
 21
19.601204
  0
TEXT
  5
135
100
AcDbEntity
  8
M3
100
AcDbText
 10
93.97065
 20
197.109924
 40
5.0
  1
（ＨＯＬＥ）
 41
0.5
  7
STANDARD
100
AcDbText
  0
LINE
  5
136
100
AcDbEntity
  8
M7
  6
CONTINUOUS
370
13
100
AcDbLine
 10
70.122284
 20
24.39869
 11
140.402282
 21
24.39869
  0
TEXT
  5
137
100
AcDbEntity
  8
M7
100
AcDbText
 10
70.401169
 20
24.898689
 40
5.0
  1
ＤＲＩＬＬＩＮＧ　ＰＬＡＮ．
 41
0.833333
  7
STANDARD
100
AcDbText
  0
LINE
  5
138
100
AcDbEntity
  8
M7
  6
CONTINUOUS
370
13
100
AcDbLine
 10
162.867379
 20
69.343001
 11
233.147377
 21
69.343001
  0
TEXT
  5
139
100
AcDbEntity
  8
M7
100
AcDbText
 10
163.146271
 20
69.843002
 40
5.0
  1
ＳＣＡＬＥ　１：１０
 41
0.833333
  7
STANDARD
100
AcDbText
  0
ENDSEC
  0
SECTION
  2
OBJECTS
  0
DICTIONARY
  5
C
100
AcDbDictionary
  3
ACAD_GROUP
350
D
  3
ACAD_MLINESTYLE
350
E
  0
DICTIONARY
  5
D
102
{ACAD_REACTORS
330
C
102
}
100
AcDbDictionary
  0
DICTIONARY
  5
E
102
{ACAD_REACTORS
330
C
102
}
100
AcDbDictionary
  3
STANDARD
350
13
  0
MLINESTYLE
  5
13
102
{ACAD_REACTORS
330
E
102
}
100
AcDbMlineStyle
  2
STANDARD
 70
     0
  3

 62
     0
 51
90.0
 52
90.0
 71
     2
 49
0.5
 62
   256
  6
BYLAYER
 49
-0.5
 62
   256
  6
BYLAYER
  0
ENDSEC
  0
EOF
