  0
SECTION
  2
HEADER
  9
$ACADVER
  1
AC1015
  9
$INSBASE
 10
0.000000
 20
0.000000
 30
0.0
  9
$VIEWCTR
 10
7.531722
 20
4.5
  9
$VIEWSIZE
 40
9.0
  9
$SNAPMODE
 70
     0
  9
$SNAPUNIT
 10
1.0
 20
1.0
  9
$SNAPBASE
 10
0.0
 20
0.0
  9
$SNAPANG
 50
0.0
  9
$SNAPSTYLE
 70
     0
  9
$SNAPISOPAIR
 70
     0
  9
$GRIDMODE
 70
     0
  9
$GRIDUNIT
 10
0.0
 20
0.0
  9
$ORTHOMODE
 70
     0
  9
$REGENMODE
 70
     1
  9
$FILLMODE
 70
     1
  9
$QTEXTMODE
 70
     0
  9
$DRAGMODE
 70
     2
  9
$LTSCALE
  40
     1.000000
  9
$OSMODE
 70
     0
  9
$ATTMODE
 70
     1
  9
$TEXTSIZE
 40
0.2
  9
$TRACEWID
 40
0.05
  9
$TEXTSTYLE
  7
STANDARD
  9
$CELTYPE
  6
BYLAYER
  9
$CECOLOR
 62
   256
  9
$DIMSCALE
 40
1.0
  9
$DIMASZ
 40
0.18
  9
$DIMEXO
 40
0.0625
  9
$DIMDLI
 40
0.38
  9
$DIMRND
 40
0.0
  9
$DIMDLE
 40
0.0
  9
$DIMEXE
 40
0.18
  9
$DIMTP
 40
0.0
  9
$DIMTM
 40
0.0
  9
$DIMTXT
 40
0.18
  9
$DIMCEN
 40
0.09
  9
$DIMTSZ
 40
0.0
  9
$DIMADEC
 70
     0
  9
$DIMALTRND
 40
0.000000
  9
$DIMAZIN
 70
     0
  9
$DIMDSEP
 70
    46
  9
$DIMATFIT
 70
     3
  9
$DIMFRAC
 70
     0
  9
$DIMLDRBLK
  1

  9
$DIMLUNIT
 70
     2
  9
$DIMLWD
 70
   13
  9
$DIMLWE
 70
   13
  9
$DIMTMOVE
 70
     0
  9
$CELWEIGHT
370
    25
  9
$LWDISPLAY
290
    1
  9
$EXTNAMES
290
    1
  9
$DIMTOL
 70
     0
  9
$DIMLIM
 70
     0
  9
$DIMTIH
 70
     1
  9
$DIMTOH
 70
     1
  9
$DIMSE1
 70
     0
  9
$DIMSE2
 70
     0
  9
$DIMTAD
 70
     0
  9
$DIMZIN
 70
     0
  9
$DIMBLK
  1

  9
$LUNITS
 70
     2
  9
$LUPREC
 70
     4
  9
$AXISMODE
 70
     0
  9
$AXISUNIT
 10
0.0
 20
0.0
  9
$SKETCHINC
 40
0.1
  9
$FILLETRAD
 40
0.0
  9
$AUNITS
 70
     0
  9
$AUPREC
 70
     0
  9
$MENU
  1
ACAD
  9
$ELEVATION
 40
0.0
  9
$THICKNESS
 40
0.0
  9
$VIEWDIR
 10
0.0
 20
0.0
 30
1.0
  9
$LIMCHECK
 70
     0
  9
$BLIPMODE
 70
     1
  9
$CHAMFERA
 40
0.0
  9
$CHAMFERB
 40
0.0
  9
$FASTZOOM
 70
     1
  9
$SKPOLY
 70
     0
  9
$TDCREATE
 40
0000000.0000000000
  9
$TDUPDATE
 40
0000000.0000000000
  9
$TDINDWG
 40
0.0000000000
  9
$TDUSRTIMER
 40
0.0000000000
  9
$USRTIMER
 70
     1
  9
$ANGBASE
 50
0.0
  9
$ANGDIR
 70
     0
  9
$PDMODE
 70
     0
  9
$PDSIZE
 40
0.0
  9
$PLINEWID
 40
0.0
  9
$COORDS
 70
     0
  9
$USERI1
 70
     0
  9
$USERI2
 70
     0
  9
$USERI3
 70
     0
  9
$USERI4
 70
     0
  9
$USERI5
 70
     0
  9
$USERR1
 40
0.0
  9
$USERR2
 40
0.0
  9
$USERR3
 40
0.0
  9
$USERR4
 40
0.0
  9
$USERR5
 40
0.0
  9
$CLAYER
  8
M2
  9
$EXTMIN
 10
0.0
 20
0.0
  9
$EXTMAX
 10
841.0
 20
594.0
  9
$LIMMIN
 10
0.0
 20
0.0
  9
$LIMMAX
 10
841.0
 20
594.0
  9
$HANDSEED
  5
13A
  0
ENDSEC
  0
SECTION
  2
CLASSES
  0
CLASS
  1
DIMASSOC
  2
AcDbDimAssoc
  3
"AcDbDimAssoc|Product Desc:     AcDim ARX App For Dimension|Company:          Autodesk, Inc.|WEB Address:      www.autodesk.com"
 90
        0
280
     0
281
     0
  0
ENDSEC
  0
SECTION
  2
TABLES
  0
TABLE
  2
VPORT
  5
8
100
AcDbSymbolTable
 70
     2
  0
VPORT
  5
14
100
AcDbSymbolTableRecord
100
AcDbViewportTableRecord
  2
*ACTIVE
 70
     0
 10
0.0
 20
0.0
 11
1.0
 21
1.0
 12
484.0
 22
297.0
 13
0.0
 23
0.0
 14
1.0
 24
1.0
 15
0.0
 25
0.0
 16
0.0
 26
0.0
 36
1.0
 17
0.0
 27
0.0
 37
0.0
 40
594.0
 41
2.0
 42
50.0
 43
0.0
 44
0.0
 50
0.0
 51
0.0
 71
     0
 72
   100
 73
     1
 74
     1
 75
     0
 76
     0
 77
     0
 78
     0
  0
ENDTAB
  0
TABLE
  2
LTYPE
  5
5
100
AcDbSymbolTable
 70
     5
  0
LTYPE
  5
15
100
AcDbSymbolTableRecord
100
AcDbLinetypeTableRecord
  2
BYBLOCK
 70
     0
  3

 72
    65
 73
     0
 40
0.0
  0
LTYPE
  5
16
100
AcDbSymbolTableRecord
100
AcDbLinetypeTableRecord
  2
BYLAYER
 70
     0
  3

 72
    65
 73
     0
 40
0.0
  0
LTYPE
  5
17
100
AcDbSymbolTableRecord
100
AcDbLinetypeTableRecord
  2
CONTINUOUS
 70
    64
  3
Solid line
 72
    65
 73
     0
 40
0.0
  0
LTYPE
  5
18
100
AcDbSymbolTableRecord
100
AcDbLinetypeTableRecord
  2
DASHED
 70
    64
  3
__ __ __ __ __ __ __ __ __ __ __ __ __ __ __ __
 72
    65
 73
     2
 40
0.75
 49
0.5
 74
     0
 49
-0.25
 74
     0
  0
LTYPE
  5
19
100
AcDbSymbolTableRecord
100
AcDbLinetypeTableRecord
  2
DASHDOT
 70
    64
  3
__ . __ . __ . __ . __ . __ . __ . __ . __ . __
 72
    65
 73
     4
 40
1.0
 49
0.5
 74
     0
 49
-0.25
 74
     0
 49
0.0
 74
     0
 49
-0.25
 74
     0
  0
LTYPE
  5
1A
100
AcDbSymbolTableRecord
100
AcDbLinetypeTableRecord
  2
DIVIDE
 70
    64
  3
____ . . ____ . . ____ . . ____ . . ____ . . __
 72
    65
 73
     6
 40
1.25
 49
0.5
 74
     0
 49
-0.25
 74
     0
 49
0.0
 74
     0
 49
-0.25
 74
     0
 49
0.0
 74
     0
 49
-0.25
 74
     0
  0
LTYPE
  5
1B
100
AcDbSymbolTableRecord
100
AcDbLinetypeTableRecord
  2
DOT
 70
    64
  3
. . . . . . . . . . . . . . . . . . . . . . . .
 72
    65
 73
     2
 40
0.25
 49
0.0
 74
     0
 49
-0.25
 74
     0
  0
ENDTAB
  0
TABLE
  2
LAYER
  5
2
100
AcDbSymbolTable
 70
   102
  0
LAYER
  5
F
100
AcDbSymbolTableRecord
100
AcDbLayerTableRecord
  2
0
 70
     0
 62
     7
  6
CONTINUOUS
370
     -3
390
F
  0
LAYER
  5
1C
100
AcDbSymbolTableRecord
100
AcDbLayerTableRecord
  2
M2
 70
     0
 62
     3
  6
CONTINUOUS
370
     -3
390
F
  0
LAYER
  5
1D
100
AcDbSymbolTableRecord
100
AcDbLayerTableRecord
  2
M3
 70
     0
 62
     7
  6
CONTINUOUS
370
     -3
390
F
  0
LAYER
  5
1E
100
AcDbSymbolTableRecord
100
AcDbLayerTableRecord
  2
M6
 70
     0
 62
     7
  6
CONTINUOUS
370
     -3
390
F
  0
ENDTAB
  0
TABLE
  2
STYLE
  5
3
100
AcDbSymbolTable
 70
     2
  0
STYLE
  5
10
100
AcDbSymbolTableRecord
100
AcDbTextStyleTableRecord
  2
STANDARD
 70
     0
 40
0.0
 41
1.0
 50
0.0
 71
     0
 42
0.2
  3
txt
  4
BIGFONT
  0
ENDTAB
  0
TABLE
  2
VIEW
  5
6
100
AcDbSymbolTable
 70
     0
  0
ENDTAB
  0
TABLE
  2
UCS
  5
7
100
AcDbSymbolTable
 70
     0
  0
ENDTAB
  0
TABLE
  2
APPID
  5
9
100
AcDbSymbolTable
 70
     1
  0
APPID
  5
11
100
AcDbSymbolTableRecord
100
AcDbRegAppTableRecord
  2
ACAD
 70
     0
  0
ENDTAB
  0
TABLE
  2
DIMSTYLE
  5
A
100
AcDbSymbolTable
 70
     2
100
AcDbDimStyleTable
 71
     1
  0
DIMSTYLE
105
47
100
AcDbSymbolTableRecord
100
AcDbDimStyleTableRecord
  2
STANDARD
 70
     0
  3

  4

  5

  6
_OPEN
  7
_OPEN
 40
1.0
 41
3.0
 42
0.0
 43
8.0
 44
1.5
 45
0.0
 46
0.0
 47
0.0
 48
0.0
140
3.2
141
0.09
142
0.0
143
0.03937
144
1.0
145
0.0
146
1.0
147
1.0
148
0.000000
 71
     0
 72
     0
 73
     1
 74
     1
 75
     0
 76
     0
 77
     3
 78
     8
170
     0
171
     2
172
     0
173
     1
174
     0
175
     0
176
     0
177
     0
178
     0
270
     2
271
     2
272
     4
273
     2
274
     2
340
10
275
     0
278
    46
280
     0
281
     0
282
     0
283
     1
284
     0
285
     0
286
     0
287
     3
288
     0
371
   13
372
   13
  0
DIMSTYLE
105
48
100
AcDbSymbolTableRecord
100
AcDbDimStyleTableRecord
  2
LEADSTYL
 70
     0
  3

  4

  5

  6
_OPEN
  7
_OPEN
 40
1.0
 41
3.0
 42
0.0625
 43
0.38
 44
0.18
 45
0.0
 46
0.0
 47
0.0
 48
0.0
140
3.2
141
0.09
142
0.0
143
25.4
144
1.0
145
0.0
146
1.0
147
1.0
 71
     0
 72
     0
 73
     1
 74
     1
 75
     0
 76
     0
 77
     0
 78
     0
170
     0
171
     2
172
     0
173
     1
174
     0
175
     0
176
     0
177
     0
178
     0
270
     2
271
     4
272
     4
273
     2
274
     2
340
10
275
     0
280
     0
281
     0
282
     0
283
     1
284
     0
285
     0
286
     0
287
     3
288
     0
  0
ENDTAB
  0
TABLE
  2
BLOCK_RECORD
  5
1
100
AcDbSymbolTable
 70
     6
  0
BLOCK_RECORD
  5
1F
100
AcDbSymbolTableRecord
100
AcDbBlockTableRecord
  2
*MODEL_SPACE
  0
BLOCK_RECORD
  5
22
100
AcDbSymbolTableRecord
100
AcDbBlockTableRecord
  2
*PAPER_SPACE
  0
BLOCK_RECORD
  5
25
100
AcDbSymbolTableRecord
100
AcDbBlockTableRecord
  2
_NONE
  0
BLOCK_RECORD
  5
29
100
AcDbSymbolTableRecord
100
AcDbBlockTableRecord
  2
_OPEN
  0
BLOCK_RECORD
  5
2F
100
AcDbSymbolTableRecord
100
AcDbBlockTableRecord
  2
_CLOSED
  0
BLOCK_RECORD
  5
36
100
AcDbSymbolTableRecord
100
AcDbBlockTableRecord
  2
_ORIGIN
  0
BLOCK_RECORD
  5
3B
100
AcDbSymbolTableRecord
100
AcDbBlockTableRecord
  2
_DOT
  0
BLOCK_RECORD
  5
43
100
AcDbSymbolTableRecord
100
AcDbBlockTableRecord
  2
_OBLIQUE
  0
ENDTAB
  0
ENDSEC
  0
SECTION
  2
BLOCKS
  0
BLOCK
  5
20
100
AcDbEntity
  8
0
100
AcDbBlockBegin
  2
*MODEL_SPACE
 70
     0
 10
0.0
 20
0.0
 30
0.0
  3
*MODEL_SPACE
  1

  0
ENDBLK
  5
21
100
AcDbEntity
  8
0
100
AcDbBlockEnd
  0
BLOCK
  5
23
100
AcDbEntity
 67
     1
  8
0
100
AcDbBlockBegin
  2
*PAPER_SPACE
 70
     0
 10
0.0
 20
0.0
 30
0.0
  3
*PAPER_SPACE
  1

  0
ENDBLK
  5
24
100
AcDbEntity
 67
     1
  8
0
100
AcDbBlockEnd
  0
BLOCK
  5
26
100
AcDbEntity
  8
0
100
AcDbBlockBegin
  2
_NONE
 70
     0
 10
0.0
 20
0.0
  0
CIRCLE
  5
27
100
AcDbEntity
  8
0
 62
     0
370
13
100
AcDbCircle
 10
0.0
 20
0.0
 40
0.25
  0
ENDBLK
  5
28
100
AcDbEntity
  8
0
100
AcDbBlockEnd
  0
BLOCK
  5
2A
100
AcDbEntity
  8
0
100
AcDbBlockBegin
  2
_OPEN
 70
     0
 10
0.0
 20
0.0
  0
LINE
  5
2B
100
AcDbEntity
  8
0
 62
     0
370
13
100
AcDbLine
 10
-0.965926
 20
0.258819
 11
0.0
 21
0.0
  0
LINE
  5
2C
100
AcDbEntity
  8
0
 62
     0
370
13
100
AcDbLine
 10
0.0
 20
0.0
 11
-0.965926
 21
-0.258819
  0
LINE
  5
2D
100
AcDbEntity
  8
0
 62
     0
370
13
100
AcDbLine
 10
0.0
 20
0.0
 11
-1.0
 21
0.0
  0
ENDBLK
  5
2E
100
AcDbEntity
  8
0
100
AcDbBlockEnd
  0
BLOCK
  5
30
100
AcDbEntity
  8
0
100
AcDbBlockBegin
  2
_CLOSED
 70
     0
 10
0.0
 20
0.0
  0
LINE
  5
31
100
AcDbEntity
  8
0
 62
     0
370
13
100
AcDbLine
 10
-0.965926
 20
0.258819
 11
0.0
 21
0.0
  0
LINE
  5
32
100
AcDbEntity
  8
0
 62
     0
370
13
100
AcDbLine
 10
0.0
 20
0.0
 11
-0.965926
 21
-0.258819
  0
LINE
  5
33
100
AcDbEntity
  8
0
 62
     0
370
13
100
AcDbLine
 10
-0.965926
 20
0.258819
 11
-0.965926
 21
-0.258819
  0
LINE
  5
34
100
AcDbEntity
  8
0
 62
     0
370
13
100
AcDbLine
 10
0.0
 20
0.0
 11
-1.0
 21
0.0
  0
ENDBLK
  5
35
100
AcDbEntity
  8
0
100
AcDbBlockEnd
  0
BLOCK
  5
37
100
AcDbEntity
  8
0
100
AcDbBlockBegin
  2
_ORIGIN
 70
     0
 10
0.0
 20
0.0
  0
CIRCLE
  5
38
100
AcDbEntity
  8
0
 62
     0
370
13
100
AcDbCircle
 10
0.0
 20
0.0
 40
0.5
  0
LINE
  5
39
100
AcDbEntity
  8
0
 62
     0
370
13
100
AcDbLine
 10
0.0
 20
0.0
 11
-1.0
 21
0.0
  0
ENDBLK
  5
3A
100
AcDbEntity
  8
0
100
AcDbBlockEnd
  0
BLOCK
  5
3C
100
AcDbEntity
  8
0
100
AcDbBlockBegin
  2
_DOT
 70
     0
 10
0.0
 20
0.0
  0
POLYLINE
  5
3D
100
AcDbEntity
  8
0
 62
     0
100
AcDb2dPolyline
 66
     1
 70
     1
 40
0.5
 41
0.5
  0
VERTEX
  5
3E
100
AcDbEntity
  8
0
 62
     0
100
AcDbVertex
100
AcDb2dVertex
 10
-0.25
 20
0.0
 42
1.0
  0
VERTEX
  5
3F
100
AcDbEntity
  8
0
 62
     0
100
AcDbVertex
100
AcDb2dVertex
 10
0.25
 20
0.0
 42
1.0
  0
SEQEND
  5
40
100
AcDbEntity
  8
0
 62
     0
  0
LINE
  5
41
100
AcDbEntity
  8
0
 62
     0
370
13
100
AcDbLine
 10
-0.5
 20
0.0
 11
-1.0
 21
0.0
  0
ENDBLK
  5
42
100
AcDbEntity
  8
0
100
AcDbBlockEnd
  0
BLOCK
  5
44
100
AcDbEntity
  8
0
100
AcDbBlockBegin
  2
_OBLIQUE
 70
     0
 10
0.0
 20
0.0
  0
LINE
  5
45
100
AcDbEntity
  8
0
 62
     0
370
13
100
AcDbLine
 10
-0.353553
 20
-0.353553
 11
0.353553
 21
0.353553
  0
ENDBLK
  5
46
100
AcDbEntity
  8
0
100
AcDbBlockEnd
  0
ENDSEC
  0
SECTION
  2
ENTITIES
  0
LINE
  5
49
100
AcDbEntity
  8
M2
  6
DASHED
370
25
100
AcDbLine
 10
255.425511
 20
391.164643
 11
260.425511
 21
391.164643
  0
LINE
  5
4A
100
AcDbEntity
  8
M2
  6
CONTINUOUS
370
25
100
AcDbLine
 10
260.425511
 20
391.164643
 11
260.425511
 21
393.414643
  0
LINE
  5
4B
100
AcDbEntity
  8
M2
  6
DASHED
370
25
100
AcDbLine
 10
260.425511
 20
393.414643
 11
255.425511
 21
393.414643
  0
LINE
  5
4C
100
AcDbEntity
  8
M2
  6
DASHDOT
370
25
100
AcDbLine
 10
250.148682
 20
392.289643
 11
262.646031
 21
392.289643
  0
LINE
  5
4D
100
AcDbEntity
  8
M2
  6
CONTINUOUS
370
25
100
AcDbLine
 10
260.425511
 20
293.539704
 11
260.425511
 21
396.039704
  0
LINE
  5
4E
100
AcDbEntity
  8
M2
  6
DASHED
370
25
100
AcDbLine
 10
255.168919
 20
394.539643
 11
250.925511
 21
394.539643
  0
LINE
  5
4F
100
AcDbEntity
  8
M2
  6
DASHED
370
25
100
AcDbLine
 10
250.925511
 20
390.039643
 11
255.425511
 21
390.039643
  0
LINE
  5
50
100
AcDbEntity
  8
M2
  6
CONTINUOUS
370
25
100
AcDbLine
 10
224.425511
 20
293.539704
 11
260.425511
 21
293.539704
  0
LINE
  5
51
100
AcDbEntity
  8
M2
  6
CONTINUOUS
370
25
100
AcDbLine
 10
260.425511
 20
396.039704
 11
224.403355
 21
396.039704
  0
LINE
  5
52
100
AcDbEntity
  8
M2
  6
CONTINUOUS
370
25
100
AcDbLine
 10
220.425511
 20
356.598115
 11
220.425511
 21
333.141633
  0
LINE
  5
53
100
AcDbEntity
  8
M2
  6
CONTINUOUS
370
25
100
AcDbLine
 10
222.92545
 20
388.539704
 11
222.925389
 21
301.039704
  0
LINE
  5
54
100
AcDbEntity
  8
M2
  6
CONTINUOUS
370
25
100
AcDbLine
 10
220.425511
 20
356.664704
 11
222.925511
 21
356.664704
  0
LINE
  5
55
100
AcDbEntity
  8
M2
  6
CONTINUOUS
370
25
100
AcDbLine
 10
222.925511
 20
332.914704
 11
220.425511
 21
332.914704
  0
LINE
  5
56
100
AcDbEntity
  8
M2
  6
CONTINUOUS
370
25
100
AcDbLine
 10
222.925389
 20
301.039704
 11
224.425389
 21
301.039704
  0
LINE
  5
57
100
AcDbEntity
  8
M2
  6
CONTINUOUS
370
25
100
AcDbLine
 10
224.425389
 20
301.039704
 11
224.425511
 21
293.539704
  0
LINE
  5
58
100
AcDbEntity
  8
M2
  6
CONTINUOUS
370
25
100
AcDbLine
 10
224.425511
 20
396.039704
 11
224.42545
 21
388.539704
  0
LINE
  5
59
100
AcDbEntity
  8
M2
  6
CONTINUOUS
370
25
100
AcDbLine
 10
224.42545
 20
388.539704
 11
222.92545
 21
388.539704
  0
LINE
  5
5A
100
AcDbEntity
  8
M2
  6
CONTINUOUS
370
25
100
AcDbLine
 10
233.925511
 20
396.039704
 11
233.925511
 21
293.539704
  0
LINE
  5
5B
100
AcDbEntity
  8
M2
  6
DASHDOT
370
25
100
AcDbLine
 10
237.425511
 20
356.664704
 11
237.425511
 21
332.914704
  0
LINE
  5
5C
100
AcDbEntity
  8
M2
  6
DASHDOT
370
25
100
AcDbLine
 10
197.793411
 20
348.95464
 11
237.425511
 21
344.789643
  0
LINE
  5
5D
100
AcDbEntity
  8
M2
  6
DASHDOT
370
25
100
AcDbLine
 10
195.015572
 20
335.774209
 11
237.425511
 21
344.789643
  0
LINE
  5
5E
100
AcDbEntity
  8
M2
  6
DASHDOT
370
25
100
AcDbLine
 10
167.766392
 20
324.814073
 11
237.425511
 21
344.789643
  0
LINE
  5
5F
100
AcDbEntity
  8
M2
  6
CONTINUOUS
370
25
100
AcDbLine
 10
220.42545
 20
352.905671
 11
215.022801
 21
354.872041
  0
LINE
  5
60
100
AcDbEntity
  8
M2
  6
CONTINUOUS
370
25
100
AcDbLine
 10
220.42545
 20
349.048005
 11
213.782932
 21
351.465668
  0
LINE
  5
61
100
AcDbEntity
  8
M2
  6
CONTINUOUS
370
25
100
AcDbLine
 10
215.022801
 20
354.872041
 11
213.782932
 21
351.465668
  0
LINE
  5
62
100
AcDbEntity
  8
M2
  6
CONTINUOUS
370
25
100
AcDbLine
 10
247.050511
 20
396.039643
 11
250.800511
 21
396.039643
  0
LINE
  5
63
100
AcDbEntity
  8
M2
  6
CONTINUOUS
370
25
100
AcDbLine
 10
250.800511
 20
396.039643
 11
250.800511
 21
416.039643
  0
LINE
  5
64
100
AcDbEntity
  8
M2
  6
CONTINUOUS
370
25
100
AcDbLine
 10
250.800511
 20
416.039643
 11
247.050511
 21
416.039643
  0
LINE
  5
65
100
AcDbEntity
  8
M2
  6
CONTINUOUS
370
25
100
AcDbLine
 10
247.050511
 20
416.039643
 11
247.050511
 21
396.039643
  0
LINE
  5
66
100
AcDbEntity
  8
M2
  6
CONTINUOUS
370
25
100
AcDbLine
 10
250.800511
 20
273.539704
 11
250.800511
 21
293.539704
  0
LINE
  5
67
100
AcDbEntity
  8
M2
  6
CONTINUOUS
370
25
100
AcDbLine
 10
250.800511
 20
293.539704
 11
247.050511
 21
293.539704
  0
LINE
  5
68
100
AcDbEntity
  8
M2
  6
CONTINUOUS
370
25
100
AcDbLine
 10
247.050511
 20
293.539704
 11
247.050511
 21
273.539704
  0
LINE
  5
69
100
AcDbEntity
  8
M2
  6
DIVIDE
370
25
100
AcDbLine
 10
223.425511
 20
388.539643
 11
224.803868
 21
388.539643
  0
LINE
  5
6A
100
AcDbEntity
  8
M2
  6
DIVIDE
370
25
100
AcDbLine
 10
258.925511
 20
396.092927
 11
258.925511
 21
442.289765
  0
LINE
  5
6B
100
AcDbEntity
  8
M2
  6
DIVIDE
370
25
100
AcDbLine
 10
258.925511
 20
442.289765
 11
224.403355
 21
442.289765
  0
LINE
  5
6C
100
AcDbEntity
  8
M2
  6
DIVIDE
370
25
100
AcDbLine
 10
224.403355
 20
442.289765
 11
224.403355
 21
396.039704
  0
LINE
  5
6D
100
AcDbEntity
  8
M2
  6
CONTINUOUS
370
25
100
AcDbLine
 10
260.425511
 20
301.039704
 11
260.425511
 21
293.539704
  0
ARC
  5
6E
100
AcDbEntity
  8
M2
  6
CONTINUOUS
370
25
100
AcDbCircle
 10
237.425511
 20
344.789704
 40
24.499992
100
AcDbArc
 50
160.000408
 51
196.000965
  0
LINE
  5
6F
100
AcDbEntity
  8
M2
  6
DASHDOT
370
25
100
AcDbLine
 10
164.483372
 20
344.789704
 11
268.175511
 21
344.789704
  0
LINE
  5
70
100
AcDbEntity
  8
M2
  6
DASHED
370
25
100
AcDbLine
 10
210.151829
 20
350.991669
 11
219.313816
 21
347.656953
  0
LINE
  5
71
100
AcDbEntity
  8
M2
  6
DASHED
370
25
100
AcDbLine
 10
219.313755
 20
347.656953
 11
220.510838
 21
350.945954
  0
LINE
  5
72
100
AcDbEntity
  8
M2
  6
CONTINUOUS
370
25
100
AcDbLine
 10
221.707981
 20
354.234773
 11
221.707859
 21
354.234773
  0
ARC
  5
73
100
AcDbEntity
  8
M2
  6
DASHED
370
25
100
AcDbCircle
 10
194.31699
 20
360.479707
 40
5.624981
100
AcDbArc
 50
12.230846
 51
307.768152
  0
LINE
  5
74
100
AcDbEntity
  8
M2
  6
DASHED
370
25
100
AcDbLine
 10
212.545994
 20
357.569489
 11
210.151829
 21
350.991669
  0
LINE
  5
75
100
AcDbEntity
  8
M2
  6
CONTINUOUS
370
25
100
AcDbLine
 10
215.599949
 20
356.457917
 11
215.599888
 21
356.457856
  0
LINE
  5
76
100
AcDbEntity
  8
M2
  6
DASHED
370
25
100
AcDbLine
 10
199.814244
 20
361.671357
 11
212.545933
 21
357.569428
  0
LINE
  5
77
100
AcDbEntity
  8
M2
  6
DASHED
370
25
100
AcDbLine
 10
197.762119
 20
356.033234
 11
210.151829
 21
350.991669
  0
LINE
  5
78
100
AcDbEntity
  8
M2
  6
CONTINUOUS
370
25
100
AcDbLine
 10
215.022679
 20
354.872041
 11
213.782932
 21
351.465668
  0
LINE
  5
79
100
AcDbEntity
  8
M2
  6
DASHED
370
25
100
AcDbLine
 10
220.42545
 20
354.701508
 11
212.545933
 21
357.569428
  0
ARC
  5
7A
100
AcDbEntity
  8
M2
  6
CONTINUOUS
370
25
100
AcDbCircle
 10
237.425511
 20
344.789704
 40
51.499996
100
AcDbArc
 50
160.000406
 51
179.999964
  0
LINE
  5
7B
100
AcDbEntity
  8
M2
  6
CONTINUOUS
370
25
100
AcDbLine
 10
247.050511
 20
273.539704
 11
250.800511
 21
273.539704
  0
LINE
  5
7C
100
AcDbEntity
  8
M2
  6
DASHED
370
25
100
AcDbLine
 10
255.425511
 20
394.539643
 11
255.425511
 21
390.039643
  0
LINE
  5
7D
100
AcDbEntity
  8
M2
  6
DIVIDE
370
25
100
AcDbLine
 10
90.916781
 20
442.289765
 11
90.366782
 21
442.289765
  0
LINE
  5
7E
100
AcDbEntity
  8
M2
  6
DIVIDE
370
25
100
AcDbLine
 10
90.366782
 20
442.289765
 11
90.366782
 21
396.039765
  0
LINE
  5
7F
100
AcDbEntity
  8
M2
  6
DIVIDE
370
25
100
AcDbLine
 10
85.828028
 20
396.039765
 11
86.378031
 21
396.039765
  0
LINE
  5
80
100
AcDbEntity
  8
M2
  6
DIVIDE
370
25
100
AcDbLine
 10
90.916781
 20
396.039765
 11
90.916781
 21
442.289765
  0
LINE
  5
81
100
AcDbEntity
  8
M2
  6
CONTINUOUS
370
25
100
AcDbLine
 10
73.14178
 20
293.539765
 11
125.64178
 21
293.539765
  0
LINE
  5
82
100
AcDbEntity
  8
M2
  6
CONTINUOUS
370
25
100
AcDbLine
 10
125.64178
 20
293.539765
 11
125.64178
 21
396.039765
  0
LINE
  5
83
100
AcDbEntity
  8
M2
  6
CONTINUOUS
370
25
100
AcDbLine
 10
125.64178
 20
396.039765
 11
73.14178
 21
396.039765
  0
LINE
  5
84
100
AcDbEntity
  8
M2
  6
CONTINUOUS
370
25
100
AcDbLine
 10
73.14178
 20
396.039765
 11
73.14178
 21
293.539765
  0
LINE
  5
85
100
AcDbEntity
  8
M2
  6
DASHDOT
370
25
100
AcDbLine
 10
66.89178
 20
344.789765
 11
131.89178
 21
344.789765
  0
LINE
  5
86
100
AcDbEntity
  8
M2
  6
DASHDOT
370
25
100
AcDbLine
 10
99.39178
 20
287.289765
 11
99.39178
 21
417.107392
  0
LINE
  5
87
100
AcDbEntity
  8
M2
  6
CONTINUOUS
370
25
100
AcDbLine
 10
91.39178
 20
332.914765
 11
107.39178
 21
332.914765
  0
LINE
  5
88
100
AcDbEntity
  8
M2
  6
CONTINUOUS
370
25
100
AcDbLine
 10
109.14178
 20
334.664704
 11
109.14178
 21
354.914643
  0
LINE
  5
89
100
AcDbEntity
  8
M2
  6
CONTINUOUS
370
25
100
AcDbLine
 10
107.39178
 20
356.664765
 11
91.39178
 21
356.664704
  0
LINE
  5
8A
100
AcDbEntity
  8
M2
  6
CONTINUOUS
370
25
100
AcDbLine
 10
89.64178
 20
354.914704
 11
89.64178
 21
334.664765
  0
ARC
  5
8B
100
AcDbEntity
  8
M2
  6
CONTINUOUS
370
25
100
AcDbCircle
 10
91.39178
 20
354.914704
 40
1.75
100
AcDbArc
 50
89.999875
 51
180.0
  0
ARC
  5
8C
100
AcDbEntity
  8
M2
  6
CONTINUOUS
370
25
100
AcDbCircle
 10
91.39178
 20
334.664765
 40
1.75
100
AcDbArc
 50
179.999875
 51
270.0
  0
ARC
  5
8D
100
AcDbEntity
  8
M2
  6
CONTINUOUS
370
25
100
AcDbCircle
 10
107.39178
 20
334.664765
 40
1.75
100
AcDbArc
 50
269.999875
 51
360.0
  0
ARC
  5
8E
100
AcDbEntity
  8
M2
  6
CONTINUOUS
370
25
100
AcDbCircle
 10
107.39178
 20
354.914704
 40
1.75
100
AcDbArc
 50
0.0
 51
90.0
  0
LINE
  5
8F
100
AcDbEntity
  8
M2
  6
CONTINUOUS
370
25
100
AcDbLine
 10
91.39178
 20
334.164765
 11
107.39178
 21
334.164765
  0
LINE
  5
90
100
AcDbEntity
  8
M2
  6
CONTINUOUS
370
25
100
AcDbLine
 10
107.89178
 20
334.664704
 11
107.89178
 21
354.914704
  0
LINE
  5
91
100
AcDbEntity
  8
M2
  6
CONTINUOUS
370
25
100
AcDbLine
 10
107.39178
 20
355.414765
 11
91.39178
 21
355.414704
  0
LINE
  5
92
100
AcDbEntity
  8
M2
  6
CONTINUOUS
370
25
100
AcDbLine
 10
90.89178
 20
354.914704
 11
90.89178
 21
334.664765
  0
LINE
  5
93
100
AcDbEntity
  8
M2
  6
CONTINUOUS
370
25
100
AcDbLine
 10
73.14178
 20
388.539765
 11
125.64178
 21
388.539765
  0
LINE
  5
94
100
AcDbEntity
  8
M2
  6
CONTINUOUS
370
25
100
AcDbLine
 10
125.64178
 20
301.039704
 11
73.14178
 21
301.039704
  0
ARC
  5
95
100
AcDbEntity
  8
M2
  6
CONTINUOUS
370
25
100
AcDbCircle
 10
91.39178
 20
354.914704
 40
0.5
100
AcDbArc
 50
89.999563
 51
180.0
  0
ARC
  5
96
100
AcDbEntity
  8
M2
  6
CONTINUOUS
370
25
100
AcDbCircle
 10
91.39178
 20
334.664765
 40
0.5
100
AcDbArc
 50
179.999563
 51
270.0
  0
ARC
  5
97
100
AcDbEntity
  8
M2
  6
CONTINUOUS
370
25
100
AcDbCircle
 10
107.39178
 20
334.664765
 40
0.5
100
AcDbArc
 50
269.999563
 51
359.993006
  0
ARC
  5
98
100
AcDbEntity
  8
M2
  6
CONTINUOUS
370
25
100
AcDbCircle
 10
107.39178
 20
354.914704
 40
0.5
100
AcDbArc
 50
0.0
 51
90.0
  0
LINE
  5
99
100
AcDbEntity
  8
M2
  6
CONTINUOUS
370
25
100
AcDbLine
 10
74.64178
 20
309.789765
 11
124.14178
 21
309.789765
  0
LINE
  5
9A
100
AcDbEntity
  8
M2
  6
CONTINUOUS
370
25
100
AcDbLine
 10
124.64178
 20
310.289704
 11
124.64178
 21
324.289704
  0
LINE
  5
9B
100
AcDbEntity
  8
M2
  6
CONTINUOUS
370
25
100
AcDbLine
 10
124.14178
 20
324.789765
 11
74.64178
 21
324.789704
  0
LINE
  5
9C
100
AcDbEntity
  8
M2
  6
CONTINUOUS
370
25
100
AcDbLine
 10
74.14178
 20
324.289704
 11
74.14178
 21
310.289765
  0
ARC
  5
9D
100
AcDbEntity
  8
M2
  6
CONTINUOUS
370
25
100
AcDbCircle
 10
74.64178
 20
324.289704
 40
0.5
100
AcDbArc
 50
89.999563
 51
179.999563
  0
ARC
  5
9E
100
AcDbEntity
  8
M2
  6
CONTINUOUS
370
25
100
AcDbCircle
 10
74.64178
 20
310.289765
 40
0.5
100
AcDbArc
 50
179.999563
 51
270.0
  0
ARC
  5
9F
100
AcDbEntity
  8
M2
  6
CONTINUOUS
370
25
100
AcDbCircle
 10
124.14178
 20
310.289765
 40
0.5
100
AcDbArc
 50
269.999563
 51
359.993006
  0
ARC
  5
A0
100
AcDbEntity
  8
M2
  6
CONTINUOUS
370
25
100
AcDbCircle
 10
124.14178
 20
324.289704
 40
0.5
100
AcDbArc
 50
0.0
 51
90.0
  0
LINE
  5
A1
100
AcDbEntity
  8
M2
  6
CONTINUOUS
370
25
100
AcDbLine
 10
76.26678
 20
396.039704
 11
87.51678
 21
396.039704
  0
LINE
  5
A2
100
AcDbEntity
  8
M2
  6
CONTINUOUS
370
25
100
AcDbLine
 10
87.51678
 20
396.039704
 11
87.51678
 21
416.039704
  0
LINE
  5
A3
100
AcDbEntity
  8
M2
  6
CONTINUOUS
370
25
100
AcDbLine
 10
87.51678
 20
416.039704
 11
76.26678
 21
416.039704
  0
LINE
  5
A4
100
AcDbEntity
  8
M2
  6
CONTINUOUS
370
25
100
AcDbLine
 10
76.26678
 20
416.039704
 11
76.26678
 21
396.039704
  0
CIRCLE
  5
A5
100
AcDbEntity
  8
M2
  6
CONTINUOUS
370
25
100
AcDbCircle
 10
81.89178
 20
402.289704
 40
1.687498
  0
LINE
  5
A6
100
AcDbEntity
  8
M2
  6
DASHDOT
370
25
100
AcDbLine
 10
79.020812
 20
402.289704
 11
85.109252
 21
402.289704
  0
LINE
  5
A7
100
AcDbEntity
  8
M2
  6
DASHDOT
370
25
100
AcDbLine
 10
81.89178
 20
394.352204
 11
81.89178
 21
417.767976
  0
ARC
  5
A8
100
AcDbEntity
  8
M2
  6
CONTINUOUS
370
25
100
AcDbCircle
 10
81.89178
 20
410.289643
 40
1.687498
100
AcDbArc
 50
180.0
 51
360.0
  0
LINE
  5
A9
100
AcDbEntity
  8
M2
  6
DASHDOT
370
25
100
AcDbLine
 10
79.394675
 20
410.289643
 11
85.002494
 21
410.289643
  0
ARC
  5
AA
100
AcDbEntity
  8
M2
  6
CONTINUOUS
370
25
100
AcDbCircle
 10
81.89178
 20
412.289643
 40
1.687498
100
AcDbArc
 50
0.0
 51
180.0
  0
LINE
  5
AB
100
AcDbEntity
  8
M2
  6
DASHDOT
370
25
100
AcDbLine
 10
79.367949
 20
412.289643
 11
85.029158
 21
412.289643
  0
LINE
  5
AC
100
AcDbEntity
  8
M2
  6
CONTINUOUS
370
25
100
AcDbLine
 10
83.57928
 20
412.289643
 11
83.57928
 21
410.289643
  0
LINE
  5
AD
100
AcDbEntity
  8
M2
  6
CONTINUOUS
370
25
100
AcDbLine
 10
80.20428
 20
412.289643
 11
80.20428
 21
410.289643
  0
LINE
  5
AE
100
AcDbEntity
  8
M2
  6
CONTINUOUS
370
25
100
AcDbLine
 10
93.76678
 20
396.039704
 11
105.01678
 21
396.039704
  0
LINE
  5
AF
100
AcDbEntity
  8
M2
  6
CONTINUOUS
370
25
100
AcDbLine
 10
105.01678
 20
396.039704
 11
105.01678
 21
416.039704
  0
LINE
  5
B0
100
AcDbEntity
  8
M2
  6
CONTINUOUS
370
25
100
AcDbLine
 10
105.01678
 20
416.039704
 11
93.76678
 21
416.039704
  0
LINE
  5
B1
100
AcDbEntity
  8
M2
  6
CONTINUOUS
370
25
100
AcDbLine
 10
93.76678
 20
416.039704
 11
93.76678
 21
396.039704
  0
CIRCLE
  5
B2
100
AcDbEntity
  8
M2
  6
CONTINUOUS
370
25
100
AcDbCircle
 10
99.39178
 20
402.289704
 40
1.687498
  0
LINE
  5
B3
100
AcDbEntity
  8
M2
  6
DASHDOT
370
25
100
AcDbLine
 10
96.40494
 20
402.289704
 11
101.905902
 21
402.289704
  0
ARC
  5
B4
100
AcDbEntity
  8
M2
  6
CONTINUOUS
370
25
100
AcDbCircle
 10
99.39178
 20
410.289643
 40
1.687498
100
AcDbArc
 50
180.0
 51
360.0
  0
LINE
  5
B5
100
AcDbEntity
  8
M2
  6
DASHDOT
370
25
100
AcDbLine
 10
96.698672
 20
410.289643
 11
102.012698
 21
410.289643
  0
ARC
  5
B6
100
AcDbEntity
  8
M2
  6
CONTINUOUS
370
25
100
AcDbCircle
 10
99.39178
 20
412.289643
 40
1.687498
100
AcDbArc
 50
0.0
 51
180.0
  0
LINE
  5
B7
100
AcDbEntity
  8
M2
  6
DASHDOT
370
25
100
AcDbLine
 10
96.618563
 20
412.289643
 11
102.333148
 21
412.289643
  0
LINE
  5
B8
100
AcDbEntity
  8
M2
  6
CONTINUOUS
370
25
100
AcDbLine
 10
101.07928
 20
412.289643
 11
101.07928
 21
410.289643
  0
LINE
  5
B9
100
AcDbEntity
  8
M2
  6
CONTINUOUS
370
25
100
AcDbLine
 10
97.70428
 20
412.289643
 11
97.70428
 21
410.289643
  0
LINE
  5
BA
100
AcDbEntity
  8
M2
  6
CONTINUOUS
370
25
100
AcDbLine
 10
111.26678
 20
396.039704
 11
122.51678
 21
396.039704
  0
LINE
  5
BB
100
AcDbEntity
  8
M2
  6
CONTINUOUS
370
25
100
AcDbLine
 10
122.51678
 20
396.039704
 11
122.51678
 21
416.039704
  0
LINE
  5
BC
100
AcDbEntity
  8
M2
  6
CONTINUOUS
370
25
100
AcDbLine
 10
122.51678
 20
416.039704
 11
111.26678
 21
416.039704
  0
LINE
  5
BD
100
AcDbEntity
  8
M2
  6
CONTINUOUS
370
25
100
AcDbLine
 10
111.26678
 20
416.039704
 11
111.26678
 21
396.039704
  0
CIRCLE
  5
BE
100
AcDbEntity
  8
M2
  6
CONTINUOUS
370
25
100
AcDbCircle
 10
116.89178
 20
402.289704
 40
1.687498
  0
LINE
  5
BF
100
AcDbEntity
  8
M2
  6
DASHDOT
370
25
100
AcDbLine
 10
114.082801
 20
402.289704
 11
119.423545
 21
402.289704
  0
LINE
  5
C0
100
AcDbEntity
  8
M2
  6
DASHDOT
370
25
100
AcDbLine
 10
116.89178
 20
394.352204
 11
116.89178
 21
417.767976
  0
ARC
  5
C1
100
AcDbEntity
  8
M2
  6
CONTINUOUS
370
25
100
AcDbCircle
 10
116.89178
 20
410.289643
 40
1.687498
100
AcDbArc
 50
180.0
 51
360.0
  0
LINE
  5
C2
100
AcDbEntity
  8
M2
  6
DASHDOT
370
25
100
AcDbLine
 10
114.109504
 20
410.289643
 11
119.396827
 21
410.289643
  0
ARC
  5
C3
100
AcDbEntity
  8
M2
  6
CONTINUOUS
370
25
100
AcDbCircle
 10
116.89178
 20
412.289643
 40
1.687498
100
AcDbArc
 50
0.0
 51
180.0
  0
LINE
  5
C4
100
AcDbEntity
  8
M2
  6
DASHDOT
370
25
100
AcDbLine
 10
114.136207
 20
412.289643
 11
119.690574
 21
412.289643
  0
LINE
  5
C5
100
AcDbEntity
  8
M2
  6
CONTINUOUS
370
25
100
AcDbLine
 10
118.57928
 20
412.289643
 11
118.57928
 21
410.289643
  0
LINE
  5
C6
100
AcDbEntity
  8
M2
  6
CONTINUOUS
370
25
100
AcDbLine
 10
115.20428
 20
412.289643
 11
115.20428
 21
410.289643
  0
LINE
  5
C7
100
AcDbEntity
  8
M2
  6
CONTINUOUS
370
25
100
AcDbLine
 10
76.26678
 20
293.539826
 11
87.51678
 21
293.539826
  0
LINE
  5
C8
100
AcDbEntity
  8
M2
  6
CONTINUOUS
370
25
100
AcDbLine
 10
87.51678
 20
293.539826
 11
87.51678
 21
273.539826
  0
LINE
  5
C9
100
AcDbEntity
  8
M2
  6
CONTINUOUS
370
25
100
AcDbLine
 10
87.51678
 20
273.539826
 11
76.26678
 21
273.539826
  0
LINE
  5
CA
100
AcDbEntity
  8
M2
  6
CONTINUOUS
370
25
100
AcDbLine
 10
76.26678
 20
273.539826
 11
76.26678
 21
293.539826
  0
CIRCLE
  5
CB
100
AcDbEntity
  8
M2
  6
CONTINUOUS
370
25
100
AcDbCircle
 10
81.89178
 20
287.289826
 40
1.687498
  0
LINE
  5
CC
100
AcDbEntity
  8
M2
  6
DASHDOT
370
25
100
AcDbLine
 10
79.18104
 20
287.289826
 11
84.975737
 21
287.289826
  0
LINE
  5
CD
100
AcDbEntity
  8
M2
  6
DASHDOT
370
25
100
AcDbLine
 10
81.89178
 20
295.227326
 11
81.89178
 21
271.811555
  0
ARC
  5
CE
100
AcDbEntity
  8
M2
  6
CONTINUOUS
370
25
100
AcDbCircle
 10
81.89178
 20
279.289887
 40
1.687498
100
AcDbArc
 50
0.0
 51
179.997928
  0
LINE
  5
CF
100
AcDbEntity
  8
M2
  6
DASHDOT
370
25
100
AcDbLine
 10
79.341246
 20
279.289887
 11
84.868926
 21
279.289887
  0
ARC
  5
D0
100
AcDbEntity
  8
M2
  6
CONTINUOUS
370
25
100
AcDbCircle
 10
81.89178
 20
277.289887
 40
1.687498
100
AcDbArc
 50
179.997928
 51
360.0
  0
LINE
  5
D1
100
AcDbEntity
  8
M2
  6
DASHDOT
370
25
100
AcDbLine
 10
79.261138
 20
277.289887
 11
84.68199
 21
277.289887
  0
LINE
  5
D2
100
AcDbEntity
  8
M2
  6
CONTINUOUS
370
25
100
AcDbLine
 10
83.57928
 20
277.289887
 11
83.57928
 21
279.289887
  0
LINE
  5
D3
100
AcDbEntity
  8
M2
  6
CONTINUOUS
370
25
100
AcDbLine
 10
80.20428
 20
277.289887
 11
80.20428
 21
279.289887
  0
LINE
  5
D4
100
AcDbEntity
  8
M2
  6
CONTINUOUS
370
25
100
AcDbLine
 10
93.76678
 20
293.539826
 11
105.01678
 21
293.539826
  0
LINE
  5
D5
100
AcDbEntity
  8
M2
  6
CONTINUOUS
370
25
100
AcDbLine
 10
105.01678
 20
293.539826
 11
105.01678
 21
273.539826
  0
LINE
  5
D6
100
AcDbEntity
  8
M2
  6
CONTINUOUS
370
25
100
AcDbLine
 10
105.01678
 20
273.539826
 11
93.76678
 21
273.539826
  0
LINE
  5
D7
100
AcDbEntity
  8
M2
  6
CONTINUOUS
370
25
100
AcDbLine
 10
93.76678
 20
273.539826
 11
93.76678
 21
293.539826
  0
CIRCLE
  5
D8
100
AcDbEntity
  8
M2
  6
CONTINUOUS
370
25
100
AcDbCircle
 10
99.39178
 20
287.289826
 40
1.687498
  0
LINE
  5
D9
100
AcDbEntity
  8
M2
  6
DASHDOT
370
25
100
AcDbLine
 10
97.019107
 20
287.289826
 11
102.172915
 21
287.289826
  0
LINE
  5
DA
100
AcDbEntity
  8
M2
  6
DASHDOT
370
25
100
AcDbLine
 10
99.39178
 20
295.227326
 11
99.39178
 21
271.811555
  0
ARC
  5
DB
100
AcDbEntity
  8
M2
  6
CONTINUOUS
370
25
100
AcDbCircle
 10
99.39178
 20
279.289887
 40
1.687498
100
AcDbArc
 50
0.0
 51
179.997928
  0
LINE
  5
DC
100
AcDbEntity
  8
M2
  6
DASHDOT
370
25
100
AcDbLine
 10
96.618563
 20
279.289887
 11
102.199633
 21
279.289887
  0
ARC
  5
DD
100
AcDbEntity
  8
M2
  6
CONTINUOUS
370
25
100
AcDbCircle
 10
99.39178
 20
277.289887
 40
1.687498
100
AcDbArc
 50
179.997928
 51
360.0
  0
LINE
  5
DE
100
AcDbEntity
  8
M2
  6
DASHDOT
370
25
100
AcDbLine
 10
96.671969
 20
277.289887
 11
102.119525
 21
277.289887
  0
LINE
  5
DF
100
AcDbEntity
  8
M2
  6
CONTINUOUS
370
25
100
AcDbLine
 10
101.07928
 20
277.289887
 11
101.07928
 21
279.289887
  0
LINE
  5
E0
100
AcDbEntity
  8
M2
  6
CONTINUOUS
370
25
100
AcDbLine
 10
97.70428
 20
277.289887
 11
97.70428
 21
279.289887
  0
LINE
  5
E1
100
AcDbEntity
  8
M2
  6
CONTINUOUS
370
25
100
AcDbLine
 10
111.26678
 20
293.539826
 11
122.51678
 21
293.539826
  0
LINE
  5
E2
100
AcDbEntity
  8
M2
  6
CONTINUOUS
370
25
100
AcDbLine
 10
122.51678
 20
293.539826
 11
122.51678
 21
273.539826
  0
LINE
  5
E3
100
AcDbEntity
  8
M2
  6
CONTINUOUS
370
25
100
AcDbLine
 10
122.51678
 20
273.539826
 11
111.26678
 21
273.539826
  0
LINE
  5
E4
100
AcDbEntity
  8
M2
  6
CONTINUOUS
370
25
100
AcDbLine
 10
111.26678
 20
273.539826
 11
111.26678
 21
293.539826
  0
CIRCLE
  5
E5
100
AcDbEntity
  8
M2
  6
CONTINUOUS
370
25
100
AcDbCircle
 10
116.89178
 20
287.289826
 40
1.687498
  0
LINE
  5
E6
100
AcDbEntity
  8
M2
  6
DASHDOT
370
25
100
AcDbLine
 10
114.34983
 20
287.289826
 11
119.850791
 21
287.289826
  0
LINE
  5
E7
100
AcDbEntity
  8
M2
  6
DASHDOT
370
25
100
AcDbLine
 10
116.89178
 20
295.227326
 11
116.89178
 21
271.811555
  0
ARC
  5
E8
100
AcDbEntity
  8
M2
  6
CONTINUOUS
370
25
100
AcDbCircle
 10
116.89178
 20
279.289887
 40
1.687498
100
AcDbArc
 50
0.0
 51
179.997928
  0
LINE
  5
E9
100
AcDbEntity
  8
M2
  6
DASHDOT
370
25
100
AcDbLine
 10
114.296424
 20
279.289887
 11
119.717276
 21
279.289887
  0
ARC
  5
EA
100
AcDbEntity
  8
M2
  6
CONTINUOUS
370
25
100
AcDbCircle
 10
116.89178
 20
277.289887
 40
1.687498
100
AcDbArc
 50
179.997928
 51
360.0
  0
LINE
  5
EB
100
AcDbEntity
  8
M2
  6
DASHDOT
370
25
100
AcDbLine
 10
114.34983
 20
277.289887
 11
119.663871
 21
277.289887
  0
LINE
  5
EC
100
AcDbEntity
  8
M2
  6
CONTINUOUS
370
25
100
AcDbLine
 10
118.57928
 20
277.289887
 11
118.57928
 21
279.289887
  0
LINE
  5
ED
100
AcDbEntity
  8
M2
  6
CONTINUOUS
370
25
100
AcDbLine
 10
115.20428
 20
277.289887
 11
115.20428
 21
279.289887
  0
CIRCLE
  5
EE
100
AcDbEntity
  8
M2
  6
CONTINUOUS
370
25
100
AcDbCircle
 10
99.39178
 20
327.289765
 40
1.625
  0
LINE
  5
EF
100
AcDbEntity
  8
M2
  6
DASHDOT
370
25
100
AcDbLine
 10
91.51678
 20
327.289765
 11
107.26678
 21
327.289765
  0
CIRCLE
  5
F0
100
AcDbEntity
  8
M2
  6
CONTINUOUS
370
25
100
AcDbCircle
 10
90.64178
 20
297.289765
 40
2.624998
  0
LINE
  5
F1
100
AcDbEntity
  8
M2
  6
DASHDOT
370
25
100
AcDbLine
 10
81.76678
 20
297.289765
 11
99.51678
 21
297.289765
  0
LINE
  5
F2
100
AcDbEntity
  8
M2
  6
DASHDOT
370
25
100
AcDbLine
 10
90.64178
 20
288.414765
 11
90.64178
 21
306.164765
  0
CIRCLE
  5
F3
100
AcDbEntity
  8
M2
  6
CONTINUOUS
370
25
100
AcDbCircle
 10
108.14178
 20
297.289765
 40
2.624998
  0
LINE
  5
F4
100
AcDbEntity
  8
M2
  6
DASHDOT
370
25
100
AcDbLine
 10
99.26678
 20
297.289765
 11
117.01678
 21
297.289765
  0
LINE
  5
F5
100
AcDbEntity
  8
M2
  6
DASHDOT
370
25
100
AcDbLine
 10
108.14178
 20
288.414765
 11
108.14178
 21
306.164765
  0
CIRCLE
  5
F6
100
AcDbEntity
  8
M2
  6
CONTINUOUS
370
25
100
AcDbCircle
 10
90.64178
 20
392.289765
 40
2.624998
  0
LINE
  5
F7
100
AcDbEntity
  8
M2
  6
DASHDOT
370
25
100
AcDbLine
 10
81.76678
 20
392.289765
 11
99.51678
 21
392.289765
  0
LINE
  5
F8
100
AcDbEntity
  8
M2
  6
DASHDOT
370
25
100
AcDbLine
 10
90.64178
 20
383.414765
 11
90.64178
 21
401.164765
  0
CIRCLE
  5
F9
100
AcDbEntity
  8
M2
  6
CONTINUOUS
370
25
100
AcDbCircle
 10
108.14178
 20
392.289765
 40
2.624998
  0
LINE
  5
FA
100
AcDbEntity
  8
M2
  6
DASHDOT
370
25
100
AcDbLine
 10
99.26678
 20
392.289765
 11
117.01678
 21
392.289765
  0
LINE
  5
FB
100
AcDbEntity
  8
M2
  6
DASHDOT
370
25
100
AcDbLine
 10
108.14178
 20
383.414765
 11
108.14178
 21
401.164765
  0
LINE
  5
FC
100
AcDbEntity
  8
M2
  6
CONTINUOUS
370
25
100
AcDbLine
 10
93.64178
 20
354.872041
 11
93.64178
 21
336.664704
  0
LINE
  5
FD
100
AcDbEntity
  8
M2
  6
CONTINUOUS
370
25
100
AcDbLine
 10
105.14178
 20
354.872041
 11
105.14178
 21
336.664704
  0
LINE
  5
FE
100
AcDbEntity
  8
M2
  6
CONTINUOUS
370
25
100
AcDbLine
 10
105.14178
 20
336.664765
 11
93.64178
 21
336.664765
  0
LINE
  5
FF
100
AcDbEntity
  8
M2
  6
CONTINUOUS
370
25
100
AcDbLine
 10
95.977656
 20
346.039765
 11
102.840522
 21
346.039765
  0
LINE
  5
100
100
AcDbEntity
  8
M2
  6
CONTINUOUS
370
25
100
AcDbLine
 10
93.64178
 20
351.465668
 11
105.14178
 21
351.465668
  0
LINE
  5
101
100
AcDbEntity
  8
M2
  6
CONTINUOUS
370
25
100
AcDbLine
 10
93.64178
 20
354.872041
 11
105.14178
 21
354.872041
  0
CIRCLE
  5
102
100
AcDbEntity
  8
M2
  6
CONTINUOUS
370
25
100
AcDbCircle
 10
81.29177
 20
321.289765
 40
1.25
  0
CIRCLE
  5
103
100
AcDbEntity
  8
M2
  6
CONTINUOUS
370
25
100
AcDbCircle
 10
87.966773
 20
321.289765
 40
1.25
  0
CIRCLE
  5
104
100
AcDbEntity
  8
M2
  6
CONTINUOUS
370
25
100
AcDbCircle
 10
104.491797
 20
321.289765
 40
0.625
  0
LINE
  5
105
100
AcDbEntity
  8
M2
  6
CONTINUOUS
370
25
100
AcDbLine
 10
115.391768
 20
313.564728
 11
110.141768
 21
313.564728
  0
LINE
  5
106
100
AcDbEntity
  8
M2
  6
CONTINUOUS
370
25
100
AcDbLine
 10
115.516768
 20
310.689728
 11
115.516768
 21
313.439728
  0
ARC
  5
107
100
AcDbEntity
  8
M2
  6
CONTINUOUS
370
25
100
AcDbCircle
 10
115.391768
 20
313.439728
 40
0.125
100
AcDbArc
 50
0.0
 51
90.0
  0
LINE
  5
108
100
AcDbEntity
  8
M2
  6
CONTINUOUS
370
25
100
AcDbLine
 10
110.016768
 20
313.439728
 11
110.016768
 21
310.689728
  0
ARC
  5
109
100
AcDbEntity
  8
M2
  6
CONTINUOUS
370
25
100
AcDbCircle
 10
110.141768
 20
313.439728
 40
0.125
100
AcDbArc
 50
90.0
 51
179.972024
  0
LINE
  5
10A
100
AcDbEntity
  8
M2
  6
CONTINUOUS
370
25
100
AcDbLine
 10
110.141768
 20
310.564728
 11
115.391768
 21
310.564728
  0
ARC
  5
10B
100
AcDbEntity
  8
M2
  6
CONTINUOUS
370
25
100
AcDbCircle
 10
110.141768
 20
310.689728
 40
0.125
100
AcDbArc
 50
179.972024
 51
270.0
  0
ARC
  5
10C
100
AcDbEntity
  8
M2
  6
CONTINUOUS
370
25
100
AcDbCircle
 10
115.391768
 20
310.689728
 40
0.125
100
AcDbArc
 50
270.0
 51
360.0
  0
LINE
  5
10D
100
AcDbEntity
  8
M2
  6
DIVIDE
370
25
100
AcDbLine
 10
108.416781
 20
442.289765
 11
107.866782
 21
442.289765
  0
LINE
  5
10E
100
AcDbEntity
  8
M2
  6
DIVIDE
370
25
100
AcDbLine
 10
107.866782
 20
442.289765
 11
107.866782
 21
396.039765
  0
LINE
  5
10F
100
AcDbEntity
  8
M2
  6
DIVIDE
370
25
100
AcDbLine
 10
103.328028
 20
396.039765
 11
103.878031
 21
396.039765
  0
LINE
  5
110
100
AcDbEntity
  8
M2
  6
DIVIDE
370
25
100
AcDbLine
 10
108.416781
 20
396.039765
 11
108.416781
 21
442.289765
  0
LINE
  5
111
100
AcDbEntity
  8
M2
  6
DIVIDE
370
25
100
AcDbLine
 10
73.141535
 20
113.567292
 11
125.641536
 21
113.567292
  0
LINE
  5
112
100
AcDbEntity
  8
M2
  6
DIVIDE
370
25
100
AcDbLine
 10
125.641536
 20
113.567292
 11
125.641536
 21
216.067292
  0
LINE
  5
113
100
AcDbEntity
  8
M2
  6
DIVIDE
370
25
100
AcDbLine
 10
125.641536
 20
216.067292
 11
73.141535
 21
216.067292
  0
LINE
  5
114
100
AcDbEntity
  8
M2
  6
DIVIDE
370
25
100
AcDbLine
 10
73.141535
 20
216.067292
 11
73.141535
 21
113.567292
  0
LINE
  5
115
100
AcDbEntity
  8
M2
  6
DASHDOT
370
25
100
AcDbLine
 10
66.891535
 20
164.817292
 11
131.891536
 21
164.817292
  0
CIRCLE
  5
116
100
AcDbEntity
  8
M2
  6
CONTINUOUS
370
25
100
AcDbCircle
 10
90.641535
 20
212.317231
 40
1.25
  0
LINE
  5
117
100
AcDbEntity
  8
M2
  6
DASHDOT
370
25
100
AcDbLine
 10
83.141535
 20
212.317231
 11
98.141535
 21
212.317231
  0
CIRCLE
  5
118
100
AcDbEntity
  8
M2
  6
CONTINUOUS
370
25
100
AcDbCircle
 10
108.141536
 20
212.317231
 40
1.25
  0
LINE
  5
119
100
AcDbEntity
  8
M2
  6
DASHDOT
370
25
100
AcDbLine
 10
100.641536
 20
212.317231
 11
115.641536
 21
212.317231
  0
CIRCLE
  5
11A
100
AcDbEntity
  8
M2
  6
CONTINUOUS
370
25
100
AcDbCircle
 10
90.641535
 20
117.317292
 40
1.25
  0
LINE
  5
11B
100
AcDbEntity
  8
M2
  6
DASHDOT
370
25
100
AcDbLine
 10
83.141535
 20
117.317292
 11
98.141535
 21
117.317292
  0
LINE
  5
11C
100
AcDbEntity
  8
M2
  6
DASHDOT
370
25
100
AcDbLine
 10
90.641535
 20
109.817292
 11
90.641535
 21
124.817292
  0
CIRCLE
  5
11D
100
AcDbEntity
  8
M2
  6
CONTINUOUS
370
25
100
AcDbCircle
 10
108.141536
 20
117.317292
 40
1.25
  0
LINE
  5
11E
100
AcDbEntity
  8
M2
  6
DASHDOT
370
25
100
AcDbLine
 10
100.641536
 20
117.317292
 11
115.641536
 21
117.317292
  0
LINE
  5
11F
100
AcDbEntity
  8
M2
  6
DASHDOT
370
25
100
AcDbLine
 10
108.141536
 20
109.817292
 11
108.141536
 21
124.817292
  0
LINE
  5
120
100
AcDbEntity
  8
M2
  6
DASHDOT
370
25
100
AcDbLine
 10
99.391535
 20
107.317292
 11
99.391535
 21
222.317292
  0
LINE
  5
121
100
AcDbEntity
  8
M2
  6
DASHDOT
370
25
100
AcDbLine
 10
90.641535
 20
204.817231
 11
90.641535
 21
219.817231
  0
LINE
  5
122
100
AcDbEntity
  8
M2
  6
DASHDOT
370
25
100
AcDbLine
 10
108.141536
 20
204.817231
 11
108.141536
 21
219.817231
  0
LINE
  5
123
100
AcDbEntity
  8
M3
  6
CONTINUOUS
370
25
100
AcDbLine
 10
-7.105427E-015
 20
-3.552714E-015
 11
364.5835
 21
-3.552714E-015
  0
LINE
  5
124
100
AcDbEntity
  8
M3
  6
CONTINUOUS
370
25
100
AcDbLine
 10
364.5835
 20
-3.552714E-015
 11
364.5835
 21
577.083597
  0
LINE
  5
125
100
AcDbEntity
  8
M3
  6
CONTINUOUS
370
25
100
AcDbLine
 10
364.5835
 20
577.083597
 11
-7.105427E-015
 21
577.083597
  0
LINE
  5
126
100
AcDbEntity
  8
M3
  6
CONTINUOUS
370
25
100
AcDbLine
 10
-7.105427E-015
 20
577.083597
 11
-7.105427E-015
 21
-3.552714E-015
  0
LINE
  5
127
100
AcDbEntity
  8
M3
  6
CONTINUOUS
370
25
100
AcDbLine
 10
-7.105427E-015
 20
-3.552714E-015
 11
-7.105427E-015
 21
56.250026
  0
LINE
  5
128
100
AcDbEntity
  8
M6
  6
CONTINUOUS
370
25
 60
     1
100
AcDbLine
 10
5.435469
 20
502.235229
 11
62.779153
 21
502.235229
  0
LINE
  5
129
100
AcDbEntity
  8
M6
  6
CONTINUOUS
370
25
 60
     1
100
AcDbLine
 10
62.779153
 20
502.235229
 11
89.018719
 21
502.235229
  0
LINE
  5
12A
100
AcDbEntity
  8
M6
  6
CONTINUOUS
370
25
 60
     1
100
AcDbLine
 10
89.018719
 20
502.235229
 11
136.914522
 21
502.235229
  0
LINE
  5
12B
100
AcDbEntity
  8
M6
  6
CONTINUOUS
370
25
 60
     1
100
AcDbLine
 10
136.914522
 20
502.235229
 11
192.029119
 21
502.235229
  0
LINE
  5
12C
100
AcDbEntity
  8
M6
  6
CONTINUOUS
370
25
 60
     1
100
AcDbLine
 10
360.008277
 20
502.235229
 11
360.008277
 21
529.735235
  0
LINE
  5
12D
100
AcDbEntity
  8
M6
  6
CONTINUOUS
370
25
 60
     1
100
AcDbLine
 10
312.11241
 20
502.235229
 11
360.008277
 21
502.235229
  0
LINE
  5
12E
100
AcDbEntity
  8
M6
  6
CONTINUOUS
370
25
 60
     1
100
AcDbLine
 10
360.008277
 20
529.735235
 11
360.008277
 21
543.485254
  0
LINE
  5
12F
100
AcDbEntity
  8
M6
  6
CONTINUOUS
370
25
 60
     1
100
AcDbLine
 10
192.029119
 20
502.235229
 11
312.11241
 21
502.235229
  0
LINE
  5
130
100
AcDbEntity
  8
M6
  6
CONTINUOUS
370
25
 60
     1
100
AcDbLine
 10
302.053367
 20
133.418383
 11
329.225945
 21
133.418383
  0
LINE
  5
131
100
AcDbEntity
  8
M6
  6
CONTINUOUS
370
25
 60
     1
100
AcDbLine
 10
348.066743
 20
133.418383
 11
348.066743
 21
146.459901
  0
LINE
  5
132
100
AcDbEntity
  8
M6
  6
CONTINUOUS
370
25
 60
     1
100
AcDbLine
 10
329.225945
 20
133.418383
 11
348.066743
 21
133.418383
  0
LINE
  5
133
100
AcDbEntity
  8
M6
  6
CONTINUOUS
370
25
 60
     1
100
AcDbLine
 10
348.066743
 20
146.459901
 11
348.066743
 21
159.501514
  0
LINE
  5
134
100
AcDbEntity
  8
M6
  6
CONTINUOUS
370
25
 60
     1
100
AcDbLine
 10
348.066743
 20
159.501514
 11
348.066743
 21
172.542063
  0
LINE
  5
135
100
AcDbEntity
  8
M6
  6
CONTINUOUS
370
25
 60
     1
100
AcDbLine
 10
348.066743
 20
172.542063
 11
348.066743
 21
185.583406
  0
LINE
  5
136
100
AcDbEntity
  8
M6
  6
CONTINUOUS
370
25
 60
     1
100
AcDbLine
 10
348.066743
 20
185.583406
 11
348.066743
 21
198.626625
  0
LINE
  5
137
100
AcDbEntity
  8
M6
  6
CONTINUOUS
370
25
 60
     1
100
AcDbLine
 10
195.987712
 20
133.418383
 11
302.053367
 21
133.418383
  0
LINE
  5
138
100
AcDbEntity
  8
M6
  6
CONTINUOUS
370
25
 60
     1
100
AcDbLine
 10
348.066743
 20
198.626625
 11
348.066743
 21
211.669844
  0
ENDSEC
  0
SECTION
  2
OBJECTS
  0
DICTIONARY
  5
C
100
AcDbDictionary
  3
ACAD_GROUP
350
D
  3
ACAD_MLINESTYLE
350
E
  0
DICTIONARY
  5
D
102
{ACAD_REACTORS
330
C
102
}
100
AcDbDictionary
  0
DICTIONARY
  5
E
102
{ACAD_REACTORS
330
C
102
}
100
AcDbDictionary
  3
STANDARD
350
13
  0
MLINESTYLE
  5
13
102
{ACAD_REACTORS
330
E
102
}
100
AcDbMlineStyle
  2
STANDARD
 70
     0
  3

 62
     0
 51
90.0
 52
90.0
 71
     2
 49
0.5
 62
   256
  6
BYLAYER
 49
-0.5
 62
   256
  6
BYLAYER
  0
ENDSEC
  0
EOF
