  0
SECTION
  2
HEADER
  9
$ACADVER
  1
AC1015
  9
$INSBASE
 10
0.000000
 20
0.000000
 30
0.0
  9
$VIEWCTR
 10
7.531722
 20
4.5
  9
$VIEWSIZE
 40
9.0
  9
$SNAPMODE
 70
     0
  9
$SNAPUNIT
 10
1.0
 20
1.0
  9
$SNAPBASE
 10
0.0
 20
0.0
  9
$SNAPANG
 50
0.0
  9
$SNAPSTYLE
 70
     0
  9
$SNAPISOPAIR
 70
     0
  9
$GRIDMODE
 70
     0
  9
$GRIDUNIT
 10
0.0
 20
0.0
  9
$ORTHOMODE
 70
     0
  9
$REGENMODE
 70
     1
  9
$FILLMODE
 70
     1
  9
$QTEXTMODE
 70
     0
  9
$DRAGMODE
 70
     2
  9
$LTSCALE
  40
     1.000000
  9
$OSMODE
 70
     0
  9
$ATTMODE
 70
     1
  9
$TEXTSIZE
 40
0.2
  9
$TRACEWID
 40
0.05
  9
$TEXTSTYLE
  7
STANDARD
  9
$CELTYPE
  6
BYLAYER
  9
$CECOLOR
 62
   256
  9
$DIMSCALE
 40
1.0
  9
$DIMASZ
 40
0.18
  9
$DIMEXO
 40
0.0625
  9
$DIMDLI
 40
0.38
  9
$DIMRND
 40
0.0
  9
$DIMDLE
 40
0.0
  9
$DIMEXE
 40
0.18
  9
$DIMTP
 40
0.0
  9
$DIMTM
 40
0.0
  9
$DIMTXT
 40
0.18
  9
$DIMCEN
 40
0.09
  9
$DIMTSZ
 40
0.0
  9
$DIMADEC
 70
     0
  9
$DIMALTRND
 40
0.000000
  9
$DIMAZIN
 70
     0
  9
$DIMDSEP
 70
    46
  9
$DIMATFIT
 70
     3
  9
$DIMFRAC
 70
     0
  9
$DIMLDRBLK
  1

  9
$DIMLUNIT
 70
     2
  9
$DIMLWD
 70
   13
  9
$DIMLWE
 70
   13
  9
$DIMTMOVE
 70
     0
  9
$CELWEIGHT
370
    25
  9
$LWDISPLAY
290
    1
  9
$EXTNAMES
290
    1
  9
$DIMTOL
 70
     0
  9
$DIMLIM
 70
     0
  9
$DIMTIH
 70
     1
  9
$DIMTOH
 70
     1
  9
$DIMSE1
 70
     0
  9
$DIMSE2
 70
     0
  9
$DIMTAD
 70
     0
  9
$DIMZIN
 70
     0
  9
$DIMBLK
  1

  9
$LUNITS
 70
     2
  9
$LUPREC
 70
     4
  9
$AXISMODE
 70
     0
  9
$AXISUNIT
 10
0.0
 20
0.0
  9
$SKETCHINC
 40
0.1
  9
$FILLETRAD
 40
0.0
  9
$AUNITS
 70
     0
  9
$AUPREC
 70
     0
  9
$MENU
  1
ACAD
  9
$ELEVATION
 40
0.0
  9
$THICKNESS
 40
0.0
  9
$VIEWDIR
 10
0.0
 20
0.0
 30
1.0
  9
$LIMCHECK
 70
     0
  9
$BLIPMODE
 70
     1
  9
$CHAMFERA
 40
0.0
  9
$CHAMFERB
 40
0.0
  9
$FASTZOOM
 70
     1
  9
$SKPOLY
 70
     0
  9
$TDCREATE
 40
0000000.0000000000
  9
$TDUPDATE
 40
0000000.0000000000
  9
$TDINDWG
 40
0.0000000000
  9
$TDUSRTIMER
 40
0.0000000000
  9
$USRTIMER
 70
     1
  9
$ANGBASE
 50
0.0
  9
$ANGDIR
 70
     0
  9
$PDMODE
 70
     0
  9
$PDSIZE
 40
0.0
  9
$PLINEWID
 40
0.0
  9
$COORDS
 70
     0
  9
$USERI1
 70
     0
  9
$USERI2
 70
     0
  9
$USERI3
 70
     0
  9
$USERI4
 70
     0
  9
$USERI5
 70
     0
  9
$USERR1
 40
0.0
  9
$USERR2
 40
0.0
  9
$USERR3
 40
0.0
  9
$USERR4
 40
0.0
  9
$USERR5
 40
0.0
  9
$CLAYER
  8
M2
  9
$EXTMIN
 10
0.0
 20
0.0
  9
$EXTMAX
 10
841.0
 20
594.0
  9
$LIMMIN
 10
0.0
 20
0.0
  9
$LIMMAX
 10
841.0
 20
594.0
  9
$HANDSEED
  5
162
  0
ENDSEC
  0
SECTION
  2
CLASSES
  0
CLASS
  1
DIMASSOC
  2
AcDbDimAssoc
  3
"AcDbDimAssoc|Product Desc:     AcDim ARX App For Dimension|Company:          Autodesk, Inc.|WEB Address:      www.autodesk.com"
 90
        0
280
     0
281
     0
  0
ENDSEC
  0
SECTION
  2
TABLES
  0
TABLE
  2
VPORT
  5
8
100
AcDbSymbolTable
 70
     2
  0
VPORT
  5
14
100
AcDbSymbolTableRecord
100
AcDbViewportTableRecord
  2
*ACTIVE
 70
     0
 10
0.0
 20
0.0
 11
1.0
 21
1.0
 12
484.0
 22
297.0
 13
0.0
 23
0.0
 14
1.0
 24
1.0
 15
0.0
 25
0.0
 16
0.0
 26
0.0
 36
1.0
 17
0.0
 27
0.0
 37
0.0
 40
594.0
 41
2.0
 42
50.0
 43
0.0
 44
0.0
 50
0.0
 51
0.0
 71
     0
 72
   100
 73
     1
 74
     1
 75
     0
 76
     0
 77
     0
 78
     0
  0
ENDTAB
  0
TABLE
  2
LTYPE
  5
5
100
AcDbSymbolTable
 70
     5
  0
LTYPE
  5
15
100
AcDbSymbolTableRecord
100
AcDbLinetypeTableRecord
  2
BYBLOCK
 70
     0
  3

 72
    65
 73
     0
 40
0.0
  0
LTYPE
  5
16
100
AcDbSymbolTableRecord
100
AcDbLinetypeTableRecord
  2
BYLAYER
 70
     0
  3

 72
    65
 73
     0
 40
0.0
  0
LTYPE
  5
17
100
AcDbSymbolTableRecord
100
AcDbLinetypeTableRecord
  2
CONTINUOUS
 70
    64
  3
Solid line
 72
    65
 73
     0
 40
0.0
  0
LTYPE
  5
18
100
AcDbSymbolTableRecord
100
AcDbLinetypeTableRecord
  2
DASHED
 70
    64
  3
__ __ __ __ __ __ __ __ __ __ __ __ __ __ __ __
 72
    65
 73
     2
 40
0.75
 49
0.5
 74
     0
 49
-0.25
 74
     0
  0
LTYPE
  5
19
100
AcDbSymbolTableRecord
100
AcDbLinetypeTableRecord
  2
DASHDOT
 70
    64
  3
__ . __ . __ . __ . __ . __ . __ . __ . __ . __
 72
    65
 73
     4
 40
1.0
 49
0.5
 74
     0
 49
-0.25
 74
     0
 49
0.0
 74
     0
 49
-0.25
 74
     0
  0
LTYPE
  5
1A
100
AcDbSymbolTableRecord
100
AcDbLinetypeTableRecord
  2
DIVIDE
 70
    64
  3
____ . . ____ . . ____ . . ____ . . ____ . . __
 72
    65
 73
     6
 40
1.25
 49
0.5
 74
     0
 49
-0.25
 74
     0
 49
0.0
 74
     0
 49
-0.25
 74
     0
 49
0.0
 74
     0
 49
-0.25
 74
     0
  0
LTYPE
  5
1B
100
AcDbSymbolTableRecord
100
AcDbLinetypeTableRecord
  2
DOT
 70
    64
  3
. . . . . . . . . . . . . . . . . . . . . . . .
 72
    65
 73
     2
 40
0.25
 49
0.0
 74
     0
 49
-0.25
 74
     0
  0
ENDTAB
  0
TABLE
  2
LAYER
  5
2
100
AcDbSymbolTable
 70
   102
  0
LAYER
  5
F
100
AcDbSymbolTableRecord
100
AcDbLayerTableRecord
  2
0
 70
     0
 62
     7
  6
CONTINUOUS
370
     -3
390
F
  0
LAYER
  5
1C
100
AcDbSymbolTableRecord
100
AcDbLayerTableRecord
  2
M2
 70
     0
 62
     3
  6
CONTINUOUS
370
     -3
390
F
  0
LAYER
  5
1D
100
AcDbSymbolTableRecord
100
AcDbLayerTableRecord
  2
M3
 70
     0
 62
     7
  6
CONTINUOUS
370
     -3
390
F
  0
LAYER
  5
1E
100
AcDbSymbolTableRecord
100
AcDbLayerTableRecord
  2
M6
 70
     0
 62
     7
  6
CONTINUOUS
370
     -3
390
F
  0
ENDTAB
  0
TABLE
  2
STYLE
  5
3
100
AcDbSymbolTable
 70
     2
  0
STYLE
  5
10
100
AcDbSymbolTableRecord
100
AcDbTextStyleTableRecord
  2
STANDARD
 70
     0
 40
0.0
 41
1.0
 50
0.0
 71
     0
 42
0.2
  3
txt
  4
BIGFONT
  0
ENDTAB
  0
TABLE
  2
VIEW
  5
6
100
AcDbSymbolTable
 70
     0
  0
ENDTAB
  0
TABLE
  2
UCS
  5
7
100
AcDbSymbolTable
 70
     0
  0
ENDTAB
  0
TABLE
  2
APPID
  5
9
100
AcDbSymbolTable
 70
     1
  0
APPID
  5
11
100
AcDbSymbolTableRecord
100
AcDbRegAppTableRecord
  2
ACAD
 70
     0
  0
ENDTAB
  0
TABLE
  2
DIMSTYLE
  5
A
100
AcDbSymbolTable
 70
     2
100
AcDbDimStyleTable
 71
     1
  0
DIMSTYLE
105
47
100
AcDbSymbolTableRecord
100
AcDbDimStyleTableRecord
  2
STANDARD
 70
     0
  3

  4

  5

  6
_OPEN
  7
_OPEN
 40
1.0
 41
3.0
 42
0.0
 43
8.0
 44
1.5
 45
0.0
 46
0.0
 47
0.0
 48
0.0
140
3.2
141
0.09
142
0.0
143
0.03937
144
1.0
145
0.0
146
1.0
147
1.0
148
0.000000
 71
     0
 72
     0
 73
     1
 74
     1
 75
     0
 76
     0
 77
     3
 78
     8
170
     0
171
     2
172
     0
173
     1
174
     0
175
     0
176
     0
177
     0
178
     0
270
     2
271
     2
272
     4
273
     2
274
     2
340
10
275
     0
278
    46
280
     0
281
     0
282
     0
283
     1
284
     0
285
     0
286
     0
287
     3
288
     0
371
   13
372
   13
  0
DIMSTYLE
105
48
100
AcDbSymbolTableRecord
100
AcDbDimStyleTableRecord
  2
LEADSTYL
 70
     0
  3

  4

  5

  6
_OPEN
  7
_OPEN
 40
1.0
 41
3.0
 42
0.0625
 43
0.38
 44
0.18
 45
0.0
 46
0.0
 47
0.0
 48
0.0
140
3.2
141
0.09
142
0.0
143
25.4
144
1.0
145
0.0
146
1.0
147
1.0
 71
     0
 72
     0
 73
     1
 74
     1
 75
     0
 76
     0
 77
     0
 78
     0
170
     0
171
     2
172
     0
173
     1
174
     0
175
     0
176
     0
177
     0
178
     0
270
     2
271
     4
272
     4
273
     2
274
     2
340
10
275
     0
280
     0
281
     0
282
     0
283
     1
284
     0
285
     0
286
     0
287
     3
288
     0
  0
ENDTAB
  0
TABLE
  2
BLOCK_RECORD
  5
1
100
AcDbSymbolTable
 70
     6
  0
BLOCK_RECORD
  5
1F
100
AcDbSymbolTableRecord
100
AcDbBlockTableRecord
  2
*MODEL_SPACE
  0
BLOCK_RECORD
  5
22
100
AcDbSymbolTableRecord
100
AcDbBlockTableRecord
  2
*PAPER_SPACE
  0
BLOCK_RECORD
  5
25
100
AcDbSymbolTableRecord
100
AcDbBlockTableRecord
  2
_NONE
  0
BLOCK_RECORD
  5
29
100
AcDbSymbolTableRecord
100
AcDbBlockTableRecord
  2
_OPEN
  0
BLOCK_RECORD
  5
2F
100
AcDbSymbolTableRecord
100
AcDbBlockTableRecord
  2
_CLOSED
  0
BLOCK_RECORD
  5
36
100
AcDbSymbolTableRecord
100
AcDbBlockTableRecord
  2
_ORIGIN
  0
BLOCK_RECORD
  5
3B
100
AcDbSymbolTableRecord
100
AcDbBlockTableRecord
  2
_DOT
  0
BLOCK_RECORD
  5
43
100
AcDbSymbolTableRecord
100
AcDbBlockTableRecord
  2
_OBLIQUE
  0
ENDTAB
  0
ENDSEC
  0
SECTION
  2
BLOCKS
  0
BLOCK
  5
20
100
AcDbEntity
  8
0
100
AcDbBlockBegin
  2
*MODEL_SPACE
 70
     0
 10
0.0
 20
0.0
 30
0.0
  3
*MODEL_SPACE
  1

  0
ENDBLK
  5
21
100
AcDbEntity
  8
0
100
AcDbBlockEnd
  0
BLOCK
  5
23
100
AcDbEntity
 67
     1
  8
0
100
AcDbBlockBegin
  2
*PAPER_SPACE
 70
     0
 10
0.0
 20
0.0
 30
0.0
  3
*PAPER_SPACE
  1

  0
ENDBLK
  5
24
100
AcDbEntity
 67
     1
  8
0
100
AcDbBlockEnd
  0
BLOCK
  5
26
100
AcDbEntity
  8
0
100
AcDbBlockBegin
  2
_NONE
 70
     0
 10
0.0
 20
0.0
  0
CIRCLE
  5
27
100
AcDbEntity
  8
0
 62
     0
370
13
100
AcDbCircle
 10
0.0
 20
0.0
 40
0.25
  0
ENDBLK
  5
28
100
AcDbEntity
  8
0
100
AcDbBlockEnd
  0
BLOCK
  5
2A
100
AcDbEntity
  8
0
100
AcDbBlockBegin
  2
_OPEN
 70
     0
 10
0.0
 20
0.0
  0
LINE
  5
2B
100
AcDbEntity
  8
0
 62
     0
370
13
100
AcDbLine
 10
-0.965926
 20
0.258819
 11
0.0
 21
0.0
  0
LINE
  5
2C
100
AcDbEntity
  8
0
 62
     0
370
13
100
AcDbLine
 10
0.0
 20
0.0
 11
-0.965926
 21
-0.258819
  0
LINE
  5
2D
100
AcDbEntity
  8
0
 62
     0
370
13
100
AcDbLine
 10
0.0
 20
0.0
 11
-1.0
 21
0.0
  0
ENDBLK
  5
2E
100
AcDbEntity
  8
0
100
AcDbBlockEnd
  0
BLOCK
  5
30
100
AcDbEntity
  8
0
100
AcDbBlockBegin
  2
_CLOSED
 70
     0
 10
0.0
 20
0.0
  0
LINE
  5
31
100
AcDbEntity
  8
0
 62
     0
370
13
100
AcDbLine
 10
-0.965926
 20
0.258819
 11
0.0
 21
0.0
  0
LINE
  5
32
100
AcDbEntity
  8
0
 62
     0
370
13
100
AcDbLine
 10
0.0
 20
0.0
 11
-0.965926
 21
-0.258819
  0
LINE
  5
33
100
AcDbEntity
  8
0
 62
     0
370
13
100
AcDbLine
 10
-0.965926
 20
0.258819
 11
-0.965926
 21
-0.258819
  0
LINE
  5
34
100
AcDbEntity
  8
0
 62
     0
370
13
100
AcDbLine
 10
0.0
 20
0.0
 11
-1.0
 21
0.0
  0
ENDBLK
  5
35
100
AcDbEntity
  8
0
100
AcDbBlockEnd
  0
BLOCK
  5
37
100
AcDbEntity
  8
0
100
AcDbBlockBegin
  2
_ORIGIN
 70
     0
 10
0.0
 20
0.0
  0
CIRCLE
  5
38
100
AcDbEntity
  8
0
 62
     0
370
13
100
AcDbCircle
 10
0.0
 20
0.0
 40
0.5
  0
LINE
  5
39
100
AcDbEntity
  8
0
 62
     0
370
13
100
AcDbLine
 10
0.0
 20
0.0
 11
-1.0
 21
0.0
  0
ENDBLK
  5
3A
100
AcDbEntity
  8
0
100
AcDbBlockEnd
  0
BLOCK
  5
3C
100
AcDbEntity
  8
0
100
AcDbBlockBegin
  2
_DOT
 70
     0
 10
0.0
 20
0.0
  0
POLYLINE
  5
3D
100
AcDbEntity
  8
0
 62
     0
100
AcDb2dPolyline
 66
     1
 70
     1
 40
0.5
 41
0.5
  0
VERTEX
  5
3E
100
AcDbEntity
  8
0
 62
     0
100
AcDbVertex
100
AcDb2dVertex
 10
-0.25
 20
0.0
 42
1.0
  0
VERTEX
  5
3F
100
AcDbEntity
  8
0
 62
     0
100
AcDbVertex
100
AcDb2dVertex
 10
0.25
 20
0.0
 42
1.0
  0
SEQEND
  5
40
100
AcDbEntity
  8
0
 62
     0
  0
LINE
  5
41
100
AcDbEntity
  8
0
 62
     0
370
13
100
AcDbLine
 10
-0.5
 20
0.0
 11
-1.0
 21
0.0
  0
ENDBLK
  5
42
100
AcDbEntity
  8
0
100
AcDbBlockEnd
  0
BLOCK
  5
44
100
AcDbEntity
  8
0
100
AcDbBlockBegin
  2
_OBLIQUE
 70
     0
 10
0.0
 20
0.0
  0
LINE
  5
45
100
AcDbEntity
  8
0
 62
     0
370
13
100
AcDbLine
 10
-0.353553
 20
-0.353553
 11
0.353553
 21
0.353553
  0
ENDBLK
  5
46
100
AcDbEntity
  8
0
100
AcDbBlockEnd
  0
ENDSEC
  0
SECTION
  2
ENTITIES
  0
LINE
  5
49
100
AcDbEntity
  8
M2
  6
CONTINUOUS
370
25
100
AcDbLine
 10
266.952115
 20
318.363022
 11
302.952115
 21
318.363022
  0
LINE
  5
4A
100
AcDbEntity
  8
M2
  6
CONTINUOUS
370
25
100
AcDbLine
 10
302.952115
 20
420.863022
 11
266.929959
 21
420.863022
  0
LINE
  5
4B
100
AcDbEntity
  8
M2
  6
CONTINUOUS
370
25
100
AcDbLine
 10
262.952115
 20
381.421433
 11
262.952115
 21
357.964951
  0
LINE
  5
4C
100
AcDbEntity
  8
M2
  6
CONTINUOUS
370
25
100
AcDbLine
 10
265.452054
 20
413.363022
 11
265.451993
 21
325.863022
  0
LINE
  5
4D
100
AcDbEntity
  8
M2
  6
CONTINUOUS
370
25
100
AcDbLine
 10
262.952115
 20
381.488022
 11
265.452115
 21
381.488022
  0
LINE
  5
4E
100
AcDbEntity
  8
M2
  6
CONTINUOUS
370
25
100
AcDbLine
 10
265.452115
 20
357.738022
 11
262.952115
 21
357.738022
  0
LINE
  5
4F
100
AcDbEntity
  8
M2
  6
CONTINUOUS
370
25
100
AcDbLine
 10
265.451993
 20
325.863022
 11
266.951993
 21
325.863022
  0
LINE
  5
50
100
AcDbEntity
  8
M2
  6
CONTINUOUS
370
25
100
AcDbLine
 10
266.951993
 20
325.863022
 11
266.952115
 21
318.363022
  0
LINE
  5
51
100
AcDbEntity
  8
M2
  6
CONTINUOUS
370
25
100
AcDbLine
 10
266.952115
 20
420.863022
 11
266.952054
 21
413.363022
  0
LINE
  5
52
100
AcDbEntity
  8
M2
  6
CONTINUOUS
370
25
100
AcDbLine
 10
266.952054
 20
413.363022
 11
265.452054
 21
413.363022
  0
LINE
  5
53
100
AcDbEntity
  8
M2
  6
CONTINUOUS
370
25
100
AcDbLine
 10
276.452115
 20
420.863022
 11
276.452115
 21
318.363022
  0
LINE
  5
54
100
AcDbEntity
  8
M2
  6
DASHDOT
370
25
100
AcDbLine
 10
279.952115
 20
381.488022
 11
279.952115
 21
357.738022
  0
LINE
  5
55
100
AcDbEntity
  8
M2
  6
DASHDOT
370
25
100
AcDbLine
 10
240.319974
 20
373.77794
 11
279.952115
 21
369.612962
  0
LINE
  5
56
100
AcDbEntity
  8
M2
  6
DASHDOT
370
25
100
AcDbLine
 10
210.543119
 20
394.875291
 11
279.952115
 21
369.613022
  0
LINE
  5
57
100
AcDbEntity
  8
M2
  6
DASHDOT
370
25
100
AcDbLine
 10
237.542142
 20
360.59752
 11
279.952115
 21
369.612962
  0
LINE
  5
58
100
AcDbEntity
  8
M2
  6
DASHDOT
370
25
100
AcDbLine
 10
210.292997
 20
349.637376
 11
279.952115
 21
369.612962
  0
LINE
  5
59
100
AcDbEntity
  8
M2
  6
CONTINUOUS
370
25
100
AcDbLine
 10
262.952054
 20
377.728989
 11
257.549405
 21
379.695359
  0
LINE
  5
5A
100
AcDbEntity
  8
M2
  6
CONTINUOUS
370
25
100
AcDbLine
 10
262.952054
 20
373.871323
 11
256.309537
 21
376.288987
  0
LINE
  5
5B
100
AcDbEntity
  8
M2
  6
CONTINUOUS
370
25
100
AcDbLine
 10
257.549405
 20
379.695359
 11
256.309537
 21
376.288987
  0
LINE
  5
5C
100
AcDbEntity
  8
M2
  6
CONTINUOUS
370
25
100
AcDbLine
 10
290.827115
 20
420.862962
 11
293.327115
 21
420.862962
  0
LINE
  5
5D
100
AcDbEntity
  8
M2
  6
CONTINUOUS
370
25
100
AcDbLine
 10
293.327115
 20
420.862962
 11
293.327115
 21
440.862962
  0
LINE
  5
5E
100
AcDbEntity
  8
M2
  6
CONTINUOUS
370
25
100
AcDbLine
 10
293.327115
 20
440.862962
 11
289.577115
 21
440.862901
  0
LINE
  5
5F
100
AcDbEntity
  8
M2
  6
CONTINUOUS
370
25
100
AcDbLine
 10
293.327115
 20
298.363022
 11
293.327115
 21
318.363022
  0
LINE
  5
60
100
AcDbEntity
  8
M2
  6
DIVIDE
370
25
100
AcDbLine
 10
265.952115
 20
413.362962
 11
267.330472
 21
413.362962
  0
LINE
  5
61
100
AcDbEntity
  8
M2
  6
DIVIDE
370
25
100
AcDbLine
 10
301.452115
 20
420.916245
 11
301.452115
 21
467.113022
  0
LINE
  5
62
100
AcDbEntity
  8
M2
  6
DIVIDE
370
25
100
AcDbLine
 10
301.452115
 20
467.113022
 11
266.929959
 21
467.113022
  0
LINE
  5
63
100
AcDbEntity
  8
M2
  6
DIVIDE
370
25
100
AcDbLine
 10
266.929959
 20
467.113022
 11
266.929959
 21
420.863022
  0
ARC
  5
64
100
AcDbEntity
  8
M2
  6
CONTINUOUS
370
25
100
AcDbCircle
 10
279.952115
 20
369.613022
 40
24.499985
100
AcDbArc
 50
160.00041
 51
196.000962
  0
LINE
  5
65
100
AcDbEntity
  8
M2
  6
DASHDOT
370
25
100
AcDbLine
 10
207.009977
 20
369.613022
 11
310.702115
 21
369.613022
  0
LINE
  5
66
100
AcDbEntity
  8
M2
  6
DIVIDE
370
25
100
AcDbLine
 10
252.678434
 20
375.814988
 11
261.840421
 21
372.480271
  0
LINE
  5
67
100
AcDbEntity
  8
M2
  6
DIVIDE
370
25
100
AcDbLine
 10
261.84036
 20
372.480271
 11
263.037442
 21
375.769272
  0
LINE
  5
68
100
AcDbEntity
  8
M2
  6
CONTINUOUS
370
25
100
AcDbLine
 10
264.234586
 20
379.058091
 11
264.234464
 21
379.058091
  0
ARC
  5
69
100
AcDbEntity
  8
M2
  6
DIVIDE
370
25
100
AcDbCircle
 10
236.843595
 20
385.303025
 40
5.624973
100
AcDbArc
 50
12.230862
 51
307.768169
  0
LINE
  5
6A
100
AcDbEntity
  8
M2
  6
DIVIDE
370
25
100
AcDbLine
 10
255.072599
 20
382.392808
 11
252.678434
 21
375.814988
  0
LINE
  5
6B
100
AcDbEntity
  8
M2
  6
CONTINUOUS
370
25
100
AcDbLine
 10
258.126554
 20
381.281236
 11
258.126493
 21
381.281175
  0
LINE
  5
6C
100
AcDbEntity
  8
M2
  6
DIVIDE
370
25
100
AcDbLine
 10
242.340848
 20
386.494675
 11
255.072538
 21
382.392747
  0
LINE
  5
6D
100
AcDbEntity
  8
M2
  6
DIVIDE
370
25
100
AcDbLine
 10
240.288724
 20
380.856553
 11
252.678434
 21
375.814988
  0
LINE
  5
6E
100
AcDbEntity
  8
M2
  6
CONTINUOUS
370
25
100
AcDbLine
 10
257.549283
 20
379.695359
 11
256.309537
 21
376.288987
  0
LINE
  5
6F
100
AcDbEntity
  8
M2
  6
DIVIDE
370
25
100
AcDbLine
 10
262.952054
 20
379.524827
 11
255.072538
 21
382.392747
  0
ARC
  5
70
100
AcDbEntity
  8
M2
  6
CONTINUOUS
370
25
100
AcDbCircle
 10
279.952115
 20
369.613022
 40
51.499954
100
AcDbArc
 50
160.000406
 51
179.999964
  0
LINE
  5
71
100
AcDbEntity
  8
M2
  6
CONTINUOUS
370
25
100
AcDbLine
 10
289.577115
 20
298.363022
 11
293.327115
 21
298.363022
  0
LINE
  5
72
100
AcDbEntity
  8
M2
  6
DASHED
370
25
100
AcDbLine
 10
297.952115
 20
419.362962
 11
297.952115
 21
414.862962
  0
LINE
  5
73
100
AcDbEntity
  8
M2
  6
DASHED
370
25
100
AcDbLine
 10
297.952115
 20
415.987962
 11
302.952115
 21
415.987962
  0
LINE
  5
74
100
AcDbEntity
  8
M2
  6
CONTINUOUS
370
25
100
AcDbLine
 10
302.952115
 20
415.987962
 11
302.952115
 21
418.237962
  0
LINE
  5
75
100
AcDbEntity
  8
M2
  6
DASHED
370
25
100
AcDbLine
 10
302.952115
 20
418.237962
 11
297.952115
 21
418.237962
  0
LINE
  5
76
100
AcDbEntity
  8
M2
  6
DASHDOT
370
25
100
AcDbLine
 10
292.67526
 20
417.112962
 11
305.172635
 21
417.112962
  0
LINE
  5
77
100
AcDbEntity
  8
M2
  6
CONTINUOUS
370
25
100
AcDbLine
 10
302.952054
 20
318.363022
 11
302.952054
 21
420.862962
  0
LINE
  5
78
100
AcDbEntity
  8
M2
  6
DASHED
370
25
100
AcDbLine
 10
297.952115
 20
419.362901
 11
293.452115
 21
419.362962
  0
LINE
  5
79
100
AcDbEntity
  8
M2
  6
DASHED
370
25
100
AcDbLine
 10
293.452115
 20
414.862962
 11
297.952115
 21
414.862962
  0
LINE
  5
7A
100
AcDbEntity
  8
M2
  6
CONTINUOUS
370
25
100
AcDbLine
 10
289.577115
 20
420.863022
 11
289.577115
 21
440.862962
  0
LINE
  5
7B
100
AcDbEntity
  8
M2
  6
CONTINUOUS
370
25
100
AcDbLine
 10
289.577115
 20
318.363022
 11
289.577115
 21
298.363022
  0
LINE
  5
7C
100
AcDbEntity
  8
M2
  6
DIVIDE
370
25
100
AcDbLine
 10
104.61026
 20
467.113022
 11
104.06026
 21
467.113022
  0
LINE
  5
7D
100
AcDbEntity
  8
M2
  6
DIVIDE
370
25
100
AcDbLine
 10
104.06026
 20
467.113022
 11
104.06026
 21
420.863022
  0
LINE
  5
7E
100
AcDbEntity
  8
M2
  6
DIVIDE
370
25
100
AcDbLine
 10
99.521507
 20
420.863022
 11
100.07151
 21
420.863022
  0
LINE
  5
7F
100
AcDbEntity
  8
M2
  6
DIVIDE
370
25
100
AcDbLine
 10
104.61026
 20
420.863022
 11
104.61026
 21
467.113022
  0
LINE
  5
80
100
AcDbEntity
  8
M2
  6
DIVIDE
370
25
100
AcDbLine
 10
122.11026
 20
467.113022
 11
121.56026
 21
467.113022
  0
LINE
  5
81
100
AcDbEntity
  8
M2
  6
DIVIDE
370
25
100
AcDbLine
 10
121.56026
 20
467.113022
 11
121.56026
 21
420.863022
  0
LINE
  5
82
100
AcDbEntity
  8
M2
  6
DIVIDE
370
25
100
AcDbLine
 10
117.021507
 20
420.863022
 11
117.57151
 21
420.863022
  0
LINE
  5
83
100
AcDbEntity
  8
M2
  6
DIVIDE
370
25
100
AcDbLine
 10
122.11026
 20
420.863022
 11
122.11026
 21
467.113022
  0
CIRCLE
  5
84
100
AcDbEntity
  8
M2
  6
CONTINUOUS
370
25
100
AcDbCircle
 10
77.485248
 20
346.113022
 40
1.25
  0
CIRCLE
  5
85
100
AcDbEntity
  8
M2
  6
CONTINUOUS
370
25
100
AcDbCircle
 10
84.160251
 20
346.113022
 40
1.25
  0
CIRCLE
  5
86
100
AcDbEntity
  8
M2
  6
CONTINUOUS
370
25
100
AcDbCircle
 10
100.685276
 20
346.113022
 40
0.625
  0
LINE
  5
87
100
AcDbEntity
  8
M2
  6
CONTINUOUS
370
25
100
AcDbLine
 10
111.585247
 20
338.387986
 11
106.335247
 21
338.387986
  0
LINE
  5
88
100
AcDbEntity
  8
M2
  6
CONTINUOUS
370
25
100
AcDbLine
 10
111.710247
 20
335.512986
 11
111.710247
 21
338.262986
  0
ARC
  5
89
100
AcDbEntity
  8
M2
  6
CONTINUOUS
370
25
100
AcDbCircle
 10
111.585247
 20
338.262986
 40
0.125
100
AcDbArc
 50
0.0
 51
90.0
  0
LINE
  5
8A
100
AcDbEntity
  8
M2
  6
CONTINUOUS
370
25
100
AcDbLine
 10
106.210247
 20
338.262986
 11
106.210247
 21
335.512986
  0
ARC
  5
8B
100
AcDbEntity
  8
M2
  6
CONTINUOUS
370
25
100
AcDbCircle
 10
106.335247
 20
338.262986
 40
0.125
100
AcDbArc
 50
90.0
 51
179.972024
  0
LINE
  5
8C
100
AcDbEntity
  8
M2
  6
CONTINUOUS
370
25
100
AcDbLine
 10
106.335247
 20
335.387986
 11
111.585247
 21
335.387986
  0
ARC
  5
8D
100
AcDbEntity
  8
M2
  6
CONTINUOUS
370
25
100
AcDbCircle
 10
106.335247
 20
335.512986
 40
0.125
100
AcDbArc
 50
179.972024
 51
270.0
  0
ARC
  5
8E
100
AcDbEntity
  8
M2
  6
CONTINUOUS
370
25
100
AcDbCircle
 10
111.585247
 20
335.512986
 40
0.125
100
AcDbArc
 50
270.0
 51
360.0
  0
LINE
  5
8F
100
AcDbEntity
  8
M2
  6
DIVIDE
370
25
100
AcDbLine
 10
87.110259
 20
467.113022
 11
86.56026
 21
467.113022
  0
LINE
  5
90
100
AcDbEntity
  8
M2
  6
DIVIDE
370
25
100
AcDbLine
 10
86.56026
 20
467.113022
 11
86.56026
 21
420.863022
  0
LINE
  5
91
100
AcDbEntity
  8
M2
  6
DIVIDE
370
25
100
AcDbLine
 10
82.021507
 20
420.863022
 11
82.57151
 21
420.863022
  0
LINE
  5
92
100
AcDbEntity
  8
M2
  6
DIVIDE
370
25
100
AcDbLine
 10
87.110259
 20
420.863022
 11
87.110259
 21
467.113022
  0
LINE
  5
93
100
AcDbEntity
  8
M2
  6
CONTINUOUS
370
25
100
AcDbLine
 10
69.335258
 20
318.363022
 11
139.335258
 21
318.363022
  0
LINE
  5
94
100
AcDbEntity
  8
M2
  6
CONTINUOUS
370
25
100
AcDbLine
 10
121.835258
 20
420.863022
 11
69.335258
 21
420.863022
  0
LINE
  5
95
100
AcDbEntity
  8
M2
  6
CONTINUOUS
370
25
100
AcDbLine
 10
69.335258
 20
420.863022
 11
69.335258
 21
318.363022
  0
LINE
  5
96
100
AcDbEntity
  8
M2
  6
DASHDOT
370
25
100
AcDbLine
 10
56.596399
 20
369.613022
 11
153.280429
 21
369.613022
  0
LINE
  5
97
100
AcDbEntity
  8
M2
  6
DASHDOT
370
25
100
AcDbLine
 10
95.585258
 20
312.113022
 11
95.585258
 21
427.113022
  0
LINE
  5
98
100
AcDbEntity
  8
M2
  6
CONTINUOUS
370
25
100
AcDbLine
 10
87.585258
 20
357.738022
 11
103.585258
 21
357.738022
  0
LINE
  5
99
100
AcDbEntity
  8
M2
  6
CONTINUOUS
370
25
100
AcDbLine
 10
105.335258
 20
359.487962
 11
105.335258
 21
379.737901
  0
LINE
  5
9A
100
AcDbEntity
  8
M2
  6
CONTINUOUS
370
25
100
AcDbLine
 10
103.585258
 20
381.488022
 11
87.585258
 21
381.487962
  0
LINE
  5
9B
100
AcDbEntity
  8
M2
  6
CONTINUOUS
370
25
100
AcDbLine
 10
85.835258
 20
379.737962
 11
85.835258
 21
359.488022
  0
ARC
  5
9C
100
AcDbEntity
  8
M2
  6
CONTINUOUS
370
25
100
AcDbCircle
 10
87.585258
 20
379.737962
 40
1.749996
100
AcDbArc
 50
89.999875
 51
180.0
  0
ARC
  5
9D
100
AcDbEntity
  8
M2
  6
CONTINUOUS
370
25
100
AcDbCircle
 10
87.585258
 20
359.488022
 40
1.749996
100
AcDbArc
 50
179.999875
 51
270.0
  0
ARC
  5
9E
100
AcDbEntity
  8
M2
  6
CONTINUOUS
370
25
100
AcDbCircle
 10
103.585258
 20
359.488022
 40
1.749996
100
AcDbArc
 50
270.0
 51
360.0
  0
ARC
  5
9F
100
AcDbEntity
  8
M2
  6
CONTINUOUS
370
25
100
AcDbCircle
 10
103.585258
 20
379.737962
 40
1.749996
100
AcDbArc
 50
0.0
 51
90.0
  0
LINE
  5
A0
100
AcDbEntity
  8
M2
  6
CONTINUOUS
370
25
100
AcDbLine
 10
87.585258
 20
358.988022
 11
103.585258
 21
358.988022
  0
LINE
  5
A1
100
AcDbEntity
  8
M2
  6
CONTINUOUS
370
25
100
AcDbLine
 10
104.085258
 20
359.487962
 11
104.085258
 21
379.737962
  0
LINE
  5
A2
100
AcDbEntity
  8
M2
  6
CONTINUOUS
370
25
100
AcDbLine
 10
103.585258
 20
380.238022
 11
87.585258
 21
380.237962
  0
LINE
  5
A3
100
AcDbEntity
  8
M2
  6
CONTINUOUS
370
25
100
AcDbLine
 10
87.085258
 20
379.737962
 11
87.085258
 21
359.488022
  0
LINE
  5
A4
100
AcDbEntity
  8
M2
  6
CONTINUOUS
370
25
100
AcDbLine
 10
69.335258
 20
413.363022
 11
139.335258
 21
413.363022
  0
LINE
  5
A5
100
AcDbEntity
  8
M2
  6
CONTINUOUS
370
25
100
AcDbLine
 10
139.335258
 20
325.862901
 11
69.335258
 21
325.862962
  0
ARC
  5
A6
100
AcDbEntity
  8
M2
  6
CONTINUOUS
370
25
100
AcDbCircle
 10
87.585258
 20
379.737962
 40
0.5
100
AcDbArc
 50
89.999563
 51
180.0
  0
ARC
  5
A7
100
AcDbEntity
  8
M2
  6
CONTINUOUS
370
25
100
AcDbCircle
 10
87.585258
 20
359.488022
 40
0.5
100
AcDbArc
 50
179.999563
 51
270.0
  0
ARC
  5
A8
100
AcDbEntity
  8
M2
  6
CONTINUOUS
370
25
100
AcDbCircle
 10
103.585258
 20
359.488022
 40
0.5
100
AcDbArc
 50
270.0
 51
359.993006
  0
ARC
  5
A9
100
AcDbEntity
  8
M2
  6
CONTINUOUS
370
25
100
AcDbCircle
 10
103.585258
 20
379.737962
 40
0.5
100
AcDbArc
 50
0.0
 51
90.0
  0
LINE
  5
AA
100
AcDbEntity
  8
M2
  6
CONTINUOUS
370
25
100
AcDbLine
 10
83.710258
 20
420.862962
 11
83.710258
 21
440.862962
  0
LINE
  5
AB
100
AcDbEntity
  8
M2
  6
CONTINUOUS
370
25
100
AcDbLine
 10
83.710258
 20
440.862962
 11
72.460258
 21
440.862962
  0
LINE
  5
AC
100
AcDbEntity
  8
M2
  6
CONTINUOUS
370
25
100
AcDbLine
 10
72.460258
 20
440.862962
 11
72.460258
 21
420.862962
  0
CIRCLE
  5
AD
100
AcDbEntity
  8
M2
  6
CONTINUOUS
370
25
100
AcDbCircle
 10
78.085258
 20
427.112962
 40
1.687493
  0
LINE
  5
AE
100
AcDbEntity
  8
M2
  6
DASHDOT
370
25
100
AcDbLine
 10
75.214286
 20
427.112962
 11
81.302726
 21
427.112962
  0
LINE
  5
AF
100
AcDbEntity
  8
M2
  6
DASHDOT
370
25
100
AcDbLine
 10
78.085258
 20
419.175462
 11
78.085258
 21
442.591233
  0
ARC
  5
B0
100
AcDbEntity
  8
M2
  6
CONTINUOUS
370
25
100
AcDbCircle
 10
78.085258
 20
435.112901
 40
1.687493
100
AcDbArc
 50
180.0
 51
360.0
  0
LINE
  5
B1
100
AcDbEntity
  8
M2
  6
DASHDOT
370
25
100
AcDbLine
 10
75.588127
 20
435.112901
 11
81.195915
 21
435.112901
  0
ARC
  5
B2
100
AcDbEntity
  8
M2
  6
CONTINUOUS
370
25
100
AcDbCircle
 10
78.085258
 20
437.112901
 40
1.687493
100
AcDbArc
 50
0.0
 51
180.0
  0
LINE
  5
B3
100
AcDbEntity
  8
M2
  6
DASHDOT
370
25
100
AcDbLine
 10
75.561393
 20
437.112901
 11
81.222587
 21
437.112901
  0
LINE
  5
B4
100
AcDbEntity
  8
M2
  6
CONTINUOUS
370
25
100
AcDbLine
 10
79.772758
 20
437.112901
 11
79.772758
 21
435.112901
  0
LINE
  5
B5
100
AcDbEntity
  8
M2
  6
CONTINUOUS
370
25
100
AcDbLine
 10
76.397758
 20
437.112901
 11
76.397758
 21
435.112901
  0
LINE
  5
B6
100
AcDbEntity
  8
M2
  6
CONTINUOUS
370
25
100
AcDbLine
 10
101.210258
 20
420.862962
 11
101.210258
 21
440.862962
  0
LINE
  5
B7
100
AcDbEntity
  8
M2
  6
CONTINUOUS
370
25
100
AcDbLine
 10
101.210258
 20
440.862962
 11
89.960258
 21
440.862962
  0
LINE
  5
B8
100
AcDbEntity
  8
M2
  6
CONTINUOUS
370
25
100
AcDbLine
 10
89.960258
 20
440.862962
 11
89.960258
 21
420.862962
  0
CIRCLE
  5
B9
100
AcDbEntity
  8
M2
  6
CONTINUOUS
370
25
100
AcDbCircle
 10
95.585258
 20
427.112962
 40
1.687493
  0
LINE
  5
BA
100
AcDbEntity
  8
M2
  6
DASHDOT
370
25
100
AcDbLine
 10
92.598381
 20
427.112962
 11
98.099357
 21
427.112962
  0
LINE
  5
BB
100
AcDbEntity
  8
M2
  6
DASHDOT
370
25
100
AcDbLine
 10
95.585258
 20
419.175462
 11
95.585258
 21
442.591233
  0
ARC
  5
BC
100
AcDbEntity
  8
M2
  6
CONTINUOUS
370
25
100
AcDbCircle
 10
95.585258
 20
435.112901
 40
1.687493
100
AcDbArc
 50
180.0
 51
360.0
  0
LINE
  5
BD
100
AcDbEntity
  8
M2
  6
DASHDOT
370
25
100
AcDbLine
 10
92.892143
 20
435.112901
 11
98.206169
 21
435.112901
  0
ARC
  5
BE
100
AcDbEntity
  8
M2
  6
CONTINUOUS
370
25
100
AcDbCircle
 10
95.585258
 20
437.112901
 40
1.687493
100
AcDbArc
 50
0.0
 51
180.0
  0
LINE
  5
BF
100
AcDbEntity
  8
M2
  6
DASHDOT
370
25
100
AcDbLine
 10
92.812004
 20
437.112901
 11
98.526603
 21
437.112901
  0
LINE
  5
C0
100
AcDbEntity
  8
M2
  6
CONTINUOUS
370
25
100
AcDbLine
 10
97.272758
 20
437.112901
 11
97.272758
 21
435.112901
  0
LINE
  5
C1
100
AcDbEntity
  8
M2
  6
CONTINUOUS
370
25
100
AcDbLine
 10
93.897758
 20
437.112901
 11
93.897758
 21
435.112901
  0
LINE
  5
C2
100
AcDbEntity
  8
M2
  6
CONTINUOUS
370
25
100
AcDbLine
 10
118.710258
 20
420.862962
 11
118.710258
 21
440.862962
  0
LINE
  5
C3
100
AcDbEntity
  8
M2
  6
CONTINUOUS
370
25
100
AcDbLine
 10
118.710258
 20
440.862962
 11
107.460258
 21
440.862962
  0
LINE
  5
C4
100
AcDbEntity
  8
M2
  6
CONTINUOUS
370
25
100
AcDbLine
 10
107.460258
 20
440.862962
 11
107.460258
 21
420.862962
  0
CIRCLE
  5
C5
100
AcDbEntity
  8
M2
  6
CONTINUOUS
370
25
100
AcDbCircle
 10
113.085258
 20
427.112962
 40
1.687493
  0
LINE
  5
C6
100
AcDbEntity
  8
M2
  6
DASHDOT
370
25
100
AcDbLine
 10
110.276237
 20
427.112962
 11
115.616997
 21
427.112962
  0
LINE
  5
C7
100
AcDbEntity
  8
M2
  6
DASHDOT
370
25
100
AcDbLine
 10
113.085258
 20
419.175462
 11
113.085258
 21
442.591233
  0
ARC
  5
C8
100
AcDbEntity
  8
M2
  6
CONTINUOUS
370
25
100
AcDbCircle
 10
113.085258
 20
435.112901
 40
1.687493
100
AcDbArc
 50
180.0
 51
360.0
  0
LINE
  5
C9
100
AcDbEntity
  8
M2
  6
DASHDOT
370
25
100
AcDbLine
 10
110.302971
 20
435.112901
 11
115.590263
 21
435.112901
  0
ARC
  5
CA
100
AcDbEntity
  8
M2
  6
CONTINUOUS
370
25
100
AcDbCircle
 10
113.085258
 20
437.112901
 40
1.687493
100
AcDbArc
 50
0.0
 51
180.0
  0
LINE
  5
CB
100
AcDbEntity
  8
M2
  6
DASHDOT
370
25
100
AcDbLine
 10
110.329643
 20
437.112901
 11
115.884025
 21
437.112901
  0
LINE
  5
CC
100
AcDbEntity
  8
M2
  6
CONTINUOUS
370
25
100
AcDbLine
 10
114.772758
 20
437.112901
 11
114.772758
 21
435.112901
  0
LINE
  5
CD
100
AcDbEntity
  8
M2
  6
CONTINUOUS
370
25
100
AcDbLine
 10
111.397758
 20
437.112901
 11
111.397758
 21
435.112901
  0
LINE
  5
CE
100
AcDbEntity
  8
M2
  6
CONTINUOUS
370
25
100
AcDbLine
 10
83.710258
 20
318.363084
 11
83.710258
 21
298.363084
  0
LINE
  5
CF
100
AcDbEntity
  8
M2
  6
CONTINUOUS
370
25
100
AcDbLine
 10
83.710258
 20
298.363084
 11
72.460258
 21
298.363084
  0
LINE
  5
D0
100
AcDbEntity
  8
M2
  6
CONTINUOUS
370
25
100
AcDbLine
 10
72.460258
 20
298.363084
 11
72.460258
 21
318.363084
  0
CIRCLE
  5
D1
100
AcDbEntity
  8
M2
  6
CONTINUOUS
370
25
100
AcDbCircle
 10
78.085258
 20
312.113084
 40
1.687493
  0
LINE
  5
D2
100
AcDbEntity
  8
M2
  6
DASHDOT
370
25
100
AcDbLine
 10
75.374504
 20
312.113084
 11
81.169181
 21
312.113084
  0
LINE
  5
D3
100
AcDbEntity
  8
M2
  6
DASHDOT
370
25
100
AcDbLine
 10
78.085258
 20
320.050584
 11
78.085258
 21
296.634812
  0
ARC
  5
D4
100
AcDbEntity
  8
M2
  6
CONTINUOUS
370
25
100
AcDbCircle
 10
78.085258
 20
304.113145
 40
1.687493
100
AcDbArc
 50
0.0
 51
179.997928
  0
LINE
  5
D5
100
AcDbEntity
  8
M2
  6
DASHDOT
370
25
100
AcDbLine
 10
75.534721
 20
304.113145
 11
81.06237
 21
304.113145
  0
ARC
  5
D6
100
AcDbEntity
  8
M2
  6
CONTINUOUS
370
25
100
AcDbCircle
 10
78.085258
 20
302.113145
 40
1.687493
100
AcDbArc
 50
179.997928
 51
360.0
  0
LINE
  5
D7
100
AcDbEntity
  8
M2
  6
DASHDOT
370
25
100
AcDbLine
 10
75.454582
 20
302.113145
 11
80.875419
 21
302.113145
  0
LINE
  5
D8
100
AcDbEntity
  8
M2
  6
CONTINUOUS
370
25
100
AcDbLine
 10
79.772758
 20
302.113145
 11
79.772758
 21
304.113145
  0
LINE
  5
D9
100
AcDbEntity
  8
M2
  6
CONTINUOUS
370
25
100
AcDbLine
 10
76.397758
 20
302.113145
 11
76.397758
 21
304.113145
  0
LINE
  5
DA
100
AcDbEntity
  8
M2
  6
CONTINUOUS
370
25
100
AcDbLine
 10
101.210258
 20
318.363084
 11
101.210258
 21
298.363084
  0
LINE
  5
DB
100
AcDbEntity
  8
M2
  6
CONTINUOUS
370
25
100
AcDbLine
 10
101.210258
 20
298.363084
 11
89.960258
 21
298.363084
  0
LINE
  5
DC
100
AcDbEntity
  8
M2
  6
CONTINUOUS
370
25
100
AcDbLine
 10
89.960258
 20
298.363084
 11
89.960258
 21
318.363084
  0
CIRCLE
  5
DD
100
AcDbEntity
  8
M2
  6
CONTINUOUS
370
25
100
AcDbCircle
 10
95.585258
 20
312.113084
 40
1.687493
  0
LINE
  5
DE
100
AcDbEntity
  8
M2
  6
DASHDOT
370
25
100
AcDbLine
 10
93.212577
 20
312.113084
 11
98.366386
 21
312.113084
  0
LINE
  5
DF
100
AcDbEntity
  8
M2
  6
DASHDOT
370
25
100
AcDbLine
 10
95.585258
 20
320.050584
 11
95.585258
 21
296.634812
  0
ARC
  5
E0
100
AcDbEntity
  8
M2
  6
CONTINUOUS
370
25
100
AcDbCircle
 10
95.585258
 20
304.113145
 40
1.687493
100
AcDbArc
 50
0.0
 51
179.997928
  0
LINE
  5
E1
100
AcDbEntity
  8
M2
  6
DASHDOT
370
25
100
AcDbLine
 10
92.812004
 20
304.113145
 11
98.393058
 21
304.113145
  0
ARC
  5
E2
100
AcDbEntity
  8
M2
  6
CONTINUOUS
370
25
100
AcDbCircle
 10
95.585258
 20
302.113145
 40
1.687493
100
AcDbArc
 50
179.997928
 51
360.0
  0
LINE
  5
E3
100
AcDbEntity
  8
M2
  6
DASHDOT
370
25
100
AcDbLine
 10
92.865409
 20
302.113145
 11
98.31298
 21
302.113145
  0
LINE
  5
E4
100
AcDbEntity
  8
M2
  6
CONTINUOUS
370
25
100
AcDbLine
 10
97.272758
 20
302.113145
 11
97.272758
 21
304.113145
  0
LINE
  5
E5
100
AcDbEntity
  8
M2
  6
CONTINUOUS
370
25
100
AcDbLine
 10
93.897758
 20
302.113145
 11
93.897758
 21
304.113145
  0
LINE
  5
E6
100
AcDbEntity
  8
M2
  6
CONTINUOUS
370
25
100
AcDbLine
 10
118.710258
 20
318.363084
 11
118.710258
 21
298.363084
  0
LINE
  5
E7
100
AcDbEntity
  8
M2
  6
CONTINUOUS
370
25
100
AcDbLine
 10
118.710258
 20
298.363084
 11
107.460258
 21
298.363084
  0
LINE
  5
E8
100
AcDbEntity
  8
M2
  6
CONTINUOUS
370
25
100
AcDbLine
 10
107.460258
 20
298.363084
 11
107.460258
 21
318.363084
  0
CIRCLE
  5
E9
100
AcDbEntity
  8
M2
  6
CONTINUOUS
370
25
100
AcDbCircle
 10
113.085258
 20
312.113084
 40
1.687493
  0
LINE
  5
EA
100
AcDbEntity
  8
M2
  6
DASHDOT
370
25
100
AcDbLine
 10
110.543266
 20
312.113084
 11
116.044243
 21
312.113084
  0
LINE
  5
EB
100
AcDbEntity
  8
M2
  6
DASHDOT
370
25
100
AcDbLine
 10
113.085258
 20
320.050584
 11
113.085258
 21
296.634812
  0
ARC
  5
EC
100
AcDbEntity
  8
M2
  6
CONTINUOUS
370
25
100
AcDbCircle
 10
113.085258
 20
304.113145
 40
1.687493
100
AcDbArc
 50
0.0
 51
179.997928
  0
LINE
  5
ED
100
AcDbEntity
  8
M2
  6
DASHDOT
370
25
100
AcDbLine
 10
110.48986
 20
304.113145
 11
115.910698
 21
304.113145
  0
ARC
  5
EE
100
AcDbEntity
  8
M2
  6
CONTINUOUS
370
25
100
AcDbCircle
 10
113.085258
 20
302.113145
 40
1.687493
100
AcDbArc
 50
179.997928
 51
360.0
  0
LINE
  5
EF
100
AcDbEntity
  8
M2
  6
DASHDOT
370
25
100
AcDbLine
 10
110.543266
 20
302.113145
 11
115.857292
 21
302.113145
  0
LINE
  5
F0
100
AcDbEntity
  8
M2
  6
CONTINUOUS
370
25
100
AcDbLine
 10
114.772758
 20
302.113145
 11
114.772758
 21
304.113145
  0
LINE
  5
F1
100
AcDbEntity
  8
M2
  6
CONTINUOUS
370
25
100
AcDbLine
 10
111.397758
 20
302.113145
 11
111.397758
 21
304.113145
  0
CIRCLE
  5
F2
100
AcDbEntity
  8
M2
  6
CONTINUOUS
370
25
100
AcDbCircle
 10
86.835258
 20
322.113022
 40
2.624991
  0
LINE
  5
F3
100
AcDbEntity
  8
M2
  6
DASHDOT
370
25
100
AcDbLine
 10
77.960258
 20
322.113022
 11
95.710258
 21
322.113022
  0
LINE
  5
F4
100
AcDbEntity
  8
M2
  6
DASHDOT
370
25
100
AcDbLine
 10
86.835258
 20
313.238022
 11
86.835258
 21
330.988022
  0
CIRCLE
  5
F5
100
AcDbEntity
  8
M2
  6
CONTINUOUS
370
25
100
AcDbCircle
 10
104.335258
 20
322.113022
 40
2.624991
  0
LINE
  5
F6
100
AcDbEntity
  8
M2
  6
DASHDOT
370
25
100
AcDbLine
 10
95.460258
 20
322.113022
 11
113.210258
 21
322.113022
  0
LINE
  5
F7
100
AcDbEntity
  8
M2
  6
DASHDOT
370
25
100
AcDbLine
 10
104.335258
 20
268.034653
 11
104.335258
 21
329.214463
  0
CIRCLE
  5
F8
100
AcDbEntity
  8
M2
  6
CONTINUOUS
370
25
100
AcDbCircle
 10
86.835258
 20
417.113022
 40
2.624991
  0
LINE
  5
F9
100
AcDbEntity
  8
M2
  6
DASHDOT
370
25
100
AcDbLine
 10
77.960258
 20
417.113022
 11
95.710258
 21
417.113022
  0
LINE
  5
FA
100
AcDbEntity
  8
M2
  6
DASHDOT
370
25
100
AcDbLine
 10
86.835258
 20
408.238022
 11
86.835258
 21
425.988022
  0
CIRCLE
  5
FB
100
AcDbEntity
  8
M2
  6
CONTINUOUS
370
25
100
AcDbCircle
 10
104.335258
 20
417.113022
 40
2.624991
  0
LINE
  5
FC
100
AcDbEntity
  8
M2
  6
DASHDOT
370
25
100
AcDbLine
 10
95.460258
 20
417.113022
 11
113.210258
 21
417.113022
  0
LINE
  5
FD
100
AcDbEntity
  8
M2
  6
DASHDOT
370
25
100
AcDbLine
 10
104.335258
 20
329.908799
 11
104.335258
 21
330.042405
  0
LINE
  5
FE
100
AcDbEntity
  8
M2
  6
DASHDOT
370
25
100
AcDbLine
 10
95.585258
 20
407.113022
 11
95.585258
 21
442.783921
  0
LINE
  5
FF
100
AcDbEntity
  8
M2
  6
CONTINUOUS
370
25
100
AcDbLine
 10
89.835258
 20
379.695298
 11
89.835258
 21
361.488022
  0
LINE
  5
100
100
AcDbEntity
  8
M2
  6
CONTINUOUS
370
25
100
AcDbLine
 10
101.335258
 20
379.695298
 11
101.335258
 21
361.488022
  0
LINE
  5
101
100
AcDbEntity
  8
M2
  6
CONTINUOUS
370
25
100
AcDbLine
 10
89.835258
 20
361.488022
 11
101.335258
 21
361.488022
  0
LINE
  5
102
100
AcDbEntity
  8
M2
  6
CONTINUOUS
370
25
100
AcDbLine
 10
92.518302
 20
370.863022
 11
98.740226
 21
370.863022
  0
LINE
  5
103
100
AcDbEntity
  8
M2
  6
CONTINUOUS
370
25
100
AcDbLine
 10
89.835258
 20
379.695298
 11
101.335258
 21
379.695298
  0
LINE
  5
104
100
AcDbEntity
  8
M2
  6
CONTINUOUS
370
25
100
AcDbLine
 10
89.835258
 20
377.992234
 11
101.335258
 21
377.992234
  0
LINE
  5
105
100
AcDbEntity
  8
M2
  6
CONTINUOUS
370
25
100
AcDbLine
 10
139.335258
 20
318.363022
 11
139.335258
 21
420.862962
  0
LINE
  5
106
100
AcDbEntity
  8
M2
  6
CONTINUOUS
370
25
100
AcDbLine
 10
139.335258
 20
420.862962
 11
121.835258
 21
420.863022
  0
LINE
  5
107
100
AcDbEntity
  8
M2
  6
CONTINUOUS
370
25
100
AcDbLine
 10
136.210258
 20
440.862901
 11
136.210258
 21
420.862901
  0
LINE
  5
108
100
AcDbEntity
  8
M2
  6
CONTINUOUS
370
25
100
AcDbLine
 10
124.960258
 20
440.862901
 11
136.210258
 21
440.862901
  0
LINE
  5
109
100
AcDbEntity
  8
M2
  6
CONTINUOUS
370
25
100
AcDbLine
 10
124.960258
 20
420.862901
 11
124.960258
 21
440.862901
  0
ARC
  5
10A
100
AcDbEntity
  8
M2
  6
CONTINUOUS
370
25
100
AcDbCircle
 10
130.585258
 20
437.11284
 40
1.687492
100
AcDbArc
 50
0.0
 51
180.0
  0
LINE
  5
10B
100
AcDbEntity
  8
M2
  6
CONTINUOUS
370
25
100
AcDbLine
 10
132.272758
 20
437.11284
 11
132.272758
 21
435.11284
  0
LINE
  5
10C
100
AcDbEntity
  8
M2
  6
CONTINUOUS
370
25
100
AcDbLine
 10
128.897758
 20
437.11284
 11
128.897758
 21
435.11284
  0
ARC
  5
10D
100
AcDbEntity
  8
M2
  6
CONTINUOUS
370
25
100
AcDbCircle
 10
130.585258
 20
435.11284
 40
1.687492
100
AcDbArc
 50
180.0
 51
360.0
  0
CIRCLE
  5
10E
100
AcDbEntity
  8
M2
  6
CONTINUOUS
370
25
100
AcDbCircle
 10
130.585258
 20
427.112901
 40
1.687492
  0
LINE
  5
10F
100
AcDbEntity
  8
M2
  6
DASHDOT
370
25
100
AcDbLine
 10
130.585258
 20
419.175401
 11
130.585258
 21
442.591172
  0
LINE
  5
110
100
AcDbEntity
  8
M2
  6
DASHDOT
370
25
100
AcDbLine
 10
133.45623
 20
427.112901
 11
127.36779
 21
427.112901
  0
LINE
  5
111
100
AcDbEntity
  8
M2
  6
DASHDOT
370
25
100
AcDbLine
 10
133.109123
 20
437.11284
 11
127.447929
 21
437.11284
  0
LINE
  5
112
100
AcDbEntity
  8
M2
  6
DASHDOT
370
25
100
AcDbLine
 10
133.08239
 20
435.11284
 11
127.474602
 21
435.11284
  0
LINE
  5
113
100
AcDbEntity
  8
M2
  6
DASHDOT
370
25
100
AcDbLine
 10
130.585258
 20
320.213792
 11
130.585258
 21
296.634751
  0
CIRCLE
  5
114
100
AcDbEntity
  8
M2
  6
CONTINUOUS
370
25
100
AcDbCircle
 10
130.585258
 20
312.113022
 40
1.687492
  0
LINE
  5
115
100
AcDbEntity
  8
M2
  6
DASHDOT
370
25
100
AcDbLine
 10
133.296013
 20
312.113022
 11
127.501335
 21
312.113022
  0
ARC
  5
116
100
AcDbEntity
  8
M2
  6
CONTINUOUS
370
25
100
AcDbCircle
 10
130.585258
 20
304.113084
 40
1.687492
100
AcDbArc
 50
0.0
 51
179.997928
  0
LINE
  5
117
100
AcDbEntity
  8
M2
  6
CONTINUOUS
370
25
100
AcDbLine
 10
132.272758
 20
302.113084
 11
132.272758
 21
304.113084
  0
LINE
  5
118
100
AcDbEntity
  8
M2
  6
CONTINUOUS
370
25
100
AcDbLine
 10
128.897758
 20
302.113084
 11
128.897758
 21
304.113084
  0
ARC
  5
119
100
AcDbEntity
  8
M2
  6
CONTINUOUS
370
25
100
AcDbCircle
 10
130.585258
 20
302.113084
 40
1.687492
100
AcDbArc
 50
179.997928
 51
360.0
  0
LINE
  5
11A
100
AcDbEntity
  8
M2
  6
DASHDOT
370
25
100
AcDbLine
 10
133.215935
 20
302.113084
 11
127.795097
 21
302.113084
  0
LINE
  5
11B
100
AcDbEntity
  8
M2
  6
DASHDOT
370
25
100
AcDbLine
 10
133.135795
 20
304.113084
 11
127.608146
 21
304.113084
  0
LINE
  5
11C
100
AcDbEntity
  8
M2
  6
CONTINUOUS
370
25
100
AcDbLine
 10
136.210258
 20
298.363022
 11
136.210258
 21
318.363022
  0
LINE
  5
11D
100
AcDbEntity
  8
M2
  6
CONTINUOUS
370
25
100
AcDbLine
 10
124.960258
 20
298.363022
 11
136.210258
 21
298.363022
  0
LINE
  5
11E
100
AcDbEntity
  8
M2
  6
CONTINUOUS
370
25
100
AcDbLine
 10
124.960258
 20
318.363022
 11
124.960258
 21
298.363022
  0
LINE
  5
11F
100
AcDbEntity
  8
M2
  6
DASHDOT
370
25
100
AcDbLine
 10
104.335258
 20
330.895554
 11
104.335258
 21
482.277575
  0
ARC
  5
120
100
AcDbEntity
  8
M2
  6
CONTINUOUS
370
25
100
AcDbCircle
 10
130.585258
 20
335.862962
 40
2.249993
100
AcDbArc
 50
240.000574
 51
360.0
  0
LINE
  5
121
100
AcDbEntity
  8
M2
  6
CONTINUOUS
370
25
100
AcDbLine
 10
131.585258
 20
334.238022
 11
131.585258
 21
337.487962
  0
LINE
  5
122
100
AcDbEntity
  8
M2
  6
CONTINUOUS
370
25
100
AcDbLine
 10
129.585258
 20
337.487962
 11
129.585258
 21
334.238022
  0
LINE
  5
123
100
AcDbEntity
  8
M2
  6
CONTINUOUS
370
25
100
AcDbLine
 10
131.710258
 20
337.487962
 11
131.460258
 21
337.487901
  0
LINE
  5
124
100
AcDbEntity
  8
M2
  6
CONTINUOUS
370
25
100
AcDbLine
 10
129.460258
 20
334.238022
 11
129.710258
 21
334.238022
  0
LINE
  5
125
100
AcDbEntity
  8
M2
  6
CONTINUOUS
370
25
100
AcDbLine
 10
129.585258
 20
337.488022
 11
131.585258
 21
334.238022
  0
LINE
  5
126
100
AcDbEntity
  8
M2
  6
CONTINUOUS
370
25
100
AcDbLine
 10
129.710258
 20
337.488022
 11
129.710258
 21
334.238022
  0
LINE
  5
127
100
AcDbEntity
  8
M2
  6
CONTINUOUS
370
25
100
AcDbLine
 10
131.460258
 20
337.488022
 11
131.460258
 21
334.238022
  0
LINE
  5
128
100
AcDbEntity
  8
M2
  6
CONTINUOUS
370
25
100
AcDbLine
 10
129.731987
 20
337.487962
 11
131.585197
 21
334.476426
  0
LINE
  5
129
100
AcDbEntity
  8
M2
  6
CONTINUOUS
370
25
100
AcDbLine
 10
129.585197
 20
337.249375
 11
131.438347
 21
334.238022
  0
LINE
  5
12A
100
AcDbEntity
  8
M2
  6
CONTINUOUS
370
25
100
AcDbLine
 10
131.710258
 20
337.488022
 11
131.710258
 21
334.238022
  0
LINE
  5
12B
100
AcDbEntity
  8
M2
  6
CONTINUOUS
370
25
100
AcDbLine
 10
129.460258
 20
337.488022
 11
129.460258
 21
334.238022
  0
CIRCLE
  5
12C
100
AcDbEntity
  8
M2
  6
CONTINUOUS
370
25
100
AcDbCircle
 10
130.585258
 20
335.862962
 40
2.249993
  0
LINE
  5
12D
100
AcDbEntity
  8
M2
  6
CONTINUOUS
370
25
100
AcDbLine
 10
131.460258
 20
334.238022
 11
131.710258
 21
334.238022
  0
LINE
  5
12E
100
AcDbEntity
  8
M2
  6
CONTINUOUS
370
25
100
AcDbLine
 10
129.710258
 20
337.487901
 11
129.460258
 21
337.487962
  0
CIRCLE
  5
12F
100
AcDbEntity
  8
M2
  6
CONTINUOUS
370
25
100
AcDbCircle
 10
95.585258
 20
352.113022
 40
1.624998
  0
LINE
  5
130
100
AcDbEntity
  8
M2
  6
DASHDOT
370
25
100
AcDbLine
 10
87.0158
 20
352.113022
 11
104.154655
 21
352.113022
  0
LINE
  5
131
100
AcDbEntity
  8
M2
  6
CONTINUOUS
370
25
100
AcDbLine
 10
70.835258
 20
334.613022
 11
120.335258
 21
334.613022
  0
LINE
  5
132
100
AcDbEntity
  8
M2
  6
CONTINUOUS
370
25
100
AcDbLine
 10
120.835258
 20
335.112962
 11
120.835258
 21
349.112962
  0
LINE
  5
133
100
AcDbEntity
  8
M2
  6
CONTINUOUS
370
25
100
AcDbLine
 10
120.335258
 20
349.613022
 11
70.835258
 21
349.612962
  0
LINE
  5
134
100
AcDbEntity
  8
M2
  6
CONTINUOUS
370
25
100
AcDbLine
 10
70.335258
 20
349.112962
 11
70.335258
 21
335.113022
  0
ARC
  5
135
100
AcDbEntity
  8
M2
  6
CONTINUOUS
370
25
100
AcDbCircle
 10
70.835258
 20
349.112962
 40
0.5
100
AcDbArc
 50
89.999563
 51
179.999563
  0
ARC
  5
136
100
AcDbEntity
  8
M2
  6
CONTINUOUS
370
25
100
AcDbCircle
 10
70.835258
 20
335.113022
 40
0.5
100
AcDbArc
 50
179.999563
 51
270.0
  0
ARC
  5
137
100
AcDbEntity
  8
M2
  6
CONTINUOUS
370
25
100
AcDbCircle
 10
120.335258
 20
335.113022
 40
0.5
100
AcDbArc
 50
269.999563
 51
359.993006
  0
ARC
  5
138
100
AcDbEntity
  8
M2
  6
CONTINUOUS
370
25
100
AcDbCircle
 10
120.335258
 20
349.112962
 40
0.5
100
AcDbArc
 50
0.0
 51
90.0
  0
LINE
  5
139
100
AcDbEntity
  8
M2
  6
DIVIDE
370
25
100
AcDbLine
 10
69.33526
 20
132.697747
 11
139.33526
 21
132.697747
  0
LINE
  5
13A
100
AcDbEntity
  8
M2
  6
DIVIDE
370
25
100
AcDbLine
 10
139.33526
 20
132.697747
 11
139.33526
 21
235.197743
  0
LINE
  5
13B
100
AcDbEntity
  8
M2
  6
DIVIDE
370
25
100
AcDbLine
 10
139.33526
 20
235.197743
 11
69.33526
 21
235.197747
  0
LINE
  5
13C
100
AcDbEntity
  8
M2
  6
DIVIDE
370
25
100
AcDbLine
 10
69.33526
 20
235.197747
 11
69.33526
 21
132.697747
  0
LINE
  5
13D
100
AcDbEntity
  8
M2
  6
DASHDOT
370
25
100
AcDbLine
 10
63.08526
 20
183.947747
 11
149.651178
 21
183.947747
  0
CIRCLE
  5
13E
100
AcDbEntity
  8
M2
  6
CONTINUOUS
370
25
100
AcDbCircle
 10
86.83526
 20
231.447686
 40
1.25
  0
LINE
  5
13F
100
AcDbEntity
  8
M2
  6
DASHDOT
370
25
100
AcDbLine
 10
79.33526
 20
231.447686
 11
94.33526
 21
231.447686
  0
CIRCLE
  5
140
100
AcDbEntity
  8
M2
  6
CONTINUOUS
370
25
100
AcDbCircle
 10
104.33526
 20
231.447686
 40
1.25
  0
LINE
  5
141
100
AcDbEntity
  8
M2
  6
DASHDOT
370
25
100
AcDbLine
 10
96.83526
 20
231.447686
 11
111.83526
 21
231.447686
  0
CIRCLE
  5
142
100
AcDbEntity
  8
M2
  6
CONTINUOUS
370
25
100
AcDbCircle
 10
86.83526
 20
136.447747
 40
1.25
  0
LINE
  5
143
100
AcDbEntity
  8
M2
  6
DASHDOT
370
25
100
AcDbLine
 10
79.33526
 20
136.447747
 11
94.33526
 21
136.447747
  0
LINE
  5
144
100
AcDbEntity
  8
M2
  6
DASHDOT
370
25
100
AcDbLine
 10
86.83526
 20
128.947747
 11
86.83526
 21
143.947747
  0
CIRCLE
  5
145
100
AcDbEntity
  8
M2
  6
CONTINUOUS
370
25
100
AcDbCircle
 10
104.33526
 20
136.447747
 40
1.25
  0
LINE
  5
146
100
AcDbEntity
  8
M2
  6
DASHDOT
370
25
100
AcDbLine
 10
96.83526
 20
136.447747
 11
111.83526
 21
136.447747
  0
LINE
  5
147
100
AcDbEntity
  8
M2
  6
DASHDOT
370
25
100
AcDbLine
 10
104.33526
 20
128.947747
 11
104.33526
 21
143.947747
  0
LINE
  5
148
100
AcDbEntity
  8
M2
  6
DASHDOT
370
25
100
AcDbLine
 10
95.58526
 20
126.447747
 11
95.58526
 21
241.447747
  0
LINE
  5
149
100
AcDbEntity
  8
M2
  6
DASHDOT
370
25
100
AcDbLine
 10
86.83526
 20
223.947686
 11
86.83526
 21
238.947686
  0
LINE
  5
14A
100
AcDbEntity
  8
M2
  6
DASHDOT
370
25
100
AcDbLine
 10
104.33526
 20
223.947686
 11
104.33526
 21
238.947686
  0
LINE
  5
14B
100
AcDbEntity
  8
M3
  6
CONTINUOUS
370
25
100
AcDbLine
 10
-7.105427E-015
 20
-3.552714E-015
 11
364.5835
 21
-3.552714E-015
  0
LINE
  5
14C
100
AcDbEntity
  8
M3
  6
CONTINUOUS
370
25
100
AcDbLine
 10
364.5835
 20
-3.552714E-015
 11
364.5835
 21
577.083597
  0
LINE
  5
14D
100
AcDbEntity
  8
M3
  6
CONTINUOUS
370
25
100
AcDbLine
 10
364.5835
 20
577.083597
 11
-7.105427E-015
 21
577.083597
  0
LINE
  5
14E
100
AcDbEntity
  8
M3
  6
CONTINUOUS
370
25
100
AcDbLine
 10
-7.105427E-015
 20
577.083597
 11
-7.105427E-015
 21
-3.552714E-015
  0
LINE
  5
14F
100
AcDbEntity
  8
M3
  6
CONTINUOUS
370
25
100
AcDbLine
 10
-7.105427E-015
 20
-3.552714E-015
 11
-7.105427E-015
 21
56.250026
  0
LINE
  5
150
100
AcDbEntity
  8
M6
  6
CONTINUOUS
370
25
 60
     1
100
AcDbLine
 10
5.435469
 20
508.388434
 11
62.779153
 21
508.388434
  0
LINE
  5
151
100
AcDbEntity
  8
M6
  6
CONTINUOUS
370
25
 60
     1
100
AcDbLine
 10
62.779153
 20
508.388434
 11
89.018719
 21
508.388434
  0
LINE
  5
152
100
AcDbEntity
  8
M6
  6
CONTINUOUS
370
25
 60
     1
100
AcDbLine
 10
89.018719
 20
508.388434
 11
136.914522
 21
508.388434
  0
LINE
  5
153
100
AcDbEntity
  8
M6
  6
CONTINUOUS
370
25
 60
     1
100
AcDbLine
 10
136.914522
 20
508.388434
 11
192.029119
 21
508.388434
  0
LINE
  5
154
100
AcDbEntity
  8
M6
  6
CONTINUOUS
370
25
 60
     1
100
AcDbLine
 10
360.008277
 20
508.388434
 11
360.008277
 21
535.888408
  0
LINE
  5
155
100
AcDbEntity
  8
M6
  6
CONTINUOUS
370
25
 60
     1
100
AcDbLine
 10
312.11241
 20
508.388434
 11
360.008277
 21
508.388434
  0
LINE
  5
156
100
AcDbEntity
  8
M6
  6
CONTINUOUS
370
25
 60
     1
100
AcDbLine
 10
360.008277
 20
535.888408
 11
360.008277
 21
549.638427
  0
LINE
  5
157
100
AcDbEntity
  8
M6
  6
CONTINUOUS
370
25
 60
     1
100
AcDbLine
 10
192.029119
 20
508.388434
 11
312.11241
 21
508.388434
  0
LINE
  5
158
100
AcDbEntity
  8
M6
  6
CONTINUOUS
370
25
 60
     1
100
AcDbLine
 10
297.921921
 20
147.166367
 11
325.094498
 21
147.166367
  0
LINE
  5
159
100
AcDbEntity
  8
M6
  6
CONTINUOUS
370
25
 60
     1
100
AcDbLine
 10
343.935265
 20
147.166367
 11
343.935265
 21
160.207885
  0
LINE
  5
15A
100
AcDbEntity
  8
M6
  6
CONTINUOUS
370
25
 60
     1
100
AcDbLine
 10
325.094498
 20
147.166367
 11
343.935265
 21
147.166367
  0
LINE
  5
15B
100
AcDbEntity
  8
M6
  6
CONTINUOUS
370
25
 60
     1
100
AcDbLine
 10
343.935265
 20
160.207885
 11
343.935265
 21
173.249499
  0
LINE
  5
15C
100
AcDbEntity
  8
M6
  6
CONTINUOUS
370
25
 60
     1
100
AcDbLine
 10
343.935265
 20
173.249499
 11
343.935265
 21
186.290047
  0
LINE
  5
15D
100
AcDbEntity
  8
M6
  6
CONTINUOUS
370
25
 60
     1
100
AcDbLine
 10
343.935265
 20
186.290047
 11
343.935265
 21
199.331391
  0
LINE
  5
15E
100
AcDbEntity
  8
M6
  6
CONTINUOUS
370
25
 60
     1
100
AcDbLine
 10
343.935265
 20
199.331391
 11
343.935265
 21
212.37461
  0
LINE
  5
15F
100
AcDbEntity
  8
M6
  6
CONTINUOUS
370
25
 60
     1
100
AcDbLine
 10
191.856249
 20
147.166367
 11
297.921921
 21
147.166367
  0
LINE
  5
160
100
AcDbEntity
  8
M6
  6
CONTINUOUS
370
25
 60
     1
100
AcDbLine
 10
343.935265
 20
212.37461
 11
343.935265
 21
225.417828
  0
ENDSEC
  0
SECTION
  2
OBJECTS
  0
DICTIONARY
  5
C
100
AcDbDictionary
  3
ACAD_GROUP
350
D
  3
ACAD_MLINESTYLE
350
E
  0
DICTIONARY
  5
D
102
{ACAD_REACTORS
330
C
102
}
100
AcDbDictionary
  0
DICTIONARY
  5
E
102
{ACAD_REACTORS
330
C
102
}
100
AcDbDictionary
  3
STANDARD
350
13
  0
MLINESTYLE
  5
13
102
{ACAD_REACTORS
330
E
102
}
100
AcDbMlineStyle
  2
STANDARD
 70
     0
  3

 62
     0
 51
90.0
 52
90.0
 71
     2
 49
0.5
 62
   256
  6
BYLAYER
 49
-0.5
 62
   256
  6
BYLAYER
  0
ENDSEC
  0
EOF
