  0
SECTION
  2
HEADER
  9
$ACADVER
  1
AC1015
  9
$INSBASE
 10
0.000000
 20
0.000000
 30
0.0
  9
$VIEWCTR
 10
7.531722
 20
4.5
  9
$VIEWSIZE
 40
9.0
  9
$SNAPMODE
 70
     0
  9
$SNAPUNIT
 10
1.0
 20
1.0
  9
$SNAPBASE
 10
0.0
 20
0.0
  9
$SNAPANG
 50
0.0
  9
$SNAPSTYLE
 70
     0
  9
$SNAPISOPAIR
 70
     0
  9
$GRIDMODE
 70
     0
  9
$GRIDUNIT
 10
0.0
 20
0.0
  9
$ORTHOMODE
 70
     0
  9
$REGENMODE
 70
     1
  9
$FILLMODE
 70
     1
  9
$QTEXTMODE
 70
     0
  9
$DRAGMODE
 70
     2
  9
$LTSCALE
  40
     1.000000
  9
$OSMODE
 70
     0
  9
$ATTMODE
 70
     1
  9
$TEXTSIZE
 40
0.2
  9
$TRACEWID
 40
0.05
  9
$TEXTSTYLE
  7
STANDARD
  9
$CELTYPE
  6
BYLAYER
  9
$CECOLOR
 62
   256
  9
$DIMSCALE
 40
1.0
  9
$DIMASZ
 40
0.18
  9
$DIMEXO
 40
0.0625
  9
$DIMDLI
 40
0.38
  9
$DIMRND
 40
0.0
  9
$DIMDLE
 40
0.0
  9
$DIMEXE
 40
0.18
  9
$DIMTP
 40
0.0
  9
$DIMTM
 40
0.0
  9
$DIMTXT
 40
0.18
  9
$DIMCEN
 40
0.09
  9
$DIMTSZ
 40
0.0
  9
$DIMADEC
 70
     0
  9
$DIMALTRND
 40
0.000000
  9
$DIMAZIN
 70
     0
  9
$DIMDSEP
 70
    46
  9
$DIMATFIT
 70
     3
  9
$DIMFRAC
 70
     0
  9
$DIMLDRBLK
  1

  9
$DIMLUNIT
 70
     2
  9
$DIMLWD
 70
   13
  9
$DIMLWE
 70
   13
  9
$DIMTMOVE
 70
     0
  9
$CELWEIGHT
370
    25
  9
$LWDISPLAY
290
    1
  9
$EXTNAMES
290
    1
  9
$DIMTOL
 70
     0
  9
$DIMLIM
 70
     0
  9
$DIMTIH
 70
     1
  9
$DIMTOH
 70
     1
  9
$DIMSE1
 70
     0
  9
$DIMSE2
 70
     0
  9
$DIMTAD
 70
     0
  9
$DIMZIN
 70
     0
  9
$DIMBLK
  1

  9
$LUNITS
 70
     2
  9
$LUPREC
 70
     4
  9
$AXISMODE
 70
     0
  9
$AXISUNIT
 10
0.0
 20
0.0
  9
$SKETCHINC
 40
0.1
  9
$FILLETRAD
 40
0.0
  9
$AUNITS
 70
     0
  9
$AUPREC
 70
     0
  9
$MENU
  1
ACAD
  9
$ELEVATION
 40
0.0
  9
$THICKNESS
 40
0.0
  9
$VIEWDIR
 10
0.0
 20
0.0
 30
1.0
  9
$LIMCHECK
 70
     0
  9
$BLIPMODE
 70
     1
  9
$CHAMFERA
 40
0.0
  9
$CHAMFERB
 40
0.0
  9
$FASTZOOM
 70
     1
  9
$SKPOLY
 70
     0
  9
$TDCREATE
 40
0000000.0000000000
  9
$TDUPDATE
 40
0000000.0000000000
  9
$TDINDWG
 40
0.0000000000
  9
$TDUSRTIMER
 40
0.0000000000
  9
$USRTIMER
 70
     1
  9
$ANGBASE
 50
0.0
  9
$ANGDIR
 70
     0
  9
$PDMODE
 70
     0
  9
$PDSIZE
 40
0.0
  9
$PLINEWID
 40
0.0
  9
$COORDS
 70
     0
  9
$USERI1
 70
     0
  9
$USERI2
 70
     0
  9
$USERI3
 70
     0
  9
$USERI4
 70
     0
  9
$USERI5
 70
     0
  9
$USERR1
 40
0.0
  9
$USERR2
 40
0.0
  9
$USERR3
 40
0.0
  9
$USERR4
 40
0.0
  9
$USERR5
 40
0.0
  9
$CLAYER
  8
M0
  9
$EXTMIN
 10
0.0
 20
0.0
  9
$EXTMAX
 10
841.0
 20
594.0
  9
$LIMMIN
 10
0.0
 20
0.0
  9
$LIMMAX
 10
841.0
 20
594.0
  9
$HANDSEED
  5
315
  0
ENDSEC
  0
SECTION
  2
CLASSES
  0
CLASS
  1
DIMASSOC
  2
AcDbDimAssoc
  3
"AcDbDimAssoc|Product Desc:     AcDim ARX App For Dimension|Company:          Autodesk, Inc.|WEB Address:      www.autodesk.com"
 90
        0
280
     0
281
     0
  0
ENDSEC
  0
SECTION
  2
TABLES
  0
TABLE
  2
VPORT
  5
8
100
AcDbSymbolTable
 70
     2
  0
VPORT
  5
14
100
AcDbSymbolTableRecord
100
AcDbViewportTableRecord
  2
*ACTIVE
 70
     0
 10
0.0
 20
0.0
 11
1.0
 21
1.0
 12
484.0
 22
297.0
 13
0.0
 23
0.0
 14
1.0
 24
1.0
 15
0.0
 25
0.0
 16
0.0
 26
0.0
 36
1.0
 17
0.0
 27
0.0
 37
0.0
 40
594.0
 41
2.0
 42
50.0
 43
0.0
 44
0.0
 50
0.0
 51
0.0
 71
     0
 72
   100
 73
     1
 74
     1
 75
     0
 76
     0
 77
     0
 78
     0
  0
ENDTAB
  0
TABLE
  2
LTYPE
  5
5
100
AcDbSymbolTable
 70
     5
  0
LTYPE
  5
15
100
AcDbSymbolTableRecord
100
AcDbLinetypeTableRecord
  2
BYBLOCK
 70
     0
  3

 72
    65
 73
     0
 40
0.0
  0
LTYPE
  5
16
100
AcDbSymbolTableRecord
100
AcDbLinetypeTableRecord
  2
BYLAYER
 70
     0
  3

 72
    65
 73
     0
 40
0.0
  0
LTYPE
  5
17
100
AcDbSymbolTableRecord
100
AcDbLinetypeTableRecord
  2
CONTINUOUS
 70
    64
  3
Solid line
 72
    65
 73
     0
 40
0.0
  0
LTYPE
  5
18
100
AcDbSymbolTableRecord
100
AcDbLinetypeTableRecord
  2
DASHED
 70
    64
  3
__ __ __ __ __ __ __ __ __ __ __ __ __ __ __ __
 72
    65
 73
     2
 40
0.75
 49
0.5
 74
     0
 49
-0.25
 74
     0
  0
LTYPE
  5
19
100
AcDbSymbolTableRecord
100
AcDbLinetypeTableRecord
  2
DASHDOT
 70
    64
  3
__ . __ . __ . __ . __ . __ . __ . __ . __ . __
 72
    65
 73
     4
 40
1.0
 49
0.5
 74
     0
 49
-0.25
 74
     0
 49
0.0
 74
     0
 49
-0.25
 74
     0
  0
LTYPE
  5
1A
100
AcDbSymbolTableRecord
100
AcDbLinetypeTableRecord
  2
DIVIDE
 70
    64
  3
____ . . ____ . . ____ . . ____ . . ____ . . __
 72
    65
 73
     6
 40
1.25
 49
0.5
 74
     0
 49
-0.25
 74
     0
 49
0.0
 74
     0
 49
-0.25
 74
     0
 49
0.0
 74
     0
 49
-0.25
 74
     0
  0
LTYPE
  5
1B
100
AcDbSymbolTableRecord
100
AcDbLinetypeTableRecord
  2
DOT
 70
    64
  3
. . . . . . . . . . . . . . . . . . . . . . . .
 72
    65
 73
     2
 40
0.25
 49
0.0
 74
     0
 49
-0.25
 74
     0
  0
ENDTAB
  0
TABLE
  2
LAYER
  5
2
100
AcDbSymbolTable
 70
   102
  0
LAYER
  5
F
100
AcDbSymbolTableRecord
100
AcDbLayerTableRecord
  2
0
 70
     0
 62
     7
  6
CONTINUOUS
370
     -3
390
F
  0
LAYER
  5
1C
100
AcDbSymbolTableRecord
100
AcDbLayerTableRecord
  2
M0
 70
     0
 62
     7
  6
CONTINUOUS
370
     -3
390
F
  0
LAYER
  5
1D
100
AcDbSymbolTableRecord
100
AcDbLayerTableRecord
  2
M2
 70
     0
 62
     3
  6
CONTINUOUS
370
     -3
390
F
  0
LAYER
  5
1E
100
AcDbSymbolTableRecord
100
AcDbLayerTableRecord
  2
M3
 70
     0
 62
     3
  6
CONTINUOUS
370
     -3
390
F
  0
ENDTAB
  0
TABLE
  2
STYLE
  5
3
100
AcDbSymbolTable
 70
     2
  0
STYLE
  5
10
100
AcDbSymbolTableRecord
100
AcDbTextStyleTableRecord
  2
STANDARD
 70
     0
 40
0.0
 41
1.0
 50
0.0
 71
     0
 42
0.2
  3
txt
  4
BIGFONT
  0
ENDTAB
  0
TABLE
  2
VIEW
  5
6
100
AcDbSymbolTable
 70
     0
  0
ENDTAB
  0
TABLE
  2
UCS
  5
7
100
AcDbSymbolTable
 70
     0
  0
ENDTAB
  0
TABLE
  2
APPID
  5
9
100
AcDbSymbolTable
 70
     1
  0
APPID
  5
11
100
AcDbSymbolTableRecord
100
AcDbRegAppTableRecord
  2
ACAD
 70
     0
  0
ENDTAB
  0
TABLE
  2
DIMSTYLE
  5
A
100
AcDbSymbolTable
 70
     2
100
AcDbDimStyleTable
 71
     1
  0
DIMSTYLE
105
47
100
AcDbSymbolTableRecord
100
AcDbDimStyleTableRecord
  2
STANDARD
 70
     0
  3

  4

  5

  6
_OPEN
  7
_OPEN
 40
1.0
 41
3.0
 42
0.0
 43
8.0
 44
1.5
 45
0.0
 46
0.0
 47
0.0
 48
0.0
140
3.2
141
0.09
142
0.0
143
0.03937
144
1.0
145
0.0
146
1.0
147
1.0
148
0.000000
 71
     0
 72
     0
 73
     1
 74
     1
 75
     0
 76
     0
 77
     3
 78
     8
170
     0
171
     2
172
     0
173
     1
174
     0
175
     0
176
     0
177
     0
178
     0
270
     2
271
     2
272
     4
273
     2
274
     2
340
10
275
     0
278
    46
280
     0
281
     0
282
     0
283
     1
284
     0
285
     0
286
     0
287
     3
288
     0
371
   13
372
   13
  0
DIMSTYLE
105
48
100
AcDbSymbolTableRecord
100
AcDbDimStyleTableRecord
  2
LEADSTYL
 70
     0
  3

  4

  5

  6
_OPEN
  7
_OPEN
 40
1.0
 41
3.0
 42
0.0625
 43
0.38
 44
0.18
 45
0.0
 46
0.0
 47
0.0
 48
0.0
140
3.2
141
0.09
142
0.0
143
25.4
144
1.0
145
0.0
146
1.0
147
1.0
 71
     0
 72
     0
 73
     1
 74
     1
 75
     0
 76
     0
 77
     0
 78
     0
170
     0
171
     2
172
     0
173
     1
174
     0
175
     0
176
     0
177
     0
178
     0
270
     2
271
     4
272
     4
273
     2
274
     2
340
10
275
     0
280
     0
281
     0
282
     0
283
     1
284
     0
285
     0
286
     0
287
     3
288
     0
  0
ENDTAB
  0
TABLE
  2
BLOCK_RECORD
  5
1
100
AcDbSymbolTable
 70
     6
  0
BLOCK_RECORD
  5
1F
100
AcDbSymbolTableRecord
100
AcDbBlockTableRecord
  2
*MODEL_SPACE
  0
BLOCK_RECORD
  5
22
100
AcDbSymbolTableRecord
100
AcDbBlockTableRecord
  2
*PAPER_SPACE
  0
BLOCK_RECORD
  5
25
100
AcDbSymbolTableRecord
100
AcDbBlockTableRecord
  2
_NONE
  0
BLOCK_RECORD
  5
29
100
AcDbSymbolTableRecord
100
AcDbBlockTableRecord
  2
_OPEN
  0
BLOCK_RECORD
  5
2F
100
AcDbSymbolTableRecord
100
AcDbBlockTableRecord
  2
_CLOSED
  0
BLOCK_RECORD
  5
36
100
AcDbSymbolTableRecord
100
AcDbBlockTableRecord
  2
_ORIGIN
  0
BLOCK_RECORD
  5
3B
100
AcDbSymbolTableRecord
100
AcDbBlockTableRecord
  2
_DOT
  0
BLOCK_RECORD
  5
43
100
AcDbSymbolTableRecord
100
AcDbBlockTableRecord
  2
_OBLIQUE
  0
ENDTAB
  0
ENDSEC
  0
SECTION
  2
BLOCKS
  0
BLOCK
  5
20
100
AcDbEntity
  8
0
100
AcDbBlockBegin
  2
*MODEL_SPACE
 70
     0
 10
0.0
 20
0.0
 30
0.0
  3
*MODEL_SPACE
  1

  0
ENDBLK
  5
21
100
AcDbEntity
  8
0
100
AcDbBlockEnd
  0
BLOCK
  5
23
100
AcDbEntity
 67
     1
  8
0
100
AcDbBlockBegin
  2
*PAPER_SPACE
 70
     0
 10
0.0
 20
0.0
 30
0.0
  3
*PAPER_SPACE
  1

  0
ENDBLK
  5
24
100
AcDbEntity
 67
     1
  8
0
100
AcDbBlockEnd
  0
BLOCK
  5
26
100
AcDbEntity
  8
0
100
AcDbBlockBegin
  2
_NONE
 70
     0
 10
0.0
 20
0.0
  0
CIRCLE
  5
27
100
AcDbEntity
  8
0
 62
     0
370
13
100
AcDbCircle
 10
0.0
 20
0.0
 40
0.25
  0
ENDBLK
  5
28
100
AcDbEntity
  8
0
100
AcDbBlockEnd
  0
BLOCK
  5
2A
100
AcDbEntity
  8
0
100
AcDbBlockBegin
  2
_OPEN
 70
     0
 10
0.0
 20
0.0
  0
LINE
  5
2B
100
AcDbEntity
  8
0
 62
     0
370
13
100
AcDbLine
 10
-0.965926
 20
0.258819
 11
0.0
 21
0.0
  0
LINE
  5
2C
100
AcDbEntity
  8
0
 62
     0
370
13
100
AcDbLine
 10
0.0
 20
0.0
 11
-0.965926
 21
-0.258819
  0
LINE
  5
2D
100
AcDbEntity
  8
0
 62
     0
370
13
100
AcDbLine
 10
0.0
 20
0.0
 11
-1.0
 21
0.0
  0
ENDBLK
  5
2E
100
AcDbEntity
  8
0
100
AcDbBlockEnd
  0
BLOCK
  5
30
100
AcDbEntity
  8
0
100
AcDbBlockBegin
  2
_CLOSED
 70
     0
 10
0.0
 20
0.0
  0
LINE
  5
31
100
AcDbEntity
  8
0
 62
     0
370
13
100
AcDbLine
 10
-0.965926
 20
0.258819
 11
0.0
 21
0.0
  0
LINE
  5
32
100
AcDbEntity
  8
0
 62
     0
370
13
100
AcDbLine
 10
0.0
 20
0.0
 11
-0.965926
 21
-0.258819
  0
LINE
  5
33
100
AcDbEntity
  8
0
 62
     0
370
13
100
AcDbLine
 10
-0.965926
 20
0.258819
 11
-0.965926
 21
-0.258819
  0
LINE
  5
34
100
AcDbEntity
  8
0
 62
     0
370
13
100
AcDbLine
 10
0.0
 20
0.0
 11
-1.0
 21
0.0
  0
ENDBLK
  5
35
100
AcDbEntity
  8
0
100
AcDbBlockEnd
  0
BLOCK
  5
37
100
AcDbEntity
  8
0
100
AcDbBlockBegin
  2
_ORIGIN
 70
     0
 10
0.0
 20
0.0
  0
CIRCLE
  5
38
100
AcDbEntity
  8
0
 62
     0
370
13
100
AcDbCircle
 10
0.0
 20
0.0
 40
0.5
  0
LINE
  5
39
100
AcDbEntity
  8
0
 62
     0
370
13
100
AcDbLine
 10
0.0
 20
0.0
 11
-1.0
 21
0.0
  0
ENDBLK
  5
3A
100
AcDbEntity
  8
0
100
AcDbBlockEnd
  0
BLOCK
  5
3C
100
AcDbEntity
  8
0
100
AcDbBlockBegin
  2
_DOT
 70
     0
 10
0.0
 20
0.0
  0
POLYLINE
  5
3D
100
AcDbEntity
  8
0
 62
     0
100
AcDb2dPolyline
 66
     1
 70
     1
 40
0.5
 41
0.5
  0
VERTEX
  5
3E
100
AcDbEntity
  8
0
 62
     0
100
AcDbVertex
100
AcDb2dVertex
 10
-0.25
 20
0.0
 42
1.0
  0
VERTEX
  5
3F
100
AcDbEntity
  8
0
 62
     0
100
AcDbVertex
100
AcDb2dVertex
 10
0.25
 20
0.0
 42
1.0
  0
SEQEND
  5
40
100
AcDbEntity
  8
0
 62
     0
  0
LINE
  5
41
100
AcDbEntity
  8
0
 62
     0
370
13
100
AcDbLine
 10
-0.5
 20
0.0
 11
-1.0
 21
0.0
  0
ENDBLK
  5
42
100
AcDbEntity
  8
0
100
AcDbBlockEnd
  0
BLOCK
  5
44
100
AcDbEntity
  8
0
100
AcDbBlockBegin
  2
_OBLIQUE
 70
     0
 10
0.0
 20
0.0
  0
LINE
  5
45
100
AcDbEntity
  8
0
 62
     0
370
13
100
AcDbLine
 10
-0.353553
 20
-0.353553
 11
0.353553
 21
0.353553
  0
ENDBLK
  5
46
100
AcDbEntity
  8
0
100
AcDbBlockEnd
  0
ENDSEC
  0
SECTION
  2
ENTITIES
  0
LINE
  5
49
100
AcDbEntity
  8
M0
  6
CONTINUOUS
370
13
 62
     2
100
AcDbLine
 10
321.395512
 20
186.73452
 11
416.67551
 21
186.73452
  0
TEXT
  5
4A
100
AcDbEntity
  8
M0
 62
     2
100
AcDbText
 10
321.396633
 20
187.234518
 40
5.0
  1
ＦＲＯＮＴ　ＰＬＡＴＥ　ＣＵＴＯＵＴ．
 41
0.833333
  7
STANDARD
100
AcDbText
  0
LINE
  5
4B
100
AcDbEntity
  8
M0
  6
DASHDOT
370
13
 62
     3
100
AcDbLine
 10
162.840386
 20
396.821682
 11
171.340386
 21
396.821682
  0
LINE
  5
4C
100
AcDbEntity
  8
M0
  6
DASHDOT
370
13
 62
     3
100
AcDbLine
 10
93.840384
 20
417.071682
 11
178.840386
 21
417.071682
  0
LINE
  5
4D
100
AcDbEntity
  8
M0
  6
DASHDOT
370
13
 62
     3
100
AcDbLine
 10
167.090386
 20
401.071682
 11
167.090386
 21
392.571682
  0
LINE
  5
4E
100
AcDbEntity
  8
M0
  6
CONTINUOUS
370
25
 62
   154
100
AcDbLine
 10
270.504639
 20
433.721682
 11
270.504639
 21
424.071682
  0
ARC
  5
4F
100
AcDbEntity
  8
M0
  6
DIVIDE
370
13
 62
     3
100
AcDbCircle
 10
248.004642
 20
417.071682
 40
58.69523
100
AcDbArc
 50
162.460206
 51
180.0
  0
LINE
  5
50
100
AcDbEntity
  8
M0
  6
DASHDOT
370
13
 62
     3
100
AcDbLine
 10
248.004642
 20
412.071682
 11
248.004642
 21
422.071682
  0
LINE
  5
51
100
AcDbEntity
  8
M0
  6
DASHDOT
370
13
 62
     3
100
AcDbLine
 10
189.309412
 20
417.071682
 11
274.504639
 21
417.071682
  0
LINE
  5
52
100
AcDbEntity
  8
M0
  6
DASHED
370
13
 62
     3
100
AcDbLine
 10
252.804639
 20
367.071687
 11
252.804639
 21
352.071687
  0
LINE
  5
53
100
AcDbEntity
  8
M0
  6
DASHED
370
13
 62
     3
100
AcDbLine
 10
250.504639
 20
352.071687
 11
250.504639
 21
367.071687
  0
LINE
  5
54
100
AcDbEntity
  8
M0
  6
DASHDOT
370
13
 62
     3
100
AcDbLine
 10
136.340386
 20
487.071682
 11
136.340386
 21
347.071687
  0
LINE
  5
55
100
AcDbEntity
  8
M0
  6
CONTINUOUS
370
25
 62
   154
100
AcDbLine
 10
270.504639
 20
424.071682
 11
238.004642
 21
424.071682
  0
LINE
  5
56
100
AcDbEntity
  8
M0
  6
CONTINUOUS
370
25
 62
     3
100
AcDbLine
 10
331.979959
 20
303.329508
 11
331.979959
 21
257.329508
  0
CIRCLE
  5
57
100
AcDbEntity
  8
M0
  6
CONTINUOUS
370
25
 62
     3
100
AcDbCircle
 10
355.979959
 20
472.071682
 40
2.0
  0
LINE
  5
58
100
AcDbEntity
  8
M0
  6
DIVIDE
370
13
 62
     3
100
AcDbLine
 10
405.979962
 20
345.329508
 11
405.979962
 21
215.329508
  0
LINE
  5
59
100
AcDbEntity
  8
M0
  6
DIVIDE
370
13
 62
     3
100
AcDbLine
 10
330.979957
 20
345.329508
 11
330.979957
 21
215.329508
  0
LINE
  5
5A
100
AcDbEntity
  8
M0
  6
CONTINUOUS
370
25
 62
     3
100
AcDbLine
 10
401.979959
 20
306.329508
 11
334.979959
 21
306.329508
  0
LINE
  5
5B
100
AcDbEntity
  8
M0
  6
CONTINUOUS
370
25
 62
     3
100
AcDbLine
 10
401.979959
 20
254.329508
 11
334.979959
 21
254.329508
  0
ARC
  5
5C
100
AcDbEntity
  8
M0
  6
CONTINUOUS
370
25
 62
     3
100
AcDbCircle
 10
334.979959
 20
303.329508
 40
3.0
100
AcDbArc
 50
90.0
 51
180.0
  0
ARC
  5
5D
100
AcDbEntity
  8
M0
  6
CONTINUOUS
370
25
 62
     3
100
AcDbCircle
 10
401.979959
 20
303.329508
 40
3.0
100
AcDbArc
 50
0.0
 51
90.0
  0
ARC
  5
5E
100
AcDbEntity
  8
M0
  6
CONTINUOUS
370
25
 62
     3
100
AcDbCircle
 10
334.979959
 20
257.329508
 40
3.0
100
AcDbArc
 50
180.0
 51
270.0
  0
ARC
  5
5F
100
AcDbEntity
  8
M0
  6
CONTINUOUS
370
25
 62
     3
100
AcDbCircle
 10
401.979959
 20
257.329508
 40
3.0
100
AcDbArc
 50
270.0
 51
360.0
  0
CIRCLE
  5
60
100
AcDbEntity
  8
M0
  6
CONTINUOUS
370
25
 62
     3
100
AcDbCircle
 10
380.979959
 20
362.071682
 40
2.0
  0
LINE
  5
61
100
AcDbEntity
  8
M0
  6
CONTINUOUS
370
25
 62
     3
100
AcDbLine
 10
404.979959
 20
303.329508
 11
404.979959
 21
257.329508
  0
LINE
  5
62
100
AcDbEntity
  8
M0
  6
DIVIDE
370
13
 62
     3
100
AcDbLine
 10
405.979959
 20
482.071682
 11
405.979959
 21
352.071682
  0
LINE
  5
63
100
AcDbEntity
  8
M0
  6
DIVIDE
370
13
 62
     3
100
AcDbLine
 10
330.979957
 20
482.071682
 11
330.979957
 21
352.071682
  0
LINE
  5
64
100
AcDbEntity
  8
M0
  6
DASHDOT
370
13
 62
     3
100
AcDbLine
 10
325.979957
 20
417.071682
 11
410.979959
 21
417.071682
  0
LINE
  5
65
100
AcDbEntity
  8
M0
  6
DIVIDE
370
13
 62
     3
100
AcDbLine
 10
330.979957
 20
482.071682
 11
405.979959
 21
482.071682
  0
LINE
  5
66
100
AcDbEntity
  8
M0
  6
DIVIDE
370
13
 62
     3
100
AcDbLine
 10
405.979959
 20
352.071682
 11
330.979957
 21
352.071682
  0
LINE
  5
67
100
AcDbEntity
  8
M0
  6
DIVIDE
370
13
 62
     3
100
AcDbLine
 10
405.979962
 20
215.329508
 11
330.979957
 21
215.329508
  0
LINE
  5
68
100
AcDbEntity
  8
M0
  6
DIVIDE
370
13
 62
     3
100
AcDbLine
 10
330.979957
 20
345.329508
 11
405.979962
 21
345.329508
  0
LINE
  5
69
100
AcDbEntity
  8
M0
  6
DASHDOT
370
13
 62
     3
100
AcDbLine
 10
348.979959
 20
472.071682
 11
362.979959
 21
472.071682
  0
LINE
  5
6A
100
AcDbEntity
  8
M0
  6
DASHDOT
370
13
 62
     3
100
AcDbLine
 10
355.979959
 20
465.071685
 11
355.979959
 21
479.071682
  0
LINE
  5
6B
100
AcDbEntity
  8
M0
  6
DASHDOT
370
13
 62
     3
100
AcDbLine
 10
380.979959
 20
355.071685
 11
380.979959
 21
369.071682
  0
LINE
  5
6C
100
AcDbEntity
  8
M0
  6
DASHDOT
370
13
 62
     3
100
AcDbLine
 10
373.979959
 20
362.071682
 11
387.979959
 21
362.071682
  0
LINE
  5
6D
100
AcDbEntity
  8
M0
  6
DASHDOT
370
13
 62
     3
100
AcDbLine
 10
325.979957
 20
280.329508
 11
410.979962
 21
280.329508
  0
LINE
  5
6E
100
AcDbEntity
  8
M0
  6
DASHDOT
370
13
 62
     3
100
AcDbLine
 10
368.479959
 20
485.8542
 11
368.479959
 21
350.45202
  0
LINE
  5
6F
100
AcDbEntity
  8
M0
  6
DASHDOT
370
13
 62
     3
100
AcDbLine
 10
368.479959
 20
347.604357
 11
368.479959
 21
213.839427
  0
LINE
  5
70
100
AcDbEntity
  8
M0
  6
CONTINUOUS
370
25
 62
     2
100
AcDbLine
 10
115.340386
 20
433.971685
 11
108.340386
 21
433.971685
  0
LINE
  5
71
100
AcDbEntity
  8
M0
  6
CONTINUOUS
370
25
 62
     2
100
AcDbLine
 10
108.340386
 20
433.971685
 11
108.340386
 21
436.971685
  0
LINE
  5
72
100
AcDbEntity
  8
M0
  6
CONTINUOUS
370
25
 62
     2
100
AcDbLine
 10
108.340386
 20
436.971685
 11
115.340386
 21
436.971685
  0
LINE
  5
73
100
AcDbEntity
  8
M0
  6
CONTINUOUS
370
25
 62
     2
100
AcDbLine
 10
115.340386
 20
436.971685
 11
115.340386
 21
433.971685
  0
CIRCLE
  5
74
100
AcDbEntity
  8
M0
  6
CONTINUOUS
370
25
 62
     2
100
AcDbCircle
 10
118.440386
 20
406.871685
 40
2.0
  0
CIRCLE
  5
75
100
AcDbEntity
  8
M0
  6
CONTINUOUS
370
25
 62
     2
100
AcDbCircle
 10
108.140386
 20
406.871685
 40
2.5
  0
LINE
  5
76
100
AcDbEntity
  8
M0
  6
DASHED
370
13
 62
     3
100
AcDbLine
 10
232.004639
 20
475.071682
 11
274.004639
 21
475.071682
  0
LINE
  5
77
100
AcDbEntity
  8
M0
  6
DASHED
370
13
 62
     3
100
AcDbLine
 10
274.004639
 20
469.571682
 11
232.004639
 21
469.571682
  0
LINE
  5
78
100
AcDbEntity
  8
M0
  6
DASHED
370
13
 62
     3
100
AcDbLine
 10
232.004639
 20
476.571682
 11
232.004639
 21
468.071682
  0
LINE
  5
79
100
AcDbEntity
  8
M0
  6
DASHED
370
13
 62
     3
100
AcDbLine
 10
218.004642
 20
476.571682
 11
232.004639
 21
476.571682
  0
LINE
  5
7A
100
AcDbEntity
  8
M0
  6
DASHED
370
13
 62
     3
100
AcDbLine
 10
218.004642
 20
468.071682
 11
232.004639
 21
468.071682
  0
LINE
  5
7B
100
AcDbEntity
  8
M0
  6
CONTINUOUS
370
25
100
AcDbLine
 10
192.038277
 20
434.760552
 11
191.372354
 21
431.29823
  0
ARC
  5
7C
100
AcDbEntity
  8
M0
  6
CONTINUOUS
370
25
100
AcDbCircle
 10
192.354357
 20
431.109357
 40
1.0
100
AcDbArc
 50
169.113015
 51
257.616705
  0
ARC
  5
7D
100
AcDbEntity
  8
M0
  6
CONTINUOUS
370
25
100
AcDbCircle
 10
193.020279
 20
434.57168
 40
1.0
100
AcDbArc
 50
79.113015
 51
169.113015
  0
ARC
  5
7E
100
AcDbEntity
  8
M0
  6
CONTINUOUS
370
25
100
AcDbCircle
 10
206.844254
 20
448.20611
 40
15.0
100
AcDbArc
 50
259.113015
 51
268.702659
  0
LINE
  5
7F
100
AcDbEntity
  8
M0
  6
CONTINUOUS
370
25
100
AcDbLine
 10
204.011169
 20
433.476085
 11
193.209152
 21
435.553682
  0
LINE
  5
80
100
AcDbEntity
  8
M0
  6
CONTINUOUS
370
25
100
AcDbLine
 10
192.139907
 20
430.132625
 11
206.504642
 21
426.978722
  0
LINE
  5
81
100
AcDbEntity
  8
M0
  6
CONTINUOUS
370
25
 62
   154
100
AcDbLine
 10
274.004639
 20
352.571687
 11
274.004639
 21
352.371687
  0
LINE
  5
82
100
AcDbEntity
  8
M0
  6
CONTINUOUS
370
25
 62
   154
100
AcDbLine
 10
274.004639
 20
398.971687
 11
274.004639
 21
398.771687
  0
ARC
  5
83
100
AcDbEntity
  8
M0
  6
CONTINUOUS
370
25
 62
   154
100
AcDbCircle
 10
270.504639
 20
434.021687
 40
0.3
100
AcDbArc
 50
270.0
 51
360.0
  0
ARC
  5
84
100
AcDbEntity
  8
M0
  6
CONTINUOUS
370
25
 62
   154
100
AcDbCircle
 10
273.704639
 20
476.271687
 40
0.3
100
AcDbArc
 50
2.171259E-011
 51
90.0
  0
ARC
  5
85
100
AcDbEntity
  8
M0
  6
CONTINUOUS
370
25
 62
   154
100
AcDbCircle
 10
273.704639
 20
398.971687
 40
0.3
100
AcDbArc
 50
0.0
 51
90.0
  0
ARC
  5
86
100
AcDbEntity
  8
M0
  6
CONTINUOUS
370
25
 62
   154
100
AcDbCircle
 10
256.004639
 20
404.071687
 40
5.0
100
AcDbArc
 50
6.513776E-012
 51
90.0
  0
ARC
  5
87
100
AcDbEntity
  8
M0
  6
CONTINUOUS
370
25
 62
   154
100
AcDbCircle
 10
273.704639
 20
481.771687
 40
0.3
100
AcDbArc
 50
0.0
 51
90.0
  0
ARC
  5
88
100
AcDbEntity
  8
M0
  6
CONTINUOUS
370
25
 62
   154
100
AcDbCircle
 10
256.004639
 20
362.571687
 40
5.0
100
AcDbArc
 50
270.0
 51
360.0
  0
ARC
  5
89
100
AcDbEntity
  8
M0
  6
CONTINUOUS
370
25
 62
   154
100
AcDbCircle
 10
273.704639
 20
352.371687
 40
0.3
100
AcDbArc
 50
270.0
 51
360.0
  0
ARC
  5
8A
100
AcDbEntity
  8
M0
  6
CONTINUOUS
370
25
 62
   154
100
AcDbCircle
 10
273.704639
 20
435.171687
 40
0.3
100
AcDbArc
 50
270.0
 51
360.0
  0
LINE
  5
8B
100
AcDbEntity
  8
M0
  6
CONTINUOUS
370
25
 62
   154
100
AcDbLine
 10
274.504639
 20
476.32169
 11
274.504639
 21
476.271687
  0
LINE
  5
8C
100
AcDbEntity
  8
M0
  6
CONTINUOUS
370
25
 62
   154
100
AcDbLine
 10
274.004639
 20
352.371687
 11
274.504639
 21
352.371687
  0
LINE
  5
8D
100
AcDbEntity
  8
M0
  6
CONTINUOUS
370
25
 62
   154
100
AcDbLine
 10
274.504639
 20
476.32169
 11
274.004639
 21
476.32169
  0
LINE
  5
8E
100
AcDbEntity
  8
M0
  6
CONTINUOUS
370
25
 62
   154
100
AcDbLine
 10
238.004642
 20
476.571685
 11
273.704639
 21
476.571685
  0
LINE
  5
8F
100
AcDbEntity
  8
M0
  6
CONTINUOUS
370
25
 62
   154
100
AcDbLine
 10
270.804639
 20
434.913425
 11
270.804639
 21
399.271687
  0
LINE
  5
90
100
AcDbEntity
  8
M0
  6
CONTINUOUS
370
25
 62
   154
100
AcDbLine
 10
238.004642
 20
352.071687
 11
238.004642
 21
374.371685
  0
LINE
  5
91
100
AcDbEntity
  8
M0
  6
CONTINUOUS
370
25
 62
   154
100
AcDbLine
 10
273.704639
 20
434.871687
 11
270.804639
 21
434.871687
  0
LINE
  5
92
100
AcDbEntity
  8
M0
  6
CONTINUOUS
370
25
 62
   154
100
AcDbLine
 10
274.504639
 20
476.271687
 11
274.004639
 21
476.271687
  0
LINE
  5
93
100
AcDbEntity
  8
M0
  6
CONTINUOUS
370
25
 62
   154
100
AcDbLine
 10
274.004639
 20
469.171687
 11
274.504639
 21
469.171687
  0
LINE
  5
94
100
AcDbEntity
  8
M0
  6
CONTINUOUS
370
25
 62
   154
100
AcDbLine
 10
231.804639
 20
376.371687
 11
231.804639
 21
404.871687
  0
ARC
  5
95
100
AcDbEntity
  8
M0
  6
CONTINUOUS
370
25
 62
   154
100
AcDbCircle
 10
270.504639
 20
430.121687
 40
0.3
100
AcDbArc
 50
0.0
 51
90.0
  0
LINE
  5
96
100
AcDbEntity
  8
M0
  6
CONTINUOUS
370
25
 62
   154
100
AcDbLine
 10
238.004642
 20
409.071687
 11
256.004639
 21
409.071687
  0
LINE
  5
97
100
AcDbEntity
  8
M0
  6
CONTINUOUS
370
25
 62
   154
100
AcDbLine
 10
256.004639
 20
357.571687
 11
238.004642
 21
357.571687
  0
LINE
  5
98
100
AcDbEntity
  8
M0
  6
CONTINUOUS
370
25
 62
   154
100
AcDbLine
 10
261.004639
 20
404.071687
 11
261.004639
 21
362.571687
  0
LINE
  5
99
100
AcDbEntity
  8
M0
  6
CONTINUOUS
370
25
 62
   154
100
AcDbLine
 10
238.004642
 20
374.371687
 11
231.804642
 21
376.371685
  0
LINE
  5
9A
100
AcDbEntity
  8
M0
  6
CONTINUOUS
370
25
 62
   154
100
AcDbLine
 10
273.704639
 20
352.071687
 11
238.004642
 21
352.071687
  0
LINE
  5
9B
100
AcDbEntity
  8
M0
  6
CONTINUOUS
370
25
 62
   154
100
AcDbLine
 10
274.504639
 20
476.271687
 11
274.504639
 21
468.321687
  0
LINE
  5
9C
100
AcDbEntity
  8
M0
  6
CONTINUOUS
370
25
 62
   154
100
AcDbLine
 10
240.004637
 20
424.071682
 11
240.004637
 21
409.071687
  0
LINE
  5
9D
100
AcDbEntity
  8
M0
  6
CONTINUOUS
370
25
 62
   154
100
AcDbLine
 10
274.504639
 20
365.821687
 11
274.504639
 21
352.371687
  0
LINE
  5
9E
100
AcDbEntity
  8
M0
  6
CONTINUOUS
370
25
 62
   154
100
AcDbLine
 10
274.004639
 20
398.771687
 11
274.004639
 21
352.371687
  0
LINE
  5
9F
100
AcDbEntity
  8
M0
  6
CONTINUOUS
370
25
 62
   154
100
AcDbLine
 10
270.804639
 20
399.271687
 11
273.704639
 21
399.271687
  0
LINE
  5
A0
100
AcDbEntity
  8
M0
  6
CONTINUOUS
370
25
 62
   154
100
AcDbLine
 10
271.104639
 20
429.371685
 11
270.804639
 21
428.87169
  0
LINE
  5
A1
100
AcDbEntity
  8
M0
  6
CONTINUOUS
370
25
 62
   154
100
AcDbLine
 10
238.004642
 20
482.071682
 11
273.704639
 21
482.071682
  0
LINE
  5
A2
100
AcDbEntity
  8
M0
  6
CONTINUOUS
370
25
 62
   154
100
AcDbLine
 10
238.004642
 20
406.871687
 11
238.004642
 21
482.071682
  0
LINE
  5
A3
100
AcDbEntity
  8
M0
  6
CONTINUOUS
370
25
 62
   154
100
AcDbLine
 10
270.804639
 20
432.37169
 11
271.104639
 21
431.371687
  0
LINE
  5
A4
100
AcDbEntity
  8
M0
  6
CONTINUOUS
370
25
 62
   154
100
AcDbLine
 10
274.004639
 20
468.321687
 11
274.504639
 21
468.321687
  0
LINE
  5
A5
100
AcDbEntity
  8
M0
  6
CONTINUOUS
370
25
 62
   154
100
AcDbLine
 10
271.104639
 20
431.371687
 11
271.104639
 21
429.371685
  0
LINE
  5
A6
100
AcDbEntity
  8
M0
  6
CONTINUOUS
370
25
 62
   154
100
AcDbLine
 10
274.504639
 20
365.821687
 11
274.004639
 21
365.821687
  0
LINE
  5
A7
100
AcDbEntity
  8
M0
  6
CONTINUOUS
370
25
 62
   154
100
AcDbLine
 10
274.504639
 20
361.771687
 11
274.004639
 21
361.771687
  0
LINE
  5
A8
100
AcDbEntity
  8
M0
  6
CONTINUOUS
370
25
 62
   154
100
AcDbLine
 10
238.004642
 20
406.871687
 11
231.804639
 21
404.871687
  0
LINE
  5
A9
100
AcDbEntity
  8
M0
  6
CONTINUOUS
370
25
 62
   154
100
AcDbLine
 10
274.004639
 20
481.771692
 11
274.004639
 21
435.171687
  0
LINE
  5
AA
100
AcDbEntity
  8
M0
  6
CONTINUOUS
370
25
 62
   154
100
AcDbLine
 10
238.004642
 20
477.371682
 11
219.004642
 21
477.371682
  0
ARC
  5
AB
100
AcDbEntity
  8
M0
  6
CONTINUOUS
370
25
 62
   154
100
AcDbCircle
 10
219.004642
 20
375.071682
 40
1.0
100
AcDbArc
 50
180.0
 51
270.0
  0
LINE
  5
AC
100
AcDbEntity
  8
M0
  6
CONTINUOUS
370
25
 62
   154
100
AcDbLine
 10
226.004642
 20
367.57168
 11
219.004642
 21
367.57168
  0
ARC
  5
AD
100
AcDbEntity
  8
M0
  6
CONTINUOUS
370
25
 62
   154
100
AcDbCircle
 10
231.504642
 20
425.071685
 40
1.0
100
AcDbArc
 50
180.0
 51
270.0
  0
SPLINE
  5
AE
100
AcDbEntity
  8
M0
  6
CONTINUOUS
370
25
 62
   154
100
AcDbSpline
210
0.0
220
0.0
230
-1.0
 70
     8
 71
     3
 72
    29
 73
    25
 43
0.0000001
 40
0.0
 40
0.0
 40
0.0
 40
0.0
 40
1.0
 40
1.0
 40
1.0
 40
2.0
 40
2.0
 40
2.0
 40
3.0
 40
3.0
 40
3.0
 40
4.0
 40
4.0
 40
4.0
 40
5.0
 40
5.0
 40
5.0
 40
6.0
 40
6.0
 40
6.0
 40
7.0
 40
7.0
 40
7.0
 40
8.0
 40
8.0
 40
8.0
 40
8.0
 10
218.988322
 20
481.01299
 10
219.002207
 20
481.009295
 10
219.016097
 20
481.005605
 10
219.030534
 20
481.002095
 10
219.044972
 20
480.998587
 10
219.059967
 20
480.995272
 10
219.075269
 20
480.99215
 10
219.090569
 20
480.98903
 10
219.106189
 20
480.986115
 10
219.122117
 20
480.983457
 10
219.138042
 20
480.9808
 10
219.154284
 20
480.97841
 10
219.170674
 20
480.97632
 10
219.187062
 20
480.97423
 10
219.203609
 20
480.97245
 10
219.220219
 20
480.970952
 10
219.236829
 20
480.969455
 10
219.253507
 20
480.968247
 10
219.270252
 20
480.967282
 10
219.286997
 20
480.966315
 10
219.303814
 20
480.9656
 10
219.320697
 20
480.965175
 10
219.337577
 20
480.964752
 10
219.354527
 20
480.96463
 10
219.371474
 20
480.964502
  0
ARC
  5
AF
100
AcDbEntity
  8
M0
  6
CONTINUOUS
370
25
 62
   154
100
AcDbCircle
 10
219.004642
 20
427.571682
 40
1.0
100
AcDbArc
 50
180.0
 51
270.0
  0
ARC
  5
B0
100
AcDbEntity
  8
M0
  6
CONTINUOUS
370
25
 62
   154
100
AcDbCircle
 10
219.004642
 20
476.371682
 40
1.0
100
AcDbArc
 50
90.0
 51
180.0
  0
ARC
  5
B1
100
AcDbEntity
  8
M0
  6
CONTINUOUS
370
25
 62
   154
100
AcDbCircle
 10
219.004642
 20
480.571682
 40
0.5
100
AcDbArc
 50
131.280533
 51
142.996957
  0
SPLINE
  5
B2
100
AcDbEntity
  8
M0
  6
CONTINUOUS
370
25
 62
   154
100
AcDbSpline
210
0.0
220
0.0
230
-1.0
 70
     8
 71
     3
 72
     8
 73
     4
 43
0.0000001
 40
0.0
 40
0.0
 40
0.0
 40
0.0
 40
1.0
 40
1.0
 40
1.0
 40
1.0
 10
218.550569
 20
479.54868
 10
218.593097
 20
479.536245
 10
218.636519
 20
479.530062
 10
218.680827
 20
479.530062
  0
SPLINE
  5
B3
100
AcDbEntity
  8
M0
  6
CONTINUOUS
370
25
 62
   154
100
AcDbSpline
210
0.0
220
0.0
230
-1.0
 70
     8
 71
     3
 72
   125
 73
   121
 43
0.0000001
 40
0.0
 40
0.0
 40
0.0
 40
0.0
 40
1.0
 40
1.0
 40
1.0
 40
2.0
 40
2.0
 40
2.0
 40
3.0
 40
3.0
 40
3.0
 40
4.0
 40
4.0
 40
4.0
 40
5.0
 40
5.0
 40
5.0
 40
6.0
 40
6.0
 40
6.0
 40
7.0
 40
7.0
 40
7.0
 40
8.0
 40
8.0
 40
8.0
 40
9.0
 40
9.0
 40
9.0
 40
10.0
 40
10.0
 40
10.0
 40
11.0
 40
11.0
 40
11.0
 40
12.0
 40
12.0
 40
12.0
 40
13.0
 40
13.0
 40
13.0
 40
14.0
 40
14.0
 40
14.0
 40
15.0
 40
15.0
 40
15.0
 40
16.0
 40
16.0
 40
16.0
 40
17.0
 40
17.0
 40
17.0
 40
18.0
 40
18.0
 40
18.0
 40
19.0
 40
19.0
 40
19.0
 40
20.0
 40
20.0
 40
20.0
 40
21.0
 40
21.0
 40
21.0
 40
22.0
 40
22.0
 40
22.0
 40
23.0
 40
23.0
 40
23.0
 40
24.0
 40
24.0
 40
24.0
 40
25.0
 40
25.0
 40
25.0
 40
26.0
 40
26.0
 40
26.0
 40
27.0
 40
27.0
 40
27.0
 40
28.0
 40
28.0
 40
28.0
 40
29.0
 40
29.0
 40
29.0
 40
30.0
 40
30.0
 40
30.0
 40
31.0
 40
31.0
 40
31.0
 40
32.0
 40
32.0
 40
32.0
 40
33.0
 40
33.0
 40
33.0
 40
34.0
 40
34.0
 40
34.0
 40
35.0
 40
35.0
 40
35.0
 40
36.0
 40
36.0
 40
36.0
 40
37.0
 40
37.0
 40
37.0
 40
38.0
 40
38.0
 40
38.0
 40
39.0
 40
39.0
 40
39.0
 40
40.0
 40
40.0
 40
40.0
 40
40.0
 10
218.208977
 20
353.98346
 10
218.208852
 20
353.983777
 10
218.208729
 20
353.984092
 10
218.208609
 20
353.984402
 10
218.208487
 20
353.98471
 10
218.208369
 20
353.985012
 10
218.208252
 20
353.985317
 10
218.208132
 20
353.98562
 10
218.208014
 20
353.985925
 10
218.207914
 20
353.98618
 10
218.207814
 20
353.986432
 10
218.207734
 20
353.98664
 10
218.207607
 20
353.986962
 10
218.207429
 20
353.987417
 10
218.207162
 20
353.988102
 10
218.206964
 20
353.988615
 10
218.206764
 20
353.989125
 10
218.206634
 20
353.98946
 10
218.206514
 20
353.989767
 10
218.206397
 20
353.990077
 10
218.206287
 20
353.990357
 10
218.206159
 20
353.990692
 10
218.206029
 20
353.99103
 10
218.205882
 20
353.991422
 10
218.205792
 20
353.991657
 10
218.205764
 20
353.99173
 10
218.205742
 20
353.991787
 10
218.205714
 20
353.991857
 10
218.205689
 20
353.991927
 10
218.205657
 20
353.99201
 10
218.205624
 20
353.992092
 10
218.205594
 20
353.992177
 10
218.205559
 20
353.992265
 10
218.205514
 20
353.992385
 10
218.205467
 20
353.992505
 10
218.205409
 20
353.992657
 10
218.205369
 20
353.99276
 10
218.205339
 20
353.992837
 10
218.205322
 20
353.992887
 10
218.205297
 20
353.99295
 10
218.205272
 20
353.993012
 10
218.205242
 20
353.99309
 10
218.205212
 20
353.993167
 10
218.205182
 20
353.993247
 10
218.205152
 20
353.993327
 10
218.205114
 20
353.993425
 10
218.205077
 20
353.99352
 10
218.205034
 20
353.993632
 10
218.204997
 20
353.993727
 10
218.204962
 20
353.993822
 10
218.204932
 20
353.993902
 10
218.204897
 20
353.99399
 10
218.204864
 20
353.994077
 10
218.204827
 20
353.994177
 10
218.204787
 20
353.994282
 10
218.204747
 20
353.994387
 10
218.204704
 20
353.994497
 10
218.204667
 20
353.994602
 10
218.204627
 20
353.994707
 10
218.204589
 20
353.994807
 10
218.204534
 20
353.99495
 10
218.204477
 20
353.995102
 10
218.204399
 20
353.99531
 10
218.204324
 20
353.99551
 10
218.204247
 20
353.99571
 10
218.204174
 20
353.995905
 10
218.204097
 20
353.996112
 10
218.204019
 20
353.996317
 10
218.203937
 20
353.996537
 10
218.203859
 20
353.996745
 10
218.203782
 20
353.996952
 10
218.203707
 20
353.99715
 10
218.203617
 20
353.997392
 10
218.203352
 20
353.998102
 10
218.202944
 20
353.99921
 10
218.202574
 20
354.00022
 10
218.202207
 20
354.001227
 10
218.201877
 20
354.002137
 10
218.201534
 20
354.0031
 10
218.201189
 20
354.004062
 10
218.200829
 20
354.00508
 10
218.200499
 20
354.00602
 10
218.200169
 20
354.00696
 10
218.199867
 20
354.007827
 10
218.199479
 20
354.008957
 10
218.198582
 20
354.011585
 10
218.197234
 20
354.015632
 10
218.196067
 20
354.019272
 10
218.194897
 20
354.022915
 10
218.193907
 20
354.026165
 10
218.192892
 20
354.029615
 10
218.191879
 20
354.033067
 10
218.190844
 20
354.036727
 10
218.189939
 20
354.04
 10
218.189032
 20
354.043272
 10
218.188257
 20
354.04617
 10
218.187184
 20
354.050442
 10
218.185874
 20
354.055665
 10
218.184127
 20
354.062955
 10
218.182647
 20
354.069722
 10
218.181167
 20
354.07649
 10
218.179959
 20
354.082752
 10
218.178862
 20
354.089197
 10
218.177762
 20
354.095642
 10
218.176777
 20
354.102272
 10
218.175974
 20
354.108815
 10
218.175172
 20
354.115357
 10
218.174559
 20
354.12182
 10
218.174132
 20
354.128522
 10
218.173704
 20
354.135227
 10
218.173467
 20
354.142172
 10
218.173397
 20
354.14906
 10
218.173327
 20
354.155945
 10
218.173424
 20
354.162775
 10
218.173627
 20
354.169625
 10
218.173829
 20
354.176475
 10
218.174139
 20
354.183345
 10
218.174502
 20
354.190212
 10
218.174862
 20
354.197077
 10
218.175279
 20
354.203942
 10
218.175694
 20
354.210807
  0
LINE
  5
B4
100
AcDbEntity
  8
M0
  6
CONTINUOUS
370
25
 62
   154
100
AcDbLine
 10
209.504642
 20
441.07168
 11
209.504642
 21
393.07168
  0
LINE
  5
B5
100
AcDbEntity
  8
M0
  6
CONTINUOUS
370
25
 62
   154
100
AcDbLine
 10
214.504642
 20
446.57168
 11
214.504642
 21
442.071682
  0
SPLINE
  5
B6
100
AcDbEntity
  8
M0
  6
CONTINUOUS
370
25
 62
   154
100
AcDbSpline
210
0.0
220
0.0
230
-1.0
 70
     8
 71
     3
 72
    65
 73
    61
 43
0.0000001
 40
0.0
 40
0.0
 40
0.0
 40
0.0
 40
1.0
 40
1.0
 40
1.0
 40
2.0
 40
2.0
 40
2.0
 40
3.0
 40
3.0
 40
3.0
 40
4.0
 40
4.0
 40
4.0
 40
5.0
 40
5.0
 40
5.0
 40
6.0
 40
6.0
 40
6.0
 40
7.0
 40
7.0
 40
7.0
 40
8.0
 40
8.0
 40
8.0
 40
9.0
 40
9.0
 40
9.0
 40
10.0
 40
10.0
 40
10.0
 40
11.0
 40
11.0
 40
11.0
 40
12.0
 40
12.0
 40
12.0
 40
13.0
 40
13.0
 40
13.0
 40
14.0
 40
14.0
 40
14.0
 40
15.0
 40
15.0
 40
15.0
 40
16.0
 40
16.0
 40
16.0
 40
17.0
 40
17.0
 40
17.0
 40
18.0
 40
18.0
 40
18.0
 40
19.0
 40
19.0
 40
19.0
 40
20.0
 40
20.0
 40
20.0
 40
20.0
 10
218.550569
 20
354.594677
 10
218.538862
 20
354.59049
 10
218.527154
 20
354.586307
 10
218.515517
 20
354.582042
 10
218.503879
 20
354.577777
 10
218.492307
 20
354.573435
 10
218.480879
 20
354.568935
 10
218.469449
 20
354.564435
 10
218.458159
 20
354.559777
 10
218.447072
 20
354.55488
 10
218.435987
 20
354.549985
 10
218.425099
 20
354.54485
 10
218.414512
 20
354.539407
 10
218.403924
 20
354.533967
 10
218.393629
 20
354.528222
 10
218.383642
 20
354.522205
 10
218.373654
 20
354.516187
 10
218.363969
 20
354.5099
 10
218.354592
 20
354.503355
 10
218.345217
 20
354.496807
 10
218.336147
 20
354.490002
 10
218.327532
 20
354.483097
 10
218.318917
 20
354.47619
 10
218.310749
 20
354.469185
 10
218.302624
 20
354.46167
 10
218.294502
 20
354.454155
 10
218.286412
 20
354.446135
 10
218.278834
 20
354.438065
 10
218.271254
 20
354.429995
 10
218.264179
 20
354.42188
 10
218.257394
 20
354.413537
 10
218.250612
 20
354.405197
 10
218.244114
 20
354.396635
 10
218.238087
 20
354.3882
 10
218.232062
 20
354.379762
 10
218.226497
 20
354.371452
 10
218.220689
 20
354.36216
 10
218.214879
 20
354.352865
 10
218.208819
 20
354.342595
 10
218.203479
 20
354.332302
 10
218.198139
 20
354.322012
 10
218.193512
 20
354.311705
 10
218.189594
 20
354.301527
 10
218.185677
 20
354.29135
 10
218.182462
 20
354.281305
 10
218.180252
 20
354.269642
 10
218.178042
 20
354.257982
 10
218.176827
 20
354.244705
 10
218.176672
 20
354.236467
 10
218.176627
 20
354.234105
 10
218.176669
 20
354.232155
 10
218.176729
 20
354.230087
 10
218.176792
 20
354.228017
 10
218.176869
 20
354.22583
 10
218.176972
 20
354.223667
 10
218.177074
 20
354.221505
 10
218.177202
 20
354.219367
 10
218.177337
 20
354.217222
 10
218.177474
 20
354.215075
 10
218.177619
 20
354.21292
 10
218.177764
 20
354.210762
  0
LINE
  5
B7
100
AcDbEntity
  8
M0
  6
CONTINUOUS
370
25
 62
   154
100
AcDbLine
 10
214.504642
 20
442.071682
 11
207.504642
 21
442.071682
  0
LINE
  5
B8
100
AcDbEntity
  8
M0
  6
CONTINUOUS
370
25
 62
   154
100
AcDbLine
 10
231.804642
 20
376.171685
 11
238.004642
 21
374.17168
  0
LINE
  5
B9
100
AcDbEntity
  8
M0
  6
CONTINUOUS
370
25
 62
   154
100
AcDbLine
 10
206.504642
 20
393.07168
 11
206.504642
 21
441.071682
  0
LINE
  5
BA
100
AcDbEntity
  8
M0
  6
CONTINUOUS
370
25
 62
   154
100
AcDbLine
 10
230.504642
 20
408.07168
 11
230.504642
 21
406.571685
  0
LINE
  5
BB
100
AcDbEntity
  8
M0
  6
CONTINUOUS
370
25
 62
   154
100
AcDbLine
 10
207.504642
 20
392.071677
 11
214.504642
 21
392.071677
  0
LINE
  5
BC
100
AcDbEntity
  8
M0
  6
CONTINUOUS
370
25
 62
   154
100
AcDbLine
 10
238.004642
 20
409.071682
 11
231.504642
 21
409.071682
  0
ARC
  5
BD
100
AcDbEntity
  8
M0
  6
CONTINUOUS
370
25
 62
   154
100
AcDbCircle
 10
221.004642
 20
355.071682
 40
3.0
100
AcDbArc
 50
202.143917
 51
216.454553
  0
ARC
  5
BE
100
AcDbEntity
  8
M0
  6
CONTINUOUS
370
25
 62
   154
100
AcDbCircle
 10
210.504642
 20
393.071682
 40
1.0
100
AcDbArc
 50
180.0
 51
270.0
  0
ARC
  5
BF
100
AcDbEntity
  8
M0
  6
CONTINUOUS
370
25
 62
   154
100
AcDbCircle
 10
210.504642
 20
441.071682
 40
1.0
100
AcDbArc
 50
90.0
 51
180.0
  0
ARC
  5
C0
100
AcDbEntity
  8
M0
  6
CONTINUOUS
370
25
 62
   154
100
AcDbCircle
 10
207.504642
 20
441.071682
 40
1.0
100
AcDbArc
 50
90.0
 51
180.0
  0
LINE
  5
C1
100
AcDbEntity
  8
M0
  6
CONTINUOUS
370
25
 62
   154
100
AcDbLine
 10
238.004642
 20
482.071682
 11
221.004642
 21
482.071682
  0
LINE
  5
C2
100
AcDbEntity
  8
M0
  6
CONTINUOUS
370
25
 62
   154
100
AcDbLine
 10
238.004642
 20
481.571682
 11
238.004642
 21
480.964502
  0
SPLINE
  5
C3
100
AcDbEntity
  8
M0
  6
CONTINUOUS
370
25
 62
   154
100
AcDbSpline
210
0.0
220
0.0
230
-1.0
 70
     8
 71
     3
 72
   113
 73
   109
 43
0.0000001
 40
0.0
 40
0.0
 40
0.0
 40
0.0
 40
1.0
 40
1.0
 40
1.0
 40
2.0
 40
2.0
 40
2.0
 40
3.0
 40
3.0
 40
3.0
 40
4.0
 40
4.0
 40
4.0
 40
5.0
 40
5.0
 40
5.0
 40
6.0
 40
6.0
 40
6.0
 40
7.0
 40
7.0
 40
7.0
 40
8.0
 40
8.0
 40
8.0
 40
9.0
 40
9.0
 40
9.0
 40
10.0
 40
10.0
 40
10.0
 40
11.0
 40
11.0
 40
11.0
 40
12.0
 40
12.0
 40
12.0
 40
13.0
 40
13.0
 40
13.0
 40
14.0
 40
14.0
 40
14.0
 40
15.0
 40
15.0
 40
15.0
 40
16.0
 40
16.0
 40
16.0
 40
17.0
 40
17.0
 40
17.0
 40
18.0
 40
18.0
 40
18.0
 40
19.0
 40
19.0
 40
19.0
 40
20.0
 40
20.0
 40
20.0
 40
21.0
 40
21.0
 40
21.0
 40
22.0
 40
22.0
 40
22.0
 40
23.0
 40
23.0
 40
23.0
 40
24.0
 40
24.0
 40
24.0
 40
25.0
 40
25.0
 40
25.0
 40
26.0
 40
26.0
 40
26.0
 40
27.0
 40
27.0
 40
27.0
 40
28.0
 40
28.0
 40
28.0
 40
29.0
 40
29.0
 40
29.0
 40
30.0
 40
30.0
 40
30.0
 40
31.0
 40
31.0
 40
31.0
 40
32.0
 40
32.0
 40
32.0
 40
33.0
 40
33.0
 40
33.0
 40
34.0
 40
34.0
 40
34.0
 40
35.0
 40
35.0
 40
35.0
 40
36.0
 40
36.0
 40
36.0
 40
36.0
 10
218.207717
 20
480.15666
 10
218.207987
 20
480.157357
 10
218.208254
 20
480.158052
 10
218.208539
 20
480.158787
 10
218.208822
 20
480.159522
 10
218.209122
 20
480.160295
 10
218.209457
 20
480.161157
 10
218.209794
 20
480.162022
 10
218.210164
 20
480.162972
 10
218.210572
 20
480.164015
 10
218.210979
 20
480.16506
 10
218.211422
 20
480.16619
 10
218.211979
 20
480.167607
 10
218.212867
 20
480.169865
 10
218.214042
 20
480.172845
 10
218.215364
 20
480.176177
 10
218.216687
 20
480.179512
 10
218.218152
 20
480.183195
 10
218.219792
 20
480.187287
 10
218.221432
 20
480.19138
 10
218.223244
 20
480.195872
 10
218.225089
 20
480.200422
 10
218.226934
 20
480.204975
 10
218.228812
 20
480.209575
 10
218.231079
 20
480.215077
 10
218.233347
 20
480.220577
 10
218.236002
 20
480.22697
 10
218.238684
 20
480.233362
 10
218.241369
 20
480.239755
 10
218.244074
 20
480.246142
 10
218.246962
 20
480.252875
 10
218.249849
 20
480.25961
 10
218.252909
 20
480.266682
 10
218.255887
 20
480.273495
 10
218.258862
 20
480.280307
 10
218.261747
 20
480.286852
 10
218.265437
 20
480.295095
 10
218.269129
 20
480.303337
 10
218.273619
 20
480.313267
 10
218.278054
 20
480.32294
 10
218.282492
 20
480.332612
 10
218.286872
 20
480.342022
 10
218.291499
 20
480.351817
 10
218.296127
 20
480.361615
 10
218.300994
 20
480.371785
 10
218.305674
 20
480.381455
 10
218.310354
 20
480.391122
 10
218.314844
 20
480.400285
 10
218.320484
 20
480.411567
 10
218.326124
 20
480.42285
 10
218.332912
 20
480.436242
 10
218.339532
 20
480.44907
 10
218.346152
 20
480.461897
 10
218.352602
 20
480.474155
 10
218.359302
 20
480.48667
 10
218.366004
 20
480.499185
 10
218.372952
 20
480.511947
 10
218.379699
 20
480.524162
 10
218.386449
 20
480.536377
 10
218.392999
 20
480.548042
 10
218.400624
 20
480.561342
 10
218.408252
 20
480.574642
 10
218.416952
 20
480.589577
 10
218.425472
 20
480.603915
 10
218.433992
 20
480.618252
 10
218.442332
 20
480.631997
 10
218.450579
 20
480.645385
 10
218.458824
 20
480.658772
 10
218.466979
 20
480.67181
 10
218.475624
 20
480.685347
 10
218.484267
 20
480.698882
 10
218.493402
 20
480.712927
 10
218.500284
 20
480.7234
 10
218.507007
 20
480.733627
 10
218.511584
 20
480.74046
 10
218.516654
 20
480.747965
 10
218.521727
 20
480.755472
 10
218.527292
 20
480.763662
 10
218.532512
 20
480.771267
 10
218.537732
 20
480.77887
 10
218.542614
 20
480.7859
 10
218.547667
 20
480.793105
 10
218.552722
 20
480.80031
 10
218.557954
 20
480.807697
 10
218.561932
 20
480.813282
 10
218.565912
 20
480.818867
 10
218.568644
 20
480.822662
 10
218.571542
 20
480.826672
 10
218.574442
 20
480.830682
 10
218.577509
 20
480.834915
 10
218.580289
 20
480.83873
 10
218.583069
 20
480.842545
 10
218.585567
 20
480.845952
 10
218.587874
 20
480.849092
 10
218.590182
 20
480.852235
 10
218.592307
 20
480.855115
 10
218.593997
 20
480.857402
 10
218.595657
 20
480.859647
 10
218.596899
 20
480.861327
 10
218.598024
 20
480.862837
 10
218.599147
 20
480.86435
 10
218.600152
 20
480.8657
 10
218.601029
 20
480.866875
 10
218.601907
 20
480.868047
 10
218.602657
 20
480.86905
 10
218.603354
 20
480.869975
 10
218.604052
 20
480.870902
 10
218.604697
 20
480.871757
 10
218.605339
 20
480.87261
  0
LINE
  5
C4
100
AcDbEntity
  8
M0
  6
CONTINUOUS
370
25
 62
   154
100
AcDbLine
 10
230.504642
 20
426.57168
 11
230.504642
 21
425.071685
  0
ARC
  5
C5
100
AcDbEntity
  8
M0
  6
CONTINUOUS
370
25
 62
   154
100
AcDbCircle
 10
207.504642
 20
393.071682
 40
1.0
100
AcDbArc
 50
180.0
 51
270.0
  0
SPLINE
  5
C6
100
AcDbEntity
  8
M0
  6
CONTINUOUS
370
25
 62
   154
100
AcDbSpline
210
0.0
220
0.0
230
-1.0
 70
     8
 71
     3
 72
   125
 73
   121
 43
0.0000001
 40
0.0
 40
0.0
 40
0.0
 40
0.0
 40
1.0
 40
1.0
 40
1.0
 40
2.0
 40
2.0
 40
2.0
 40
3.0
 40
3.0
 40
3.0
 40
4.0
 40
4.0
 40
4.0
 40
5.0
 40
5.0
 40
5.0
 40
6.0
 40
6.0
 40
6.0
 40
7.0
 40
7.0
 40
7.0
 40
8.0
 40
8.0
 40
8.0
 40
9.0
 40
9.0
 40
9.0
 40
10.0
 40
10.0
 40
10.0
 40
11.0
 40
11.0
 40
11.0
 40
12.0
 40
12.0
 40
12.0
 40
13.0
 40
13.0
 40
13.0
 40
14.0
 40
14.0
 40
14.0
 40
15.0
 40
15.0
 40
15.0
 40
16.0
 40
16.0
 40
16.0
 40
17.0
 40
17.0
 40
17.0
 40
18.0
 40
18.0
 40
18.0
 40
19.0
 40
19.0
 40
19.0
 40
20.0
 40
20.0
 40
20.0
 40
21.0
 40
21.0
 40
21.0
 40
22.0
 40
22.0
 40
22.0
 40
23.0
 40
23.0
 40
23.0
 40
24.0
 40
24.0
 40
24.0
 40
25.0
 40
25.0
 40
25.0
 40
26.0
 40
26.0
 40
26.0
 40
27.0
 40
27.0
 40
27.0
 40
28.0
 40
28.0
 40
28.0
 40
29.0
 40
29.0
 40
29.0
 40
30.0
 40
30.0
 40
30.0
 40
31.0
 40
31.0
 40
31.0
 40
32.0
 40
32.0
 40
32.0
 40
33.0
 40
33.0
 40
33.0
 40
34.0
 40
34.0
 40
34.0
 40
35.0
 40
35.0
 40
35.0
 40
36.0
 40
36.0
 40
36.0
 40
37.0
 40
37.0
 40
37.0
 40
38.0
 40
38.0
 40
38.0
 40
39.0
 40
39.0
 40
39.0
 40
40.0
 40
40.0
 40
40.0
 40
40.0
 10
218.675567
 20
353.196367
 10
218.673152
 20
353.198457
 10
218.670739
 20
353.20055
 10
218.668337
 20
353.20265
 10
218.665932
 20
353.204747
 10
218.663539
 20
353.206857
 10
218.661162
 20
353.208985
 10
218.658784
 20
353.211115
 10
218.656424
 20
353.213267
 10
218.654104
 20
353.215432
 10
218.651782
 20
353.217597
 10
218.649507
 20
353.219777
 10
218.647219
 20
353.222042
 10
218.644932
 20
353.224305
 10
218.642642
 20
353.22665
 10
218.640379
 20
353.229035
 10
218.638119
 20
353.231417
 10
218.635897
 20
353.233837
 10
218.633742
 20
353.236232
 10
218.631589
 20
353.238625
 10
218.629514
 20
353.240987
 10
218.627267
 20
353.24361
 10
218.625017
 20
353.246232
 10
218.622609
 20
353.2491
 10
218.620907
 20
353.251142
 10
218.619634
 20
353.25267
 10
218.618764
 20
353.253732
 10
218.617782
 20
353.254937
 10
218.616799
 20
353.25614
 10
218.615714
 20
353.257477
 10
218.614697
 20
353.258742
 10
218.613677
 20
353.260007
 10
218.612732
 20
353.261192
 10
218.611669
 20
353.26254
 10
218.610609
 20
353.263887
 10
218.609442
 20
353.265387
 10
218.608724
 20
353.266312
 10
218.608549
 20
353.26654
 10
218.608402
 20
353.266732
 10
218.608247
 20
353.266932
 10
218.608092
 20
353.267132
 10
218.607934
 20
353.26734
 10
218.607782
 20
353.267537
 10
218.607632
 20
353.267735
 10
218.607487
 20
353.26792
 10
218.607339
 20
353.268115
 10
218.607192
 20
353.268307
 10
218.607042
 20
353.268507
 10
218.606932
 20
353.268652
 10
218.606844
 20
353.268765
 10
218.606784
 20
353.268845
 10
218.606719
 20
353.26893
 10
218.606654
 20
353.269017
 10
218.606587
 20
353.269107
 10
218.606522
 20
353.269192
 10
218.606459
 20
353.269277
 10
218.606399
 20
353.269355
 10
218.606342
 20
353.269432
 10
218.606282
 20
353.269507
 10
218.606227
 20
353.269582
 10
218.606174
 20
353.26965
 10
218.606124
 20
353.26972
 10
218.606074
 20
353.269782
 10
218.606029
 20
353.269842
 10
218.605984
 20
353.269902
 10
218.605942
 20
353.269957
 10
218.605899
 20
353.270012
 10
218.605857
 20
353.270067
 10
218.605817
 20
353.270122
 10
218.605782
 20
353.270167
 10
218.605747
 20
353.270212
 10
218.605719
 20
353.27025
 10
218.605674
 20
353.270307
 10
218.605632
 20
353.270362
 10
218.605574
 20
353.270437
 10
218.605524
 20
353.270502
 10
218.605477
 20
353.270567
 10
218.605437
 20
353.270622
 10
218.605397
 20
353.270675
 10
218.605354
 20
353.270727
 10
218.605314
 20
353.270782
 10
218.605282
 20
353.270825
 10
218.605249
 20
353.27087
 10
218.605222
 20
353.270907
 10
218.605179
 20
353.270962
 10
218.605124
 20
353.271035
 10
218.605044
 20
353.271142
 10
218.604977
 20
353.271232
 10
218.604909
 20
353.27132
 10
218.604857
 20
353.27139
 10
218.604802
 20
353.27146
 10
218.604749
 20
353.27153
 10
218.604697
 20
353.271597
 10
218.604652
 20
353.27166
 10
218.604604
 20
353.27172
 10
218.604564
 20
353.271772
 10
218.604512
 20
353.27184
 10
218.604374
 20
353.272025
 10
218.604152
 20
353.272315
 10
218.603957
 20
353.272575
 10
218.603759
 20
353.272835
 10
218.603584
 20
353.27307
 10
218.603387
 20
353.273337
 10
218.603187
 20
353.273605
 10
218.602959
 20
353.27391
 10
218.602714
 20
353.274242
 10
218.602469
 20
353.274572
 10
218.602197
 20
353.27494
 10
218.601854
 20
353.275402
 10
218.601367
 20
353.276062
 10
218.600727
 20
353.27693
 10
218.600017
 20
353.27789
 10
218.599307
 20
353.27885
 10
218.598519
 20
353.279915
 10
218.597677
 20
353.281055
 10
218.596834
 20
353.282192
 10
218.595932
 20
353.283417
 10
218.595004
 20
353.284672
 10
218.594077
 20
353.285927
 10
218.593117
 20
353.287222
 10
218.592162
 20
353.288515
  0
SPLINE
  5
C7
100
AcDbEntity
  8
M0
  6
CONTINUOUS
370
25
 62
   154
100
AcDbSpline
210
0.0
220
0.0
230
-1.0
 70
     8
 71
     3
 72
    65
 73
    61
 43
0.0000001
 40
0.0
 40
0.0
 40
0.0
 40
0.0
 40
1.0
 40
1.0
 40
1.0
 40
2.0
 40
2.0
 40
2.0
 40
3.0
 40
3.0
 40
3.0
 40
4.0
 40
4.0
 40
4.0
 40
5.0
 40
5.0
 40
5.0
 40
6.0
 40
6.0
 40
6.0
 40
7.0
 40
7.0
 40
7.0
 40
8.0
 40
8.0
 40
8.0
 40
9.0
 40
9.0
 40
9.0
 40
10.0
 40
10.0
 40
10.0
 40
11.0
 40
11.0
 40
11.0
 40
12.0
 40
12.0
 40
12.0
 40
13.0
 40
13.0
 40
13.0
 40
14.0
 40
14.0
 40
14.0
 40
15.0
 40
15.0
 40
15.0
 40
16.0
 40
16.0
 40
16.0
 40
17.0
 40
17.0
 40
17.0
 40
18.0
 40
18.0
 40
18.0
 40
19.0
 40
19.0
 40
19.0
 40
20.0
 40
20.0
 40
20.0
 40
20.0
 10
218.177764
 20
479.932617
 10
218.177619
 20
479.93046
 10
218.177474
 20
479.928302
 10
218.177337
 20
479.926155
 10
218.177202
 20
479.924007
 10
218.177074
 20
479.92187
 10
218.176972
 20
479.919705
 10
218.176869
 20
479.91754
 10
218.176789
 20
479.91535
 10
218.176729
 20
479.91328
 10
218.176669
 20
479.91121
 10
218.176627
 20
479.90926
 10
218.176672
 20
479.906895
 10
218.176829
 20
479.898655
 10
218.178039
 20
479.885382
 10
218.180252
 20
479.873722
 10
218.182464
 20
479.862062
 10
218.185674
 20
479.852017
 10
218.189594
 20
479.84184
 10
218.193514
 20
479.83166
 10
218.198137
 20
479.821352
 10
218.203479
 20
479.811062
 10
218.208822
 20
479.800772
 10
218.214877
 20
479.790497
 10
218.220689
 20
479.781205
 10
218.226499
 20
479.771915
 10
218.232059
 20
479.763602
 10
218.238087
 20
479.755167
 10
218.244117
 20
479.746732
 10
218.250609
 20
479.73817
 10
218.257394
 20
479.72983
 10
218.264182
 20
479.721492
 10
218.271252
 20
479.713372
 10
218.278834
 20
479.705305
 10
218.286414
 20
479.697237
 10
218.294499
 20
479.689215
 10
218.302624
 20
479.681702
 10
218.310752
 20
479.67419
 10
218.318914
 20
479.66718
 10
218.327532
 20
479.660275
 10
218.336149
 20
479.653367
 10
218.345217
 20
479.64656
 10
218.354594
 20
479.640015
 10
218.363969
 20
479.63347
 10
218.373652
 20
479.62718
 10
218.383642
 20
479.621162
 10
218.393632
 20
479.615147
 10
218.403924
 20
479.609397
 10
218.414512
 20
479.603957
 10
218.425102
 20
479.598517
 10
218.435984
 20
479.593377
 10
218.447072
 20
479.588482
 10
218.458159
 20
479.583585
 10
218.469449
 20
479.578927
 10
218.480879
 20
479.574427
 10
218.492309
 20
479.569925
 10
218.503877
 20
479.56558
 10
218.515517
 20
479.561317
 10
218.527154
 20
479.557052
 10
218.538862
 20
479.552865
 10
218.550569
 20
479.54868
  0
LINE
  5
C8
100
AcDbEntity
  8
M0
  6
CONTINUOUS
370
25
 62
   154
100
AcDbLine
 10
218.004642
 20
405.571682
 11
218.004642
 21
383.459165
  0
LINE
  5
C9
100
AcDbEntity
  8
M0
  6
CONTINUOUS
370
25
 62
   154
100
AcDbLine
 10
218.004642
 20
375.103055
 11
218.004642
 21
375.07168
  0
ARC
  5
CA
100
AcDbEntity
  8
M0
  6
CONTINUOUS
370
25
 62
   154
100
AcDbCircle
 10
231.504642
 20
408.071682
 40
1.0
100
AcDbArc
 50
90.0
 51
180.0
  0
ARC
  5
CB
100
AcDbEntity
  8
M0
  6
CONTINUOUS
370
25
 62
   154
100
AcDbCircle
 10
217.004642
 20
383.459165
 40
1.0
100
AcDbArc
 50
282.839588
 51
360.0
  0
SPLINE
  5
CC
100
AcDbEntity
  8
M0
  6
CONTINUOUS
370
25
 62
   154
100
AcDbSpline
210
0.0
220
0.0
230
-1.0
 70
     8
 71
     3
 72
    41
 73
    37
 43
0.0000001
 40
0.0
 40
0.0
 40
0.0
 40
0.0
 40
1.0
 40
1.0
 40
1.0
 40
2.0
 40
2.0
 40
2.0
 40
3.0
 40
3.0
 40
3.0
 40
4.0
 40
4.0
 40
4.0
 40
5.0
 40
5.0
 40
5.0
 40
6.0
 40
6.0
 40
6.0
 40
7.0
 40
7.0
 40
7.0
 40
8.0
 40
8.0
 40
8.0
 40
9.0
 40
9.0
 40
9.0
 40
10.0
 40
10.0
 40
10.0
 40
11.0
 40
11.0
 40
11.0
 40
12.0
 40
12.0
 40
12.0
 40
12.0
 10
218.679337
 20
353.20054
 10
218.683292
 20
353.196627
 10
218.687244
 20
353.192715
 10
218.691184
 20
353.188875
 10
218.695124
 20
353.185035
 10
218.699047
 20
353.181262
 10
218.703137
 20
353.177512
 10
218.707224
 20
353.173762
 10
218.711472
 20
353.170035
 10
218.715302
 20
353.166752
 10
218.719134
 20
353.163467
 10
218.722542
 20
353.160622
 10
218.727789
 20
353.156892
 10
218.734932
 20
353.151812
 10
218.745467
 20
353.145085
 10
218.755472
 20
353.139865
 10
218.765477
 20
353.134645
 10
218.774944
 20
353.130925
 10
218.784904
 20
353.12778
 10
218.794864
 20
353.124635
 10
218.805309
 20
353.122057
 10
218.815932
 20
353.12022
 10
218.826554
 20
353.11838
 10
218.837349
 20
353.11727
 10
218.848407
 20
353.116765
 10
218.859464
 20
353.11626
 10
218.870779
 20
353.116352
 10
218.882247
 20
353.11692
 10
218.893714
 20
353.117485
 10
218.905332
 20
353.118515
 10
218.917062
 20
353.119857
 10
218.928794
 20
353.121197
 10
218.940634
 20
353.122845
 10
218.952529
 20
353.12465
 10
218.964424
 20
353.126455
 10
218.976372
 20
353.12841
 10
218.988322
 20
353.13037
  0
LINE
  5
CD
100
AcDbEntity
  8
M0
  6
CONTINUOUS
370
25
 62
   154
100
AcDbLine
 10
230.504642
 20
406.571685
 11
219.004642
 21
406.571685
  0
LINE
  5
CE
100
AcDbEntity
  8
M0
  6
CONTINUOUS
370
25
 62
   154
100
AcDbLine
 10
226.004642
 20
374.07168
 11
226.004642
 21
367.57168
  0
LINE
  5
CF
100
AcDbEntity
  8
M0
  6
CONTINUOUS
370
25
 62
   154
100
AcDbLine
 10
238.004642
 20
353.178857
 11
219.371474
 21
353.178857
  0
LINE
  5
D0
100
AcDbEntity
  8
M0
  6
CONTINUOUS
370
25
 62
   154
100
AcDbLine
 10
231.804642
 20
376.171685
 11
231.804642
 21
405.071682
  0
ARC
  5
D1
100
AcDbEntity
  8
M0
  6
CONTINUOUS
370
25
 62
   154
100
AcDbCircle
 10
218.004642
 20
379.071682
 40
3.5
100
AcDbArc
 50
102.839588
 51
180.0
  0
LINE
  5
D2
100
AcDbEntity
  8
M0
  6
CONTINUOUS
370
25
 62
   154
100
AcDbLine
 10
219.004642
 20
426.57168
 11
230.504642
 21
426.57168
  0
LINE
  5
D3
100
AcDbEntity
  8
M0
  6
CONTINUOUS
370
25
 62
   154
100
AcDbLine
 10
218.004642
 20
375.07168
 11
218.004642
 21
355.071682
  0
LINE
  5
D4
100
AcDbEntity
  8
M0
  6
CONTINUOUS
370
25
 62
   154
100
AcDbLine
 10
238.004642
 20
406.871687
 11
238.004642
 21
482.071682
  0
LINE
  5
D5
100
AcDbEntity
  8
M0
  6
CONTINUOUS
370
25
 62
   154
100
AcDbLine
 10
221.004642
 20
352.071687
 11
238.004642
 21
352.071687
  0
LINE
  5
D6
100
AcDbEntity
  8
M0
  6
CONTINUOUS
370
25
 62
   154
100
AcDbLine
 10
218.680827
 20
354.613302
 11
238.004642
 21
354.613302
  0
SPLINE
  5
D7
100
AcDbEntity
  8
M0
  6
CONTINUOUS
370
25
 62
   154
100
AcDbSpline
210
0.0
220
0.0
230
-1.0
 70
     8
 71
     3
 72
     8
 73
     4
 43
0.0000001
 40
0.0
 40
0.0
 40
0.0
 40
0.0
 40
1.0
 40
1.0
 40
1.0
 40
1.0
 10
218.680827
 20
354.613302
 10
218.636519
 20
354.613302
 10
218.593097
 20
354.60712
 10
218.550569
 20
354.594685
  0
ARC
  5
D8
100
AcDbEntity
  8
M0
  6
CONTINUOUS
370
25
 62
   154
100
AcDbCircle
 10
217.504642
 20
375.103055
 40
0.5
100
AcDbArc
 50
0.0
 51
82.819244
  0
SPLINE
  5
D9
100
AcDbEntity
  8
M0
  6
CONTINUOUS
370
25
 62
   154
100
AcDbSpline
210
0.0
220
0.0
230
-1.0
 70
     8
 71
     3
 72
    29
 73
    25
 43
0.0000001
 40
0.0
 40
0.0
 40
0.0
 40
0.0
 40
1.0
 40
1.0
 40
1.0
 40
2.0
 40
2.0
 40
2.0
 40
3.0
 40
3.0
 40
3.0
 40
4.0
 40
4.0
 40
4.0
 40
5.0
 40
5.0
 40
5.0
 40
6.0
 40
6.0
 40
6.0
 40
7.0
 40
7.0
 40
7.0
 40
8.0
 40
8.0
 40
8.0
 40
8.0
 10
219.371474
 20
353.178862
 10
219.354504
 20
353.178737
 10
219.337537
 20
353.178607
 10
219.320662
 20
353.178187
 10
219.303784
 20
353.177767
 10
219.287004
 20
353.177045
 10
219.270304
 20
353.176085
 10
219.253607
 20
353.175125
 10
219.236994
 20
353.173917
 10
219.220469
 20
353.172432
 10
219.203947
 20
353.17095
 10
219.187519
 20
353.169182
 10
219.171214
 20
353.167112
 10
219.154912
 20
353.165045
 10
219.138739
 20
353.162662
 10
219.122822
 20
353.160017
 10
219.106902
 20
353.15737
 10
219.091244
 20
353.154447
 10
219.075867
 20
353.151322
 10
219.060492
 20
353.1482
 10
219.045409
 20
353.144865
 10
219.030864
 20
353.14134
 10
219.016319
 20
353.137815
 10
219.002324
 20
353.134092
 10
218.988322
 20
353.130375
  0
LINE
  5
DA
100
AcDbEntity
  8
M0
  6
CONTINUOUS
370
25
 62
   154
100
AcDbLine
 10
238.004642
 20
480.964502
 11
219.371474
 21
480.964502
  0
LINE
  5
DB
100
AcDbEntity
  8
M0
  6
CONTINUOUS
370
25
 62
   154
100
AcDbLine
 10
218.680827
 20
479.530062
 11
238.004642
 21
479.530062
  0
ARC
  5
DC
100
AcDbEntity
  8
M0
  6
CONTINUOUS
370
25
 62
   154
100
AcDbCircle
 10
219.004642
 20
366.571682
 40
1.0
100
AcDbArc
 50
90.0
 51
180.0
  0
LINE
  5
DD
100
AcDbEntity
  8
M0
  6
CONTINUOUS
370
25
 62
   154
100
AcDbLine
 10
218.004642
 20
479.071682
 11
218.004642
 21
427.571682
  0
LINE
  5
DE
100
AcDbEntity
  8
M0
  6
CONTINUOUS
370
25
 62
   154
100
AcDbLine
 10
236.004642
 20
409.071682
 11
236.004642
 21
424.071682
  0
LINE
  5
DF
100
AcDbEntity
  8
M0
  6
CONTINUOUS
370
25
 62
   154
100
AcDbLine
 10
219.004642
 20
356.771677
 11
238.004642
 21
356.771677
  0
ARC
  5
E0
100
AcDbEntity
  8
M0
  6
CONTINUOUS
370
25
 62
   154
100
AcDbCircle
 10
221.004642
 20
479.071682
 40
3.0
100
AcDbArc
 50
157.010821
 51
180.0
  0
ARC
  5
E1
100
AcDbEntity
  8
M0
  6
CONTINUOUS
370
25
 62
   154
100
AcDbCircle
 10
219.004642
 20
405.571682
 40
1.0
100
AcDbArc
 50
90.0
 51
180.0
  0
ARC
  5
E2
100
AcDbEntity
  8
M0
  6
CONTINUOUS
370
25
 62
   154
100
AcDbCircle
 10
221.004642
 20
355.071682
 40
3.0
100
AcDbArc
 50
216.379943
 51
270.0
  0
ARC
  5
E3
100
AcDbEntity
  8
M0
  6
CONTINUOUS
370
25
 62
   154
100
AcDbCircle
 10
218.004642
 20
379.071682
 40
3.5
100
AcDbArc
 50
180.0
 51
262.819244
  0
ARC
  5
E4
100
AcDbEntity
  8
M0
  6
CONTINUOUS
370
25
 62
   154
100
AcDbCircle
 10
219.004642
 20
357.771682
 40
1.0
100
AcDbArc
 50
180.0
 51
270.0
  0
SPLINE
  5
E5
100
AcDbEntity
  8
M0
  6
CONTINUOUS
370
25
 62
   154
100
AcDbSpline
210
0.0
220
0.0
230
-1.0
 70
     8
 71
     3
 72
    41
 73
    37
 43
0.0000001
 40
0.0
 40
0.0
 40
0.0
 40
0.0
 40
1.0
 40
1.0
 40
1.0
 40
2.0
 40
2.0
 40
2.0
 40
3.0
 40
3.0
 40
3.0
 40
4.0
 40
4.0
 40
4.0
 40
5.0
 40
5.0
 40
5.0
 40
6.0
 40
6.0
 40
6.0
 40
7.0
 40
7.0
 40
7.0
 40
8.0
 40
8.0
 40
8.0
 40
9.0
 40
9.0
 40
9.0
 40
10.0
 40
10.0
 40
10.0
 40
11.0
 40
11.0
 40
11.0
 40
12.0
 40
12.0
 40
12.0
 40
12.0
 10
218.988322
 20
481.01299
 10
218.976329
 20
481.014947
 10
218.964332
 20
481.016912
 10
218.952394
 20
481.018715
 10
218.940454
 20
481.020517
 10
218.928567
 20
481.02217
 10
218.916794
 20
481.023507
 10
218.905019
 20
481.024842
 10
218.893357
 20
481.025875
 10
218.881849
 20
481.02643
 10
218.870342
 20
481.026985
 10
218.858982
 20
481.027072
 10
218.847889
 20
481.02655
 10
218.836797
 20
481.026027
 10
218.825964
 20
481.024905
 10
218.815309
 20
481.023035
 10
218.804654
 20
481.021167
 10
218.794169
 20
481.018562
 10
218.784184
 20
481.01538
 10
218.774199
 20
481.012197
 10
218.764704
 20
481.008445
 10
218.754672
 20
481.003162
 10
218.744637
 20
480.99788
 10
218.734059
 20
480.99108
 10
218.726919
 20
480.985955
 10
218.721759
 20
480.982252
 10
218.718387
 20
480.979427
 10
218.714607
 20
480.976167
 10
218.710829
 20
480.972905
 10
218.706639
 20
480.969212
 10
218.702609
 20
480.965497
 10
218.698579
 20
480.96178
 10
218.694704
 20
480.958045
 10
218.690817
 20
480.954237
 10
218.686932
 20
480.950432
 10
218.683029
 20
480.946557
 10
218.679132
 20
480.942685
  0
LINE
  5
E6
100
AcDbEntity
  8
M0
  6
CONTINUOUS
370
25
 62
   154
100
AcDbLine
 10
219.004642
 20
374.07168
 11
226.004642
 21
374.07168
  0
ARC
  5
E7
100
AcDbEntity
  8
M0
  6
CONTINUOUS
370
25
 62
   154
100
AcDbCircle
 10
221.004642
 20
479.071682
 40
3.0
100
AcDbArc
 50
90.0
 51
143.620057
  0
ARC
  5
E8
100
AcDbEntity
  8
M0
  6
CONTINUOUS
370
25
 62
   154
100
AcDbCircle
 10
221.004642
 20
355.071682
 40
3.0
100
AcDbArc
 50
180.0
 51
202.989179
  0
LINE
  5
E9
100
AcDbEntity
  8
M0
  6
CONTINUOUS
370
25
 62
   154
100
AcDbLine
 10
214.504642
 20
391.071682
 11
214.504642
 21
390.571682
  0
LINE
  5
EA
100
AcDbEntity
  8
M0
  6
CONTINUOUS
370
25
 62
   154
100
AcDbLine
 10
218.004642
 20
477.07162
 11
217.986117
 21
477.02219
  0
LINE
  5
EB
100
AcDbEntity
  8
M0
  6
CONTINUOUS
370
25
 62
   154
100
AcDbLine
 10
231.504642
 20
424.071682
 11
238.004642
 21
424.071682
  0
LINE
  5
EC
100
AcDbEntity
  8
M0
  6
CONTINUOUS
370
25
 62
   154
100
AcDbLine
 10
238.004642
 20
407.07168
 11
231.804642
 21
405.071682
  0
LINE
  5
ED
100
AcDbEntity
  8
M0
  6
CONTINUOUS
370
25
 62
   154
100
AcDbLine
 10
238.004642
 20
374.17168
 11
238.004642
 21
352.071687
  0
LINE
  5
EE
100
AcDbEntity
  8
M0
  6
CONTINUOUS
370
25
 62
   154
100
AcDbLine
 10
218.589634
 20
480.851495
 11
218.510232
 21
480.738392
  0
LINE
  5
EF
100
AcDbEntity
  8
M0
  6
CONTINUOUS
370
25
 62
   154
100
AcDbLine
 10
218.510232
 20
480.738392
 11
218.254144
 21
480.2695
  0
ARC
  5
F0
100
AcDbEntity
  8
M0
  6
CONTINUOUS
370
25
 62
     6
100
AcDbCircle
 10
225.244549
 20
372.501362
 40
1.0
100
AcDbArc
 50
94.999105
 51
163.742547
  0
ARC
  5
F1
100
AcDbEntity
  8
M0
  6
CONTINUOUS
370
25
 62
     6
100
AcDbCircle
 10
231.004642
 20
370.821682
 40
7.0
100
AcDbArc
 50
163.742886
 51
196.257039
  0
ARC
  5
F2
100
AcDbEntity
  8
M0
  6
CONTINUOUS
370
25
 62
     6
100
AcDbCircle
 10
225.244549
 20
369.142
 40
1.0
100
AcDbArc
 50
196.257348
 51
265.000019
  0
LINE
  5
F3
100
AcDbEntity
  8
M0
  6
CONTINUOUS
370
25
 62
     6
100
AcDbLine
 10
226.004642
 20
368.071682
 11
226.004642
 21
373.571682
  0
LINE
  5
F4
100
AcDbEntity
  8
M0
  6
CONTINUOUS
370
25
 62
     6
100
AcDbLine
 10
226.004642
 20
368.071682
 11
225.157394
 21
368.145805
  0
LINE
  5
F5
100
AcDbEntity
  8
M0
  6
CONTINUOUS
370
25
 62
     6
100
AcDbLine
 10
226.004642
 20
373.571682
 11
225.157394
 21
373.497557
  0
ARC
  5
F6
100
AcDbEntity
  8
M0
  6
CONTINUOUS
370
25
 62
     2
100
AcDbCircle
 10
210.504642
 20
393.071685
 40
1.0
100
AcDbArc
 50
180.0
 51
270.0
  0
ARC
  5
F7
100
AcDbEntity
  8
M0
  6
CONTINUOUS
370
25
 62
     2
100
AcDbCircle
 10
218.004642
 20
453.571685
 40
1.0
100
AcDbArc
 50
90.0
 51
180.0
  0
ARC
  5
F8
100
AcDbEntity
  8
M0
  6
CONTINUOUS
370
25
 62
     2
100
AcDbCircle
 10
218.004642
 20
446.071685
 40
1.0
100
AcDbArc
 50
180.0
 51
270.0
  0
LINE
  5
F9
100
AcDbEntity
  8
M0
  6
CONTINUOUS
370
25
 62
     2
100
AcDbLine
 10
218.004642
 20
407.571682
 11
221.004642
 21
408.571685
  0
LINE
  5
FA
100
AcDbEntity
  8
M0
  6
CONTINUOUS
370
25
 62
     2
100
AcDbLine
 10
217.004642
 20
447.270782
 11
218.004642
 21
447.270782
  0
LINE
  5
FB
100
AcDbEntity
  8
M0
  6
CONTINUOUS
370
25
 62
     2
100
AcDbLine
 10
218.004642
 20
383.971685
 11
218.004642
 21
407.571682
  0
LINE
  5
FC
100
AcDbEntity
  8
M0
  6
CONTINUOUS
370
25
 62
     2
100
AcDbLine
 10
209.504642
 20
441.071685
 11
209.504642
 21
393.071685
  0
ARC
  5
FD
100
AcDbEntity
  8
M0
  6
CONTINUOUS
370
25
 62
     2
100
AcDbCircle
 10
210.504642
 20
441.071685
 40
1.0
100
AcDbArc
 50
90.0
 51
180.0
  0
ARC
  5
FE
100
AcDbEntity
  8
M0
  6
CONTINUOUS
370
25
 62
     2
100
AcDbCircle
 10
214.504642
 20
381.900112
 40
1.0
100
AcDbArc
 50
321.057559
 51
355.397698
  0
ARC
  5
FF
100
AcDbEntity
  8
M0
  6
CONTINUOUS
370
25
 62
     2
100
AcDbCircle
 10
214.504642
 20
381.739632
 40
1.0
100
AcDbArc
 50
4.602302
 51
60.0
  0
ARC
  5
100
100
AcDbEntity
  8
M0
  6
CONTINUOUS
370
25
 62
     2
100
AcDbCircle
 10
215.504642
 20
383.471685
 40
1.0
100
AcDbArc
 50
180.0
 51
270.0
  0
ARC
  5
101
100
AcDbEntity
  8
M0
  6
CONTINUOUS
370
25
 62
     2
100
AcDbCircle
 10
218.004642
 20
379.071685
 40
3.5
100
AcDbArc
 50
141.057559
 51
262.819249
  0
ARC
  5
102
100
AcDbEntity
  8
M0
  6
CONTINUOUS
370
25
 62
     2
100
AcDbCircle
 10
215.504642
 20
458.071685
 40
1.0
100
AcDbArc
 50
90.0
 51
180.0
  0
LINE
  5
103
100
AcDbEntity
  8
M0
  6
CONTINUOUS
370
25
 62
     2
100
AcDbLine
 10
218.004642
 20
425.571685
 11
218.004642
 21
459.071682
  0
LINE
  5
104
100
AcDbEntity
  8
M0
  6
CONTINUOUS
370
25
 62
     2
100
AcDbLine
 10
218.004642
 20
459.071682
 11
215.504642
 21
459.071682
  0
LINE
  5
105
100
AcDbEntity
  8
M0
  6
CONTINUOUS
370
25
 62
     2
100
AcDbLine
 10
217.004642
 20
446.071685
 11
217.004642
 21
453.571685
  0
LINE
  5
106
100
AcDbEntity
  8
M0
  6
CONTINUOUS
370
25
 62
     2
100
AcDbLine
 10
210.504642
 20
392.071685
 11
214.504642
 21
392.071685
  0
LINE
  5
107
100
AcDbEntity
  8
M0
  6
CONTINUOUS
370
25
 62
     2
100
AcDbLine
 10
216.004642
 20
382.471685
 11
218.004642
 21
383.971685
  0
LINE
  5
108
100
AcDbEntity
  8
M0
  6
CONTINUOUS
370
25
 62
     2
100
AcDbLine
 10
221.004642
 20
424.571682
 11
218.004642
 21
425.571685
  0
LINE
  5
109
100
AcDbEntity
  8
M0
  6
CONTINUOUS
370
25
 62
     2
100
AcDbLine
 10
215.504642
 20
382.471685
 11
216.004642
 21
382.471685
  0
LINE
  5
10A
100
AcDbEntity
  8
M0
  6
CONTINUOUS
370
25
 62
     2
100
AcDbLine
 10
221.004642
 20
426.57168
 11
221.004642
 21
406.571685
  0
LINE
  5
10B
100
AcDbEntity
  8
M0
  6
CONTINUOUS
370
25
 62
     2
100
AcDbLine
 10
214.504642
 20
458.071687
 11
214.504642
 21
383.471685
  0
LINE
  5
10C
100
AcDbEntity
  8
M0
  6
CONTINUOUS
370
25
 62
     2
100
AcDbLine
 10
214.504642
 20
442.071685
 11
210.504642
 21
442.071685
  0
LINE
  5
10D
100
AcDbEntity
  8
M0
  6
CONTINUOUS
370
25
100
AcDbLine
 10
128.840386
 20
407.121302
 11
143.840386
 21
407.121302
  0
LINE
  5
10E
100
AcDbEntity
  8
M0
  6
CONTINUOUS
370
25
100
AcDbLine
 10
130.940386
 20
407.951297
 11
141.740386
 21
407.951297
  0
LINE
  5
10F
100
AcDbEntity
  8
M0
  6
CONTINUOUS
370
25
100
AcDbLine
 10
130.940386
 20
407.992882
 11
141.740386
 21
407.992882
  0
LINE
  5
110
100
AcDbEntity
  8
M0
  6
CONTINUOUS
370
25
100
AcDbLine
 10
143.840386
 20
407.383957
 11
128.840386
 21
407.383957
  0
LINE
  5
111
100
AcDbEntity
  8
M0
  6
CONTINUOUS
370
25
100
AcDbLine
 10
130.940386
 20
407.951297
 11
130.940386
 21
417.221847
  0
LINE
  5
112
100
AcDbEntity
  8
M0
  6
CONTINUOUS
370
25
100
AcDbLine
 10
131.940386
 20
418.221847
 11
130.938211
 21
417.219675
  0
LINE
  5
113
100
AcDbEntity
  8
M0
  6
CONTINUOUS
370
25
100
AcDbLine
 10
129.340386
 20
432.021847
 11
129.340386
 21
434.57168
  0
LINE
  5
114
100
AcDbEntity
  8
M0
  6
CONTINUOUS
370
25
100
AcDbLine
 10
142.340386
 20
435.57168
 11
130.340386
 21
435.57168
  0
ARC
  5
115
100
AcDbEntity
  8
M0
  6
CONTINUOUS
370
25
100
AcDbCircle
 10
130.340386
 20
434.57168
 40
1.0
100
AcDbArc
 50
90.0
 51
180.0
  0
ARC
  5
116
100
AcDbEntity
  8
M0
  6
CONTINUOUS
370
25
100
AcDbCircle
 10
142.340386
 20
434.57168
 40
1.0
100
AcDbArc
 50
0.0
 51
90.0
  0
ARC
  5
117
100
AcDbEntity
  8
M0
  6
CONTINUOUS
370
25
100
AcDbCircle
 10
130.340216
 20
428.07363
 40
0.99983
100
AcDbArc
 50
180.009772
 51
270.009769
  0
ARC
  5
118
100
AcDbEntity
  8
M0
  6
CONTINUOUS
370
25
100
AcDbCircle
 10
142.340556
 20
428.07363
 40
0.99983
100
AcDbArc
 50
269.990231
 51
359.990228
  0
LINE
  5
119
100
AcDbEntity
  8
M0
  6
CONTINUOUS
370
25
100
AcDbLine
 10
143.340386
 20
432.021847
 11
143.340386
 21
434.57168
  0
LINE
  5
11A
100
AcDbEntity
  8
M0
  6
CONTINUOUS
370
25
100
AcDbLine
 10
129.340386
 20
428.496067
 11
129.340386
 21
432.021847
  0
LINE
  5
11B
100
AcDbEntity
  8
M0
  6
CONTINUOUS
370
25
100
AcDbLine
 10
130.340386
 20
427.0738
 11
142.340386
 21
427.0738
  0
LINE
  5
11C
100
AcDbEntity
  8
M0
  6
CONTINUOUS
370
25
100
AcDbLine
 10
129.340386
 20
428.07346
 11
129.340386
 21
428.496067
  0
ARC
  5
11D
100
AcDbEntity
  8
M0
  6
CONTINUOUS
370
25
100
AcDbCircle
 10
130.340216
 20
431.04607
 40
0.99983
100
AcDbArc
 50
180.009772
 51
270.009769
  0
LINE
  5
11E
100
AcDbEntity
  8
M0
  6
CONTINUOUS
370
25
100
AcDbLine
 10
143.340386
 20
428.07346
 11
143.340386
 21
428.496067
  0
ARC
  5
11F
100
AcDbEntity
  8
M0
  6
CONTINUOUS
370
25
100
AcDbCircle
 10
142.340556
 20
431.04607
 40
0.99983
100
AcDbArc
 50
269.990231
 51
359.990228
  0
LINE
  5
120
100
AcDbEntity
  8
M0
  6
CONTINUOUS
370
25
100
AcDbLine
 10
143.340386
 20
428.496067
 11
143.340386
 21
432.021847
  0
LINE
  5
121
100
AcDbEntity
  8
M0
  6
CONTINUOUS
370
25
100
AcDbLine
 10
142.340386
 20
430.046242
 11
130.340386
 21
430.046242
  0
LINE
  5
122
100
AcDbEntity
  8
M0
  6
CONTINUOUS
370
25
100
AcDbLine
 10
143.840386
 20
418.221847
 11
128.840386
 21
418.221847
  0
LINE
  5
123
100
AcDbEntity
  8
M0
  6
CONTINUOUS
370
25
100
AcDbLine
 10
141.740386
 20
407.951297
 11
141.740386
 21
418.221847
  0
CIRCLE
  5
124
100
AcDbEntity
  8
M0
  6
CONTINUOUS
370
25
 62
   154
100
AcDbCircle
 10
148.840386
 20
472.321682
 40
2.75
  0
CIRCLE
  5
125
100
AcDbEntity
  8
M0
  6
CONTINUOUS
370
25
 62
   154
100
AcDbCircle
 10
123.840386
 20
472.321682
 40
2.75
  0
CIRCLE
  5
126
100
AcDbEntity
  8
M0
  6
CONTINUOUS
370
25
 62
   154
100
AcDbCircle
 10
123.840386
 20
361.821682
 40
2.75
  0
CIRCLE
  5
127
100
AcDbEntity
  8
M0
  6
CONTINUOUS
370
25
 62
   154
100
AcDbCircle
 10
148.840386
 20
361.821682
 40
2.75
  0
LINE
  5
128
100
AcDbEntity
  8
M0
  6
CONTINUOUS
370
25
 62
   154
100
AcDbLine
 10
152.840386
 20
482.071682
 11
158.556504
 21
482.071682
  0
LINE
  5
129
100
AcDbEntity
  8
M0
  6
CONTINUOUS
370
25
 62
   154
100
AcDbLine
 10
127.840386
 20
482.071682
 11
133.556504
 21
482.071682
  0
LINE
  5
12A
100
AcDbEntity
  8
M0
  6
CONTINUOUS
370
25
 62
   154
100
AcDbLine
 10
102.840386
 20
482.071682
 11
108.556504
 21
482.071682
  0
LINE
  5
12B
100
AcDbEntity
  8
M0
  6
CONTINUOUS
370
25
 62
   154
100
AcDbLine
 10
102.840386
 20
352.071687
 11
108.556491
 21
352.071687
  0
LINE
  5
12C
100
AcDbEntity
  8
M0
  6
CONTINUOUS
370
25
 62
   154
100
AcDbLine
 10
127.840386
 20
352.071687
 11
133.556491
 21
352.071687
  0
LINE
  5
12D
100
AcDbEntity
  8
M0
  6
CONTINUOUS
370
25
 62
   154
100
AcDbLine
 10
152.840386
 20
352.071687
 11
158.556491
 21
352.071687
  0
LINE
  5
12E
100
AcDbEntity
  8
M0
  6
CONTINUOUS
370
25
 62
   154
100
AcDbLine
 10
114.124281
 20
352.071687
 11
119.840386
 21
352.071687
  0
LINE
  5
12F
100
AcDbEntity
  8
M0
  6
CONTINUOUS
370
25
 62
   154
100
AcDbLine
 10
139.124281
 20
352.071687
 11
144.840386
 21
352.071687
  0
LINE
  5
130
100
AcDbEntity
  8
M0
  6
CONTINUOUS
370
25
 62
   154
100
AcDbLine
 10
164.124281
 20
352.071687
 11
169.840386
 21
352.071687
  0
LINE
  5
131
100
AcDbEntity
  8
M0
  6
CONTINUOUS
370
25
 62
   154
100
AcDbLine
 10
164.124269
 20
482.071682
 11
169.840386
 21
482.071682
  0
LINE
  5
132
100
AcDbEntity
  8
M0
  6
CONTINUOUS
370
25
 62
   154
100
AcDbLine
 10
139.124269
 20
482.071682
 11
144.840386
 21
482.071682
  0
LINE
  5
133
100
AcDbEntity
  8
M0
  6
CONTINUOUS
370
25
 62
   154
100
AcDbLine
 10
114.124269
 20
482.071682
 11
119.840386
 21
482.071682
  0
LINE
  5
134
100
AcDbEntity
  8
M0
  6
DASHDOT
370
13
 62
     3
100
AcDbLine
 10
141.090386
 20
472.321682
 11
156.590386
 21
472.321682
  0
LINE
  5
135
100
AcDbEntity
  8
M0
  6
DASHDOT
370
13
 62
     3
100
AcDbLine
 10
148.840386
 20
464.571682
 11
148.840386
 21
480.071682
  0
LINE
  5
136
100
AcDbEntity
  8
M0
  6
DASHDOT
370
13
 62
     3
100
AcDbLine
 10
116.090386
 20
472.321682
 11
131.590386
 21
472.321682
  0
LINE
  5
137
100
AcDbEntity
  8
M0
  6
DASHDOT
370
13
 62
     3
100
AcDbLine
 10
123.840386
 20
464.571682
 11
123.840386
 21
480.071682
  0
LINE
  5
138
100
AcDbEntity
  8
M0
  6
DASHDOT
370
13
 62
     3
100
AcDbLine
 10
141.090386
 20
361.821682
 11
156.590386
 21
361.821682
  0
LINE
  5
139
100
AcDbEntity
  8
M0
  6
DASHDOT
370
13
 62
     3
100
AcDbLine
 10
148.840386
 20
354.071682
 11
148.840386
 21
369.571682
  0
LINE
  5
13A
100
AcDbEntity
  8
M0
  6
DASHDOT
370
13
 62
     3
100
AcDbLine
 10
116.090386
 20
361.821682
 11
131.590386
 21
361.821682
  0
LINE
  5
13B
100
AcDbEntity
  8
M0
  6
DASHDOT
370
13
 62
     3
100
AcDbLine
 10
123.840386
 20
354.071682
 11
123.840386
 21
369.571682
  0
LINE
  5
13C
100
AcDbEntity
  8
M0
  6
CONTINUOUS
370
25
 62
     2
100
AcDbLine
 10
103.340386
 20
442.071682
 11
124.340386
 21
442.071682
  0
LINE
  5
13D
100
AcDbEntity
  8
M0
  6
CONTINUOUS
370
25
 62
     2
100
AcDbLine
 10
169.340386
 20
440.571682
 11
148.340386
 21
440.571682
  0
LINE
  5
13E
100
AcDbEntity
  8
M0
  6
CONTINUOUS
370
25
 62
     2
100
AcDbLine
 10
170.340386
 20
394.571682
 11
170.340386
 21
439.57168
  0
LINE
  5
13F
100
AcDbEntity
  8
M0
  6
CONTINUOUS
370
25
 62
     2
100
AcDbLine
 10
124.340386
 20
440.571682
 11
103.340386
 21
440.571682
  0
LINE
  5
140
100
AcDbEntity
  8
M0
  6
CONTINUOUS
370
25
 62
     2
100
AcDbLine
 10
148.340386
 20
442.071682
 11
169.340386
 21
442.071682
  0
LINE
  5
141
100
AcDbEntity
  8
M0
  6
CONTINUOUS
370
25
 62
     2
100
AcDbLine
 10
115.040386
 20
375.571682
 11
132.640386
 21
375.571682
  0
LINE
  5
142
100
AcDbEntity
  8
M0
  6
CONTINUOUS
370
25
 62
     2
100
AcDbLine
 10
103.340386
 20
393.571682
 11
124.340386
 21
393.571682
  0
LINE
  5
143
100
AcDbEntity
  8
M0
  6
CONTINUOUS
370
25
 62
     2
100
AcDbLine
 10
148.340386
 20
393.571682
 11
169.340386
 21
393.571682
  0
LINE
  5
144
100
AcDbEntity
  8
M0
  6
CONTINUOUS
370
25
 62
     2
100
AcDbLine
 10
124.840386
 20
390.071682
 11
147.840386
 21
390.071682
  0
LINE
  5
145
100
AcDbEntity
  8
M0
  6
CONTINUOUS
370
25
 62
     2
100
AcDbLine
 10
150.040386
 20
382.471682
 11
132.640386
 21
382.471682
  0
LINE
  5
146
100
AcDbEntity
  8
M0
  6
CONTINUOUS
370
25
 62
     2
100
AcDbLine
 10
124.340386
 20
392.071682
 11
103.340386
 21
392.071682
  0
LINE
  5
147
100
AcDbEntity
  8
M0
  6
CONTINUOUS
370
25
 62
     2
100
AcDbLine
 10
157.640384
 20
375.571682
 11
157.640384
 21
382.471682
  0
LINE
  5
148
100
AcDbEntity
  8
M0
  6
CONTINUOUS
370
25
 62
     2
100
AcDbLine
 10
150.040386
 20
375.571682
 11
150.040386
 21
382.471682
  0
LINE
  5
149
100
AcDbEntity
  8
M0
  6
CONTINUOUS
370
25
 62
     2
100
AcDbLine
 10
146.840386
 20
447.071685
 11
125.840386
 21
447.071685
  0
LINE
  5
14A
100
AcDbEntity
  8
M0
  6
CONTINUOUS
370
25
 62
     2
100
AcDbLine
 10
100.840384
 20
394.571682
 11
100.840384
 21
439.57168
  0
LINE
  5
14B
100
AcDbEntity
  8
M0
  6
CONTINUOUS
370
25
 62
     2
100
AcDbLine
 10
171.840386
 20
439.57168
 11
171.840386
 21
394.571682
  0
LINE
  5
14C
100
AcDbEntity
  8
M0
  6
CONTINUOUS
370
25
 62
     2
100
AcDbLine
 10
132.640386
 20
382.471682
 11
132.640386
 21
375.571682
  0
LINE
  5
14D
100
AcDbEntity
  8
M0
  6
CONTINUOUS
370
25
 62
     2
100
AcDbLine
 10
102.340384
 20
439.57168
 11
102.340384
 21
394.571682
  0
LINE
  5
14E
100
AcDbEntity
  8
M0
  6
CONTINUOUS
370
25
 62
     2
100
AcDbLine
 10
169.340386
 20
394.571682
 11
164.840386
 21
394.571682
  0
CIRCLE
  5
14F
100
AcDbEntity
  8
M0
  6
CONTINUOUS
370
25
 62
     2
100
AcDbCircle
 10
148.840386
 20
452.821682
 40
4.25
  0
CIRCLE
  5
150
100
AcDbEntity
  8
M0
  6
CONTINUOUS
370
25
 62
     2
100
AcDbCircle
 10
123.840386
 20
452.821682
 40
4.25
  0
LINE
  5
151
100
AcDbEntity
  8
M0
  6
CONTINUOUS
370
25
 62
     2
100
AcDbLine
 10
98.840384
 20
383.471682
 11
98.840384
 21
458.071685
  0
ARC
  5
152
100
AcDbEntity
  8
M0
  6
CONTINUOUS
370
25
 62
     2
100
AcDbCircle
 10
99.840386
 20
383.471682
 40
1.0
100
AcDbArc
 50
180.0
 51
270.0
  0
ARC
  5
153
100
AcDbEntity
  8
M0
  6
CONTINUOUS
370
25
 62
     2
100
AcDbCircle
 10
172.840386
 20
383.471682
 40
1.0
100
AcDbArc
 50
270.0
 51
360.0
  0
LINE
  5
154
100
AcDbEntity
  8
M0
  6
CONTINUOUS
370
25
 62
     2
100
AcDbLine
 10
115.040386
 20
375.571682
 11
115.040386
 21
382.471682
  0
LINE
  5
155
100
AcDbEntity
  8
M0
  6
CONTINUOUS
370
25
 62
     2
100
AcDbLine
 10
172.840386
 20
382.471682
 11
157.640384
 21
382.471682
  0
LINE
  5
156
100
AcDbEntity
  8
M0
  6
CONTINUOUS
370
25
 62
     2
100
AcDbLine
 10
150.040386
 20
381.81987
 11
157.640384
 21
381.81987
  0
LINE
  5
157
100
AcDbEntity
  8
M0
  6
CONTINUOUS
370
25
 62
     2
100
AcDbLine
 10
99.840386
 20
459.07168
 11
172.840386
 21
459.07168
  0
LINE
  5
158
100
AcDbEntity
  8
M0
  6
CONTINUOUS
370
25
 62
     2
100
AcDbLine
 10
115.040386
 20
382.471682
 11
99.840386
 21
382.471682
  0
LINE
  5
159
100
AcDbEntity
  8
M0
  6
CONTINUOUS
370
25
 62
     2
100
AcDbLine
 10
173.840386
 20
458.071685
 11
173.840386
 21
383.471682
  0
LINE
  5
15A
100
AcDbEntity
  8
M0
  6
CONTINUOUS
370
25
 62
     2
100
AcDbLine
 10
115.040386
 20
381.81987
 11
132.640386
 21
381.81987
  0
LINE
  5
15B
100
AcDbEntity
  8
M0
  6
CONTINUOUS
370
25
 62
     2
100
AcDbLine
 10
164.840386
 20
399.071682
 11
169.340386
 21
399.071682
  0
LINE
  5
15C
100
AcDbEntity
  8
M0
  6
CONTINUOUS
370
25
 62
     2
100
AcDbLine
 10
124.340386
 20
390.571682
 11
124.340386
 21
445.571682
  0
ARC
  5
15D
100
AcDbEntity
  8
M0
  6
CONTINUOUS
370
25
 62
     2
100
AcDbCircle
 10
124.840386
 20
390.571682
 40
0.5
100
AcDbArc
 50
180.0
 51
270.0
  0
ARC
  5
15E
100
AcDbEntity
  8
M0
  6
CONTINUOUS
370
25
 62
     2
100
AcDbCircle
 10
169.340386
 20
439.571682
 40
2.5
100
AcDbArc
 50
0.0
 51
90.0
  0
ARC
  5
15F
100
AcDbEntity
  8
M0
  6
CONTINUOUS
370
25
 62
     2
100
AcDbCircle
 10
169.340386
 20
439.571682
 40
1.0
100
AcDbArc
 50
0.0
 51
90.0
  0
ARC
  5
160
100
AcDbEntity
  8
M0
  6
CONTINUOUS
370
25
 62
     2
100
AcDbCircle
 10
125.840386
 20
445.571682
 40
1.5
100
AcDbArc
 50
90.0
 51
180.0
  0
ARC
  5
161
100
AcDbEntity
  8
M0
  6
CONTINUOUS
370
25
 62
     2
100
AcDbCircle
 10
169.340386
 20
394.571682
 40
1.0
100
AcDbArc
 50
270.0
 51
360.0
  0
ARC
  5
162
100
AcDbEntity
  8
M0
  6
CONTINUOUS
370
25
 62
     2
100
AcDbCircle
 10
169.340386
 20
394.571682
 40
2.5
100
AcDbArc
 50
270.0
 51
360.0
  0
ARC
  5
163
100
AcDbEntity
  8
M0
  6
CONTINUOUS
370
25
 62
     2
100
AcDbCircle
 10
103.340386
 20
394.571682
 40
1.0
100
AcDbArc
 50
180.0
 51
270.0
  0
ARC
  5
164
100
AcDbEntity
  8
M0
  6
CONTINUOUS
370
25
 62
     2
100
AcDbCircle
 10
103.340386
 20
394.571682
 40
2.5
100
AcDbArc
 50
180.0
 51
270.0
  0
ARC
  5
165
100
AcDbEntity
  8
M0
  6
CONTINUOUS
370
25
 62
     2
100
AcDbCircle
 10
147.840386
 20
390.571682
 40
0.5
100
AcDbArc
 50
270.0
 51
360.0
  0
ARC
  5
166
100
AcDbEntity
  8
M0
  6
CONTINUOUS
370
25
 62
     2
100
AcDbCircle
 10
103.340386
 20
439.571682
 40
2.5
100
AcDbArc
 50
90.0
 51
180.0
  0
ARC
  5
167
100
AcDbEntity
  8
M0
  6
CONTINUOUS
370
25
 62
     2
100
AcDbCircle
 10
146.840386
 20
445.571682
 40
1.5
100
AcDbArc
 50
0.0
 51
90.0
  0
ARC
  5
168
100
AcDbEntity
  8
M0
  6
CONTINUOUS
370
25
 62
     2
100
AcDbCircle
 10
99.840386
 20
458.071682
 40
1.0
100
AcDbArc
 50
90.0
 51
180.0
  0
ARC
  5
169
100
AcDbEntity
  8
M0
  6
CONTINUOUS
370
25
 62
     2
100
AcDbCircle
 10
103.340386
 20
439.571682
 40
1.0
100
AcDbArc
 50
90.0
 51
180.0
  0
ARC
  5
16A
100
AcDbEntity
  8
M0
  6
CONTINUOUS
370
25
 62
     2
100
AcDbCircle
 10
172.840386
 20
458.071682
 40
1.0
100
AcDbArc
 50
0.0
 51
90.0
  0
LINE
  5
16B
100
AcDbEntity
  8
M0
  6
CONTINUOUS
370
25
 62
     2
100
AcDbLine
 10
164.840386
 20
394.571682
 11
164.840386
 21
399.071682
  0
LINE
  5
16C
100
AcDbEntity
  8
M0
  6
CONTINUOUS
370
25
 62
     2
100
AcDbLine
 10
150.040386
 20
375.571682
 11
157.640384
 21
375.571682
  0
LINE
  5
16D
100
AcDbEntity
  8
M0
  6
CONTINUOUS
370
25
 62
     2
100
AcDbLine
 10
148.340386
 20
390.571682
 11
148.340386
 21
445.571682
  0
LINE
  5
16E
100
AcDbEntity
  8
M0
  6
CONTINUOUS
370
25
 62
     2
100
AcDbLine
 10
169.340386
 20
399.071682
 11
169.340386
 21
394.571682
  0
LINE
  5
16F
100
AcDbEntity
  8
M0
  6
CONTINUOUS
370
25
 62
     2
100
AcDbLine
 10
169.340386
 20
392.071682
 11
148.340386
 21
392.071682
  0
LINE
  5
170
100
AcDbEntity
  8
M0
  6
CONTINUOUS
370
25
 62
   154
100
AcDbLine
 10
99.340386
 20
477.371682
 11
100.190384
 21
477.371682
  0
LINE
  5
171
100
AcDbEntity
  8
M0
  6
CONTINUOUS
370
25
 62
   154
100
AcDbLine
 10
127.940386
 20
469.933187
 11
127.940386
 21
474.710175
  0
LINE
  5
172
100
AcDbEntity
  8
M0
  6
CONTINUOUS
370
25
 62
   154
100
AcDbLine
 10
124.840386
 20
390.571682
 11
147.840386
 21
390.571682
  0
LINE
  5
173
100
AcDbEntity
  8
M0
  6
CONTINUOUS
370
25
 62
   154
100
AcDbLine
 10
150.190386
 20
477.871682
 11
150.190386
 21
479.530057
  0
LINE
  5
174
100
AcDbEntity
  8
M0
  6
CONTINUOUS
370
25
 62
   154
100
AcDbLine
 10
122.490386
 20
479.530057
 11
122.490386
 21
477.871682
  0
LINE
  5
175
100
AcDbEntity
  8
M0
  6
CONTINUOUS
370
25
 62
   154
100
AcDbLine
 10
147.490386
 20
479.530057
 11
147.490386
 21
477.871682
  0
LINE
  5
176
100
AcDbEntity
  8
M0
  6
CONTINUOUS
370
25
 62
   154
100
AcDbLine
 10
153.840386
 20
481.071682
 11
153.840386
 21
469.071682
  0
LINE
  5
177
100
AcDbEntity
  8
M0
  6
CONTINUOUS
370
25
 62
   154
100
AcDbLine
 10
143.840386
 20
469.071682
 11
143.840386
 21
481.071682
  0
LINE
  5
178
100
AcDbEntity
  8
M0
  6
CONTINUOUS
370
25
 62
   154
100
AcDbLine
 10
172.490386
 20
477.371682
 11
173.340386
 21
477.371682
  0
LINE
  5
179
100
AcDbEntity
  8
M0
  6
CONTINUOUS
370
25
 62
   154
100
AcDbLine
 10
144.740386
 20
474.710175
 11
144.740386
 21
469.923245
  0
LINE
  5
17A
100
AcDbEntity
  8
M0
  6
CONTINUOUS
370
25
 62
   154
100
AcDbLine
 10
152.940386
 20
469.923245
 11
152.940386
 21
474.710175
  0
ARC
  5
17B
100
AcDbEntity
  8
M0
  6
CONTINUOUS
370
25
 62
   154
100
AcDbCircle
 10
102.840386
 20
481.071682
 40
1.0
100
AcDbArc
 50
0.0
 51
90.0
  0
ARC
  5
17C
100
AcDbEntity
  8
M0
  6
CONTINUOUS
370
25
 62
   154
100
AcDbCircle
 10
119.840386
 20
481.071682
 40
1.0
100
AcDbArc
 50
90.0
 51
180.0
  0
ARC
  5
17D
100
AcDbEntity
  8
M0
  6
CONTINUOUS
370
25
 62
   154
100
AcDbCircle
 10
127.840386
 20
481.071682
 40
1.0
100
AcDbArc
 50
0.0
 51
90.0
  0
ARC
  5
17E
100
AcDbEntity
  8
M0
  6
CONTINUOUS
370
25
 62
   154
100
AcDbCircle
 10
144.840386
 20
481.071682
 40
1.0
100
AcDbArc
 50
90.0
 51
180.0
  0
ARC
  5
17F
100
AcDbEntity
  8
M0
  6
CONTINUOUS
370
25
 62
   154
100
AcDbCircle
 10
123.840386
 20
472.321682
 40
4.75
100
AcDbArc
 50
210.326984
 51
329.673029
  0
ARC
  5
180
100
AcDbEntity
  8
M0
  6
CONTINUOUS
370
25
 62
   154
100
AcDbCircle
 10
152.840386
 20
481.071682
 40
1.0
100
AcDbArc
 50
0.0
 51
90.0
  0
ARC
  5
181
100
AcDbEntity
  8
M0
  6
CONTINUOUS
370
25
 62
   154
100
AcDbCircle
 10
148.840386
 20
472.321682
 40
4.75
100
AcDbArc
 50
210.326971
 51
329.673016
  0
SPLINE
  5
182
100
AcDbEntity
  8
M0
  6
CONTINUOUS
370
25
 62
   154
100
AcDbSpline
210
0.0
220
0.0
230
-1.0
 70
     8
 71
     3
 72
    29
 73
    25
 43
0.0000001
 40
0.0
 40
0.0
 40
0.0
 40
0.0
 40
1.0
 40
1.0
 40
1.0
 40
2.0
 40
2.0
 40
2.0
 40
3.0
 40
3.0
 40
3.0
 40
4.0
 40
4.0
 40
4.0
 40
5.0
 40
5.0
 40
5.0
 40
6.0
 40
6.0
 40
6.0
 40
7.0
 40
7.0
 40
7.0
 40
8.0
 40
8.0
 40
8.0
 40
8.0
 10
147.990386
 20
477.371682
 10
148.061176
 20
477.371682
 10
148.131964
 20
477.371682
 10
148.202761
 20
477.371682
 10
148.273556
 20
477.371682
 10
148.344351
 20
477.371682
 10
148.415161
 20
477.371682
 10
148.485974
 20
477.371682
 10
148.556786
 20
477.371682
 10
148.627626
 20
477.371682
 10
148.698466
 20
477.371682
 10
148.769321
 20
477.371682
 10
148.840189
 20
477.371682
 10
148.911056
 20
477.371682
 10
148.981934
 20
477.371682
 10
149.052799
 20
477.371682
 10
149.123664
 20
477.371682
 10
149.194521
 20
477.371682
 10
149.265374
 20
477.371682
 10
149.336224
 20
477.371682
 10
149.407071
 20
477.371682
 10
149.477904
 20
477.371682
 10
149.548736
 20
477.371682
 10
149.619564
 20
477.371682
 10
149.690386
 20
477.371682
  0
SPLINE
  5
183
100
AcDbEntity
  8
M0
  6
CONTINUOUS
370
25
 62
   154
100
AcDbSpline
210
0.0
220
0.0
230
-1.0
 70
     8
 71
     3
 72
     8
 73
     4
 43
0.0000001
 40
0.0
 40
0.0
 40
0.0
 40
0.0
 40
1.0
 40
1.0
 40
1.0
 40
1.0
 10
149.690386
 20
477.371682
 10
149.745296
 20
477.371682
 10
149.798876
 20
477.380465
 10
149.851286
 20
477.398277
  0
SPLINE
  5
184
100
AcDbEntity
  8
M0
  6
CONTINUOUS
370
25
 62
   154
100
AcDbSpline
210
0.0
220
0.0
230
-1.0
 70
     8
 71
     3
 72
     8
 73
     4
 43
0.0000001
 40
0.0
 40
0.0
 40
0.0
 40
0.0
 40
1.0
 40
1.0
 40
1.0
 40
1.0
 10
124.690386
 20
477.371682
 10
124.745296
 20
477.371682
 10
124.798876
 20
477.380465
 10
124.851286
 20
477.398277
  0
SPLINE
  5
185
100
AcDbEntity
  8
M0
  6
CONTINUOUS
370
25
 62
   154
100
AcDbSpline
210
0.0
220
0.0
230
-1.0
 70
     8
 71
     3
 72
    29
 73
    25
 43
0.0000001
 40
0.0
 40
0.0
 40
0.0
 40
0.0
 40
1.0
 40
1.0
 40
1.0
 40
2.0
 40
2.0
 40
2.0
 40
3.0
 40
3.0
 40
3.0
 40
4.0
 40
4.0
 40
4.0
 40
5.0
 40
5.0
 40
5.0
 40
6.0
 40
6.0
 40
6.0
 40
7.0
 40
7.0
 40
7.0
 40
8.0
 40
8.0
 40
8.0
 40
8.0
 10
122.990386
 20
477.371682
 10
123.061176
 20
477.371682
 10
123.131964
 20
477.371682
 10
123.202761
 20
477.371682
 10
123.273556
 20
477.371682
 10
123.344351
 20
477.371682
 10
123.415161
 20
477.371682
 10
123.485974
 20
477.371682
 10
123.556786
 20
477.371682
 10
123.627626
 20
477.371682
 10
123.698466
 20
477.371682
 10
123.769321
 20
477.371682
 10
123.840189
 20
477.371682
 10
123.911056
 20
477.371682
 10
123.981934
 20
477.371682
 10
124.052799
 20
477.371682
 10
124.123664
 20
477.371682
 10
124.194521
 20
477.371682
 10
124.265374
 20
477.371682
 10
124.336224
 20
477.371682
 10
124.407071
 20
477.371682
 10
124.477904
 20
477.371682
 10
124.548736
 20
477.371682
 10
124.619564
 20
477.371682
 10
124.690386
 20
477.371682
  0
ARC
  5
186
100
AcDbEntity
  8
M0
  6
CONTINUOUS
370
25
 62
   154
100
AcDbCircle
 10
169.840386
 20
481.071682
 40
1.0
100
AcDbArc
 50
90.0
 51
180.0
  0
SPLINE
  5
187
100
AcDbEntity
  8
M0
  6
CONTINUOUS
370
25
 62
   154
100
AcDbSpline
210
0.0
220
0.0
230
-1.0
 70
     8
 71
     3
 72
     8
 73
     4
 43
0.0000001
 40
0.0
 40
0.0
 40
0.0
 40
0.0
 40
1.0
 40
1.0
 40
1.0
 40
1.0
 10
147.829486
 20
477.398277
 10
147.881894
 20
477.380465
 10
147.935476
 20
477.371682
 10
147.990386
 20
477.371682
  0
ARC
  5
188
100
AcDbEntity
  8
M0
  6
CONTINUOUS
370
25
 62
   154
100
AcDbCircle
 10
127.340386
 20
394.071682
 40
2.0
100
AcDbArc
 50
180.0
 51
270.0
  0
LINE
  5
189
100
AcDbEntity
  8
M0
  6
CONTINUOUS
370
25
 62
   154
100
AcDbLine
 10
155.840386
 20
467.071682
 11
166.840386
 21
467.071682
  0
ARC
  5
18A
100
AcDbEntity
  8
M0
  6
CONTINUOUS
370
25
 62
   154
100
AcDbCircle
 10
145.340386
 20
440.071682
 40
2.0
100
AcDbArc
 50
0.0
 51
90.0
  0
ARC
  5
18B
100
AcDbEntity
  8
M0
  6
CONTINUOUS
370
25
 62
   154
100
AcDbCircle
 10
127.340386
 20
440.071682
 40
2.0
100
AcDbArc
 50
90.0
 51
180.0
  0
ARC
  5
18C
100
AcDbEntity
  8
M0
  6
CONTINUOUS
370
25
 62
   154
100
AcDbCircle
 10
147.990386
 20
477.871682
 40
0.5
100
AcDbArc
 50
180.0
 51
251.228127
  0
ARC
  5
18D
100
AcDbEntity
  8
M0
  6
CONTINUOUS
370
25
 62
   154
100
AcDbCircle
 10
124.690386
 20
477.871682
 40
0.5
100
AcDbArc
 50
288.771873
 51
360.0
  0
ARC
  5
18E
100
AcDbEntity
  8
M0
  6
CONTINUOUS
370
25
 62
   154
100
AcDbCircle
 10
145.340386
 20
394.071682
 40
2.0
100
AcDbArc
 50
270.0
 51
360.0
  0
LINE
  5
18F
100
AcDbEntity
  8
M0
  6
CONTINUOUS
370
25
 62
   154
100
AcDbLine
 10
118.840386
 20
469.071682
 11
118.840386
 21
481.071682
  0
SPLINE
  5
190
100
AcDbEntity
  8
M0
  6
CONTINUOUS
370
25
 62
   154
100
AcDbSpline
210
0.0
220
0.0
230
-1.0
 70
     8
 71
     3
 72
     8
 73
     4
 43
0.0000001
 40
0.0
 40
0.0
 40
0.0
 40
0.0
 40
1.0
 40
1.0
 40
1.0
 40
1.0
 10
122.829486
 20
477.398277
 10
122.881894
 20
477.380465
 10
122.935476
 20
477.371682
 10
122.990386
 20
477.371682
  0
LINE
  5
191
100
AcDbEntity
  8
M0
  6
CONTINUOUS
370
25
 62
   154
100
AcDbLine
 10
128.840386
 20
481.071682
 11
128.840386
 21
469.071682
  0
LINE
  5
192
100
AcDbEntity
  8
M0
  6
CONTINUOUS
370
25
 62
   154
100
AcDbLine
 10
119.740386
 20
474.710175
 11
119.740386
 21
469.933187
  0
SPLINE
  5
193
100
AcDbEntity
  8
M0
  6
CONTINUOUS
370
25
 62
   154
100
AcDbSpline
210
0.0
220
0.0
230
-1.0
 70
     8
 71
     3
 72
     8
 73
     4
 43
0.0000001
 40
0.0
 40
0.0
 40
0.0
 40
0.0
 40
1.0
 40
1.0
 40
1.0
 40
1.0
 10
127.940386
 20
359.433187
 10
127.909526
 20
359.374052
 10
127.876406
 20
359.31619
 10
127.840386
 20
359.259945
  0
SPLINE
  5
194
100
AcDbEntity
  8
M0
  6
CONTINUOUS
370
25
 62
   154
100
AcDbSpline
210
0.0
220
0.0
230
-1.0
 70
     8
 71
     3
 72
     8
 73
     4
 43
0.0000001
 40
0.0
 40
0.0
 40
0.0
 40
0.0
 40
1.0
 40
1.0
 40
1.0
 40
1.0
 10
144.840386
 20
359.259945
 10
144.804364
 20
359.31619
 10
144.771246
 20
359.374052
 10
144.740386
 20
359.433187
  0
SPLINE
  5
195
100
AcDbEntity
  8
M0
  6
CONTINUOUS
370
25
 62
   154
100
AcDbSpline
210
0.0
220
0.0
230
-1.0
 70
     8
 71
     3
 72
     8
 73
     4
 43
0.0000001
 40
0.0
 40
0.0
 40
0.0
 40
0.0
 40
1.0
 40
1.0
 40
1.0
 40
1.0
 10
122.990386
 20
357.16097
 10
122.882529
 20
357.17695
 10
122.774614
 20
357.191497
 10
122.668584
 20
357.21849
  0
SPLINE
  5
196
100
AcDbEntity
  8
M0
  6
CONTINUOUS
370
25
 62
   154
100
AcDbSpline
210
0.0
220
0.0
230
-1.0
 70
     8
 71
     3
 72
     8
 73
     4
 43
0.0000001
 40
0.0
 40
0.0
 40
0.0
 40
0.0
 40
1.0
 40
1.0
 40
1.0
 40
1.0
 10
125.012186
 20
357.21849
 10
124.906156
 20
357.191497
 10
124.798244
 20
357.17695
 10
124.690386
 20
357.16097
  0
SPLINE
  5
197
100
AcDbEntity
  8
M0
  6
CONTINUOUS
370
25
 62
   154
100
AcDbSpline
210
0.0
220
0.0
230
-1.0
 70
     8
 71
     3
 72
     8
 73
     4
 43
0.0000001
 40
0.0
 40
0.0
 40
0.0
 40
0.0
 40
1.0
 40
1.0
 40
1.0
 40
1.0
 10
119.840386
 20
359.259945
 10
119.804364
 20
359.31619
 10
119.771246
 20
359.374052
 10
119.740386
 20
359.433187
  0
SPLINE
  5
198
100
AcDbEntity
  8
M0
  6
CONTINUOUS
370
25
 62
   154
100
AcDbSpline
210
0.0
220
0.0
230
-1.0
 70
     8
 71
     3
 72
    29
 73
    25
 43
0.0000001
 40
0.0
 40
0.0
 40
0.0
 40
0.0
 40
1.0
 40
1.0
 40
1.0
 40
2.0
 40
2.0
 40
2.0
 40
3.0
 40
3.0
 40
3.0
 40
4.0
 40
4.0
 40
4.0
 40
5.0
 40
5.0
 40
5.0
 40
6.0
 40
6.0
 40
6.0
 40
7.0
 40
7.0
 40
7.0
 40
8.0
 40
8.0
 40
8.0
 40
8.0
 10
149.690386
 20
357.16097
 10
149.619884
 20
357.151397
 10
149.549381
 20
357.141832
 10
149.478771
 20
357.13407
 10
149.408164
 20
357.126305
 10
149.337444
 20
357.120357
 10
149.266654
 20
357.1156
 10
149.195866
 20
357.11084
 10
149.125004
 20
357.107282
 10
149.054059
 20
357.104952
 10
148.983111
 20
357.102622
 10
148.912079
 20
357.101532
 10
148.841006
 20
357.101525
 10
148.769931
 20
357.101517
 10
148.698816
 20
357.102607
 10
148.627751
 20
357.104932
 10
148.556684
 20
357.107255
 10
148.485664
 20
357.110822
 10
148.414711
 20
357.115582
 10
148.343759
 20
357.12034
 10
148.272874
 20
357.126302
 10
148.202164
 20
357.134065
 10
148.131454
 20
357.141827
 10
148.060919
 20
357.151402
 10
147.990386
 20
357.16097
  0
SPLINE
  5
199
100
AcDbEntity
  8
M0
  6
CONTINUOUS
370
25
 62
   154
100
AcDbSpline
210
0.0
220
0.0
230
-1.0
 70
     8
 71
     3
 72
     8
 73
     4
 43
0.0000001
 40
0.0
 40
0.0
 40
0.0
 40
0.0
 40
1.0
 40
1.0
 40
1.0
 40
1.0
 10
152.940386
 20
359.433187
 10
152.909526
 20
359.374052
 10
152.876406
 20
359.31619
 10
152.840386
 20
359.259945
  0
SPLINE
  5
19A
100
AcDbEntity
  8
M0
  6
CONTINUOUS
370
25
 62
   154
100
AcDbSpline
210
0.0
220
0.0
230
-1.0
 70
     8
 71
     3
 72
     8
 73
     4
 43
0.0000001
 40
0.0
 40
0.0
 40
0.0
 40
0.0
 40
1.0
 40
1.0
 40
1.0
 40
1.0
 10
147.990386
 20
357.16097
 10
147.882529
 20
357.17695
 10
147.774614
 20
357.191497
 10
147.668584
 20
357.21849
  0
LINE
  5
19B
100
AcDbEntity
  8
M0
  6
CONTINUOUS
370
25
 62
   154
100
AcDbLine
 10
168.840384
 20
353.071682
 11
168.840384
 21
365.571685
  0
LINE
  5
19C
100
AcDbEntity
  8
M0
  6
CONTINUOUS
370
25
 62
   154
100
AcDbLine
 10
105.840386
 20
467.071682
 11
116.840386
 21
467.071682
  0
LINE
  5
19D
100
AcDbEntity
  8
M0
  6
CONTINUOUS
370
25
 62
   154
100
AcDbLine
 10
130.840386
 20
467.071682
 11
141.840386
 21
467.071682
  0
ARC
  5
19E
100
AcDbEntity
  8
M0
  6
CONTINUOUS
370
25
 62
   154
100
AcDbCircle
 10
147.340386
 20
445.571682
 40
1.0
100
AcDbArc
 50
0.0
 51
90.0
  0
SPLINE
  5
19F
100
AcDbEntity
  8
M0
  6
CONTINUOUS
370
25
 62
   154
100
AcDbSpline
210
0.0
220
0.0
230
-1.0
 70
     8
 71
     3
 72
    29
 73
    25
 43
0.0000001
 40
0.0
 40
0.0
 40
0.0
 40
0.0
 40
1.0
 40
1.0
 40
1.0
 40
2.0
 40
2.0
 40
2.0
 40
3.0
 40
3.0
 40
3.0
 40
4.0
 40
4.0
 40
4.0
 40
5.0
 40
5.0
 40
5.0
 40
6.0
 40
6.0
 40
6.0
 40
7.0
 40
7.0
 40
7.0
 40
8.0
 40
8.0
 40
8.0
 40
8.0
 10
124.690386
 20
357.16097
 10
124.619884
 20
357.151397
 10
124.549381
 20
357.141832
 10
124.478771
 20
357.13407
 10
124.408164
 20
357.126305
 10
124.337444
 20
357.120357
 10
124.266654
 20
357.1156
 10
124.195866
 20
357.11084
 10
124.125004
 20
357.107282
 10
124.054059
 20
357.104952
 10
123.983111
 20
357.102622
 10
123.912079
 20
357.101532
 10
123.841006
 20
357.101525
 10
123.769931
 20
357.101517
 10
123.698816
 20
357.102607
 10
123.627751
 20
357.104932
 10
123.556684
 20
357.107255
 10
123.485664
 20
357.110822
 10
123.414711
 20
357.115582
 10
123.343759
 20
357.12034
 10
123.272874
 20
357.126302
 10
123.202164
 20
357.134065
 10
123.131454
 20
357.141827
 10
123.060919
 20
357.151402
 10
122.990386
 20
357.16097
  0
ARC
  5
1A0
100
AcDbEntity
  8
M0
  6
CONTINUOUS
370
25
 62
   154
100
AcDbCircle
 10
125.340386
 20
445.571682
 40
1.0
100
AcDbArc
 50
90.0
 51
180.0
  0
ARC
  5
1A1
100
AcDbEntity
  8
M0
  6
CONTINUOUS
370
25
 62
   154
100
AcDbCircle
 10
124.840386
 20
391.071682
 40
0.5
100
AcDbArc
 50
180.0
 51
270.0
  0
ARC
  5
1A2
100
AcDbEntity
  8
M0
  6
CONTINUOUS
370
25
 62
   154
100
AcDbCircle
 10
147.840386
 20
391.071682
 40
0.5
100
AcDbArc
 50
270.0
 51
360.0
  0
ARC
  5
1A3
100
AcDbEntity
  8
M0
  6
CONTINUOUS
370
25
 62
   154
100
AcDbCircle
 10
148.840386
 20
361.821682
 40
4.75
100
AcDbArc
 50
212.636898
 51
255.717979
  0
ARC
  5
1A4
100
AcDbEntity
  8
M0
  6
CONTINUOUS
370
25
 62
   154
100
AcDbCircle
 10
123.840386
 20
361.821682
 40
4.75
100
AcDbArc
 50
284.282021
 51
327.363102
  0
SPLINE
  5
1A5
100
AcDbEntity
  8
M0
  6
CONTINUOUS
370
25
 62
   154
100
AcDbSpline
210
0.0
220
0.0
230
-1.0
 70
     8
 71
     3
 72
     8
 73
     4
 43
0.0000001
 40
0.0
 40
0.0
 40
0.0
 40
0.0
 40
1.0
 40
1.0
 40
1.0
 40
1.0
 10
150.012186
 20
357.21849
 10
149.906156
 20
357.191497
 10
149.798244
 20
357.17695
 10
149.690386
 20
357.16097
  0
ARC
  5
1A6
100
AcDbEntity
  8
M0
  6
CONTINUOUS
370
25
 62
   154
100
AcDbCircle
 10
148.840386
 20
361.821682
 40
4.25
100
AcDbArc
 50
195.26773
 51
344.73227
  0
LINE
  5
1A7
100
AcDbEntity
  8
M0
  6
CONTINUOUS
370
25
 62
   154
100
AcDbLine
 10
125.190386
 20
477.871682
 11
125.190386
 21
479.530057
  0
LINE
  5
1A8
100
AcDbEntity
  8
M0
  6
CONTINUOUS
370
25
 62
   154
100
AcDbLine
 10
144.840386
 20
482.071682
 11
147.090386
 21
482.071682
  0
LINE
  5
1A9
100
AcDbEntity
  8
M0
  6
CONTINUOUS
370
25
 62
   154
100
AcDbLine
 10
169.840386
 20
482.071682
 11
172.090386
 21
482.071682
  0
LINE
  5
1AA
100
AcDbEntity
  8
M0
  6
CONTINUOUS
370
25
 62
   154
100
AcDbLine
 10
150.590386
 20
482.071682
 11
152.840386
 21
482.071682
  0
LINE
  5
1AB
100
AcDbEntity
  8
M0
  6
CONTINUOUS
370
25
 62
   154
100
AcDbLine
 10
172.490386
 20
479.530057
 11
172.490386
 21
477.371682
  0
LINE
  5
1AC
100
AcDbEntity
  8
M0
  6
CONTINUOUS
370
25
 62
   154
100
AcDbLine
 10
100.190384
 20
477.371682
 11
100.190384
 21
479.530057
  0
LINE
  5
1AD
100
AcDbEntity
  8
M0
  6
CONTINUOUS
370
25
 62
   154
100
AcDbLine
 10
102.840384
 20
482.071682
 11
100.590384
 21
482.071682
  0
LINE
  5
1AE
100
AcDbEntity
  8
M0
  6
CONTINUOUS
370
25
 62
   154
100
AcDbLine
 10
103.840386
 20
365.571685
 11
103.840386
 21
353.071682
  0
ARC
  5
1AF
100
AcDbEntity
  8
M0
  6
CONTINUOUS
370
25
 62
   154
100
AcDbCircle
 10
123.840386
 20
361.821682
 40
4.25
100
AcDbArc
 50
195.26773
 51
344.73227
  0
LINE
  5
1B0
100
AcDbEntity
  8
M0
  6
CONTINUOUS
370
25
 62
   154
100
AcDbLine
 10
150.190386
 20
355.071677
 11
150.190386
 21
356.271682
  0
LINE
  5
1B1
100
AcDbEntity
  8
M0
  6
CONTINUOUS
370
25
 62
   154
100
AcDbLine
 10
125.190386
 20
355.071677
 11
125.190386
 21
356.271682
  0
LINE
  5
1B2
100
AcDbEntity
  8
M0
  6
CONTINUOUS
370
25
 62
   154
100
AcDbLine
 10
125.190386
 20
354.613307
 11
125.190386
 21
355.071677
  0
LINE
  5
1B3
100
AcDbEntity
  8
M0
  6
CONTINUOUS
370
25
 62
   154
100
AcDbLine
 10
125.590386
 20
352.071687
 11
127.840386
 21
352.071687
  0
SPLINE
  5
1B4
100
AcDbEntity
  8
M0
  6
CONTINUOUS
370
25
 62
   154
100
AcDbSpline
210
0.0
220
0.0
230
-1.0
 70
     8
 71
     3
 72
     8
 73
     4
 43
0.0000001
 40
0.0
 40
0.0
 40
0.0
 40
0.0
 40
1.0
 40
1.0
 40
1.0
 40
1.0
 10
127.840386
 20
364.38342
 10
127.876406
 20
364.327175
 10
127.909526
 20
364.26931
 10
127.940386
 20
364.210177
  0
SPLINE
  5
1B5
100
AcDbEntity
  8
M0
  6
CONTINUOUS
370
25
 62
   154
100
AcDbSpline
210
0.0
220
0.0
230
-1.0
 70
     8
 71
     3
 72
    65
 73
    61
 43
0.0000001
 40
0.0
 40
0.0
 40
0.0
 40
0.0
 40
1.0
 40
1.0
 40
1.0
 40
2.0
 40
2.0
 40
2.0
 40
3.0
 40
3.0
 40
3.0
 40
4.0
 40
4.0
 40
4.0
 40
5.0
 40
5.0
 40
5.0
 40
6.0
 40
6.0
 40
6.0
 40
7.0
 40
7.0
 40
7.0
 40
8.0
 40
8.0
 40
8.0
 40
9.0
 40
9.0
 40
9.0
 40
10.0
 40
10.0
 40
10.0
 40
11.0
 40
11.0
 40
11.0
 40
12.0
 40
12.0
 40
12.0
 40
13.0
 40
13.0
 40
13.0
 40
14.0
 40
14.0
 40
14.0
 40
15.0
 40
15.0
 40
15.0
 40
16.0
 40
16.0
 40
16.0
 40
17.0
 40
17.0
 40
17.0
 40
18.0
 40
18.0
 40
18.0
 40
19.0
 40
19.0
 40
19.0
 40
20.0
 40
20.0
 40
20.0
 40
20.0
 10
168.316674
 20
369.048577
 10
168.341316
 20
369.011652
 10
168.365956
 20
368.974732
 10
168.391446
 20
368.93864
 10
168.416936
 20
368.902545
 10
168.443274
 20
368.867292
 10
168.469444
 20
368.833425
 10
168.495614
 20
368.799557
 10
168.521616
 20
368.767087
 10
168.550794
 20
368.732505
 10
168.579969
 20
368.697925
 10
168.612316
 20
368.66125
 10
168.635614
 20
368.63546
 10
168.653074
 20
368.61613
 10
168.665451
 20
368.60292
 10
168.679404
 20
368.588237
 10
168.693356
 20
368.573552
 10
168.708881
 20
368.5574
 10
168.724216
 20
368.541792
 10
168.739551
 20
368.526187
 10
168.754696
 20
368.51113
 10
168.770119
 20
368.496082
 10
168.785541
 20
368.481035
 10
168.801244
 20
368.466002
 10
168.817176
 20
368.451062
 10
168.833109
 20
368.436122
 10
168.849281
 20
368.421277
 10
168.865534
 20
368.406637
 10
168.881786
 20
368.391997
 10
168.898126
 20
368.377562
 10
168.915089
 20
368.362927
 10
168.932051
 20
368.348292
 10
168.949639
 20
368.333455
 10
168.965534
 20
368.3202
 10
168.981426
 20
368.306945
 10
168.995636
 20
368.295265
 10
169.016559
 20
368.278727
 10
169.044119
 20
368.256937
 10
169.083341
 20
368.226717
 10
169.119801
 20
368.199837
 10
169.156264
 20
368.172957
 10
169.189981
 20
368.149417
 10
169.224861
 20
368.125992
 10
169.259741
 20
368.102567
 10
169.295791
 20
368.079265
 10
169.331996
 20
368.056882
 10
169.368199
 20
368.034502
 10
169.404571
 20
368.013042
 10
169.441466
 20
367.992202
 10
169.478361
 20
367.971362
 10
169.515784
 20
367.95115
 10
169.553711
 20
367.931642
 10
169.591639
 20
367.912137
 10
169.630079
 20
367.893342
 10
169.668976
 20
367.875195
 10
169.707876
 20
367.857047
 10
169.747241
 20
367.839557
 10
169.787224
 20
367.822997
 10
169.827206
 20
367.806437
 10
169.867814
 20
367.790812
 10
169.908416
 20
367.775185
  0
SPLINE
  5
1B6
100
AcDbEntity
  8
M0
  6
CONTINUOUS
370
25
 62
   154
100
AcDbSpline
210
0.0
220
0.0
230
-1.0
 70
     8
 71
     3
 72
     8
 73
     4
 43
0.0000001
 40
0.0
 40
0.0
 40
0.0
 40
0.0
 40
1.0
 40
1.0
 40
1.0
 40
1.0
 10
144.740386
 20
364.210177
 10
144.771246
 20
364.26931
 10
144.804364
 20
364.327175
 10
144.840386
 20
364.38342
  0
SPLINE
  5
1B7
100
AcDbEntity
  8
M0
  6
CONTINUOUS
370
25
 62
   154
100
AcDbSpline
210
0.0
220
0.0
230
-1.0
 70
     8
 71
     3
 72
     8
 73
     4
 43
0.0000001
 40
0.0
 40
0.0
 40
0.0
 40
0.0
 40
1.0
 40
1.0
 40
1.0
 40
1.0
 10
152.840386
 20
364.38342
 10
152.876406
 20
364.327175
 10
152.909526
 20
364.26931
 10
152.940386
 20
364.210177
  0
SPLINE
  5
1B8
100
AcDbEntity
  8
M0
  6
CONTINUOUS
370
25
 62
   154
100
AcDbSpline
210
0.0
220
0.0
230
-1.0
 70
     8
 71
     3
 72
     8
 73
     4
 43
0.0000001
 40
0.0
 40
0.0
 40
0.0
 40
0.0
 40
1.0
 40
1.0
 40
1.0
 40
1.0
 10
119.740386
 20
364.210177
 10
119.771246
 20
364.26931
 10
119.804364
 20
364.327175
 10
119.840386
 20
364.38342
  0
LINE
  5
1B9
100
AcDbEntity
  8
M0
  6
CONTINUOUS
370
25
 62
   154
100
AcDbLine
 10
173.840386
 20
476.871682
 11
173.840386
 21
357.271682
  0
LINE
  5
1BA
100
AcDbEntity
  8
M0
  6
CONTINUOUS
370
25
 62
   154
100
AcDbLine
 10
98.840384
 20
357.271682
 11
98.840384
 21
476.871682
  0
ARC
  5
1BB
100
AcDbEntity
  8
M0
  6
CONTINUOUS
370
25
 62
   154
100
AcDbCircle
 10
99.340386
 20
357.271682
 40
0.5
100
AcDbArc
 50
180.0
 51
270.0
  0
CIRCLE
  5
1BC
100
AcDbEntity
  8
M0
  6
CONTINUOUS
370
25
 62
   154
100
AcDbCircle
 10
123.840386
 20
462.871682
 40
3.25
  0
ARC
  5
1BD
100
AcDbEntity
  8
M0
  6
CONTINUOUS
370
25
 62
   154
100
AcDbCircle
 10
173.340386
 20
357.271682
 40
0.5
100
AcDbArc
 50
270.0
 51
360.0
  0
LINE
  5
1BE
100
AcDbEntity
  8
M0
  6
CONTINUOUS
370
25
 62
   154
100
AcDbLine
 10
173.340386
 20
374.07168
 11
171.040384
 21
374.07168
  0
LINE
  5
1BF
100
AcDbEntity
  8
M0
  6
CONTINUOUS
370
25
 62
   154
100
AcDbLine
 10
149.840386
 20
382.471682
 11
149.840386
 21
375.571685
  0
CIRCLE
  5
1C0
100
AcDbEntity
  8
M0
  6
CONTINUOUS
370
25
 62
   154
100
AcDbCircle
 10
148.840386
 20
462.871682
 40
3.25
  0
LINE
  5
1C1
100
AcDbEntity
  8
M0
  6
CONTINUOUS
370
25
 62
   154
100
AcDbLine
 10
101.640386
 20
374.07168
 11
99.340386
 21
374.07168
  0
ARC
  5
1C2
100
AcDbEntity
  8
M0
  6
CONTINUOUS
370
25
 62
   154
100
AcDbCircle
 10
105.840386
 20
469.071682
 40
2.0
100
AcDbArc
 50
180.0
 51
270.0
  0
ARC
  5
1C3
100
AcDbEntity
  8
M0
  6
CONTINUOUS
370
25
 62
   154
100
AcDbCircle
 10
166.840386
 20
469.071682
 40
2.0
100
AcDbArc
 50
270.0
 51
360.0
  0
ARC
  5
1C4
100
AcDbEntity
  8
M0
  6
CONTINUOUS
370
25
 62
   154
100
AcDbCircle
 10
155.840386
 20
469.071682
 40
2.0
100
AcDbArc
 50
180.0
 51
270.0
  0
LINE
  5
1C5
100
AcDbEntity
  8
M0
  6
CONTINUOUS
370
25
 62
   154
100
AcDbLine
 10
122.490386
 20
356.271682
 11
122.490386
 21
355.071677
  0
LINE
  5
1C6
100
AcDbEntity
  8
M0
  6
CONTINUOUS
370
25
 62
   154
100
AcDbLine
 10
149.690386
 20
356.771677
 11
147.990386
 21
356.771677
  0
LINE
  5
1C7
100
AcDbEntity
  8
M0
  6
CONTINUOUS
370
25
 62
   154
100
AcDbLine
 10
144.740386
 20
364.21018
 11
144.740386
 21
359.433187
  0
LINE
  5
1C8
100
AcDbEntity
  8
M0
  6
CONTINUOUS
370
25
 62
   154
100
AcDbLine
 10
147.490386
 20
356.271682
 11
147.490386
 21
355.071677
  0
LINE
  5
1C9
100
AcDbEntity
  8
M0
  6
CONTINUOUS
370
25
 62
   154
100
AcDbLine
 10
119.740386
 20
364.21018
 11
119.740386
 21
359.433187
  0
LINE
  5
1CA
100
AcDbEntity
  8
M0
  6
CONTINUOUS
370
25
 62
   154
100
AcDbLine
 10
173.340386
 20
356.771677
 11
172.490386
 21
356.771677
  0
LINE
  5
1CB
100
AcDbEntity
  8
M0
  6
CONTINUOUS
370
25
 62
   154
100
AcDbLine
 10
124.690386
 20
356.771677
 11
122.990386
 21
356.771677
  0
ARC
  5
1CC
100
AcDbEntity
  8
M0
  6
CONTINUOUS
370
25
 62
   154
100
AcDbCircle
 10
116.840386
 20
469.071682
 40
2.0
100
AcDbArc
 50
270.0
 51
360.0
  0
ARC
  5
1CD
100
AcDbEntity
  8
M0
  6
CONTINUOUS
370
25
 62
   154
100
AcDbCircle
 10
148.840386
 20
472.321682
 40
4.75
100
AcDbArc
 50
32.636898
 51
149.673029
  0
ARC
  5
1CE
100
AcDbEntity
  8
M0
  6
CONTINUOUS
370
25
 62
   154
100
AcDbCircle
 10
130.840386
 20
469.071682
 40
2.0
100
AcDbArc
 50
180.0
 51
270.0
  0
ARC
  5
1CF
100
AcDbEntity
  8
M0
  6
CONTINUOUS
370
25
 62
   154
100
AcDbCircle
 10
123.840386
 20
472.321682
 40
4.25
100
AcDbArc
 50
195.26773
 51
344.73227
  0
ARC
  5
1D0
100
AcDbEntity
  8
M0
  6
CONTINUOUS
370
25
 62
   154
100
AcDbCircle
 10
149.690386
 20
477.871682
 40
0.5
100
AcDbArc
 50
288.771873
 51
360.0
  0
ARC
  5
1D1
100
AcDbEntity
  8
M0
  6
CONTINUOUS
370
25
 62
   154
100
AcDbCircle
 10
123.840386
 20
472.321682
 40
4.75
100
AcDbArc
 50
32.636898
 51
149.673016
  0
ARC
  5
1D2
100
AcDbEntity
  8
M0
  6
CONTINUOUS
370
25
 62
   154
100
AcDbCircle
 10
122.990386
 20
477.871682
 40
0.5
100
AcDbArc
 50
180.0
 51
251.228127
  0
ARC
  5
1D3
100
AcDbEntity
  8
M0
  6
CONTINUOUS
370
25
 62
   154
100
AcDbCircle
 10
148.840386
 20
472.321682
 40
4.25
100
AcDbArc
 50
15.26773
 51
164.73227
  0
ARC
  5
1D4
100
AcDbEntity
  8
M0
  6
CONTINUOUS
370
25
 62
   154
100
AcDbCircle
 10
148.840386
 20
472.321682
 40
4.25
100
AcDbArc
 50
195.26773
 51
344.73227
  0
SPLINE
  5
1D5
100
AcDbEntity
  8
M0
  6
CONTINUOUS
370
25
 62
   154
100
AcDbSpline
210
0.0
220
0.0
230
-1.0
 70
     8
 71
     3
 72
     8
 73
     4
 43
0.0000001
 40
0.0
 40
0.0
 40
0.0
 40
0.0
 40
1.0
 40
1.0
 40
1.0
 40
1.0
 10
152.840386
 20
474.88342
 10
152.876406
 20
474.827175
 10
152.909526
 20
474.76931
 10
152.940386
 20
474.710177
  0
SPLINE
  5
1D6
100
AcDbEntity
  8
M0
  6
CONTINUOUS
370
25
 62
   154
100
AcDbSpline
210
0.0
220
0.0
230
-1.0
 70
     8
 71
     3
 72
     8
 73
     4
 43
0.0000001
 40
0.0
 40
0.0
 40
0.0
 40
0.0
 40
1.0
 40
1.0
 40
1.0
 40
1.0
 10
127.840386
 20
474.88342
 10
127.876406
 20
474.827175
 10
127.909526
 20
474.76931
 10
127.940386
 20
474.710177
  0
ARC
  5
1D7
100
AcDbEntity
  8
M0
  6
CONTINUOUS
370
25
 62
   154
100
AcDbCircle
 10
173.340386
 20
476.871682
 40
0.5
100
AcDbArc
 50
0.0
 51
90.0
  0
ARC
  5
1D8
100
AcDbEntity
  8
M0
  6
CONTINUOUS
370
25
 62
   154
100
AcDbCircle
 10
141.840386
 20
469.071682
 40
2.0
100
AcDbArc
 50
270.0
 51
360.0
  0
ARC
  5
1D9
100
AcDbEntity
  8
M0
  6
CONTINUOUS
370
25
 62
   154
100
AcDbCircle
 10
123.840386
 20
472.321682
 40
4.25
100
AcDbArc
 50
15.26773
 51
164.73227
  0
ARC
  5
1DA
100
AcDbEntity
  8
M0
  6
CONTINUOUS
370
25
 62
   154
100
AcDbCircle
 10
123.840386
 20
361.821682
 40
4.25
100
AcDbArc
 50
15.26773
 51
164.73227
  0
ARC
  5
1DB
100
AcDbEntity
  8
M0
  6
CONTINUOUS
370
25
 62
   154
100
AcDbCircle
 10
173.340386
 20
367.071682
 40
0.5
100
AcDbArc
 50
0.0
 51
90.0
  0
ARC
  5
1DC
100
AcDbEntity
  8
M0
  6
CONTINUOUS
370
25
 62
   154
100
AcDbCircle
 10
173.340386
 20
374.571682
 40
0.5
100
AcDbArc
 50
270.0
 51
360.0
  0
ARC
  5
1DD
100
AcDbEntity
  8
M0
  6
CONTINUOUS
370
25
 62
   154
100
AcDbCircle
 10
148.840386
 20
361.821682
 40
4.25
100
AcDbArc
 50
15.26773
 51
164.73227
  0
ARC
  5
1DE
100
AcDbEntity
  8
M0
  6
CONTINUOUS
370
25
 62
   154
100
AcDbCircle
 10
99.340386
 20
367.071682
 40
0.5
100
AcDbArc
 50
90.0
 51
180.0
  0
ARC
  5
1DF
100
AcDbEntity
  8
M0
  6
CONTINUOUS
370
25
 62
   154
100
AcDbCircle
 10
105.840386
 20
365.571682
 40
2.0
100
AcDbArc
 50
90.0
 51
180.0
  0
ARC
  5
1E0
100
AcDbEntity
  8
M0
  6
CONTINUOUS
370
25
 62
   154
100
AcDbCircle
 10
141.840386
 20
365.571682
 40
2.0
100
AcDbArc
 50
0.0
 51
90.0
  0
ARC
  5
1E1
100
AcDbEntity
  8
M0
  6
CONTINUOUS
370
25
 62
   154
100
AcDbCircle
 10
155.840386
 20
365.571682
 40
2.0
100
AcDbArc
 50
90.0
 51
180.0
  0
ARC
  5
1E2
100
AcDbEntity
  8
M0
  6
CONTINUOUS
370
25
 62
   154
100
AcDbCircle
 10
116.840386
 20
365.571682
 40
2.0
100
AcDbArc
 50
0.0
 51
90.0
  0
ARC
  5
1E3
100
AcDbEntity
  8
M0
  6
CONTINUOUS
370
25
 62
   154
100
AcDbCircle
 10
130.840386
 20
365.571682
 40
2.0
100
AcDbArc
 50
90.0
 51
180.0
  0
ARC
  5
1E4
100
AcDbEntity
  8
M0
  6
CONTINUOUS
370
25
 62
   154
100
AcDbCircle
 10
171.040386
 20
370.821682
 40
3.25
100
AcDbArc
 50
249.61673
 51
270.0
  0
ARC
  5
1E5
100
AcDbEntity
  8
M0
  6
CONTINUOUS
370
25
 62
   154
100
AcDbCircle
 10
166.840386
 20
365.571682
 40
2.0
100
AcDbArc
 50
0.0
 51
90.0
  0
LINE
  5
1E6
100
AcDbEntity
  8
M0
  6
CONTINUOUS
370
25
 62
   154
100
AcDbLine
 10
99.340386
 20
367.57168
 11
101.640386
 21
367.57168
  0
LINE
  5
1E7
100
AcDbEntity
  8
M0
  6
CONTINUOUS
370
25
 62
   154
100
AcDbLine
 10
128.840386
 20
365.571685
 11
128.840386
 21
353.071682
  0
LINE
  5
1E8
100
AcDbEntity
  8
M0
  6
CONTINUOUS
370
25
 62
   154
100
AcDbLine
 10
152.940386
 20
359.433187
 11
152.940386
 21
364.21018
  0
LINE
  5
1E9
100
AcDbEntity
  8
M0
  6
CONTINUOUS
370
25
 62
   154
100
AcDbLine
 10
127.940386
 20
359.433187
 11
127.940386
 21
364.21018
  0
LINE
  5
1EA
100
AcDbEntity
  8
M0
  6
CONTINUOUS
370
25
 62
   154
100
AcDbLine
 10
143.840386
 20
353.071682
 11
143.840386
 21
365.571685
  0
ARC
  5
1EB
100
AcDbEntity
  8
M0
  6
CONTINUOUS
370
25
 62
   154
100
AcDbCircle
 10
99.340386
 20
476.871682
 40
0.5
100
AcDbArc
 50
90.0
 51
180.0
  0
LINE
  5
1EC
100
AcDbEntity
  8
M0
  6
CONTINUOUS
370
25
 62
   154
100
AcDbLine
 10
100.190384
 20
355.071677
 11
100.190384
 21
356.771677
  0
LINE
  5
1ED
100
AcDbEntity
  8
M0
  6
CONTINUOUS
370
25
 62
   154
100
AcDbLine
 10
100.190384
 20
356.771677
 11
99.340386
 21
356.771677
  0
LINE
  5
1EE
100
AcDbEntity
  8
M0
  6
CONTINUOUS
370
25
 62
   154
100
AcDbLine
 10
118.840386
 20
353.071682
 11
118.840386
 21
365.571685
  0
LINE
  5
1EF
100
AcDbEntity
  8
M0
  6
CONTINUOUS
370
25
 62
   154
100
AcDbLine
 10
166.840386
 20
367.57168
 11
155.840386
 21
367.57168
  0
LINE
  5
1F0
100
AcDbEntity
  8
M0
  6
CONTINUOUS
370
25
 62
   154
100
AcDbLine
 10
116.840386
 20
367.57168
 11
105.840386
 21
367.57168
  0
LINE
  5
1F1
100
AcDbEntity
  8
M0
  6
CONTINUOUS
370
25
 62
   154
100
AcDbLine
 10
153.840386
 20
365.571685
 11
153.840386
 21
353.071682
  0
LINE
  5
1F2
100
AcDbEntity
  8
M0
  6
CONTINUOUS
370
25
 62
   154
100
AcDbLine
 10
171.040384
 20
367.57168
 11
173.340386
 21
367.57168
  0
LINE
  5
1F3
100
AcDbEntity
  8
M0
  6
CONTINUOUS
370
25
 62
   154
100
AcDbLine
 10
141.840386
 20
367.57168
 11
130.840386
 21
367.57168
  0
LINE
  5
1F4
100
AcDbEntity
  8
M0
  6
CONTINUOUS
370
25
 62
   154
100
AcDbLine
 10
152.034521
 20
462.271682
 11
151.993816
 21
462.271682
  0
LINE
  5
1F5
100
AcDbEntity
  8
M0
  6
CONTINUOUS
370
25
 62
   154
100
AcDbLine
 10
151.993816
 20
462.085315
 11
151.993816
 21
462.271682
  0
LINE
  5
1F6
100
AcDbEntity
  8
M0
  6
CONTINUOUS
370
25
 62
   154
100
AcDbLine
 10
152.840386
 20
352.071687
 11
150.590386
 21
352.071687
  0
LINE
  5
1F7
100
AcDbEntity
  8
M0
  6
CONTINUOUS
370
25
 62
   154
100
AcDbLine
 10
100.190384
 20
354.613307
 11
100.190384
 21
355.071677
  0
LINE
  5
1F8
100
AcDbEntity
  8
M0
  6
CONTINUOUS
370
25
 62
   154
100
AcDbLine
 10
100.590384
 20
352.071687
 11
102.840384
 21
352.071687
  0
LINE
  5
1F9
100
AcDbEntity
  8
M0
  6
CONTINUOUS
370
25
 62
   154
100
AcDbLine
 10
147.490386
 20
355.071677
 11
147.490386
 21
354.613302
  0
LINE
  5
1FA
100
AcDbEntity
  8
M0
  6
CONTINUOUS
370
25
 62
   154
100
AcDbLine
 10
119.840386
 20
352.071687
 11
122.090386
 21
352.071687
  0
LINE
  5
1FB
100
AcDbEntity
  8
M0
  6
CONTINUOUS
370
25
 62
   154
100
AcDbLine
 10
172.090386
 20
352.071687
 11
169.840386
 21
352.071687
  0
LINE
  5
1FC
100
AcDbEntity
  8
M0
  6
CONTINUOUS
370
25
 62
   154
100
AcDbLine
 10
122.490386
 20
355.071677
 11
122.490386
 21
354.613307
  0
LINE
  5
1FD
100
AcDbEntity
  8
M0
  6
CONTINUOUS
370
25
 62
   154
100
AcDbLine
 10
172.490386
 20
356.771677
 11
172.490386
 21
354.613307
  0
ARC
  5
1FE
100
AcDbEntity
  8
M0
  6
CONTINUOUS
370
25
 62
   154
100
AcDbCircle
 10
169.840386
 20
353.071682
 40
1.0
100
AcDbArc
 50
180.0
 51
270.0
  0
ARC
  5
1FF
100
AcDbEntity
  8
M0
  6
CONTINUOUS
370
25
 62
   154
100
AcDbCircle
 10
102.840386
 20
353.071682
 40
1.0
100
AcDbArc
 50
270.0
 51
360.0
  0
ARC
  5
200
100
AcDbEntity
  8
M0
  6
CONTINUOUS
370
25
 62
   154
100
AcDbCircle
 10
119.840386
 20
353.071682
 40
1.0
100
AcDbArc
 50
180.0
 51
270.0
  0
ARC
  5
201
100
AcDbEntity
  8
M0
  6
CONTINUOUS
370
25
 62
   154
100
AcDbCircle
 10
152.840386
 20
353.071682
 40
1.0
100
AcDbArc
 50
270.0
 51
360.0
  0
ARC
  5
202
100
AcDbEntity
  8
M0
  6
CONTINUOUS
370
25
 62
   154
100
AcDbCircle
 10
127.840386
 20
353.071682
 40
1.0
100
AcDbArc
 50
270.0
 51
360.0
  0
ARC
  5
203
100
AcDbEntity
  8
M0
  6
CONTINUOUS
370
25
 62
   154
100
AcDbCircle
 10
144.840386
 20
353.071682
 40
1.0
100
AcDbArc
 50
180.0
 51
270.0
  0
ARC
  5
204
100
AcDbEntity
  8
M0
  6
CONTINUOUS
370
25
 62
   154
100
AcDbCircle
 10
123.840386
 20
361.821682
 40
4.75
100
AcDbArc
 50
212.636898
 51
255.717979
  0
LINE
  5
205
100
AcDbEntity
  8
M0
  6
CONTINUOUS
370
25
 62
   154
100
AcDbLine
 10
150.090386
 20
352.57168
 11
150.090386
 21
353.178857
  0
LINE
  5
206
100
AcDbEntity
  8
M0
  6
CONTINUOUS
370
25
 62
   154
100
AcDbLine
 10
147.590386
 20
353.178857
 11
147.590386
 21
352.57168
  0
LINE
  5
207
100
AcDbEntity
  8
M0
  6
CONTINUOUS
370
25
 62
   154
100
AcDbLine
 10
122.590386
 20
481.571682
 11
122.590386
 21
480.964502
  0
LINE
  5
208
100
AcDbEntity
  8
M0
  6
CONTINUOUS
370
25
 62
   154
100
AcDbLine
 10
172.590384
 20
481.571682
 11
172.590384
 21
480.964502
  0
LINE
  5
209
100
AcDbEntity
  8
M0
  6
CONTINUOUS
370
25
 62
   154
100
AcDbLine
 10
122.590386
 20
353.178857
 11
122.590386
 21
352.57168
  0
LINE
  5
20A
100
AcDbEntity
  8
M0
  6
CONTINUOUS
370
25
 62
   154
100
AcDbLine
 10
150.090386
 20
480.964502
 11
150.090386
 21
481.571682
  0
ARC
  5
20B
100
AcDbEntity
  8
M0
  6
CONTINUOUS
370
25
 62
   154
100
AcDbCircle
 10
172.090386
 20
352.571682
 40
0.5
100
AcDbArc
 50
270.0
 51
360.0
  0
ARC
  5
20C
100
AcDbEntity
  8
M0
  6
CONTINUOUS
370
25
 62
   154
100
AcDbCircle
 10
122.090386
 20
481.571682
 40
0.5
100
AcDbArc
 50
0.0
 51
90.0
  0
LINE
  5
20D
100
AcDbEntity
  8
M0
  6
CONTINUOUS
370
25
 62
   154
100
AcDbLine
 10
125.090386
 20
352.57168
 11
125.090386
 21
353.178857
  0
LINE
  5
20E
100
AcDbEntity
  8
M0
  6
CONTINUOUS
370
25
 62
   154
100
AcDbLine
 10
172.590384
 20
353.178865
 11
172.590384
 21
352.57168
  0
LINE
  5
20F
100
AcDbEntity
  8
M0
  6
CONTINUOUS
370
25
 62
   154
100
AcDbLine
 10
100.090386
 20
352.57168
 11
100.090386
 21
353.178857
  0
LINE
  5
210
100
AcDbEntity
  8
M0
  6
CONTINUOUS
370
25
 62
   154
100
AcDbLine
 10
125.090386
 20
480.964502
 11
125.090386
 21
481.571682
  0
LINE
  5
211
100
AcDbEntity
  8
M0
  6
CONTINUOUS
370
25
 62
   154
100
AcDbLine
 10
100.090386
 20
480.964502
 11
100.090386
 21
481.571682
  0
ARC
  5
212
100
AcDbEntity
  8
M0
  6
CONTINUOUS
370
25
 62
   154
100
AcDbCircle
 10
148.840386
 20
361.821682
 40
4.75
100
AcDbArc
 50
32.636898
 51
147.363102
  0
ARC
  5
213
100
AcDbEntity
  8
M0
  6
CONTINUOUS
370
25
 62
   154
100
AcDbCircle
 10
123.840386
 20
361.821682
 40
4.75
100
AcDbArc
 50
32.636898
 51
147.363102
  0
LINE
  5
214
100
AcDbEntity
  8
M0
  6
CONTINUOUS
370
25
 62
   154
100
AcDbLine
 10
157.840386
 20
382.471682
 11
157.840386
 21
375.571685
  0
LINE
  5
215
100
AcDbEntity
  8
M0
  6
CONTINUOUS
370
25
 62
   154
100
AcDbLine
 10
114.840384
 20
382.471682
 11
114.840384
 21
375.571685
  0
LINE
  5
216
100
AcDbEntity
  8
M0
  6
CONTINUOUS
370
25
 62
   154
100
AcDbLine
 10
132.840386
 20
382.471682
 11
132.840386
 21
375.571685
  0
ARC
  5
217
100
AcDbEntity
  8
M0
  6
CONTINUOUS
370
25
 62
   154
100
AcDbCircle
 10
100.590386
 20
352.571682
 40
0.5
100
AcDbArc
 50
180.0
 51
270.0
  0
ARC
  5
218
100
AcDbEntity
  8
M0
  6
CONTINUOUS
370
25
 62
   154
100
AcDbCircle
 10
100.590386
 20
481.571682
 40
0.5
100
AcDbArc
 50
90.0
 51
180.0
  0
ARC
  5
219
100
AcDbEntity
  8
M0
  6
CONTINUOUS
370
25
 62
   154
100
AcDbCircle
 10
147.090386
 20
481.571682
 40
0.5
100
AcDbArc
 50
0.0
 51
90.0
  0
ARC
  5
21A
100
AcDbEntity
  8
M0
  6
CONTINUOUS
370
25
 62
   154
100
AcDbCircle
 10
125.590386
 20
352.571682
 40
0.5
100
AcDbArc
 50
180.0
 51
270.0
  0
ARC
  5
21B
100
AcDbEntity
  8
M0
  6
CONTINUOUS
370
25
 62
   154
100
AcDbCircle
 10
125.590386
 20
481.571682
 40
0.5
100
AcDbArc
 50
90.0
 51
180.0
  0
LINE
  5
21C
100
AcDbEntity
  8
M0
  6
CONTINUOUS
370
25
 62
   154
100
AcDbLine
 10
147.090386
 20
352.071687
 11
144.840386
 21
352.071687
  0
ARC
  5
21D
100
AcDbEntity
  8
M0
  6
CONTINUOUS
370
25
 62
   154
100
AcDbCircle
 10
147.090386
 20
352.571682
 40
0.5
100
AcDbArc
 50
270.0
 51
360.0
  0
LINE
  5
21E
100
AcDbEntity
  8
M0
  6
CONTINUOUS
370
25
 62
   154
100
AcDbLine
 10
147.590386
 20
481.571682
 11
147.590386
 21
480.964502
  0
LINE
  5
21F
100
AcDbEntity
  8
M0
  6
CONTINUOUS
370
25
 62
   154
100
AcDbLine
 10
150.190386
 20
354.613302
 11
150.190386
 21
355.071677
  0
ARC
  5
220
100
AcDbEntity
  8
M0
  6
CONTINUOUS
370
25
 62
   154
100
AcDbCircle
 10
172.090386
 20
481.571682
 40
0.5
100
AcDbArc
 50
0.0
 51
90.0
  0
ARC
  5
221
100
AcDbEntity
  8
M0
  6
CONTINUOUS
370
25
 62
   154
100
AcDbCircle
 10
150.590386
 20
352.571682
 40
0.5
100
AcDbArc
 50
180.0
 51
270.0
  0
ARC
  5
222
100
AcDbEntity
  8
M0
  6
CONTINUOUS
370
25
 62
   154
100
AcDbCircle
 10
122.090386
 20
352.571682
 40
0.5
100
AcDbArc
 50
270.0
 51
360.0
  0
ARC
  5
223
100
AcDbEntity
  8
M0
  6
CONTINUOUS
370
25
 62
   154
100
AcDbCircle
 10
150.590386
 20
481.571682
 40
0.5
100
AcDbArc
 50
90.0
 51
180.0
  0
ARC
  5
224
100
AcDbEntity
  8
M0
  6
CONTINUOUS
370
25
 62
   154
100
AcDbCircle
 10
171.040386
 20
370.821682
 40
3.25
100
AcDbArc
 50
90.0
 51
213.063653
  0
ARC
  5
225
100
AcDbEntity
  8
M0
  6
CONTINUOUS
370
25
 62
   154
100
AcDbCircle
 10
101.640386
 20
370.821682
 40
3.25
100
AcDbArc
 50
270.0
 51
450.0
  0
ARC
  5
226
100
AcDbEntity
  8
M0
  6
CONTINUOUS
370
25
 62
   154
100
AcDbCircle
 10
99.340386
 20
374.571682
 40
0.5
100
AcDbArc
 50
180.0
 51
270.0
  0
LINE
  5
227
100
AcDbEntity
  8
M0
  6
CONTINUOUS
370
25
 62
   154
100
AcDbLine
 10
103.840386
 20
481.071682
 11
103.840386
 21
469.071682
  0
LINE
  5
228
100
AcDbEntity
  8
M0
  6
CONTINUOUS
370
25
 62
   154
100
AcDbLine
 10
168.840384
 20
469.071682
 11
168.840384
 21
481.071682
  0
LINE
  5
229
100
AcDbEntity
  8
M0
  6
CONTINUOUS
370
25
 62
   154
100
AcDbLine
 10
148.340386
 20
392.071677
 11
124.340386
 21
392.071677
  0
ARC
  5
22A
100
AcDbEntity
  8
M0
  6
CONTINUOUS
370
25
 62
   154
100
AcDbCircle
 10
100.490384
 20
353.871687
 40
0.8
100
AcDbArc
 50
112.024326
 51
240.0
  0
ARC
  5
22B
100
AcDbEntity
  8
M0
  6
CONTINUOUS
370
25
 62
   154
100
AcDbCircle
 10
172.190386
 20
353.871687
 40
0.8
100
AcDbArc
 50
300.0
 51
427.975674
  0
ARC
  5
22C
100
AcDbEntity
  8
M0
  6
CONTINUOUS
370
25
 62
   154
100
AcDbCircle
 10
150.490386
 20
480.271677
 40
0.8
100
AcDbArc
 50
120.0
 51
247.975674
  0
ARC
  5
22D
100
AcDbEntity
  8
M0
  6
CONTINUOUS
370
25
 62
   154
100
AcDbCircle
 10
172.190386
 20
480.271677
 40
0.8
100
AcDbArc
 50
292.024326
 51
420.0
  0
ARC
  5
22E
100
AcDbEntity
  8
M0
  6
CONTINUOUS
370
25
 62
   154
100
AcDbCircle
 10
147.190386
 20
353.871687
 40
0.8
100
AcDbArc
 50
300.0
 51
427.975674
  0
ARC
  5
22F
100
AcDbEntity
  8
M0
  6
CONTINUOUS
370
25
 62
   154
100
AcDbCircle
 10
150.490386
 20
353.871687
 40
0.8
100
AcDbArc
 50
112.024326
 51
240.0
  0
ARC
  5
230
100
AcDbEntity
  8
M0
  6
CONTINUOUS
370
25
 62
   154
100
AcDbCircle
 10
125.490386
 20
353.871687
 40
0.8
100
AcDbArc
 50
112.024326
 51
240.0
  0
ARC
  5
231
100
AcDbEntity
  8
M0
  6
CONTINUOUS
370
25
 62
   154
100
AcDbCircle
 10
122.190386
 20
353.871687
 40
0.8
100
AcDbArc
 50
300.0
 51
427.975674
  0
ARC
  5
232
100
AcDbEntity
  8
M0
  6
CONTINUOUS
370
25
 62
   154
100
AcDbCircle
 10
125.490386
 20
480.271677
 40
0.8
100
AcDbArc
 50
120.0
 51
247.975674
  0
ARC
  5
233
100
AcDbEntity
  8
M0
  6
CONTINUOUS
370
25
 62
   154
100
AcDbCircle
 10
147.190386
 20
480.271677
 40
0.8
100
AcDbArc
 50
292.024326
 51
420.0
  0
ARC
  5
234
100
AcDbEntity
  8
M0
  6
CONTINUOUS
370
25
 62
   154
100
AcDbCircle
 10
100.490384
 20
480.271677
 40
0.8
100
AcDbArc
 50
120.0
 51
247.975674
  0
LINE
  5
235
100
AcDbEntity
  8
M0
  6
CONTINUOUS
370
25
 62
   154
100
AcDbLine
 10
128.840386
 20
406.571685
 11
143.840386
 21
406.571685
  0
LINE
  5
236
100
AcDbEntity
  8
M0
  6
CONTINUOUS
370
25
 62
   154
100
AcDbLine
 10
124.340386
 20
442.071682
 11
148.340386
 21
442.071682
  0
LINE
  5
237
100
AcDbEntity
  8
M0
  6
CONTINUOUS
370
25
 62
   154
100
AcDbLine
 10
99.404496
 20
382.571682
 11
98.840384
 21
382.571682
  0
LINE
  5
238
100
AcDbEntity
  8
M0
  6
CONTINUOUS
370
25
 62
   154
100
AcDbLine
 10
173.276274
 20
382.571682
 11
173.840386
 21
382.571682
  0
LINE
  5
239
100
AcDbEntity
  8
M0
  6
CONTINUOUS
370
25
 62
   154
100
AcDbLine
 10
132.090386
 20
402.27168
 11
132.090386
 21
396.771685
  0
LINE
  5
23A
100
AcDbEntity
  8
M0
  6
CONTINUOUS
370
25
 62
   154
100
AcDbLine
 10
143.840386
 20
435.57168
 11
128.840386
 21
435.57168
  0
LINE
  5
23B
100
AcDbEntity
  8
M0
  6
CONTINUOUS
370
25
 62
   154
100
AcDbLine
 10
125.340386
 20
394.071682
 11
125.340386
 21
440.071682
  0
LINE
  5
23C
100
AcDbEntity
  8
M0
  6
CONTINUOUS
370
25
 62
   154
100
AcDbLine
 10
128.840386
 20
405.994332
 11
128.840386
 21
435.57168
  0
ARC
  5
23D
100
AcDbEntity
  8
M0
  6
CONTINUOUS
370
25
 62
   154
100
AcDbCircle
 10
124.690386
 20
356.271682
 40
0.5
100
AcDbArc
 50
0.0
 51
90.0
  0
ARC
  5
23E
100
AcDbEntity
  8
M0
  6
CONTINUOUS
370
25
 62
   154
100
AcDbCircle
 10
122.990386
 20
356.271682
 40
0.5
100
AcDbArc
 50
90.0
 51
180.0
  0
ARC
  5
23F
100
AcDbEntity
  8
M0
  6
CONTINUOUS
370
25
 62
   154
100
AcDbCircle
 10
148.840386
 20
361.821682
 40
4.75
100
AcDbArc
 50
284.282021
 51
327.363102
  0
ARC
  5
240
100
AcDbEntity
  8
M0
  6
CONTINUOUS
370
25
 62
   154
100
AcDbCircle
 10
149.690386
 20
356.271682
 40
0.5
100
AcDbArc
 50
0.0
 51
90.0
  0
LINE
  5
241
100
AcDbEntity
  8
M0
  6
CONTINUOUS
370
25
 62
   154
100
AcDbLine
 10
125.340386
 20
446.57168
 11
147.340386
 21
446.57168
  0
LINE
  5
242
100
AcDbEntity
  8
M0
  6
CONTINUOUS
370
25
 62
   154
100
AcDbLine
 10
124.340386
 20
445.571682
 11
124.340386
 21
390.571682
  0
ARC
  5
243
100
AcDbEntity
  8
M0
  6
CONTINUOUS
370
25
 62
   154
100
AcDbCircle
 10
147.990386
 20
356.271682
 40
0.5
100
AcDbArc
 50
90.0
 51
180.0
  0
LINE
  5
244
100
AcDbEntity
  8
M0
  6
CONTINUOUS
370
25
 62
   154
100
AcDbLine
 10
148.340386
 20
445.571682
 11
148.340386
 21
390.571682
  0
ARC
  5
245
100
AcDbEntity
  8
M0
  6
CONTINUOUS
370
25
 62
   154
100
AcDbCircle
 10
122.190386
 20
480.271677
 40
0.8
100
AcDbArc
 50
292.024326
 51
420.0
  0
LINE
  5
246
100
AcDbEntity
  8
M0
  6
CONTINUOUS
370
25
 62
   154
100
AcDbLine
 10
147.340386
 20
440.071682
 11
147.340386
 21
394.071682
  0
LINE
  5
247
100
AcDbEntity
  8
M0
  6
CONTINUOUS
370
25
 62
   154
100
AcDbLine
 10
140.590386
 20
402.27168
 11
132.090386
 21
402.27168
  0
LINE
  5
248
100
AcDbEntity
  8
M0
  6
CONTINUOUS
370
25
 62
   154
100
AcDbLine
 10
143.840386
 20
405.994332
 11
128.840386
 21
405.994332
  0
LINE
  5
249
100
AcDbEntity
  8
M0
  6
CONTINUOUS
370
25
 62
   154
100
AcDbLine
 10
143.840386
 20
405.994332
 11
143.840386
 21
435.57168
  0
LINE
  5
24A
100
AcDbEntity
  8
M0
  6
CONTINUOUS
370
25
 62
   154
100
AcDbLine
 10
132.090386
 20
396.771685
 11
140.590386
 21
396.771685
  0
LINE
  5
24B
100
AcDbEntity
  8
M0
  6
CONTINUOUS
370
25
 62
   154
100
AcDbLine
 10
127.840386
 20
482.071682
 11
125.590386
 21
482.071682
  0
LINE
  5
24C
100
AcDbEntity
  8
M0
  6
CONTINUOUS
370
25
 62
   154
100
AcDbLine
 10
173.840386
 20
375.571685
 11
98.840384
 21
375.571685
  0
LINE
  5
24D
100
AcDbEntity
  8
M0
  6
CONTINUOUS
370
25
 62
   154
100
AcDbLine
 10
122.090386
 20
482.071682
 11
119.840386
 21
482.071682
  0
CIRCLE
  5
24E
100
AcDbEntity
  8
M0
  6
CONTINUOUS
370
25
 62
   154
100
AcDbCircle
 10
101.340386
 20
362.071682
 40
1.25
  0
CIRCLE
  5
24F
100
AcDbEntity
  8
M0
  6
CONTINUOUS
370
25
 62
   154
100
AcDbCircle
 10
101.340386
 20
472.071682
 40
1.25
  0
CIRCLE
  5
250
100
AcDbEntity
  8
M0
  6
CONTINUOUS
370
25
 62
   154
100
AcDbCircle
 10
171.340386
 20
472.071682
 40
1.55
  0
LINE
  5
251
100
AcDbEntity
  8
M0
  6
CONTINUOUS
370
25
 62
   154
100
AcDbLine
 10
140.590386
 20
396.771685
 11
140.590386
 21
402.27168
  0
CIRCLE
  5
252
100
AcDbEntity
  8
M0
  6
CONTINUOUS
370
25
 62
   154
100
AcDbCircle
 10
101.340386
 20
472.071682
 40
1.55
  0
CIRCLE
  5
253
100
AcDbEntity
  8
M0
  6
CONTINUOUS
370
25
 62
   154
100
AcDbCircle
 10
171.340386
 20
362.071682
 40
1.25
  0
CIRCLE
  5
254
100
AcDbEntity
  8
M0
  6
CONTINUOUS
370
25
 62
   154
100
AcDbCircle
 10
101.340386
 20
362.071682
 40
1.55
  0
CIRCLE
  5
255
100
AcDbEntity
  8
M0
  6
CONTINUOUS
370
25
 62
   154
100
AcDbCircle
 10
171.340386
 20
472.071682
 40
1.25
  0
CIRCLE
  5
256
100
AcDbEntity
  8
M0
  6
CONTINUOUS
370
25
 62
   154
100
AcDbCircle
 10
171.340386
 20
362.071682
 40
1.55
  0
LINE
  5
257
100
AcDbEntity
  8
M0
  6
CONTINUOUS
370
25
100
AcDbLine
 10
149.865386
 20
463.171682
 11
150.265386
 21
463.171682
  0
CIRCLE
  5
258
100
AcDbEntity
  8
M0
  6
CONTINUOUS
370
25
100
AcDbCircle
 10
148.840386
 20
462.871682
 40
2.75
  0
LINE
  5
259
100
AcDbEntity
  8
M0
  6
CONTINUOUS
370
25
100
AcDbLine
 10
147.440386
 20
462.571682
 11
147.815386
 21
462.571682
  0
LINE
  5
25A
100
AcDbEntity
  8
M0
  6
CONTINUOUS
370
25
100
AcDbLine
 10
150.265386
 20
463.171682
 11
150.265386
 21
462.571682
  0
LINE
  5
25B
100
AcDbEntity
  8
M0
  6
CONTINUOUS
370
25
100
AcDbLine
 10
147.440386
 20
463.171682
 11
147.815386
 21
463.171682
  0
ARC
  5
25C
100
AcDbEntity
  8
M0
  6
CONTINUOUS
370
25
100
AcDbCircle
 10
149.865386
 20
461.846682
 40
0.725
100
AcDbArc
 50
90.0
 51
180.0
  0
ARC
  5
25D
100
AcDbEntity
  8
M0
  6
CONTINUOUS
370
25
100
AcDbCircle
 10
147.815386
 20
463.896682
 40
0.725
100
AcDbArc
 50
270.0
 51
360.0
  0
ARC
  5
25E
100
AcDbEntity
  8
M0
  6
CONTINUOUS
370
25
100
AcDbCircle
 10
149.865386
 20
463.896682
 40
0.725
100
AcDbArc
 50
180.0
 51
270.0
  0
LINE
  5
25F
100
AcDbEntity
  8
M0
  6
CONTINUOUS
370
25
100
AcDbLine
 10
149.140386
 20
464.271682
 11
149.140386
 21
463.875322
  0
LINE
  5
260
100
AcDbEntity
  8
M0
  6
CONTINUOUS
370
25
100
AcDbLine
 10
147.440386
 20
463.171682
 11
147.440386
 21
462.571682
  0
LINE
  5
261
100
AcDbEntity
  8
M0
  6
CONTINUOUS
370
25
100
AcDbLine
 10
149.140386
 20
461.471682
 11
149.140386
 21
461.868042
  0
LINE
  5
262
100
AcDbEntity
  8
M0
  6
CONTINUOUS
370
25
100
AcDbLine
 10
148.540386
 20
464.271682
 11
148.540386
 21
463.875322
  0
LINE
  5
263
100
AcDbEntity
  8
M0
  6
CONTINUOUS
370
25
100
AcDbLine
 10
148.540386
 20
461.471682
 11
148.540386
 21
461.868042
  0
LINE
  5
264
100
AcDbEntity
  8
M0
  6
CONTINUOUS
370
25
100
AcDbLine
 10
148.540386
 20
464.271682
 11
149.140386
 21
464.271682
  0
ARC
  5
265
100
AcDbEntity
  8
M0
  6
CONTINUOUS
370
25
100
AcDbCircle
 10
147.815386
 20
461.846682
 40
0.725
100
AcDbArc
 50
0.0
 51
90.0
  0
LINE
  5
266
100
AcDbEntity
  8
M0
  6
CONTINUOUS
370
25
100
AcDbLine
 10
149.865386
 20
462.571682
 11
150.265386
 21
462.571682
  0
LINE
  5
267
100
AcDbEntity
  8
M0
  6
CONTINUOUS
370
25
100
AcDbLine
 10
148.540386
 20
461.471682
 11
149.140386
 21
461.471682
  0
LINE
  5
268
100
AcDbEntity
  8
M0
  6
CONTINUOUS
370
25
100
AcDbLine
 10
124.865386
 20
463.171682
 11
125.265386
 21
463.171682
  0
CIRCLE
  5
269
100
AcDbEntity
  8
M0
  6
CONTINUOUS
370
25
100
AcDbCircle
 10
123.840386
 20
462.871682
 40
2.75
  0
LINE
  5
26A
100
AcDbEntity
  8
M0
  6
CONTINUOUS
370
25
100
AcDbLine
 10
122.440386
 20
462.571682
 11
122.815386
 21
462.571682
  0
LINE
  5
26B
100
AcDbEntity
  8
M0
  6
CONTINUOUS
370
25
100
AcDbLine
 10
125.265386
 20
463.171682
 11
125.265386
 21
462.571682
  0
LINE
  5
26C
100
AcDbEntity
  8
M0
  6
CONTINUOUS
370
25
100
AcDbLine
 10
122.440386
 20
463.171682
 11
122.815386
 21
463.171682
  0
ARC
  5
26D
100
AcDbEntity
  8
M0
  6
CONTINUOUS
370
25
100
AcDbCircle
 10
124.865386
 20
461.846682
 40
0.725
100
AcDbArc
 50
90.0
 51
180.0
  0
ARC
  5
26E
100
AcDbEntity
  8
M0
  6
CONTINUOUS
370
25
100
AcDbCircle
 10
122.815386
 20
463.896682
 40
0.725
100
AcDbArc
 50
270.0
 51
360.0
  0
ARC
  5
26F
100
AcDbEntity
  8
M0
  6
CONTINUOUS
370
25
100
AcDbCircle
 10
124.865386
 20
463.896682
 40
0.725
100
AcDbArc
 50
180.0
 51
270.0
  0
LINE
  5
270
100
AcDbEntity
  8
M0
  6
CONTINUOUS
370
25
100
AcDbLine
 10
124.140386
 20
464.271682
 11
124.140386
 21
463.875322
  0
LINE
  5
271
100
AcDbEntity
  8
M0
  6
CONTINUOUS
370
25
100
AcDbLine
 10
122.440386
 20
463.171682
 11
122.440386
 21
462.571682
  0
LINE
  5
272
100
AcDbEntity
  8
M0
  6
CONTINUOUS
370
25
100
AcDbLine
 10
124.140386
 20
461.471682
 11
124.140386
 21
461.868042
  0
LINE
  5
273
100
AcDbEntity
  8
M0
  6
CONTINUOUS
370
25
100
AcDbLine
 10
123.540386
 20
464.271682
 11
123.540386
 21
463.875322
  0
LINE
  5
274
100
AcDbEntity
  8
M0
  6
CONTINUOUS
370
25
100
AcDbLine
 10
123.540386
 20
461.471682
 11
123.540386
 21
461.868042
  0
LINE
  5
275
100
AcDbEntity
  8
M0
  6
CONTINUOUS
370
25
100
AcDbLine
 10
123.540386
 20
464.271682
 11
124.140386
 21
464.271682
  0
ARC
  5
276
100
AcDbEntity
  8
M0
  6
CONTINUOUS
370
25
100
AcDbCircle
 10
122.815386
 20
461.846682
 40
0.725
100
AcDbArc
 50
0.0
 51
90.0
  0
LINE
  5
277
100
AcDbEntity
  8
M0
  6
CONTINUOUS
370
25
100
AcDbLine
 10
124.865386
 20
462.571682
 11
125.265386
 21
462.571682
  0
LINE
  5
278
100
AcDbEntity
  8
M0
  6
CONTINUOUS
370
25
100
AcDbLine
 10
123.540386
 20
461.471682
 11
124.140386
 21
461.471682
  0
LINE
  5
279
100
AcDbEntity
  8
M0
  6
CONTINUOUS
370
25
100
AcDbLine
 10
172.065386
 20
371.121682
 11
172.465386
 21
371.121682
  0
CIRCLE
  5
27A
100
AcDbEntity
  8
M0
  6
CONTINUOUS
370
25
100
AcDbCircle
 10
171.040386
 20
370.821682
 40
2.75
  0
LINE
  5
27B
100
AcDbEntity
  8
M0
  6
CONTINUOUS
370
25
100
AcDbLine
 10
169.640386
 20
370.521682
 11
170.015386
 21
370.521682
  0
LINE
  5
27C
100
AcDbEntity
  8
M0
  6
CONTINUOUS
370
25
100
AcDbLine
 10
172.465386
 20
371.121682
 11
172.465386
 21
370.521682
  0
LINE
  5
27D
100
AcDbEntity
  8
M0
  6
CONTINUOUS
370
25
100
AcDbLine
 10
169.640386
 20
371.121682
 11
170.015386
 21
371.121682
  0
ARC
  5
27E
100
AcDbEntity
  8
M0
  6
CONTINUOUS
370
25
100
AcDbCircle
 10
172.065386
 20
369.796682
 40
0.725
100
AcDbArc
 50
90.0
 51
180.0
  0
ARC
  5
27F
100
AcDbEntity
  8
M0
  6
CONTINUOUS
370
25
100
AcDbCircle
 10
170.015386
 20
371.846682
 40
0.725
100
AcDbArc
 50
270.0
 51
360.0
  0
ARC
  5
280
100
AcDbEntity
  8
M0
  6
CONTINUOUS
370
25
100
AcDbCircle
 10
172.065386
 20
371.846682
 40
0.725
100
AcDbArc
 50
180.0
 51
270.0
  0
LINE
  5
281
100
AcDbEntity
  8
M0
  6
CONTINUOUS
370
25
100
AcDbLine
 10
171.340386
 20
372.221682
 11
171.340386
 21
371.825322
  0
LINE
  5
282
100
AcDbEntity
  8
M0
  6
CONTINUOUS
370
25
100
AcDbLine
 10
169.640386
 20
371.121682
 11
169.640386
 21
370.521682
  0
LINE
  5
283
100
AcDbEntity
  8
M0
  6
CONTINUOUS
370
25
100
AcDbLine
 10
171.340386
 20
369.421682
 11
171.340386
 21
369.818042
  0
LINE
  5
284
100
AcDbEntity
  8
M0
  6
CONTINUOUS
370
25
100
AcDbLine
 10
170.740386
 20
372.221682
 11
170.740386
 21
371.825322
  0
LINE
  5
285
100
AcDbEntity
  8
M0
  6
CONTINUOUS
370
25
100
AcDbLine
 10
170.740386
 20
369.421682
 11
170.740386
 21
369.818042
  0
LINE
  5
286
100
AcDbEntity
  8
M0
  6
CONTINUOUS
370
25
100
AcDbLine
 10
170.740386
 20
372.221682
 11
171.340386
 21
372.221682
  0
ARC
  5
287
100
AcDbEntity
  8
M0
  6
CONTINUOUS
370
25
100
AcDbCircle
 10
170.015386
 20
369.796682
 40
0.725
100
AcDbArc
 50
0.0
 51
90.0
  0
LINE
  5
288
100
AcDbEntity
  8
M0
  6
CONTINUOUS
370
25
100
AcDbLine
 10
172.065386
 20
370.521682
 11
172.465386
 21
370.521682
  0
LINE
  5
289
100
AcDbEntity
  8
M0
  6
CONTINUOUS
370
25
100
AcDbLine
 10
170.740386
 20
369.421682
 11
171.340386
 21
369.421682
  0
LINE
  5
28A
100
AcDbEntity
  8
M0
  6
CONTINUOUS
370
25
100
AcDbLine
 10
102.665386
 20
371.121682
 11
103.065386
 21
371.121682
  0
CIRCLE
  5
28B
100
AcDbEntity
  8
M0
  6
CONTINUOUS
370
25
100
AcDbCircle
 10
101.640386
 20
370.821682
 40
2.75
  0
LINE
  5
28C
100
AcDbEntity
  8
M0
  6
CONTINUOUS
370
25
100
AcDbLine
 10
100.240386
 20
370.521682
 11
100.615386
 21
370.521682
  0
LINE
  5
28D
100
AcDbEntity
  8
M0
  6
CONTINUOUS
370
25
100
AcDbLine
 10
103.065386
 20
371.121682
 11
103.065386
 21
370.521682
  0
LINE
  5
28E
100
AcDbEntity
  8
M0
  6
CONTINUOUS
370
25
100
AcDbLine
 10
100.240386
 20
371.121682
 11
100.615386
 21
371.121682
  0
ARC
  5
28F
100
AcDbEntity
  8
M0
  6
CONTINUOUS
370
25
100
AcDbCircle
 10
102.665386
 20
369.796682
 40
0.725
100
AcDbArc
 50
90.0
 51
180.0
  0
ARC
  5
290
100
AcDbEntity
  8
M0
  6
CONTINUOUS
370
25
100
AcDbCircle
 10
100.615386
 20
371.846682
 40
0.725
100
AcDbArc
 50
270.0
 51
360.0
  0
ARC
  5
291
100
AcDbEntity
  8
M0
  6
CONTINUOUS
370
25
100
AcDbCircle
 10
102.665386
 20
371.846682
 40
0.725
100
AcDbArc
 50
180.0
 51
270.0
  0
LINE
  5
292
100
AcDbEntity
  8
M0
  6
CONTINUOUS
370
25
100
AcDbLine
 10
101.940386
 20
372.221682
 11
101.940386
 21
371.825322
  0
LINE
  5
293
100
AcDbEntity
  8
M0
  6
CONTINUOUS
370
25
100
AcDbLine
 10
100.240386
 20
371.121682
 11
100.240386
 21
370.521682
  0
LINE
  5
294
100
AcDbEntity
  8
M0
  6
CONTINUOUS
370
25
100
AcDbLine
 10
101.940386
 20
369.421682
 11
101.940386
 21
369.818042
  0
LINE
  5
295
100
AcDbEntity
  8
M0
  6
CONTINUOUS
370
25
100
AcDbLine
 10
101.340386
 20
372.221682
 11
101.340386
 21
371.825322
  0
LINE
  5
296
100
AcDbEntity
  8
M0
  6
CONTINUOUS
370
25
100
AcDbLine
 10
101.340386
 20
369.421682
 11
101.340386
 21
369.818042
  0
LINE
  5
297
100
AcDbEntity
  8
M0
  6
CONTINUOUS
370
25
100
AcDbLine
 10
101.340386
 20
372.221682
 11
101.940386
 21
372.221682
  0
ARC
  5
298
100
AcDbEntity
  8
M0
  6
CONTINUOUS
370
25
100
AcDbCircle
 10
100.615386
 20
369.796682
 40
0.725
100
AcDbArc
 50
0.0
 51
90.0
  0
LINE
  5
299
100
AcDbEntity
  8
M0
  6
CONTINUOUS
370
25
100
AcDbLine
 10
102.665386
 20
370.521682
 11
103.065386
 21
370.521682
  0
LINE
  5
29A
100
AcDbEntity
  8
M0
  6
CONTINUOUS
370
25
100
AcDbLine
 10
101.340386
 20
369.421682
 11
101.940386
 21
369.421682
  0
CIRCLE
  5
29B
100
AcDbEntity
  8
M0
  6
CONTINUOUS
370
25
100
AcDbCircle
 10
148.840386
 20
452.821682
 40
4.15
  0
CIRCLE
  5
29C
100
AcDbEntity
  8
M0
  6
CONTINUOUS
370
25
100
AcDbCircle
 10
148.840386
 20
452.821682
 40
4.25
  0
LINE
  5
29D
100
AcDbEntity
  8
M0
  6
CONTINUOUS
370
25
100
AcDbLine
 10
150.678854
 20
453.953042
 11
149.971746
 21
454.66015
  0
LINE
  5
29E
100
AcDbEntity
  8
M0
  6
CONTINUOUS
370
25
100
AcDbLine
 10
148.840386
 20
452.114575
 11
149.971791
 21
450.98317
  0
LINE
  5
29F
100
AcDbEntity
  8
M0
  6
CONTINUOUS
370
25
100
AcDbLine
 10
149.971746
 20
454.66015
 11
148.840386
 21
453.528787
  0
LINE
  5
2A0
100
AcDbEntity
  8
M0
  6
CONTINUOUS
370
25
100
AcDbLine
 10
147.709014
 20
450.983202
 11
148.840386
 21
452.114575
  0
LINE
  5
2A1
100
AcDbEntity
  8
M0
  6
CONTINUOUS
370
25
100
AcDbLine
 10
147.001906
 20
451.69031
 11
147.709014
 21
450.983202
  0
LINE
  5
2A2
100
AcDbEntity
  8
M0
  6
CONTINUOUS
370
25
100
AcDbLine
 10
148.133279
 20
452.821682
 11
147.001906
 21
451.69031
  0
LINE
  5
2A3
100
AcDbEntity
  8
M0
  6
CONTINUOUS
370
25
100
AcDbLine
 10
150.678896
 20
451.690277
 11
149.547491
 21
452.821682
  0
LINE
  5
2A4
100
AcDbEntity
  8
M0
  6
CONTINUOUS
370
25
100
AcDbLine
 10
149.547491
 20
452.821682
 11
150.678854
 21
453.953042
  0
LINE
  5
2A5
100
AcDbEntity
  8
M0
  6
CONTINUOUS
370
25
100
AcDbLine
 10
147.708981
 20
454.660192
 11
147.001874
 21
453.953087
  0
LINE
  5
2A6
100
AcDbEntity
  8
M0
  6
CONTINUOUS
370
25
100
AcDbLine
 10
149.971791
 20
450.98317
 11
150.678896
 21
451.690277
  0
LINE
  5
2A7
100
AcDbEntity
  8
M0
  6
CONTINUOUS
370
25
100
AcDbLine
 10
147.001874
 20
453.953087
 11
148.133279
 21
452.821682
  0
LINE
  5
2A8
100
AcDbEntity
  8
M0
  6
CONTINUOUS
370
25
100
AcDbLine
 10
148.840386
 20
453.528787
 11
147.708981
 21
454.660192
  0
CIRCLE
  5
2A9
100
AcDbEntity
  8
M0
  6
CONTINUOUS
370
25
100
AcDbCircle
 10
123.840386
 20
452.821682
 40
4.15
  0
CIRCLE
  5
2AA
100
AcDbEntity
  8
M0
  6
CONTINUOUS
370
25
100
AcDbCircle
 10
123.840386
 20
452.821682
 40
4.25
  0
LINE
  5
2AB
100
AcDbEntity
  8
M0
  6
CONTINUOUS
370
25
100
AcDbLine
 10
125.678854
 20
453.953042
 11
124.971746
 21
454.66015
  0
LINE
  5
2AC
100
AcDbEntity
  8
M0
  6
CONTINUOUS
370
25
100
AcDbLine
 10
123.840386
 20
452.114575
 11
124.971791
 21
450.98317
  0
LINE
  5
2AD
100
AcDbEntity
  8
M0
  6
CONTINUOUS
370
25
100
AcDbLine
 10
124.971746
 20
454.66015
 11
123.840386
 21
453.528787
  0
LINE
  5
2AE
100
AcDbEntity
  8
M0
  6
CONTINUOUS
370
25
100
AcDbLine
 10
122.709014
 20
450.983202
 11
123.840386
 21
452.114575
  0
LINE
  5
2AF
100
AcDbEntity
  8
M0
  6
CONTINUOUS
370
25
100
AcDbLine
 10
122.001906
 20
451.69031
 11
122.709014
 21
450.983202
  0
LINE
  5
2B0
100
AcDbEntity
  8
M0
  6
CONTINUOUS
370
25
100
AcDbLine
 10
123.133279
 20
452.821682
 11
122.001906
 21
451.69031
  0
LINE
  5
2B1
100
AcDbEntity
  8
M0
  6
CONTINUOUS
370
25
100
AcDbLine
 10
125.678896
 20
451.690277
 11
124.547491
 21
452.821682
  0
LINE
  5
2B2
100
AcDbEntity
  8
M0
  6
CONTINUOUS
370
25
100
AcDbLine
 10
124.547491
 20
452.821682
 11
125.678854
 21
453.953042
  0
LINE
  5
2B3
100
AcDbEntity
  8
M0
  6
CONTINUOUS
370
25
100
AcDbLine
 10
122.708981
 20
454.660192
 11
122.001874
 21
453.953087
  0
LINE
  5
2B4
100
AcDbEntity
  8
M0
  6
CONTINUOUS
370
25
100
AcDbLine
 10
124.971791
 20
450.98317
 11
125.678896
 21
451.690277
  0
LINE
  5
2B5
100
AcDbEntity
  8
M0
  6
CONTINUOUS
370
25
100
AcDbLine
 10
122.001874
 20
453.953087
 11
123.133279
 21
452.821682
  0
LINE
  5
2B6
100
AcDbEntity
  8
M0
  6
CONTINUOUS
370
25
100
AcDbLine
 10
123.840386
 20
453.528787
 11
122.708981
 21
454.660192
  0
CIRCLE
  5
2B7
100
AcDbEntity
  8
M0
  6
CONTINUOUS
370
25
 62
   114
100
AcDbCircle
 10
161.340386
 20
359.571682
 40
7.0
  0
LINE
  5
2B8
100
AcDbEntity
  8
M0
  6
CONTINUOUS
370
25
 62
   114
100
AcDbLine
 10
162.471826
 20
359.571682
 11
166.823409
 21
363.923265
  0
LINE
  5
2B9
100
AcDbEntity
  8
M0
  6
CONTINUOUS
370
25
 62
   114
100
AcDbLine
 10
156.988791
 20
354.088647
 11
161.340559
 21
358.440415
  0
LINE
  5
2BA
100
AcDbEntity
  8
M0
  6
CONTINUOUS
370
25
 62
   114
100
AcDbLine
 10
160.209129
 20
359.571845
 11
155.857361
 21
355.220077
  0
LINE
  5
2BB
100
AcDbEntity
  8
M0
  6
CONTINUOUS
370
25
 62
   114
100
AcDbLine
 10
165.691969
 20
365.054705
 11
161.340396
 21
360.70311
  0
LINE
  5
2BC
100
AcDbEntity
  8
M0
  6
CONTINUOUS
370
25
 62
   114
100
AcDbLine
 10
161.340386
 20
360.703122
 11
159.183676
 21
362.859832
  0
LINE
  5
2BD
100
AcDbEntity
  8
M0
  6
CONTINUOUS
370
25
 62
   114
100
AcDbLine
 10
164.628364
 20
357.415145
 11
162.471826
 21
359.571682
  0
LINE
  5
2BE
100
AcDbEntity
  8
M0
  6
CONTINUOUS
370
25
 62
   114
100
AcDbLine
 10
161.340559
 20
358.440415
 11
163.497096
 21
356.283877
  0
LINE
  5
2BF
100
AcDbEntity
  8
M0
  6
CONTINUOUS
370
25
 62
   114
100
AcDbLine
 10
158.052409
 20
361.728565
 11
160.209119
 21
359.571855
  0
LINE
  5
2C0
100
AcDbEntity
  8
M0
  6
CONTINUOUS
370
25
 62
   114
100
AcDbLine
 10
163.497096
 20
356.283877
 11
164.628364
 21
357.415145
  0
LINE
  5
2C1
100
AcDbEntity
  8
M0
  6
CONTINUOUS
370
25
 62
   114
100
AcDbLine
 10
159.183676
 20
362.859832
 11
158.052409
 21
361.728565
  0
ARC
  5
2C2
100
AcDbEntity
  8
M0
  6
CONTINUOUS
370
25
 62
   114
100
AcDbCircle
 10
161.340386
 20
359.571682
 40
8.0
100
AcDbArc
 50
20.364159
 51
159.635864
  0
ARC
  5
2C3
100
AcDbEntity
  8
M0
  6
CONTINUOUS
370
25
 62
   114
100
AcDbCircle
 10
161.340386
 20
359.571682
 40
8.0
100
AcDbArc
 50
200.364136
 51
339.635841
  0
LINE
  5
2C4
100
AcDbEntity
  8
M0
  6
DASHDOT
370
13
 62
   114
100
AcDbLine
 10
161.340386
 20
346.571682
 11
161.340386
 21
372.571682
  0
CIRCLE
  5
2C5
100
AcDbEntity
  8
M0
  6
CONTINUOUS
370
25
 62
   114
100
AcDbCircle
 10
136.340386
 20
359.571682
 40
7.0
  0
LINE
  5
2C6
100
AcDbEntity
  8
M0
  6
CONTINUOUS
370
25
 62
   114
100
AcDbLine
 10
137.471826
 20
359.571682
 11
141.823409
 21
363.923265
  0
LINE
  5
2C7
100
AcDbEntity
  8
M0
  6
CONTINUOUS
370
25
 62
   114
100
AcDbLine
 10
131.988791
 20
354.088647
 11
136.340559
 21
358.440415
  0
LINE
  5
2C8
100
AcDbEntity
  8
M0
  6
CONTINUOUS
370
25
 62
   114
100
AcDbLine
 10
135.209129
 20
359.571845
 11
130.857361
 21
355.220077
  0
LINE
  5
2C9
100
AcDbEntity
  8
M0
  6
CONTINUOUS
370
25
 62
   114
100
AcDbLine
 10
140.691969
 20
365.054705
 11
136.340396
 21
360.70311
  0
LINE
  5
2CA
100
AcDbEntity
  8
M0
  6
CONTINUOUS
370
25
 62
   114
100
AcDbLine
 10
136.340386
 20
360.703122
 11
134.183676
 21
362.859832
  0
LINE
  5
2CB
100
AcDbEntity
  8
M0
  6
CONTINUOUS
370
25
 62
   114
100
AcDbLine
 10
139.628364
 20
357.415145
 11
137.471826
 21
359.571682
  0
LINE
  5
2CC
100
AcDbEntity
  8
M0
  6
CONTINUOUS
370
25
 62
   114
100
AcDbLine
 10
136.340559
 20
358.440415
 11
138.497096
 21
356.283877
  0
LINE
  5
2CD
100
AcDbEntity
  8
M0
  6
CONTINUOUS
370
25
 62
   114
100
AcDbLine
 10
133.052409
 20
361.728565
 11
135.209119
 21
359.571855
  0
LINE
  5
2CE
100
AcDbEntity
  8
M0
  6
CONTINUOUS
370
25
 62
   114
100
AcDbLine
 10
138.497096
 20
356.283877
 11
139.628364
 21
357.415145
  0
LINE
  5
2CF
100
AcDbEntity
  8
M0
  6
CONTINUOUS
370
25
 62
   114
100
AcDbLine
 10
134.183676
 20
362.859832
 11
133.052409
 21
361.728565
  0
ARC
  5
2D0
100
AcDbEntity
  8
M0
  6
CONTINUOUS
370
25
 62
   114
100
AcDbCircle
 10
136.340386
 20
359.571682
 40
8.0
100
AcDbArc
 50
20.364138
 51
159.635862
  0
ARC
  5
2D1
100
AcDbEntity
  8
M0
  6
CONTINUOUS
370
25
 62
   114
100
AcDbCircle
 10
136.340386
 20
359.571682
 40
8.0
100
AcDbArc
 50
200.364138
 51
339.635862
  0
CIRCLE
  5
2D2
100
AcDbEntity
  8
M0
  6
CONTINUOUS
370
25
 62
   114
100
AcDbCircle
 10
111.340386
 20
359.571682
 40
7.0
  0
LINE
  5
2D3
100
AcDbEntity
  8
M0
  6
CONTINUOUS
370
25
 62
   114
100
AcDbLine
 10
112.471826
 20
359.571682
 11
116.823409
 21
363.923265
  0
LINE
  5
2D4
100
AcDbEntity
  8
M0
  6
CONTINUOUS
370
25
 62
   114
100
AcDbLine
 10
106.988791
 20
354.088647
 11
111.340559
 21
358.440415
  0
LINE
  5
2D5
100
AcDbEntity
  8
M0
  6
CONTINUOUS
370
25
 62
   114
100
AcDbLine
 10
110.209129
 20
359.571845
 11
105.857361
 21
355.220077
  0
LINE
  5
2D6
100
AcDbEntity
  8
M0
  6
CONTINUOUS
370
25
 62
   114
100
AcDbLine
 10
115.691969
 20
365.054705
 11
111.340396
 21
360.70311
  0
LINE
  5
2D7
100
AcDbEntity
  8
M0
  6
CONTINUOUS
370
25
 62
   114
100
AcDbLine
 10
111.340386
 20
360.703122
 11
109.183676
 21
362.859832
  0
LINE
  5
2D8
100
AcDbEntity
  8
M0
  6
CONTINUOUS
370
25
 62
   114
100
AcDbLine
 10
114.628364
 20
357.415145
 11
112.471826
 21
359.571682
  0
LINE
  5
2D9
100
AcDbEntity
  8
M0
  6
CONTINUOUS
370
25
 62
   114
100
AcDbLine
 10
111.340559
 20
358.440415
 11
113.497096
 21
356.283877
  0
LINE
  5
2DA
100
AcDbEntity
  8
M0
  6
CONTINUOUS
370
25
 62
   114
100
AcDbLine
 10
108.052409
 20
361.728565
 11
110.209119
 21
359.571855
  0
LINE
  5
2DB
100
AcDbEntity
  8
M0
  6
CONTINUOUS
370
25
 62
   114
100
AcDbLine
 10
113.497096
 20
356.283877
 11
114.628364
 21
357.415145
  0
LINE
  5
2DC
100
AcDbEntity
  8
M0
  6
CONTINUOUS
370
25
 62
   114
100
AcDbLine
 10
109.183676
 20
362.859832
 11
108.052409
 21
361.728565
  0
ARC
  5
2DD
100
AcDbEntity
  8
M0
  6
CONTINUOUS
370
25
 62
   114
100
AcDbCircle
 10
111.340386
 20
359.571682
 40
8.0
100
AcDbArc
 50
200.364159
 51
339.635864
  0
ARC
  5
2DE
100
AcDbEntity
  8
M0
  6
CONTINUOUS
370
25
 62
   114
100
AcDbCircle
 10
111.340386
 20
359.571682
 40
8.0
100
AcDbArc
 50
20.364136
 51
159.635841
  0
LINE
  5
2DF
100
AcDbEntity
  8
M0
  6
DASHDOT
370
13
 62
   114
100
AcDbLine
 10
98.340386
 20
359.571682
 11
174.340386
 21
359.571682
  0
LINE
  5
2E0
100
AcDbEntity
  8
M0
  6
DASHDOT
370
13
 62
   114
100
AcDbLine
 10
111.340386
 20
346.571682
 11
111.340386
 21
372.571682
  0
CIRCLE
  5
2E1
100
AcDbEntity
  8
M0
  6
CONTINUOUS
370
25
 62
   114
100
AcDbCircle
 10
161.340386
 20
474.571682
 40
7.0
  0
LINE
  5
2E2
100
AcDbEntity
  8
M0
  6
CONTINUOUS
370
25
 62
   114
100
AcDbLine
 10
162.471826
 20
474.571682
 11
166.823409
 21
478.923265
  0
LINE
  5
2E3
100
AcDbEntity
  8
M0
  6
CONTINUOUS
370
25
 62
   114
100
AcDbLine
 10
156.988791
 20
469.088647
 11
161.340559
 21
473.440415
  0
LINE
  5
2E4
100
AcDbEntity
  8
M0
  6
CONTINUOUS
370
25
 62
   114
100
AcDbLine
 10
160.209129
 20
474.571845
 11
155.857361
 21
470.220077
  0
LINE
  5
2E5
100
AcDbEntity
  8
M0
  6
CONTINUOUS
370
25
 62
   114
100
AcDbLine
 10
165.691969
 20
480.054705
 11
161.340396
 21
475.70311
  0
LINE
  5
2E6
100
AcDbEntity
  8
M0
  6
CONTINUOUS
370
25
 62
   114
100
AcDbLine
 10
161.340386
 20
475.703122
 11
159.183676
 21
477.859832
  0
LINE
  5
2E7
100
AcDbEntity
  8
M0
  6
CONTINUOUS
370
25
 62
   114
100
AcDbLine
 10
164.628364
 20
472.415145
 11
162.471826
 21
474.571682
  0
LINE
  5
2E8
100
AcDbEntity
  8
M0
  6
CONTINUOUS
370
25
 62
   114
100
AcDbLine
 10
161.340559
 20
473.440415
 11
163.497096
 21
471.283877
  0
LINE
  5
2E9
100
AcDbEntity
  8
M0
  6
CONTINUOUS
370
25
 62
   114
100
AcDbLine
 10
158.052409
 20
476.728565
 11
160.209119
 21
474.571855
  0
LINE
  5
2EA
100
AcDbEntity
  8
M0
  6
CONTINUOUS
370
25
 62
   114
100
AcDbLine
 10
163.497096
 20
471.283877
 11
164.628364
 21
472.415145
  0
LINE
  5
2EB
100
AcDbEntity
  8
M0
  6
CONTINUOUS
370
25
 62
   114
100
AcDbLine
 10
159.183676
 20
477.859832
 11
158.052409
 21
476.728565
  0
ARC
  5
2EC
100
AcDbEntity
  8
M0
  6
CONTINUOUS
370
25
 62
   114
100
AcDbCircle
 10
161.340386
 20
474.571682
 40
8.0
100
AcDbArc
 50
20.364159
 51
159.635864
  0
ARC
  5
2ED
100
AcDbEntity
  8
M0
  6
CONTINUOUS
370
25
 62
   114
100
AcDbCircle
 10
161.340386
 20
474.571682
 40
8.0
100
AcDbArc
 50
200.364136
 51
249.635858
  0
ARC
  5
2EE
100
AcDbEntity
  8
M0
  6
CONTINUOUS
370
25
 62
   114
100
AcDbCircle
 10
161.340386
 20
474.571682
 40
8.0
100
AcDbArc
 50
290.364142
 51
339.635841
  0
LINE
  5
2EF
100
AcDbEntity
  8
M0
  6
DASHDOT
370
13
 62
   114
100
AcDbLine
 10
161.340386
 20
461.571682
 11
161.340386
 21
487.571682
  0
CIRCLE
  5
2F0
100
AcDbEntity
  8
M0
  6
CONTINUOUS
370
25
 62
   114
100
AcDbCircle
 10
136.340386
 20
474.571682
 40
7.0
  0
LINE
  5
2F1
100
AcDbEntity
  8
M0
  6
CONTINUOUS
370
25
 62
   114
100
AcDbLine
 10
137.471826
 20
474.571682
 11
141.823409
 21
478.923265
  0
LINE
  5
2F2
100
AcDbEntity
  8
M0
  6
CONTINUOUS
370
25
 62
   114
100
AcDbLine
 10
131.988791
 20
469.088647
 11
136.340559
 21
473.440415
  0
LINE
  5
2F3
100
AcDbEntity
  8
M0
  6
CONTINUOUS
370
25
 62
   114
100
AcDbLine
 10
135.209129
 20
474.571845
 11
130.857361
 21
470.220077
  0
LINE
  5
2F4
100
AcDbEntity
  8
M0
  6
CONTINUOUS
370
25
 62
   114
100
AcDbLine
 10
140.691969
 20
480.054705
 11
136.340396
 21
475.70311
  0
LINE
  5
2F5
100
AcDbEntity
  8
M0
  6
CONTINUOUS
370
25
 62
   114
100
AcDbLine
 10
136.340386
 20
475.703122
 11
134.183676
 21
477.859832
  0
LINE
  5
2F6
100
AcDbEntity
  8
M0
  6
CONTINUOUS
370
25
 62
   114
100
AcDbLine
 10
139.628364
 20
472.415145
 11
137.471826
 21
474.571682
  0
LINE
  5
2F7
100
AcDbEntity
  8
M0
  6
CONTINUOUS
370
25
 62
   114
100
AcDbLine
 10
136.340559
 20
473.440415
 11
138.497096
 21
471.283877
  0
LINE
  5
2F8
100
AcDbEntity
  8
M0
  6
CONTINUOUS
370
25
 62
   114
100
AcDbLine
 10
133.052409
 20
476.728565
 11
135.209119
 21
474.571855
  0
LINE
  5
2F9
100
AcDbEntity
  8
M0
  6
CONTINUOUS
370
25
 62
   114
100
AcDbLine
 10
138.497096
 20
471.283877
 11
139.628364
 21
472.415145
  0
LINE
  5
2FA
100
AcDbEntity
  8
M0
  6
CONTINUOUS
370
25
 62
   114
100
AcDbLine
 10
134.183676
 20
477.859832
 11
133.052409
 21
476.728565
  0
ARC
  5
2FB
100
AcDbEntity
  8
M0
  6
CONTINUOUS
370
25
 62
   114
100
AcDbCircle
 10
136.340386
 20
474.571682
 40
8.0
100
AcDbArc
 50
200.364138
 51
249.635858
  0
ARC
  5
2FC
100
AcDbEntity
  8
M0
  6
CONTINUOUS
370
25
 62
   114
100
AcDbCircle
 10
136.340386
 20
474.571682
 40
8.0
100
AcDbArc
 50
20.364138
 51
159.635862
  0
ARC
  5
2FD
100
AcDbEntity
  8
M0
  6
CONTINUOUS
370
25
 62
   114
100
AcDbCircle
 10
136.340386
 20
474.571682
 40
8.0
100
AcDbArc
 50
290.364142
 51
339.635862
  0
CIRCLE
  5
2FE
100
AcDbEntity
  8
M0
  6
CONTINUOUS
370
25
 62
   114
100
AcDbCircle
 10
111.340386
 20
474.571682
 40
7.0
  0
LINE
  5
2FF
100
AcDbEntity
  8
M0
  6
CONTINUOUS
370
25
 62
   114
100
AcDbLine
 10
112.471826
 20
474.571682
 11
116.823409
 21
478.923265
  0
LINE
  5
300
100
AcDbEntity
  8
M0
  6
CONTINUOUS
370
25
 62
   114
100
AcDbLine
 10
106.988791
 20
469.088647
 11
111.340559
 21
473.440415
  0
LINE
  5
301
100
AcDbEntity
  8
M0
  6
CONTINUOUS
370
25
 62
   114
100
AcDbLine
 10
110.209129
 20
474.571845
 11
105.857361
 21
470.220077
  0
LINE
  5
302
100
AcDbEntity
  8
M0
  6
CONTINUOUS
370
25
 62
   114
100
AcDbLine
 10
115.691969
 20
480.054705
 11
111.340396
 21
475.70311
  0
LINE
  5
303
100
AcDbEntity
  8
M0
  6
CONTINUOUS
370
25
 62
   114
100
AcDbLine
 10
111.340386
 20
475.703122
 11
109.183676
 21
477.859832
  0
LINE
  5
304
100
AcDbEntity
  8
M0
  6
CONTINUOUS
370
25
 62
   114
100
AcDbLine
 10
114.628364
 20
472.415145
 11
112.471826
 21
474.571682
  0
LINE
  5
305
100
AcDbEntity
  8
M0
  6
CONTINUOUS
370
25
 62
   114
100
AcDbLine
 10
111.340559
 20
473.440415
 11
113.497096
 21
471.283877
  0
LINE
  5
306
100
AcDbEntity
  8
M0
  6
CONTINUOUS
370
25
 62
   114
100
AcDbLine
 10
108.052409
 20
476.728565
 11
110.209119
 21
474.571855
  0
LINE
  5
307
100
AcDbEntity
  8
M0
  6
CONTINUOUS
370
25
 62
   114
100
AcDbLine
 10
113.497096
 20
471.283877
 11
114.628364
 21
472.415145
  0
LINE
  5
308
100
AcDbEntity
  8
M0
  6
CONTINUOUS
370
25
 62
   114
100
AcDbLine
 10
109.183676
 20
477.859832
 11
108.052409
 21
476.728565
  0
ARC
  5
309
100
AcDbEntity
  8
M0
  6
CONTINUOUS
370
25
 62
   114
100
AcDbCircle
 10
111.340386
 20
474.571682
 40
8.0
100
AcDbArc
 50
290.364142
 51
339.635864
  0
ARC
  5
30A
100
AcDbEntity
  8
M0
  6
CONTINUOUS
370
25
 62
   114
100
AcDbCircle
 10
111.340386
 20
474.571682
 40
8.0
100
AcDbArc
 50
20.364136
 51
159.635841
  0
ARC
  5
30B
100
AcDbEntity
  8
M0
  6
CONTINUOUS
370
25
 62
   114
100
AcDbCircle
 10
111.340386
 20
474.571682
 40
8.0
100
AcDbArc
 50
200.364159
 51
249.635858
  0
LINE
  5
30C
100
AcDbEntity
  8
M0
  6
DASHDOT
370
13
 62
   114
100
AcDbLine
 10
98.340386
 20
474.571682
 11
174.340386
 21
474.571682
  0
LINE
  5
30D
100
AcDbEntity
  8
M0
  6
DASHDOT
370
13
 62
   114
100
AcDbLine
 10
111.340386
 20
461.571682
 11
111.340386
 21
487.571682
  0
LINE
  5
30E
100
AcDbEntity
  8
M2
  6
CONTINUOUS
370
25
100
AcDbLine
 10
-99.361082
 20
96.744992
 11
-99.361082
 21
96.344992
  0
LINE
  5
30F
100
AcDbEntity
  8
M2
  6
CONTINUOUS
370
25
100
AcDbLine
 10
-99.361082
 20
96.344992
 11
-98.961082
 21
96.344992
  0
LINE
  5
310
100
AcDbEntity
  8
M3
  6
CONTINUOUS
370
50
 62
     7
100
AcDbLine
 10
778.680412
 20
19.601204
 11
778.680412
 21
569.601204
  0
LINE
  5
311
100
AcDbEntity
  8
M3
  6
CONTINUOUS
370
50
 62
     7
100
AcDbLine
 10
18.680412
 20
569.601204
 11
778.680412
 21
569.601204
  0
LINE
  5
312
100
AcDbEntity
  8
M3
  6
CONTINUOUS
370
50
 62
     7
100
AcDbLine
 10
18.680412
 20
569.601204
 11
18.680412
 21
19.601204
  0
LINE
  5
313
100
AcDbEntity
  8
M3
  6
CONTINUOUS
370
50
 62
     7
100
AcDbLine
 10
18.680412
 20
19.601204
 11
778.680412
 21
19.601204
  0
ENDSEC
  0
SECTION
  2
OBJECTS
  0
DICTIONARY
  5
C
100
AcDbDictionary
  3
ACAD_GROUP
350
D
  3
ACAD_MLINESTYLE
350
E
  0
DICTIONARY
  5
D
102
{ACAD_REACTORS
330
C
102
}
100
AcDbDictionary
  0
DICTIONARY
  5
E
102
{ACAD_REACTORS
330
C
102
}
100
AcDbDictionary
  3
STANDARD
350
13
  0
MLINESTYLE
  5
13
102
{ACAD_REACTORS
330
E
102
}
100
AcDbMlineStyle
  2
STANDARD
 70
     0
  3

 62
     0
 51
90.0
 52
90.0
 71
     2
 49
0.5
 62
   256
  6
BYLAYER
 49
-0.5
 62
   256
  6
BYLAYER
  0
ENDSEC
  0
EOF
