  0
SECTION
  2
HEADER
  9
$ACADVER
  1
AC1015
  9
$INSBASE
 10
0.000000
 20
0.000000
 30
0.0
  9
$VIEWCTR
 10
7.531722
 20
4.5
  9
$VIEWSIZE
 40
9.0
  9
$SNAPMODE
 70
     0
  9
$SNAPUNIT
 10
1.0
 20
1.0
  9
$SNAPBASE
 10
0.0
 20
0.0
  9
$SNAPANG
 50
0.0
  9
$SNAPSTYLE
 70
     0
  9
$SNAPISOPAIR
 70
     0
  9
$GRIDMODE
 70
     0
  9
$GRIDUNIT
 10
0.0
 20
0.0
  9
$ORTHOMODE
 70
     0
  9
$REGENMODE
 70
     1
  9
$FILLMODE
 70
     1
  9
$QTEXTMODE
 70
     0
  9
$DRAGMODE
 70
     2
  9
$LTSCALE
  40
     1.000000
  9
$OSMODE
 70
     0
  9
$ATTMODE
 70
     1
  9
$TEXTSIZE
 40
0.2
  9
$TRACEWID
 40
0.05
  9
$TEXTSTYLE
  7
STANDARD
  9
$CELTYPE
  6
BYLAYER
  9
$CECOLOR
 62
   256
  9
$DIMSCALE
 40
1.0
  9
$DIMASZ
 40
0.18
  9
$DIMEXO
 40
0.0625
  9
$DIMDLI
 40
0.38
  9
$DIMRND
 40
0.0
  9
$DIMDLE
 40
0.0
  9
$DIMEXE
 40
0.18
  9
$DIMTP
 40
0.0
  9
$DIMTM
 40
0.0
  9
$DIMTXT
 40
0.18
  9
$DIMCEN
 40
0.09
  9
$DIMTSZ
 40
0.0
  9
$DIMADEC
 70
     0
  9
$DIMALTRND
 40
0.000000
  9
$DIMAZIN
 70
     0
  9
$DIMDSEP
 70
    46
  9
$DIMATFIT
 70
     3
  9
$DIMFRAC
 70
     0
  9
$DIMLDRBLK
  1

  9
$DIMLUNIT
 70
     2
  9
$DIMLWD
 70
   13
  9
$DIMLWE
 70
   13
  9
$DIMTMOVE
 70
     0
  9
$CELWEIGHT
370
    25
  9
$LWDISPLAY
290
    1
  9
$EXTNAMES
290
    1
  9
$DIMTOL
 70
     0
  9
$DIMLIM
 70
     0
  9
$DIMTIH
 70
     1
  9
$DIMTOH
 70
     1
  9
$DIMSE1
 70
     0
  9
$DIMSE2
 70
     0
  9
$DIMTAD
 70
     0
  9
$DIMZIN
 70
     0
  9
$DIMBLK
  1

  9
$LUNITS
 70
     2
  9
$LUPREC
 70
     4
  9
$AXISMODE
 70
     0
  9
$AXISUNIT
 10
0.0
 20
0.0
  9
$SKETCHINC
 40
0.1
  9
$FILLETRAD
 40
0.0
  9
$AUNITS
 70
     0
  9
$AUPREC
 70
     0
  9
$MENU
  1
ACAD
  9
$ELEVATION
 40
0.0
  9
$THICKNESS
 40
0.0
  9
$VIEWDIR
 10
0.0
 20
0.0
 30
1.0
  9
$LIMCHECK
 70
     0
  9
$BLIPMODE
 70
     1
  9
$CHAMFERA
 40
0.0
  9
$CHAMFERB
 40
0.0
  9
$FASTZOOM
 70
     1
  9
$SKPOLY
 70
     0
  9
$TDCREATE
 40
0000000.0000000000
  9
$TDUPDATE
 40
0000000.0000000000
  9
$TDINDWG
 40
0.0000000000
  9
$TDUSRTIMER
 40
0.0000000000
  9
$USRTIMER
 70
     1
  9
$ANGBASE
 50
0.0
  9
$ANGDIR
 70
     0
  9
$PDMODE
 70
     0
  9
$PDSIZE
 40
0.0
  9
$PLINEWID
 40
0.0
  9
$COORDS
 70
     0
  9
$USERI1
 70
     0
  9
$USERI2
 70
     0
  9
$USERI3
 70
     0
  9
$USERI4
 70
     0
  9
$USERI5
 70
     0
  9
$USERR1
 40
0.0
  9
$USERR2
 40
0.0
  9
$USERR3
 40
0.0
  9
$USERR4
 40
0.0
  9
$USERR5
 40
0.0
  9
$CLAYER
  8
M2
  9
$EXTMIN
 10
0.0
 20
0.0
  9
$EXTMAX
 10
841.0
 20
594.0
  9
$LIMMIN
 10
0.0
 20
0.0
  9
$LIMMAX
 10
841.0
 20
594.0
  9
$HANDSEED
  5
1FF
  0
ENDSEC
  0
SECTION
  2
CLASSES
  0
CLASS
  1
DIMASSOC
  2
AcDbDimAssoc
  3
"AcDbDimAssoc|Product Desc:     AcDim ARX App For Dimension|Company:          Autodesk, Inc.|WEB Address:      www.autodesk.com"
 90
        0
280
     0
281
     0
  0
ENDSEC
  0
SECTION
  2
TABLES
  0
TABLE
  2
VPORT
  5
8
100
AcDbSymbolTable
 70
     2
  0
VPORT
  5
14
100
AcDbSymbolTableRecord
100
AcDbViewportTableRecord
  2
*ACTIVE
 70
     0
 10
0.0
 20
0.0
 11
1.0
 21
1.0
 12
484.0
 22
297.0
 13
0.0
 23
0.0
 14
1.0
 24
1.0
 15
0.0
 25
0.0
 16
0.0
 26
0.0
 36
1.0
 17
0.0
 27
0.0
 37
0.0
 40
594.0
 41
2.0
 42
50.0
 43
0.0
 44
0.0
 50
0.0
 51
0.0
 71
     0
 72
   100
 73
     1
 74
     1
 75
     0
 76
     0
 77
     0
 78
     0
  0
ENDTAB
  0
TABLE
  2
LTYPE
  5
5
100
AcDbSymbolTable
 70
     5
  0
LTYPE
  5
15
100
AcDbSymbolTableRecord
100
AcDbLinetypeTableRecord
  2
BYBLOCK
 70
     0
  3

 72
    65
 73
     0
 40
0.0
  0
LTYPE
  5
16
100
AcDbSymbolTableRecord
100
AcDbLinetypeTableRecord
  2
BYLAYER
 70
     0
  3

 72
    65
 73
     0
 40
0.0
  0
LTYPE
  5
17
100
AcDbSymbolTableRecord
100
AcDbLinetypeTableRecord
  2
CONTINUOUS
 70
    64
  3
Solid line
 72
    65
 73
     0
 40
0.0
  0
LTYPE
  5
18
100
AcDbSymbolTableRecord
100
AcDbLinetypeTableRecord
  2
DASHED
 70
    64
  3
__ __ __ __ __ __ __ __ __ __ __ __ __ __ __ __
 72
    65
 73
     2
 40
0.75
 49
0.5
 74
     0
 49
-0.25
 74
     0
  0
LTYPE
  5
19
100
AcDbSymbolTableRecord
100
AcDbLinetypeTableRecord
  2
DASHDOT
 70
    64
  3
__ . __ . __ . __ . __ . __ . __ . __ . __ . __
 72
    65
 73
     4
 40
1.0
 49
0.5
 74
     0
 49
-0.25
 74
     0
 49
0.0
 74
     0
 49
-0.25
 74
     0
  0
LTYPE
  5
1A
100
AcDbSymbolTableRecord
100
AcDbLinetypeTableRecord
  2
DIVIDE
 70
    64
  3
____ . . ____ . . ____ . . ____ . . ____ . . __
 72
    65
 73
     6
 40
1.25
 49
0.5
 74
     0
 49
-0.25
 74
     0
 49
0.0
 74
     0
 49
-0.25
 74
     0
 49
0.0
 74
     0
 49
-0.25
 74
     0
  0
LTYPE
  5
1B
100
AcDbSymbolTableRecord
100
AcDbLinetypeTableRecord
  2
DOT
 70
    64
  3
. . . . . . . . . . . . . . . . . . . . . . . .
 72
    65
 73
     2
 40
0.25
 49
0.0
 74
     0
 49
-0.25
 74
     0
  0
ENDTAB
  0
TABLE
  2
LAYER
  5
2
100
AcDbSymbolTable
 70
   102
  0
LAYER
  5
F
100
AcDbSymbolTableRecord
100
AcDbLayerTableRecord
  2
0
 70
     0
 62
     7
  6
CONTINUOUS
370
     -3
390
F
  0
LAYER
  5
1C
100
AcDbSymbolTableRecord
100
AcDbLayerTableRecord
  2
M2
 70
     0
 62
     3
  6
CONTINUOUS
370
     -3
390
F
  0
LAYER
  5
1D
100
AcDbSymbolTableRecord
100
AcDbLayerTableRecord
  2
M3
 70
     0
 62
     7
  6
CONTINUOUS
370
     -3
390
F
  0
LAYER
  5
1E
100
AcDbSymbolTableRecord
100
AcDbLayerTableRecord
  2
M4
 70
     0
 62
     4
  6
CONTINUOUS
370
     -3
390
F
  0
ENDTAB
  0
TABLE
  2
STYLE
  5
3
100
AcDbSymbolTable
 70
     2
  0
STYLE
  5
10
100
AcDbSymbolTableRecord
100
AcDbTextStyleTableRecord
  2
STANDARD
 70
     0
 40
0.0
 41
1.0
 50
0.0
 71
     0
 42
0.2
  3
txt
  4
BIGFONT
  0
ENDTAB
  0
TABLE
  2
VIEW
  5
6
100
AcDbSymbolTable
 70
     0
  0
ENDTAB
  0
TABLE
  2
UCS
  5
7
100
AcDbSymbolTable
 70
     0
  0
ENDTAB
  0
TABLE
  2
APPID
  5
9
100
AcDbSymbolTable
 70
     1
  0
APPID
  5
11
100
AcDbSymbolTableRecord
100
AcDbRegAppTableRecord
  2
ACAD
 70
     0
  0
ENDTAB
  0
TABLE
  2
DIMSTYLE
  5
A
100
AcDbSymbolTable
 70
     2
100
AcDbDimStyleTable
 71
     1
  0
DIMSTYLE
105
47
100
AcDbSymbolTableRecord
100
AcDbDimStyleTableRecord
  2
STANDARD
 70
     0
  3

  4

  5

  6
_OPEN
  7
_OPEN
 40
1.0
 41
3.0
 42
0.0
 43
8.0
 44
1.5
 45
0.0
 46
0.0
 47
0.0
 48
0.0
140
3.2
141
0.09
142
0.0
143
0.03937
144
1.0
145
0.0
146
1.0
147
1.0
148
0.000000
 71
     0
 72
     0
 73
     1
 74
     1
 75
     0
 76
     0
 77
     3
 78
     8
170
     0
171
     2
172
     0
173
     1
174
     0
175
     0
176
     0
177
     0
178
     0
270
     2
271
     2
272
     4
273
     2
274
     2
340
10
275
     0
278
    46
280
     0
281
     0
282
     0
283
     1
284
     0
285
     0
286
     0
287
     3
288
     0
371
   13
372
   13
  0
DIMSTYLE
105
48
100
AcDbSymbolTableRecord
100
AcDbDimStyleTableRecord
  2
LEADSTYL
 70
     0
  3

  4

  5

  6
_OPEN
  7
_OPEN
 40
1.0
 41
3.0
 42
0.0625
 43
0.38
 44
0.18
 45
0.0
 46
0.0
 47
0.0
 48
0.0
140
3.2
141
0.09
142
0.0
143
25.4
144
1.0
145
0.0
146
1.0
147
1.0
 71
     0
 72
     0
 73
     1
 74
     1
 75
     0
 76
     0
 77
     0
 78
     0
170
     0
171
     2
172
     0
173
     1
174
     0
175
     0
176
     0
177
     0
178
     0
270
     2
271
     4
272
     4
273
     2
274
     2
340
10
275
     0
280
     0
281
     0
282
     0
283
     1
284
     0
285
     0
286
     0
287
     3
288
     0
  0
ENDTAB
  0
TABLE
  2
BLOCK_RECORD
  5
1
100
AcDbSymbolTable
 70
     6
  0
BLOCK_RECORD
  5
1F
100
AcDbSymbolTableRecord
100
AcDbBlockTableRecord
  2
*MODEL_SPACE
  0
BLOCK_RECORD
  5
22
100
AcDbSymbolTableRecord
100
AcDbBlockTableRecord
  2
*PAPER_SPACE
  0
BLOCK_RECORD
  5
25
100
AcDbSymbolTableRecord
100
AcDbBlockTableRecord
  2
_NONE
  0
BLOCK_RECORD
  5
29
100
AcDbSymbolTableRecord
100
AcDbBlockTableRecord
  2
_OPEN
  0
BLOCK_RECORD
  5
2F
100
AcDbSymbolTableRecord
100
AcDbBlockTableRecord
  2
_CLOSED
  0
BLOCK_RECORD
  5
36
100
AcDbSymbolTableRecord
100
AcDbBlockTableRecord
  2
_ORIGIN
  0
BLOCK_RECORD
  5
3B
100
AcDbSymbolTableRecord
100
AcDbBlockTableRecord
  2
_DOT
  0
BLOCK_RECORD
  5
43
100
AcDbSymbolTableRecord
100
AcDbBlockTableRecord
  2
_OBLIQUE
  0
ENDTAB
  0
ENDSEC
  0
SECTION
  2
BLOCKS
  0
BLOCK
  5
20
100
AcDbEntity
  8
0
100
AcDbBlockBegin
  2
*MODEL_SPACE
 70
     0
 10
0.0
 20
0.0
 30
0.0
  3
*MODEL_SPACE
  1

  0
ENDBLK
  5
21
100
AcDbEntity
  8
0
100
AcDbBlockEnd
  0
BLOCK
  5
23
100
AcDbEntity
 67
     1
  8
0
100
AcDbBlockBegin
  2
*PAPER_SPACE
 70
     0
 10
0.0
 20
0.0
 30
0.0
  3
*PAPER_SPACE
  1

  0
ENDBLK
  5
24
100
AcDbEntity
 67
     1
  8
0
100
AcDbBlockEnd
  0
BLOCK
  5
26
100
AcDbEntity
  8
0
100
AcDbBlockBegin
  2
_NONE
 70
     0
 10
0.0
 20
0.0
  0
CIRCLE
  5
27
100
AcDbEntity
  8
0
 62
     0
370
13
100
AcDbCircle
 10
0.0
 20
0.0
 40
0.25
  0
ENDBLK
  5
28
100
AcDbEntity
  8
0
100
AcDbBlockEnd
  0
BLOCK
  5
2A
100
AcDbEntity
  8
0
100
AcDbBlockBegin
  2
_OPEN
 70
     0
 10
0.0
 20
0.0
  0
LINE
  5
2B
100
AcDbEntity
  8
0
 62
     0
370
13
100
AcDbLine
 10
-0.965926
 20
0.258819
 11
0.0
 21
0.0
  0
LINE
  5
2C
100
AcDbEntity
  8
0
 62
     0
370
13
100
AcDbLine
 10
0.0
 20
0.0
 11
-0.965926
 21
-0.258819
  0
LINE
  5
2D
100
AcDbEntity
  8
0
 62
     0
370
13
100
AcDbLine
 10
0.0
 20
0.0
 11
-1.0
 21
0.0
  0
ENDBLK
  5
2E
100
AcDbEntity
  8
0
100
AcDbBlockEnd
  0
BLOCK
  5
30
100
AcDbEntity
  8
0
100
AcDbBlockBegin
  2
_CLOSED
 70
     0
 10
0.0
 20
0.0
  0
LINE
  5
31
100
AcDbEntity
  8
0
 62
     0
370
13
100
AcDbLine
 10
-0.965926
 20
0.258819
 11
0.0
 21
0.0
  0
LINE
  5
32
100
AcDbEntity
  8
0
 62
     0
370
13
100
AcDbLine
 10
0.0
 20
0.0
 11
-0.965926
 21
-0.258819
  0
LINE
  5
33
100
AcDbEntity
  8
0
 62
     0
370
13
100
AcDbLine
 10
-0.965926
 20
0.258819
 11
-0.965926
 21
-0.258819
  0
LINE
  5
34
100
AcDbEntity
  8
0
 62
     0
370
13
100
AcDbLine
 10
0.0
 20
0.0
 11
-1.0
 21
0.0
  0
ENDBLK
  5
35
100
AcDbEntity
  8
0
100
AcDbBlockEnd
  0
BLOCK
  5
37
100
AcDbEntity
  8
0
100
AcDbBlockBegin
  2
_ORIGIN
 70
     0
 10
0.0
 20
0.0
  0
CIRCLE
  5
38
100
AcDbEntity
  8
0
 62
     0
370
13
100
AcDbCircle
 10
0.0
 20
0.0
 40
0.5
  0
LINE
  5
39
100
AcDbEntity
  8
0
 62
     0
370
13
100
AcDbLine
 10
0.0
 20
0.0
 11
-1.0
 21
0.0
  0
ENDBLK
  5
3A
100
AcDbEntity
  8
0
100
AcDbBlockEnd
  0
BLOCK
  5
3C
100
AcDbEntity
  8
0
100
AcDbBlockBegin
  2
_DOT
 70
     0
 10
0.0
 20
0.0
  0
POLYLINE
  5
3D
100
AcDbEntity
  8
0
 62
     0
100
AcDb2dPolyline
 66
     1
 70
     1
 40
0.5
 41
0.5
  0
VERTEX
  5
3E
100
AcDbEntity
  8
0
 62
     0
100
AcDbVertex
100
AcDb2dVertex
 10
-0.25
 20
0.0
 42
1.0
  0
VERTEX
  5
3F
100
AcDbEntity
  8
0
 62
     0
100
AcDbVertex
100
AcDb2dVertex
 10
0.25
 20
0.0
 42
1.0
  0
SEQEND
  5
40
100
AcDbEntity
  8
0
 62
     0
  0
LINE
  5
41
100
AcDbEntity
  8
0
 62
     0
370
13
100
AcDbLine
 10
-0.5
 20
0.0
 11
-1.0
 21
0.0
  0
ENDBLK
  5
42
100
AcDbEntity
  8
0
100
AcDbBlockEnd
  0
BLOCK
  5
44
100
AcDbEntity
  8
0
100
AcDbBlockBegin
  2
_OBLIQUE
 70
     0
 10
0.0
 20
0.0
  0
LINE
  5
45
100
AcDbEntity
  8
0
 62
     0
370
13
100
AcDbLine
 10
-0.353553
 20
-0.353553
 11
0.353553
 21
0.353553
  0
ENDBLK
  5
46
100
AcDbEntity
  8
0
100
AcDbBlockEnd
  0
ENDSEC
  0
SECTION
  2
ENTITIES
  0
LINE
  5
49
100
AcDbEntity
  8
M2
  6
CONTINUOUS
370
25
 62
     4
100
AcDbLine
 10
259.41066
 20
435.511774
 11
265.512238
 21
433.432066
  0
ARC
  5
4A
100
AcDbEntity
  8
M2
  6
CONTINUOUS
370
25
 62
     4
100
AcDbCircle
 10
257.350714
 20
433.110662
 40
0.64
100
AcDbArc
 50
154.020881
 51
243.841477
  0
LINE
  5
4B
100
AcDbEntity
  8
M2
  6
CONTINUOUS
370
25
 62
     4
100
AcDbLine
 10
265.512238
 20
428.421748
 11
257.068568
 21
432.536214
  0
LINE
  5
4C
100
AcDbEntity
  8
M2
  6
CONTINUOUS
370
25
 62
     4
100
AcDbLine
 10
257.756604
 20
435.404668
 11
256.775382
 21
433.391014
  0
LINE
  5
4D
100
AcDbEntity
  8
M2
  6
CONTINUOUS
370
25
 62
     4
100
AcDbLine
 10
257.756604
 20
435.404668
 11
259.41066
 21
435.511774
  0
ARC
  5
4E
100
AcDbEntity
  8
M2
  6
CONTINUOUS
370
25
 62
     4
100
AcDbCircle
 10
265.912238
 20
396.87628
 40
0.4
100
AcDbArc
 50
180.0
 51
270.0
  0
ARC
  5
4F
100
AcDbEntity
  8
M2
  6
CONTINUOUS
370
25
 62
     4
100
AcDbCircle
 10
265.912238
 20
436.076286
 40
0.4
100
AcDbArc
 50
90.0
 51
180.0
  0
LINE
  5
50
100
AcDbEntity
  8
M2
  6
CONTINUOUS
370
25
 62
     4
100
AcDbLine
 10
275.112238
 20
378.876292
 11
275.112238
 21
389.67628
  0
LINE
  5
51
100
AcDbEntity
  8
M2
  6
DASHDOT
370
25
 62
     4
100
AcDbLine
 10
261.512238
 20
416.476292
 11
317.512238
 21
416.476292
  0
LINE
  5
52
100
AcDbEntity
  8
M2
  6
CONTINUOUS
370
25
 62
     4
100
AcDbLine
 10
287.11224
 20
378.076292
 11
275.912238
 21
378.076292
  0
ARC
  5
53
100
AcDbEntity
  8
M2
  6
CONTINUOUS
370
25
 62
     4
100
AcDbCircle
 10
270.312238
 20
442.476286
 40
0.8
100
AcDbArc
 50
90.0
 51
180.0
  0
ARC
  5
54
100
AcDbEntity
  8
M2
  6
CONTINUOUS
370
25
 62
     4
100
AcDbCircle
 10
270.312238
 20
390.47628
 40
0.8
100
AcDbArc
 50
180.0
 51
270.0
  0
ARC
  5
55
100
AcDbEntity
  8
M2
  6
CONTINUOUS
370
25
 62
     4
100
AcDbCircle
 10
275.912238
 20
454.076298
 40
0.8
100
AcDbArc
 50
90.0
 51
180.0
  0
ARC
  5
56
100
AcDbEntity
  8
M2
  6
CONTINUOUS
370
25
 62
     4
100
AcDbCircle
 10
275.912238
 20
378.876292
 40
0.8
100
AcDbArc
 50
180.0
 51
270.0
  0
LINE
  5
57
100
AcDbEntity
  8
M2
  6
CONTINUOUS
370
25
 62
     4
100
AcDbLine
 10
265.912238
 20
436.476286
 11
269.512238
 21
436.476286
  0
LINE
  5
58
100
AcDbEntity
  8
M2
  6
CONTINUOUS
370
25
 62
     4
100
AcDbLine
 10
269.512238
 20
396.47628
 11
265.912238
 21
396.47628
  0
LINE
  5
59
100
AcDbEntity
  8
M2
  6
CONTINUOUS
370
25
 62
     4
100
AcDbLine
 10
275.112238
 20
443.276286
 11
270.312238
 21
443.276286
  0
LINE
  5
5A
100
AcDbEntity
  8
M2
  6
CONTINUOUS
370
25
 62
     4
100
AcDbLine
 10
275.112238
 20
389.67628
 11
270.312238
 21
389.67628
  0
LINE
  5
5B
100
AcDbEntity
  8
M2
  6
CONTINUOUS
370
25
 62
     4
100
AcDbLine
 10
269.512238
 20
442.476286
 11
269.512238
 21
390.47628
  0
LINE
  5
5C
100
AcDbEntity
  8
M2
  6
CONTINUOUS
370
25
 62
     4
100
AcDbLine
 10
275.112238
 20
443.276286
 11
275.112238
 21
454.076298
  0
ARC
  5
5D
100
AcDbEntity
  8
M2
  6
CONTINUOUS
370
25
 62
     4
100
AcDbCircle
 10
265.540238
 20
435.30428
 40
0.028
100
AcDbArc
 50
180.0
 51
270.0
  0
LINE
  5
5E
100
AcDbEntity
  8
M2
  6
CONTINUOUS
370
25
 62
     4
100
AcDbLine
 10
265.512238
 20
435.30428
 11
265.512238
 21
396.87628
  0
LINE
  5
5F
100
AcDbEntity
  8
M2
  6
CONTINUOUS
370
25
 62
     4
100
AcDbLine
 10
287.11224
 20
454.876298
 11
275.912238
 21
454.876298
  0
LINE
  5
60
100
AcDbEntity
  8
M2
  6
CONTINUOUS
370
25
 62
     4
100
AcDbLine
 10
265.512238
 20
435.30428
 11
265.512238
 21
436.076286
  0
LINE
  5
61
100
AcDbEntity
  8
M2
  6
CONTINUOUS
370
25
 62
     4
100
AcDbLine
 10
310.712238
 20
453.812188
 11
310.712238
 21
452.55629
  0
LINE
  5
62
100
AcDbEntity
  8
M2
  6
CONTINUOUS
370
25
 62
     4
100
AcDbLine
 10
310.712238
 20
379.140392
 11
310.712238
 21
380.39629
  0
LINE
  5
63
100
AcDbEntity
  8
M2
  6
CONTINUOUS
370
25
 62
     4
100
AcDbLine
 10
317.512238
 20
380.39629
 11
316.312238
 21
380.39629
  0
LINE
  5
64
100
AcDbEntity
  8
M2
  6
CONTINUOUS
370
25
 62
     4
100
AcDbLine
 10
313.512238
 20
402.35629
 11
313.512238
 21
430.59629
  0
LINE
  5
65
100
AcDbEntity
  8
M2
  6
CONTINUOUS
370
25
 62
     4
100
AcDbLine
 10
317.512238
 20
379.67629
 11
317.512238
 21
398.87629
  0
LINE
  5
66
100
AcDbEntity
  8
M2
  6
CONTINUOUS
370
25
 62
     4
100
AcDbLine
 10
287.11224
 20
454.876292
 11
306.740948
 21
454.876292
  0
LINE
  5
67
100
AcDbEntity
  8
M2
  6
CONTINUOUS
370
25
 62
     4
100
AcDbLine
 10
287.11224
 20
378.076288
 11
306.740948
 21
378.076288
  0
LINE
  5
68
100
AcDbEntity
  8
M2
  6
CONTINUOUS
370
25
 62
     4
100
AcDbLine
 10
313.992238
 20
402.35629
 11
313.512238
 21
402.35629
  0
LINE
  5
69
100
AcDbEntity
  8
M2
  6
CONTINUOUS
370
25
 62
     4
100
AcDbLine
 10
317.512238
 20
430.59629
 11
313.512238
 21
430.59629
  0
LINE
  5
6A
100
AcDbEntity
  8
M2
  6
CONTINUOUS
370
25
 62
     4
100
AcDbLine
 10
317.512238
 20
428.99629
 11
317.512238
 21
453.27629
  0
LINE
  5
6B
100
AcDbEntity
  8
M2
  6
CONTINUOUS
370
25
 62
     4
100
AcDbLine
 10
317.512238
 20
379.67629
 11
317.412056
 21
379.67629
  0
LINE
  5
6C
100
AcDbEntity
  8
M2
  6
CONTINUOUS
370
25
 62
     4
100
AcDbLine
 10
317.512238
 20
453.27629
 11
317.412062
 21
453.27629
  0
LINE
  5
6D
100
AcDbEntity
  8
M2
  6
CONTINUOUS
370
25
 62
     4
100
AcDbLine
 10
312.712238
 20
379.67629
 11
306.740948
 21
378.076288
  0
LINE
  5
6E
100
AcDbEntity
  8
M2
  6
CONTINUOUS
370
25
 62
     4
100
AcDbLine
 10
312.712238
 20
453.27629
 11
306.740948
 21
454.876292
  0
LINE
  5
6F
100
AcDbEntity
  8
M2
  6
CONTINUOUS
370
25
 62
     4
100
AcDbLine
 10
317.512238
 20
428.99629
 11
315.912238
 21
428.99629
  0
LINE
  5
70
100
AcDbEntity
  8
M2
  6
CONTINUOUS
370
25
 62
     4
100
AcDbLine
 10
314.915954
 20
429.460864
 11
314.312238
 21
430.59629
  0
LINE
  5
71
100
AcDbEntity
  8
M2
  6
CONTINUOUS
370
25
 62
     4
100
AcDbLine
 10
315.912238
 20
428.99629
 11
314.915954
 21
429.460864
  0
LINE
  5
72
100
AcDbEntity
  8
M2
  6
CONTINUOUS
370
25
 62
     4
100
AcDbLine
 10
314.792238
 20
399.67629
 11
314.792238
 21
401.55629
  0
LINE
  5
73
100
AcDbEntity
  8
M2
  6
CONTINUOUS
370
25
 62
     4
100
AcDbLine
 10
316.712238
 20
399.67629
 11
314.792238
 21
399.67629
  0
ARC
  5
74
100
AcDbEntity
  8
M2
  6
CONTINUOUS
370
25
 62
     4
100
AcDbCircle
 10
316.712238
 20
398.87629
 40
0.8
100
AcDbArc
 50
0.0
 51
90.0
  0
ARC
  5
75
100
AcDbEntity
  8
M2
  6
CONTINUOUS
370
25
 62
     4
100
AcDbCircle
 10
313.992238
 20
401.55629
 40
0.8
100
AcDbArc
 50
0.0
 51
90.0
  0
LINE
  5
76
100
AcDbEntity
  8
M2
  6
CONTINUOUS
370
25
 62
     4
100
AcDbLine
 10
310.712238
 20
452.55629
 11
312.524656
 21
452.55629
  0
LINE
  5
77
100
AcDbEntity
  8
M2
  6
CONTINUOUS
370
25
 62
     4
100
AcDbLine
 10
313.053026
 20
453.27629
 11
312.712238
 21
453.27629
  0
LINE
  5
78
100
AcDbEntity
  8
M2
  6
CONTINUOUS
370
25
 62
     4
100
AcDbLine
 10
316.318116
 20
452.55629
 11
317.512238
 21
452.55629
  0
LINE
  5
79
100
AcDbEntity
  8
M2
  6
CONTINUOUS
370
25
 62
     4
100
AcDbLine
 10
313.053006
 20
379.67629
 11
312.712238
 21
379.67629
  0
LINE
  5
7A
100
AcDbEntity
  8
M2
  6
CONTINUOUS
370
25
 62
     4
100
AcDbLine
 10
312.524652
 20
380.39629
 11
310.712238
 21
380.39629
  0
LINE
  5
7B
100
AcDbEntity
  8
M2
  6
CONTINUOUS
370
25
 62
     4
100
AcDbLine
 10
314.712238
 20
403.556284
 11
317.512238
 21
400.196284
  0
LINE
  5
7C
100
AcDbEntity
  8
M2
  6
CONTINUOUS
370
25
 62
     4
100
AcDbLine
 10
314.312238
 20
402.596284
 11
314.552238
 21
403.556284
  0
LINE
  5
7D
100
AcDbEntity
  8
M2
  6
CONTINUOUS
370
25
 62
     4
100
AcDbLine
 10
317.512238
 20
400.196284
 11
317.512238
 21
379.67629
  0
LINE
  5
7E
100
AcDbEntity
  8
M2
  6
CONTINUOUS
370
25
 62
     4
100
AcDbLine
 10
314.552238
 20
403.556284
 11
314.712238
 21
403.556284
  0
LINE
  5
7F
100
AcDbEntity
  8
M2
  6
CONTINUOUS
370
25
 62
     4
100
AcDbLine
 10
313.512238
 20
402.596284
 11
314.312238
 21
402.596284
  0
LINE
  5
80
100
AcDbEntity
  8
M2
  6
DASHDOT
370
25
 62
     4
100
AcDbLine
 10
313.824498
 20
452.556276
 11
316.312238
 21
452.556276
  0
ARC
  5
81
100
AcDbEntity
  8
M2
  6
DASHED
370
25
 62
     4
100
AcDbCircle
 10
316.312238
 20
453.756276
 40
1.2
100
AcDbArc
 50
270.0
 51
360.0
  0
ARC
  5
82
100
AcDbEntity
  8
M2
  6
DASHDOT
370
25
 62
     4
100
AcDbCircle
 10
313.824498
 20
452.156276
 40
1.36
100
AcDbArc
 50
90.0
 51
190.0
  0
LINE
  5
83
100
AcDbEntity
  8
M2
  6
DASHDOT
370
25
 62
     4
100
AcDbLine
 10
313.824498
 20
453.516276
 11
316.312238
 21
453.516276
  0
ARC
  5
84
100
AcDbEntity
  8
M2
  6
DASHED
370
25
 62
     4
100
AcDbCircle
 10
316.312238
 20
453.756276
 40
0.24
100
AcDbArc
 50
270.0
 51
360.0
  0
LINE
  5
85
100
AcDbEntity
  8
M2
  6
DASHDOT
370
25
 62
     4
100
AcDbLine
 10
316.552238
 20
463.356276
 11
316.552238
 21
453.756276
  0
LINE
  5
86
100
AcDbEntity
  8
M2
  6
DASHDOT
370
25
 62
     4
100
AcDbLine
 10
317.512238
 20
463.356276
 11
317.512238
 21
453.756276
  0
LINE
  5
87
100
AcDbEntity
  8
M2
  6
DASHDOT
370
25
 62
     4
100
AcDbLine
 10
316.552238
 20
463.356276
 11
317.512238
 21
463.356276
  0
LINE
  5
88
100
AcDbEntity
  8
M2
  6
DASHDOT
370
25
 62
     4
100
AcDbLine
 10
316.552238
 20
369.59629
 11
317.512238
 21
369.59629
  0
ARC
  5
89
100
AcDbEntity
  8
M2
  6
DASHDOT
370
25
 62
     4
100
AcDbCircle
 10
316.312238
 20
379.19629
 40
0.24
100
AcDbArc
 50
0.0
 51
90.0
  0
LINE
  5
8A
100
AcDbEntity
  8
M2
  6
DASHDOT
370
25
 62
     4
100
AcDbLine
 10
317.512238
 20
369.59629
 11
317.512238
 21
379.19629
  0
LINE
  5
8B
100
AcDbEntity
  8
M2
  6
DASHDOT
370
25
 62
     4
100
AcDbLine
 10
316.552238
 20
369.59629
 11
316.552238
 21
379.19629
  0
ARC
  5
8C
100
AcDbEntity
  8
M2
  6
DASHDOT
370
25
 62
     4
100
AcDbCircle
 10
316.312238
 20
379.19629
 40
1.2
100
AcDbArc
 50
0.0
 51
90.0
  0
LINE
  5
8D
100
AcDbEntity
  8
M2
  6
DASHDOT
370
25
 62
     4
100
AcDbLine
 10
313.824498
 20
379.43629
 11
316.312238
 21
379.43629
  0
LINE
  5
8E
100
AcDbEntity
  8
M2
  6
DASHDOT
370
25
 62
     4
100
AcDbLine
 10
313.824498
 20
380.39629
 11
316.312238
 21
380.39629
  0
ARC
  5
8F
100
AcDbEntity
  8
M2
  6
DASHDOT
370
25
 62
     4
100
AcDbCircle
 10
313.824498
 20
380.79629
 40
1.36
100
AcDbArc
 50
170.036624
 51
270.0
  0
ARC
  5
90
100
AcDbEntity
  8
M2
  6
DASHDOT
370
25
 62
     4
100
AcDbCircle
 10
316.312238
 20
453.756276
 40
0.24
100
AcDbArc
 50
270.0
 51
360.0
  0
ARC
  5
91
100
AcDbEntity
  8
M2
  6
DASHDOT
370
25
 62
     4
100
AcDbCircle
 10
316.312238
 20
453.756276
 40
1.2
100
AcDbArc
 50
270.0
 51
360.0
  0
LINE
  5
92
100
AcDbEntity
  8
M2
  6
DASHDOT
370
25
 62
     4
100
AcDbLine
 10
313.824498
 20
452.556276
 11
316.312238
 21
452.556276
  0
ARC
  5
93
100
AcDbEntity
  8
M2
  6
DASHDOT
370
25
 62
     4
100
AcDbCircle
 10
313.824498
 20
452.156276
 40
0.4
100
AcDbArc
 50
90.0
 51
190.0
  0
LINE
  5
94
100
AcDbEntity
  8
M2
  6
DASHDOT
370
25
 62
     4
100
AcDbLine
 10
312.485158
 20
451.920114
 11
312.726822
 21
450.549574
  0
LINE
  5
95
100
AcDbEntity
  8
M2
  6
DASHDOT
370
25
 62
     4
100
AcDbLine
 10
313.430574
 20
452.086816
 11
313.672238
 21
450.716276
  0
LINE
  5
96
100
AcDbEntity
  8
M2
  6
DASHDOT
370
25
 62
     4
100
AcDbLine
 10
313.672238
 20
450.716276
 11
312.726822
 21
450.549574
  0
ARC
  5
97
100
AcDbEntity
  8
M2
  6
DASHDOT
370
25
 62
     4
100
AcDbCircle
 10
313.824498
 20
380.796288
 40
0.4
100
AcDbArc
 50
170.0
 51
270.0
  0
LINE
  5
98
100
AcDbEntity
  8
M2
  6
DASHDOT
370
25
 62
     4
100
AcDbLine
 10
313.430574
 20
380.865748
 11
313.672238
 21
382.236288
  0
LINE
  5
99
100
AcDbEntity
  8
M2
  6
DASHDOT
370
25
 62
     4
100
AcDbLine
 10
312.485008
 20
381.031596
 11
312.726822
 21
382.40299
  0
LINE
  5
9A
100
AcDbEntity
  8
M2
  6
DASHDOT
370
25
 62
     4
100
AcDbLine
 10
313.672238
 20
382.236288
 11
312.726822
 21
382.40299
  0
LINE
  5
9B
100
AcDbEntity
  8
M2
  6
CONTINUOUS
370
25
 62
     4
100
AcDbLine
 10
169.780678
 20
435.404668
 11
176.660678
 21
435.404668
  0
LINE
  5
9C
100
AcDbEntity
  8
M2
  6
CONTINUOUS
370
25
 62
     4
100
AcDbLine
 10
176.660678
 20
435.511774
 11
169.780678
 21
435.511774
  0
LINE
  5
9D
100
AcDbEntity
  8
M2
  6
CONTINUOUS
370
25
 62
     4
100
AcDbLine
 10
169.780678
 20
432.815686
 11
176.660678
 21
432.815686
  0
LINE
  5
9E
100
AcDbEntity
  8
M2
  6
CONTINUOUS
370
25
 62
     4
100
AcDbLine
 10
176.660678
 20
423.286334
 11
176.660678
 21
435.511774
  0
LINE
  5
9F
100
AcDbEntity
  8
M2
  6
CONTINUOUS
370
25
 62
     4
100
AcDbLine
 10
169.780678
 20
428.07807
 11
176.660678
 21
428.07807
  0
LINE
  5
A0
100
AcDbEntity
  8
M2
  6
CONTINUOUS
370
25
 62
     4
100
AcDbLine
 10
169.780678
 20
423.286334
 11
169.780678
 21
435.511774
  0
LINE
  5
A1
100
AcDbEntity
  8
M2
  6
DASHDOT
370
25
 62
     4
100
AcDbLine
 10
173.220684
 20
374.693526
 11
173.220684
 21
457.392792
  0
LINE
  5
A2
100
AcDbEntity
  8
M2
  6
CONTINUOUS
370
25
 62
     4
100
AcDbLine
 10
169.540684
 20
421.036296
 11
176.900684
 21
421.036296
  0
LINE
  5
A3
100
AcDbEntity
  8
M2
  6
CONTINUOUS
370
25
 62
     4
100
AcDbLine
 10
144.820684
 20
396.47628
 11
201.620684
 21
396.47628
  0
LINE
  5
A4
100
AcDbEntity
  8
M2
  6
CONTINUOUS
370
25
 62
     4
100
AcDbLine
 10
169.540684
 20
433.756286
 11
169.780678
 21
433.756286
  0
LINE
  5
A5
100
AcDbEntity
  8
M2
  6
CONTINUOUS
370
25
 62
     4
100
AcDbLine
 10
143.220684
 20
378.076292
 11
143.220684
 21
454.876298
  0
LINE
  5
A6
100
AcDbEntity
  8
M2
  6
CONTINUOUS
370
25
 62
     4
100
AcDbLine
 10
203.220684
 20
378.076292
 11
203.220684
 21
454.876298
  0
LINE
  5
A7
100
AcDbEntity
  8
M2
  6
CONTINUOUS
370
25
 62
     4
100
AcDbLine
 10
176.660678
 20
433.756286
 11
176.900684
 21
433.756286
  0
LINE
  5
A8
100
AcDbEntity
  8
M2
  6
CONTINUOUS
370
25
 62
     4
100
AcDbLine
 10
169.540684
 20
421.036296
 11
169.540684
 21
433.756286
  0
LINE
  5
A9
100
AcDbEntity
  8
M2
  6
CONTINUOUS
370
25
 62
     4
100
AcDbLine
 10
144.820684
 20
436.47628
 11
201.620684
 21
436.47628
  0
LINE
  5
AA
100
AcDbEntity
  8
M2
  6
CONTINUOUS
370
25
 62
     4
100
AcDbLine
 10
176.900684
 20
421.036296
 11
176.900684
 21
433.756286
  0
LINE
  5
AB
100
AcDbEntity
  8
M2
  6
CONTINUOUS
370
25
 62
     4
100
AcDbLine
 10
202.020684
 20
396.87628
 11
202.020684
 21
436.07628
  0
ARC
  5
AC
100
AcDbEntity
  8
M2
  6
CONTINUOUS
370
25
 62
     4
100
AcDbCircle
 10
144.820684
 20
396.87628
 40
0.4
100
AcDbArc
 50
180.0
 51
270.0
  0
ARC
  5
AD
100
AcDbEntity
  8
M2
  6
CONTINUOUS
370
25
 62
     4
100
AcDbCircle
 10
144.820684
 20
436.07628
 40
0.4
100
AcDbArc
 50
90.0
 51
180.0
  0
ARC
  5
AE
100
AcDbEntity
  8
M2
  6
CONTINUOUS
370
25
 62
     4
100
AcDbCircle
 10
202.980684
 20
389.91628
 40
0.24
100
AcDbArc
 50
270.0
 51
360.0
  0
ARC
  5
AF
100
AcDbEntity
  8
M2
  6
CONTINUOUS
370
25
 62
     4
100
AcDbCircle
 10
143.460684
 20
443.036286
 40
0.24
100
AcDbArc
 50
90.0
 51
180.0
  0
ARC
  5
B0
100
AcDbEntity
  8
M2
  6
CONTINUOUS
370
25
 62
     4
100
AcDbCircle
 10
143.460684
 20
389.91628
 40
0.24
100
AcDbArc
 50
180.0
 51
270.0
  0
LINE
  5
B1
100
AcDbEntity
  8
M2
  6
CONTINUOUS
370
25
 62
     4
100
AcDbLine
 10
143.460684
 20
389.67628
 11
202.980684
 21
389.67628
  0
LINE
  5
B2
100
AcDbEntity
  8
M2
  6
CONTINUOUS
370
25
 62
     4
100
AcDbLine
 10
144.420684
 20
396.87628
 11
144.420684
 21
436.07628
  0
LINE
  5
B3
100
AcDbEntity
  8
M2
  6
CONTINUOUS
370
25
 62
     4
100
AcDbLine
 10
202.980684
 20
443.276286
 11
143.460684
 21
443.276286
  0
ARC
  5
B4
100
AcDbEntity
  8
M2
  6
CONTINUOUS
370
25
 62
     4
100
AcDbCircle
 10
201.620684
 20
436.07628
 40
0.4
100
AcDbArc
 50
0.0
 51
90.0
  0
ARC
  5
B5
100
AcDbEntity
  8
M2
  6
CONTINUOUS
370
25
 62
     4
100
AcDbCircle
 10
201.620684
 20
396.87628
 40
0.4
100
AcDbArc
 50
270.0
 51
360.0
  0
ARC
  5
B6
100
AcDbEntity
  8
M2
  6
CONTINUOUS
370
25
 62
     4
100
AcDbCircle
 10
202.980684
 20
443.036286
 40
0.24
100
AcDbArc
 50
0.0
 51
90.0
  0
LINE
  5
B7
100
AcDbEntity
  8
M2
  6
CONTINUOUS
370
25
 62
     4
100
AcDbLine
 10
158.540684
 20
378.076292
 11
158.540684
 21
389.67628
  0
LINE
  5
B8
100
AcDbEntity
  8
M2
  6
CONTINUOUS
370
25
 62
     4
100
AcDbLine
 10
168.020684
 20
378.076292
 11
168.020684
 21
389.67628
  0
LINE
  5
B9
100
AcDbEntity
  8
M2
  6
CONTINUOUS
370
25
 62
     4
100
AcDbLine
 10
147.900684
 20
378.076292
 11
147.900684
 21
389.67628
  0
LINE
  5
BA
100
AcDbEntity
  8
M2
  6
CONTINUOUS
370
25
 62
     4
100
AcDbLine
 10
187.900684
 20
443.276286
 11
187.900684
 21
454.876298
  0
LINE
  5
BB
100
AcDbEntity
  8
M2
  6
CONTINUOUS
370
25
 62
     4
100
AcDbLine
 10
198.540684
 20
443.276286
 11
198.540684
 21
454.876298
  0
LINE
  5
BC
100
AcDbEntity
  8
M2
  6
CONTINUOUS
370
25
 62
     4
100
AcDbLine
 10
203.220684
 20
454.876298
 11
143.220684
 21
454.876298
  0
LINE
  5
BD
100
AcDbEntity
  8
M2
  6
CONTINUOUS
370
25
 62
     4
100
AcDbLine
 10
203.220684
 20
378.076292
 11
143.220684
 21
378.076292
  0
LINE
  5
BE
100
AcDbEntity
  8
M2
  6
CONTINUOUS
370
25
 62
     4
100
AcDbLine
 10
198.540684
 20
378.076292
 11
198.540684
 21
389.67628
  0
LINE
  5
BF
100
AcDbEntity
  8
M2
  6
CONTINUOUS
370
25
 62
     4
100
AcDbLine
 10
178.420684
 20
378.076292
 11
178.420684
 21
389.67628
  0
LINE
  5
C0
100
AcDbEntity
  8
M2
  6
CONTINUOUS
370
25
 62
     4
100
AcDbLine
 10
187.900684
 20
378.076292
 11
187.900684
 21
389.67628
  0
LINE
  5
C1
100
AcDbEntity
  8
M2
  6
CONTINUOUS
370
25
 62
     4
100
AcDbLine
 10
178.420684
 20
443.276286
 11
178.420684
 21
454.876298
  0
LINE
  5
C2
100
AcDbEntity
  8
M2
  6
CONTINUOUS
370
25
 62
     4
100
AcDbLine
 10
158.540684
 20
443.276286
 11
158.540684
 21
454.876298
  0
LINE
  5
C3
100
AcDbEntity
  8
M2
  6
CONTINUOUS
370
25
 62
     4
100
AcDbLine
 10
168.020684
 20
443.276286
 11
168.020684
 21
454.876298
  0
LINE
  5
C4
100
AcDbEntity
  8
M2
  6
CONTINUOUS
370
25
 62
     4
100
AcDbLine
 10
147.900684
 20
443.276286
 11
147.900684
 21
454.876298
  0
LINE
  5
C5
100
AcDbEntity
  8
M2
  6
DASHDOT
370
25
 62
     4
100
AcDbLine
 10
206.820684
 20
416.476292
 11
139.620684
 21
416.476292
  0
LINE
  5
C6
100
AcDbEntity
  8
M2
  6
DASHDOT
370
25
 62
     4
100
AcDbLine
 10
195.020678
 20
376.476288
 11
195.020678
 21
373.276288
  0
LINE
  5
C7
100
AcDbEntity
  8
M2
  6
DASHDOT
370
25
 62
     4
100
AcDbLine
 10
188.420678
 20
369.67629
 11
198.020678
 21
369.67629
  0
LINE
  5
C8
100
AcDbEntity
  8
M2
  6
DASHDOT
370
25
 62
     4
100
AcDbLine
 10
198.020678
 20
378.076292
 11
198.020678
 21
369.67629
  0
LINE
  5
C9
100
AcDbEntity
  8
M2
  6
DASHDOT
370
25
 62
     4
100
AcDbLine
 10
191.420678
 20
376.476288
 11
191.420678
 21
373.276288
  0
LINE
  5
CA
100
AcDbEntity
  8
M2
  6
DASHDOT
370
25
 62
     4
100
AcDbLine
 10
198.020678
 20
454.876282
 11
198.020678
 21
463.276286
  0
LINE
  5
CB
100
AcDbEntity
  8
M2
  6
DASHDOT
370
25
 62
     4
100
AcDbLine
 10
191.420678
 20
456.476288
 11
191.420678
 21
459.676288
  0
LINE
  5
CC
100
AcDbEntity
  8
M2
  6
DASHDOT
370
25
 62
     4
100
AcDbLine
 10
188.420678
 20
454.876282
 11
188.420678
 21
463.276286
  0
LINE
  5
CD
100
AcDbEntity
  8
M2
  6
DASHDOT
370
25
 62
     4
100
AcDbLine
 10
188.420678
 20
378.076292
 11
188.420678
 21
369.67629
  0
ARC
  5
CE
100
AcDbEntity
  8
M2
  6
DASHDOT
370
25
 62
     4
100
AcDbCircle
 10
193.220678
 20
456.476288
 40
1.8
100
AcDbArc
 50
180.0
 51
242.734289
  0
ARC
  5
CF
100
AcDbEntity
  8
M2
  6
DASHDOT
370
25
 62
     4
100
AcDbCircle
 10
193.220678
 20
456.476288
 40
1.8
100
AcDbArc
 50
297.265711
 51
360.0
  0
ARC
  5
D0
100
AcDbEntity
  8
M2
  6
DASHDOT
370
25
 62
     4
100
AcDbCircle
 10
193.220678
 20
376.476288
 40
1.8
100
AcDbArc
 50
0.0
 51
62.734289
  0
ARC
  5
D1
100
AcDbEntity
  8
M2
  6
DASHDOT
370
25
 62
     4
100
AcDbCircle
 10
193.220678
 20
373.276288
 40
1.8
100
AcDbArc
 50
180.0
 51
360.0
  0
ARC
  5
D2
100
AcDbEntity
  8
M2
  6
DASHDOT
370
25
 62
     4
100
AcDbCircle
 10
153.220678
 20
456.476288
 40
1.8
100
AcDbArc
 50
297.265711
 51
360.0
  0
ARC
  5
D3
100
AcDbEntity
  8
M2
  6
DASHDOT
370
25
 62
     4
100
AcDbCircle
 10
153.220678
 20
459.676288
 40
1.8
100
AcDbArc
 50
0.0
 51
180.0
  0
ARC
  5
D4
100
AcDbEntity
  8
M2
  6
DASHDOT
370
25
 62
     4
100
AcDbCircle
 10
193.220678
 20
459.676288
 40
1.8
100
AcDbArc
 50
0.0
 51
180.0
  0
ARC
  5
D5
100
AcDbEntity
  8
M2
  6
DASHDOT
370
25
 62
     4
100
AcDbCircle
 10
153.220678
 20
456.476288
 40
1.8
100
AcDbArc
 50
180.0
 51
242.734289
  0
ARC
  5
D6
100
AcDbEntity
  8
M2
  6
DASHDOT
370
25
 62
     4
100
AcDbCircle
 10
193.220678
 20
376.476288
 40
1.8
100
AcDbArc
 50
117.265711
 51
180.0
  0
LINE
  5
D7
100
AcDbEntity
  8
M2
  6
DASHDOT
370
25
 62
     4
100
AcDbLine
 10
158.020678
 20
378.076292
 11
158.020678
 21
369.67629
  0
ARC
  5
D8
100
AcDbEntity
  8
M2
  6
DASHDOT
370
25
 62
     4
100
AcDbCircle
 10
153.220678
 20
376.476288
 40
1.8
100
AcDbArc
 50
117.265711
 51
180.0
  0
LINE
  5
D9
100
AcDbEntity
  8
M2
  6
DASHDOT
370
25
 62
     4
100
AcDbLine
 10
148.420678
 20
369.67629
 11
158.020678
 21
369.67629
  0
LINE
  5
DA
100
AcDbEntity
  8
M2
  6
DASHDOT
370
25
 62
     4
100
AcDbLine
 10
151.420678
 20
376.476288
 11
151.420678
 21
373.276288
  0
LINE
  5
DB
100
AcDbEntity
  8
M2
  6
DASHDOT
370
25
 62
     4
100
AcDbLine
 10
148.420678
 20
378.076292
 11
148.420678
 21
369.67629
  0
LINE
  5
DC
100
AcDbEntity
  8
M2
  6
DASHDOT
370
25
 62
     4
100
AcDbLine
 10
155.020678
 20
376.476288
 11
155.020678
 21
373.276288
  0
ARC
  5
DD
100
AcDbEntity
  8
M2
  6
DASHDOT
370
25
 62
     4
100
AcDbCircle
 10
153.220678
 20
376.476288
 40
1.8
100
AcDbArc
 50
0.0
 51
62.734289
  0
LINE
  5
DE
100
AcDbEntity
  8
M2
  6
DASHDOT
370
25
 62
     4
100
AcDbLine
 10
148.420678
 20
454.876282
 11
148.420678
 21
463.276286
  0
LINE
  5
DF
100
AcDbEntity
  8
M2
  6
DASHDOT
370
25
 62
     4
100
AcDbLine
 10
158.020678
 20
454.876282
 11
158.020678
 21
463.276286
  0
LINE
  5
E0
100
AcDbEntity
  8
M2
  6
DASHDOT
370
25
 62
     4
100
AcDbLine
 10
188.420678
 20
463.276286
 11
198.020678
 21
463.276286
  0
LINE
  5
E1
100
AcDbEntity
  8
M2
  6
DASHDOT
370
25
 62
     4
100
AcDbLine
 10
148.420678
 20
463.276286
 11
158.020678
 21
463.276286
  0
ARC
  5
E2
100
AcDbEntity
  8
M2
  6
DASHDOT
370
25
 62
     4
100
AcDbCircle
 10
153.220678
 20
373.276288
 40
1.8
100
AcDbArc
 50
180.0
 51
360.0
  0
LINE
  5
E3
100
AcDbEntity
  8
M2
  6
DASHDOT
370
25
 62
     4
100
AcDbLine
 10
151.420678
 20
456.476288
 11
151.420678
 21
459.676288
  0
LINE
  5
E4
100
AcDbEntity
  8
M2
  6
DASHDOT
370
25
 62
     4
100
AcDbLine
 10
155.020678
 20
456.476288
 11
155.020678
 21
459.676288
  0
LINE
  5
E5
100
AcDbEntity
  8
M2
  6
DASHDOT
370
25
 62
     4
100
AcDbLine
 10
195.020678
 20
456.476288
 11
195.020678
 21
459.676288
  0
LINE
  5
E6
100
AcDbEntity
  8
M2
  6
CONTINUOUS
370
25
 62
     4
100
AcDbLine
 10
151.806464
 20
385.890514
 11
154.634892
 21
383.062086
  0
LINE
  5
E7
100
AcDbEntity
  8
M2
  6
CONTINUOUS
370
25
 62
     4
100
AcDbLine
 10
154.634892
 20
385.890514
 11
151.806464
 21
383.062086
  0
LINE
  5
E8
100
AcDbEntity
  8
M2
  6
CONTINUOUS
370
25
 62
     4
100
AcDbLine
 10
171.806464
 20
385.890514
 11
174.634892
 21
383.062086
  0
LINE
  5
E9
100
AcDbEntity
  8
M2
  6
CONTINUOUS
370
25
 62
     4
100
AcDbLine
 10
174.634892
 20
385.890514
 11
171.806464
 21
383.062086
  0
LINE
  5
EA
100
AcDbEntity
  8
M2
  6
CONTINUOUS
370
25
 62
     4
100
AcDbLine
 10
191.806464
 20
385.890514
 11
194.634892
 21
383.062086
  0
LINE
  5
EB
100
AcDbEntity
  8
M2
  6
CONTINUOUS
370
25
 62
     4
100
AcDbLine
 10
194.634892
 20
385.890514
 11
191.806464
 21
383.062086
  0
LINE
  5
EC
100
AcDbEntity
  8
M2
  6
CONTINUOUS
370
25
 62
     4
100
AcDbLine
 10
151.806464
 20
447.062072
 11
154.634892
 21
449.890498
  0
LINE
  5
ED
100
AcDbEntity
  8
M2
  6
CONTINUOUS
370
25
 62
     4
100
AcDbLine
 10
154.634892
 20
447.062072
 11
151.806464
 21
449.890498
  0
LINE
  5
EE
100
AcDbEntity
  8
M2
  6
CONTINUOUS
370
25
 62
     4
100
AcDbLine
 10
171.806464
 20
447.062072
 11
174.634892
 21
449.890498
  0
LINE
  5
EF
100
AcDbEntity
  8
M2
  6
CONTINUOUS
370
25
 62
     4
100
AcDbLine
 10
174.634892
 20
447.062072
 11
171.806464
 21
449.890498
  0
LINE
  5
F0
100
AcDbEntity
  8
M2
  6
CONTINUOUS
370
25
 62
     4
100
AcDbLine
 10
191.806464
 20
447.062072
 11
194.634892
 21
449.890498
  0
LINE
  5
F1
100
AcDbEntity
  8
M2
  6
CONTINUOUS
370
25
 62
     4
100
AcDbLine
 10
194.634892
 20
447.062072
 11
191.806464
 21
449.890498
  0
CIRCLE
  5
F2
100
AcDbEntity
  8
M2
  6
CONTINUOUS
370
25
 62
     4
100
AcDbCircle
 10
193.22067
 20
448.476294
 40
3.6
  0
CIRCLE
  5
F3
100
AcDbEntity
  8
M2
  6
CONTINUOUS
370
25
 62
     4
100
AcDbCircle
 10
173.220678
 20
448.476286
 40
3.6
  0
CIRCLE
  5
F4
100
AcDbEntity
  8
M2
  6
CONTINUOUS
370
25
 62
     4
100
AcDbCircle
 10
153.220686
 20
448.476294
 40
3.6
  0
CIRCLE
  5
F5
100
AcDbEntity
  8
M2
  6
CONTINUOUS
370
25
 62
     4
100
AcDbCircle
 10
153.220678
 20
384.4763
 40
3.6
  0
CIRCLE
  5
F6
100
AcDbEntity
  8
M2
  6
CONTINUOUS
370
25
 62
     4
100
AcDbCircle
 10
173.220678
 20
384.4763
 40
3.6
  0
CIRCLE
  5
F7
100
AcDbEntity
  8
M2
  6
CONTINUOUS
370
25
 62
     4
100
AcDbCircle
 10
193.22067
 20
384.476292
 40
3.6
  0
LINE
  5
F8
100
AcDbEntity
  8
M2
  6
CONTINUOUS
370
25
 62
     7
100
AcDbLine
 10
202.420684
 20
156.796882
 11
202.420684
 21
196.796882
  0
ARC
  5
F9
100
AcDbEntity
  8
M2
  6
CONTINUOUS
370
25
 62
     7
100
AcDbCircle
 10
144.020684
 20
196.796882
 40
0.8
100
AcDbArc
 50
90.0
 51
180.0
  0
LINE
  5
FA
100
AcDbEntity
  8
M2
  6
CONTINUOUS
370
25
 62
     7
100
AcDbLine
 10
143.220684
 20
156.796882
 11
143.220684
 21
196.796882
  0
ARC
  5
FB
100
AcDbEntity
  8
M2
  6
CONTINUOUS
370
25
 62
     7
100
AcDbCircle
 10
201.620684
 20
156.796882
 40
0.8
100
AcDbArc
 50
270.0
 51
360.0
  0
ARC
  5
FC
100
AcDbEntity
  8
M2
  6
CONTINUOUS
370
25
 62
     7
100
AcDbCircle
 10
201.620684
 20
196.796882
 40
0.8
100
AcDbArc
 50
0.0
 51
90.0
  0
LINE
  5
FD
100
AcDbEntity
  8
M2
  6
CONTINUOUS
370
25
 62
     7
100
AcDbLine
 10
144.020684
 20
155.996882
 11
201.620684
 21
155.996882
  0
ARC
  5
FE
100
AcDbEntity
  8
M2
  6
CONTINUOUS
370
25
 62
     7
100
AcDbCircle
 10
144.020684
 20
156.796882
 40
0.8
100
AcDbArc
 50
180.0
 51
270.0
  0
LINE
  5
FF
100
AcDbEntity
  8
M2
  6
CONTINUOUS
370
25
 62
     7
100
AcDbLine
 10
144.020684
 20
197.596882
 11
201.620684
 21
197.596882
  0
LINE
  5
100
100
AcDbEntity
  8
M2
  6
DASHDOT
370
25
100
AcDbLine
 10
277.912238
 20
205.596882
 11
277.912238
 21
215.196882
  0
LINE
  5
101
100
AcDbEntity
  8
M2
  6
DASHDOT
370
25
100
AcDbLine
 10
273.112238
 20
210.396882
 11
282.712238
 21
210.396882
  0
LINE
  5
102
100
AcDbEntity
  8
M2
  6
DASHDOT
370
25
100
AcDbLine
 10
293.112238
 20
143.196882
 11
302.712238
 21
143.196882
  0
CIRCLE
  5
103
100
AcDbEntity
  8
M2
  6
CONTINUOUS
370
25
100
AcDbCircle
 10
297.912238
 20
143.196882
 40
2.0
  0
LINE
  5
104
100
AcDbEntity
  8
M2
  6
DASHDOT
370
25
100
AcDbLine
 10
297.912238
 20
138.396882
 11
297.912238
 21
147.996882
  0
CIRCLE
  5
105
100
AcDbEntity
  8
M2
  6
CONTINUOUS
370
25
100
AcDbCircle
 10
277.912238
 20
210.396882
 40
2.0
  0
LINE
  5
106
100
AcDbEntity
  8
M2
  6
DIVIDE
370
25
 62
     4
100
AcDbLine
 10
317.512238
 20
138.396882
 11
317.512238
 21
215.196882
  0
LINE
  5
107
100
AcDbEntity
  8
M2
  6
DIVIDE
370
25
 62
     4
100
AcDbLine
 10
258.312238
 20
215.196882
 11
317.512238
 21
215.196882
  0
LINE
  5
108
100
AcDbEntity
  8
M2
  6
DIVIDE
370
25
 62
     4
100
AcDbLine
 10
258.312238
 20
138.396882
 11
317.512238
 21
138.396882
  0
LINE
  5
109
100
AcDbEntity
  8
M2
  6
DIVIDE
370
25
 62
     4
100
AcDbLine
 10
258.312238
 20
138.396882
 11
258.312238
 21
215.196882
  0
LINE
  5
10A
100
AcDbEntity
  8
M2
  6
DASHDOT
370
25
 62
     4
100
AcDbLine
 10
253.333658
 20
176.796882
 11
324.299652
 21
176.796882
  0
LINE
  5
10B
100
AcDbEntity
  8
M2
  6
DASHDOT
370
25
 62
     4
100
AcDbLine
 10
287.912238
 20
131.833018
 11
287.912238
 21
221.603206
  0
LINE
  5
10C
100
AcDbEntity
  8
M2
  6
DASHDOT
370
25
 62
     4
100
AcDbLine
 10
172.820684
 20
128.445646
 11
172.820684
 21
221.603206
  0
LINE
  5
10D
100
AcDbEntity
  8
M2
  6
DASHDOT
370
25
 62
     4
100
AcDbLine
 10
138.242104
 20
176.796882
 11
209.2081
 21
176.796882
  0
LINE
  5
10E
100
AcDbEntity
  8
M2
  6
DASHDOT
370
25
 62
     4
100
AcDbLine
 10
142.420684
 20
138.396882
 11
203.220684
 21
138.396882
  0
LINE
  5
10F
100
AcDbEntity
  8
M2
  6
DASHDOT
370
25
 62
     4
100
AcDbLine
 10
203.220684
 20
138.396882
 11
203.220684
 21
215.196882
  0
LINE
  5
110
100
AcDbEntity
  8
M2
  6
DASHDOT
370
25
 62
     4
100
AcDbLine
 10
142.420684
 20
138.396882
 11
142.420684
 21
215.196882
  0
LINE
  5
111
100
AcDbEntity
  8
M2
  6
DASHDOT
370
25
 62
     4
100
AcDbLine
 10
142.420684
 20
215.196882
 11
203.220684
 21
215.196882
  0
LINE
  5
112
100
AcDbEntity
  8
M2
  6
DASHED
370
25
 62
     2
100
AcDbLine
 10
291.91223
 20
388.828786
 11
291.91223
 21
380.200228
  0
LINE
  5
113
100
AcDbEntity
  8
M2
  6
DASHDOT
370
25
 62
     2
100
AcDbLine
 10
301.232626
 20
384.4763
 11
283.997602
 21
384.4763
  0
LINE
  5
114
100
AcDbEntity
  8
M2
  6
DASHED
370
25
 62
     2
100
AcDbLine
 10
291.91223
 20
444.1238
 11
291.91223
 21
452.752358
  0
LINE
  5
115
100
AcDbEntity
  8
M2
  6
DASHDOT
370
25
 62
     2
100
AcDbLine
 10
301.232626
 20
448.476286
 11
283.997602
 21
448.476286
  0
LINE
  5
116
100
AcDbEntity
  8
M2
  6
DASHDOT
370
25
100
AcDbLine
 10
285.51224
 20
453.396292
 11
285.51224
 21
446.756292
  0
LINE
  5
117
100
AcDbEntity
  8
M2
  6
DASHDOT
370
25
100
AcDbLine
 10
277.61539
 20
450.076292
 11
317.512238
 21
450.076292
  0
LINE
  5
118
100
AcDbEntity
  8
M2
  6
DASHDOT
370
25
100
AcDbLine
 10
285.51224
 20
379.556292
 11
285.51224
 21
386.196292
  0
LINE
  5
119
100
AcDbEntity
  8
M2
  6
DASHDOT
370
25
100
AcDbLine
 10
277.61539
 20
382.876292
 11
317.512238
 21
382.876292
  0
LINE
  5
11A
100
AcDbEntity
  8
M2
  6
DASHDOT
370
25
100
AcDbLine
 10
316.552238
 20
370.876288
 11
316.552238
 21
378.876288
  0
LINE
  5
11B
100
AcDbEntity
  8
M2
  6
DASHDOT
370
25
100
AcDbLine
 10
312.552238
 20
374.876288
 11
320.552238
 21
374.876288
  0
LINE
  5
11C
100
AcDbEntity
  8
M2
  6
DASHDOT
370
25
100
AcDbLine
 10
316.552238
 20
454.076298
 11
316.552238
 21
462.076298
  0
LINE
  5
11D
100
AcDbEntity
  8
M2
  6
DASHDOT
370
25
100
AcDbLine
 10
312.552238
 20
458.076298
 11
320.552238
 21
458.076298
  0
LINE
  5
11E
100
AcDbEntity
  8
M2
  6
DASHDOT
370
25
100
AcDbLine
 10
149.220684
 20
374.876292
 11
157.220684
 21
374.876292
  0
LINE
  5
11F
100
AcDbEntity
  8
M2
  6
DASHDOT
370
25
100
AcDbLine
 10
153.220684
 20
370.876292
 11
153.220684
 21
378.876292
  0
LINE
  5
120
100
AcDbEntity
  8
M2
  6
DASHDOT
370
25
100
AcDbLine
 10
197.220684
 20
374.876292
 11
189.220684
 21
374.876292
  0
LINE
  5
121
100
AcDbEntity
  8
M2
  6
DASHDOT
370
25
100
AcDbLine
 10
193.220684
 20
370.876292
 11
193.220684
 21
378.876292
  0
LINE
  5
122
100
AcDbEntity
  8
M2
  6
DASHDOT
370
25
100
AcDbLine
 10
149.220684
 20
458.076292
 11
157.220684
 21
458.076292
  0
LINE
  5
123
100
AcDbEntity
  8
M2
  6
DASHDOT
370
25
100
AcDbLine
 10
153.220684
 20
462.076292
 11
153.220684
 21
454.076292
  0
LINE
  5
124
100
AcDbEntity
  8
M2
  6
DASHDOT
370
25
100
AcDbLine
 10
197.220684
 20
458.076292
 11
189.220684
 21
458.076292
  0
LINE
  5
125
100
AcDbEntity
  8
M2
  6
DASHDOT
370
25
100
AcDbLine
 10
193.220684
 20
462.076292
 11
193.220684
 21
454.076292
  0
CIRCLE
  5
126
100
AcDbEntity
  8
M2
  6
CONTINUOUS
370
25
100
AcDbCircle
 10
183.220678
 20
382.876292
 40
2.0
  0
CIRCLE
  5
127
100
AcDbEntity
  8
M2
  6
CONTINUOUS
370
25
100
AcDbCircle
 10
163.220678
 20
450.076284
 40
2.0
  0
LINE
  5
128
100
AcDbEntity
  8
M2
  6
DASHDOT
370
25
100
AcDbLine
 10
177.220678
 20
382.876292
 11
189.220678
 21
382.876292
  0
LINE
  5
129
100
AcDbEntity
  8
M2
  6
DASHDOT
370
25
100
AcDbLine
 10
183.220678
 20
376.876292
 11
183.220678
 21
388.876292
  0
LINE
  5
12A
100
AcDbEntity
  8
M2
  6
DASHDOT
370
25
100
AcDbLine
 10
157.220678
 20
450.076284
 11
169.220678
 21
450.076284
  0
LINE
  5
12B
100
AcDbEntity
  8
M2
  6
DASHDOT
370
25
100
AcDbLine
 10
163.220678
 20
444.076284
 11
163.220678
 21
456.076284
  0
LINE
  5
12C
100
AcDbEntity
  8
M2
  6
DASHDOT
370
25
 62
     2
100
AcDbLine
 10
153.220678
 20
378.876292
 11
153.220678
 21
390.076292
  0
LINE
  5
12D
100
AcDbEntity
  8
M2
  6
DASHDOT
370
25
 62
     2
100
AcDbLine
 10
147.620678
 20
384.476292
 11
158.820678
 21
384.476292
  0
LINE
  5
12E
100
AcDbEntity
  8
M2
  6
DASHDOT
370
25
 62
     2
100
AcDbLine
 10
173.220678
 20
378.876292
 11
173.220678
 21
390.076292
  0
LINE
  5
12F
100
AcDbEntity
  8
M2
  6
DASHDOT
370
25
 62
     2
100
AcDbLine
 10
167.620678
 20
384.476292
 11
178.820678
 21
384.476292
  0
LINE
  5
130
100
AcDbEntity
  8
M2
  6
DASHDOT
370
25
 62
     2
100
AcDbLine
 10
193.220692
 20
378.876292
 11
193.220692
 21
390.076292
  0
LINE
  5
131
100
AcDbEntity
  8
M2
  6
DASHDOT
370
25
 62
     2
100
AcDbLine
 10
198.820692
 20
384.476292
 11
187.620692
 21
384.476292
  0
LINE
  5
132
100
AcDbEntity
  8
M2
  6
DASHDOT
370
25
 62
     2
100
AcDbLine
 10
153.220678
 20
454.076294
 11
153.220678
 21
442.876294
  0
LINE
  5
133
100
AcDbEntity
  8
M2
  6
DASHDOT
370
25
 62
     2
100
AcDbLine
 10
147.620678
 20
448.476294
 11
158.820678
 21
448.476294
  0
LINE
  5
134
100
AcDbEntity
  8
M2
  6
DASHDOT
370
25
 62
     2
100
AcDbLine
 10
173.220678
 20
454.076294
 11
173.220678
 21
442.876294
  0
LINE
  5
135
100
AcDbEntity
  8
M2
  6
DASHDOT
370
25
 62
     2
100
AcDbLine
 10
167.620678
 20
448.476294
 11
178.820678
 21
448.476294
  0
LINE
  5
136
100
AcDbEntity
  8
M2
  6
DASHDOT
370
25
 62
     2
100
AcDbLine
 10
193.220692
 20
454.076294
 11
193.220692
 21
442.876294
  0
LINE
  5
137
100
AcDbEntity
  8
M2
  6
DASHDOT
370
25
 62
     2
100
AcDbLine
 10
198.820692
 20
448.476294
 11
187.620692
 21
448.476294
  0
LINE
  5
138
100
AcDbEntity
  8
M2
  6
CONTINUOUS
370
25
 62
     4
100
AcDbLine
 10
176.660678
 20
326.332298
 11
176.660678
 21
335.04582
  0
LINE
  5
139
100
AcDbEntity
  8
M2
  6
CONTINUOUS
370
25
 62
     4
100
AcDbLine
 10
169.780678
 20
326.332298
 11
169.780678
 21
335.04582
  0
LINE
  5
13A
100
AcDbEntity
  8
M2
  6
CONTINUOUS
370
25
 62
     4
100
AcDbLine
 10
176.660678
 20
335.04582
 11
169.780678
 21
335.04582
  0
LINE
  5
13B
100
AcDbEntity
  8
M2
  6
CONTINUOUS
370
25
 62
     4
100
AcDbLine
 10
202.020684
 20
322.332298
 11
202.020684
 21
326.332298
  0
LINE
  5
13C
100
AcDbEntity
  8
M2
  6
CONTINUOUS
370
25
 62
     4
100
AcDbLine
 10
144.420684
 20
326.332298
 11
202.020684
 21
326.332298
  0
LINE
  5
13D
100
AcDbEntity
  8
M2
  6
CONTINUOUS
370
25
 62
     4
100
AcDbLine
 10
203.220684
 20
322.332298
 11
203.220684
 21
274.332302
  0
LINE
  5
13E
100
AcDbEntity
  8
M2
  6
CONTINUOUS
370
25
 62
     4
100
AcDbLine
 10
144.420684
 20
322.332298
 11
144.420684
 21
326.332298
  0
LINE
  5
13F
100
AcDbEntity
  8
M2
  6
CONTINUOUS
370
25
 62
     4
100
AcDbLine
 10
143.220684
 20
322.332298
 11
143.220684
 21
274.332302
  0
LINE
  5
140
100
AcDbEntity
  8
M2
  6
CONTINUOUS
370
25
 62
     4
100
AcDbLine
 10
203.220684
 20
274.332302
 11
143.220684
 21
274.332302
  0
LINE
  5
141
100
AcDbEntity
  8
M2
  6
CONTINUOUS
370
25
 62
     4
100
AcDbLine
 10
203.220684
 20
322.332298
 11
143.220684
 21
322.332298
  0
LINE
  5
142
100
AcDbEntity
  8
M2
  6
DASHDOT
370
25
100
AcDbLine
 10
163.220684
 20
274.332302
 11
163.220684
 21
312.76932
  0
LINE
  5
143
100
AcDbEntity
  8
M2
  6
DASHDOT
370
25
100
AcDbLine
 10
166.540684
 20
306.332302
 11
159.900684
 21
306.332302
  0
LINE
  5
144
100
AcDbEntity
  8
M2
  6
DASHDOT
370
25
100
AcDbLine
 10
183.220684
 20
274.332302
 11
183.220684
 21
312.76932
  0
LINE
  5
145
100
AcDbEntity
  8
M2
  6
DASHDOT
370
25
100
AcDbLine
 10
186.540684
 20
306.332302
 11
179.900684
 21
306.332302
  0
LINE
  5
146
100
AcDbEntity
  8
M2
  6
DASHDOT
370
25
100
AcDbLine
 10
153.220684
 20
271.535862
 11
153.220684
 21
279.10432
  0
LINE
  5
147
100
AcDbEntity
  8
M2
  6
DASHDOT
370
25
100
AcDbLine
 10
148.420684
 20
275.292302
 11
158.020684
 21
275.292302
  0
LINE
  5
148
100
AcDbEntity
  8
M2
  6
DASHDOT
370
25
100
AcDbLine
 10
193.220684
 20
271.535862
 11
193.220684
 21
279.10432
  0
LINE
  5
149
100
AcDbEntity
  8
M2
  6
DASHDOT
370
25
100
AcDbLine
 10
188.420684
 20
275.292302
 11
198.020684
 21
275.292302
  0
LINE
  5
14A
100
AcDbEntity
  8
M2
  6
DASHDOT
370
25
 62
     2
100
AcDbLine
 10
153.220684
 20
294.678856
 11
153.220684
 21
305.016264
  0
LINE
  5
14B
100
AcDbEntity
  8
M2
  6
DASHDOT
370
25
 62
     2
100
AcDbLine
 10
148.420684
 20
299.932302
 11
158.020684
 21
299.932302
  0
LINE
  5
14C
100
AcDbEntity
  8
M2
  6
DASHDOT
370
25
 62
     2
100
AcDbLine
 10
168.420684
 20
299.932302
 11
178.020684
 21
299.932302
  0
LINE
  5
14D
100
AcDbEntity
  8
M2
  6
DASHDOT
370
25
 62
     2
100
AcDbLine
 10
173.220684
 20
305.016264
 11
173.220684
 21
294.678856
  0
LINE
  5
14E
100
AcDbEntity
  8
M2
  6
DASHDOT
370
25
 62
     2
100
AcDbLine
 10
193.220684
 20
294.678856
 11
193.220684
 21
305.016264
  0
LINE
  5
14F
100
AcDbEntity
  8
M2
  6
DASHDOT
370
25
 62
     2
100
AcDbLine
 10
188.420684
 20
299.932302
 11
198.020684
 21
299.932302
  0
LINE
  5
150
100
AcDbEntity
  8
M2
  6
CONTINUOUS
370
25
100
AcDbLine
 10
171.806464
 20
447.062072
 11
174.634892
 21
449.890498
  0
LINE
  5
151
100
AcDbEntity
  8
M2
  6
CONTINUOUS
370
25
100
AcDbLine
 10
174.634892
 20
447.062072
 11
171.806464
 21
449.890498
  0
LINE
  5
152
100
AcDbEntity
  8
M3
  6
CONTINUOUS
370
25
100
AcDbLine
 10
306.37445
 20
91.744446
 11
306.37445
 21
58.74445
  0
LINE
  5
153
100
AcDbEntity
  8
M3
  6
CONTINUOUS
370
25
100
AcDbLine
 10
142.374466
 20
91.744446
 11
142.374466
 21
58.74445
  0
LINE
  5
154
100
AcDbEntity
  8
M3
  6
CONTINUOUS
370
25
100
AcDbLine
 10
142.374466
 20
58.74445
 11
306.37445
 21
58.74445
  0
LINE
  5
155
100
AcDbEntity
  8
M3
  6
CONTINUOUS
370
25
100
AcDbLine
 10
142.374466
 20
91.744446
 11
306.37445
 21
91.744446
  0
LINE
  5
156
100
AcDbEntity
  8
M3
  6
CONTINUOUS
370
25
100
AcDbLine
 10
268.374482
 20
80.744454
 11
268.374482
 21
91.744446
  0
LINE
  5
157
100
AcDbEntity
  8
M3
  6
CONTINUOUS
370
25
100
AcDbLine
 10
166.374466
 20
80.744454
 11
268.374482
 21
80.744454
  0
LINE
  5
158
100
AcDbEntity
  8
M3
  6
CONTINUOUS
370
25
100
AcDbLine
 10
268.374482
 20
80.744454
 11
286.37445
 21
80.744454
  0
TEXT
  5
159
100
AcDbEntity
  8
M3
100
AcDbText
 10
270.273346
 20
83.744446
 40
5.0
  1
ＲＥＶ．：
 41
0.666667
  7
STANDARD
100
AcDbText
  0
LINE
  5
15A
100
AcDbEntity
  8
M3
  6
CONTINUOUS
370
25
100
AcDbLine
 10
286.37445
 20
80.744454
 11
306.37445
 21
80.744454
  0
TEXT
  5
15B
100
AcDbEntity
  8
M3
100
AcDbText
 10
294.235565
 20
83.744446
 40
5.0
  1
０１
 41
0.833333
  7
STANDARD
100
AcDbText
  0
LINE
  5
15C
100
AcDbEntity
  8
M3
  6
CONTINUOUS
370
25
100
AcDbLine
 10
142.374466
 20
80.744454
 11
166.374466
 21
80.744454
  0
TEXT
  5
15D
100
AcDbEntity
  8
M3
100
AcDbText
 10
144.23558
 20
83.744446
 40
5.0
  1
登録名：
 41
0.833333
  7
STANDARD
100
AcDbText
  0
LINE
  5
15E
100
AcDbEntity
  8
M3
  6
CONTINUOUS
370
25
100
AcDbLine
 10
286.37445
 20
69.744454
 11
306.37445
 21
69.744454
  0
LINE
  5
15F
100
AcDbEntity
  8
M3
  6
CONTINUOUS
370
25
100
AcDbLine
 10
166.374466
 20
69.744454
 11
286.37445
 21
69.744454
  0
TEXT
  5
160
100
AcDbEntity
  8
M3
100
AcDbText
 10
168.23558
 20
72.744453
 40
5.0
  1
表面形
 41
0.833333
  7
STANDARD
100
AcDbText
  0
LINE
  5
161
100
AcDbEntity
  8
M3
  6
CONTINUOUS
370
25
100
AcDbLine
 10
142.374466
 20
69.744454
 11
166.374466
 21
69.744454
  0
TEXT
  5
162
100
AcDbEntity
  8
M3
100
AcDbText
 10
143.249481
 20
72.744453
 40
5.0
  1
接続方式：
 41
0.75
  7
STANDARD
100
AcDbText
  0
TEXT
  5
163
100
AcDbEntity
  8
M3
100
AcDbText
 10
143.249481
 20
61.744453
 40
5.0
  1
適用形式：
 41
0.75
  7
STANDARD
100
AcDbText
  0
TEXT
  5
164
100
AcDbEntity
  8
M3
100
AcDbText
 10
168.249481
 20
61.744453
 40
5.0
  1
ＥＢ－５０Ｅ　３Ｐ
 41
0.75
  7
STANDARD
100
AcDbText
  0
TEXT
  5
165
100
AcDbEntity
  8
M3
100
AcDbText
 10
168.23558
 20
83.744446
 40
5.0
  1
ＥＢ－５０Ｅ　３Ｐ
 41
0.833333
  7
STANDARD
100
AcDbText
  0
LINE
  5
166
100
AcDbEntity
  8
M4
  6
CONTINUOUS
370
25
 62
     5
100
AcDbLine
 10
163.220673
 20
457.076294
 11
163.220673
 21
478.577759
  0
LINE
  5
167
100
AcDbEntity
  8
M4
  6
CONTINUOUS
370
25
 62
     5
100
AcDbLine
 10
183.220673
 20
389.876282
 11
183.220673
 21
478.577759
  0
LINE
  5
168
100
AcDbEntity
  8
M4
  6
CONTINUOUS
370
25
 62
     5
100
AcDbLine
 10
166.11845
 20
478.354216
 11
163.220673
 21
477.577759
  0
LINE
  5
169
100
AcDbEntity
  8
M4
  6
CONTINUOUS
370
25
 62
     5
100
AcDbLine
 10
163.220673
 20
477.577759
 11
166.11845
 21
476.801302
  0
LINE
  5
16A
100
AcDbEntity
  8
M4
  6
CONTINUOUS
370
25
 62
     5
100
AcDbLine
 10
180.322895
 20
476.801302
 11
183.220673
 21
477.577759
  0
LINE
  5
16B
100
AcDbEntity
  8
M4
  6
CONTINUOUS
370
25
 62
     5
100
AcDbLine
 10
183.220673
 20
477.577759
 11
180.322895
 21
478.354216
  0
LINE
  5
16C
100
AcDbEntity
  8
M4
  6
CONTINUOUS
370
25
 62
     5
100
AcDbLine
 10
163.220673
 20
477.577759
 11
183.220673
 21
477.577759
  0
TEXT
  5
16D
100
AcDbEntity
  8
M4
 62
     5
100
AcDbText
 10
170.078171
 20
477.577759
 40
4.5
  1
２５
 41
0.616667
  7
STANDARD
100
AcDbText
  0
LINE
  5
16E
100
AcDbEntity
  8
M4
  6
CONTINUOUS
370
25
 62
     5
100
AcDbLine
 10
153.220688
 20
463.076294
 11
153.220688
 21
490.700348
  0
LINE
  5
16F
100
AcDbEntity
  8
M4
  6
CONTINUOUS
370
25
 62
     5
100
AcDbLine
 10
173.220688
 20
458.392792
 11
173.220688
 21
490.700348
  0
LINE
  5
170
100
AcDbEntity
  8
M4
  6
CONTINUOUS
370
25
 62
     5
100
AcDbLine
 10
156.118465
 20
490.476805
 11
153.220688
 21
489.700348
  0
LINE
  5
171
100
AcDbEntity
  8
M4
  6
CONTINUOUS
370
25
 62
     5
100
AcDbLine
 10
153.220688
 20
489.700348
 11
156.118465
 21
488.923891
  0
LINE
  5
172
100
AcDbEntity
  8
M4
  6
CONTINUOUS
370
25
 62
     5
100
AcDbLine
 10
170.32291
 20
488.923891
 11
173.220688
 21
489.700348
  0
LINE
  5
173
100
AcDbEntity
  8
M4
  6
CONTINUOUS
370
25
 62
     5
100
AcDbLine
 10
173.220688
 20
489.700348
 11
170.32291
 21
490.476805
  0
LINE
  5
174
100
AcDbEntity
  8
M4
  6
CONTINUOUS
370
25
 62
     5
100
AcDbLine
 10
153.220688
 20
489.700348
 11
173.220688
 21
489.700348
  0
TEXT
  5
175
100
AcDbEntity
  8
M4
 62
     5
100
AcDbText
 10
160.078186
 20
489.700348
 40
4.5
  1
２５
 41
0.616667
  7
STANDARD
100
AcDbText
  0
LINE
  5
176
100
AcDbEntity
  8
M4
  6
CONTINUOUS
370
25
 62
     5
100
AcDbLine
 10
173.220688
 20
458.392792
 11
173.220688
 21
494.577759
  0
LINE
  5
177
100
AcDbEntity
  8
M4
  6
CONTINUOUS
370
25
 62
     5
100
AcDbLine
 10
193.220688
 20
463.076294
 11
193.220688
 21
494.577759
  0
LINE
  5
178
100
AcDbEntity
  8
M4
  6
CONTINUOUS
370
25
 62
     5
100
AcDbLine
 10
176.118465
 20
494.354216
 11
173.220688
 21
493.577759
  0
LINE
  5
179
100
AcDbEntity
  8
M4
  6
CONTINUOUS
370
25
 62
     5
100
AcDbLine
 10
173.220688
 20
493.577759
 11
176.118465
 21
492.801302
  0
LINE
  5
17A
100
AcDbEntity
  8
M4
  6
CONTINUOUS
370
25
 62
     5
100
AcDbLine
 10
190.32291
 20
492.801302
 11
193.220688
 21
493.577759
  0
LINE
  5
17B
100
AcDbEntity
  8
M4
  6
CONTINUOUS
370
25
 62
     5
100
AcDbLine
 10
193.220688
 20
493.577759
 11
190.32291
 21
494.354216
  0
LINE
  5
17C
100
AcDbEntity
  8
M4
  6
CONTINUOUS
370
25
 62
     5
100
AcDbLine
 10
173.220688
 20
493.577759
 11
193.220688
 21
493.577759
  0
TEXT
  5
17D
100
AcDbEntity
  8
M4
 62
     5
100
AcDbText
 10
180.078186
 20
493.577759
 40
4.5
  1
２５
 41
0.616667
  7
STANDARD
100
AcDbText
  0
LINE
  5
17E
100
AcDbEntity
  8
M4
  6
CONTINUOUS
370
25
 62
     5
100
AcDbLine
 10
156.220673
 20
450.076294
 11
128.782181
 21
450.076294
  0
LINE
  5
17F
100
AcDbEntity
  8
M4
  6
CONTINUOUS
370
25
 62
     5
100
AcDbLine
 10
176.220673
 20
382.876282
 11
128.782181
 21
382.876282
  0
LINE
  5
180
100
AcDbEntity
  8
M4
  6
CONTINUOUS
370
25
 62
     5
100
AcDbLine
 10
130.558638
 20
447.178516
 11
129.782181
 21
450.076294
  0
LINE
  5
181
100
AcDbEntity
  8
M4
  6
CONTINUOUS
370
25
 62
     5
100
AcDbLine
 10
129.782181
 20
450.076294
 11
129.005724
 21
447.178516
  0
LINE
  5
182
100
AcDbEntity
  8
M4
  6
CONTINUOUS
370
25
 62
     5
100
AcDbLine
 10
129.005724
 20
385.774059
 11
129.782181
 21
382.876282
  0
LINE
  5
183
100
AcDbEntity
  8
M4
  6
CONTINUOUS
370
25
 62
     5
100
AcDbLine
 10
129.782181
 20
382.876282
 11
130.558638
 21
385.774059
  0
LINE
  5
184
100
AcDbEntity
  8
M4
  6
CONTINUOUS
370
25
 62
     5
100
AcDbLine
 10
129.782181
 20
450.076294
 11
129.782181
 21
382.876282
  0
TEXT
  5
185
100
AcDbEntity
  8
M4
 62
     5
100
AcDbText
 10
129.782181
 20
413.333801
 40
4.5
  1
８４
 50
90.000003
 41
0.616667
  7
STANDARD
100
AcDbText
  0
LINE
  5
186
100
AcDbEntity
  8
M4
  6
CONTINUOUS
370
25
 62
     5
100
AcDbLine
 10
148.220688
 20
458.076294
 11
112.782181
 21
458.076294
  0
LINE
  5
187
100
AcDbEntity
  8
M4
  6
CONTINUOUS
370
25
 62
     5
100
AcDbLine
 10
148.220688
 20
374.876282
 11
112.782181
 21
374.876282
  0
LINE
  5
188
100
AcDbEntity
  8
M4
  6
CONTINUOUS
370
25
 62
     5
100
AcDbLine
 10
114.558638
 20
455.178516
 11
113.782181
 21
458.076294
  0
LINE
  5
189
100
AcDbEntity
  8
M4
  6
CONTINUOUS
370
25
 62
     5
100
AcDbLine
 10
113.782181
 20
458.076294
 11
113.005724
 21
455.178516
  0
LINE
  5
18A
100
AcDbEntity
  8
M4
  6
CONTINUOUS
370
25
 62
     5
100
AcDbLine
 10
113.005724
 20
377.774059
 11
113.782181
 21
374.876282
  0
LINE
  5
18B
100
AcDbEntity
  8
M4
  6
CONTINUOUS
370
25
 62
     5
100
AcDbLine
 10
113.782181
 20
374.876282
 11
114.558638
 21
377.774059
  0
LINE
  5
18C
100
AcDbEntity
  8
M4
  6
CONTINUOUS
370
25
 62
     5
100
AcDbLine
 10
113.782181
 20
458.076294
 11
113.782181
 21
374.876282
  0
TEXT
  5
18D
100
AcDbEntity
  8
M4
 62
     5
100
AcDbText
 10
113.782181
 20
411.668793
 40
4.5
  1
１０４
 50
90.000003
 41
0.616667
  7
STANDARD
100
AcDbText
  0
LINE
  5
18E
100
AcDbEntity
  8
M4
  6
CONTINUOUS
370
25
 62
     5
100
AcDbLine
 10
199.820694
 20
448.476288
 11
220.228455
 21
448.476288
  0
LINE
  5
18F
100
AcDbEntity
  8
M4
  6
CONTINUOUS
370
25
 62
     5
100
AcDbLine
 10
199.820694
 20
384.476288
 11
220.228455
 21
384.476288
  0
LINE
  5
190
100
AcDbEntity
  8
M4
  6
CONTINUOUS
370
25
 62
     5
100
AcDbLine
 10
220.004912
 20
445.57851
 11
219.228455
 21
448.476288
  0
LINE
  5
191
100
AcDbEntity
  8
M4
  6
CONTINUOUS
370
25
 62
     5
100
AcDbLine
 10
219.228455
 20
448.476288
 11
218.451997
 21
445.57851
  0
LINE
  5
192
100
AcDbEntity
  8
M4
  6
CONTINUOUS
370
25
 62
     5
100
AcDbLine
 10
218.451997
 20
387.374065
 11
219.228455
 21
384.476288
  0
LINE
  5
193
100
AcDbEntity
  8
M4
  6
CONTINUOUS
370
25
 62
     5
100
AcDbLine
 10
219.228455
 20
384.476288
 11
220.004912
 21
387.374065
  0
LINE
  5
194
100
AcDbEntity
  8
M4
  6
CONTINUOUS
370
25
 62
     5
100
AcDbLine
 10
219.228455
 20
448.476288
 11
219.228455
 21
384.476288
  0
TEXT
  5
195
100
AcDbEntity
  8
M4
 62
     5
100
AcDbText
 10
219.228455
 20
413.333801
 40
4.5
  1
８０
 50
90.000003
 41
0.616667
  7
STANDARD
100
AcDbText
  0
LINE
  5
196
100
AcDbEntity
  8
M4
  6
CONTINUOUS
370
25
 62
     5
100
AcDbLine
 10
203.220688
 20
455.876312
 11
203.220688
 21
510.577759
  0
LINE
  5
197
100
AcDbEntity
  8
M4
  6
CONTINUOUS
370
25
 62
     5
100
AcDbLine
 10
143.220688
 20
455.876312
 11
143.220688
 21
510.577759
  0
LINE
  5
198
100
AcDbEntity
  8
M4
  6
CONTINUOUS
370
25
 62
     5
100
AcDbLine
 10
200.32291
 20
508.801302
 11
203.220688
 21
509.577759
  0
LINE
  5
199
100
AcDbEntity
  8
M4
  6
CONTINUOUS
370
25
 62
     5
100
AcDbLine
 10
203.220688
 20
509.577759
 11
200.32291
 21
510.354216
  0
LINE
  5
19A
100
AcDbEntity
  8
M4
  6
CONTINUOUS
370
25
 62
     5
100
AcDbLine
 10
146.118465
 20
510.354216
 11
143.220688
 21
509.577759
  0
LINE
  5
19B
100
AcDbEntity
  8
M4
  6
CONTINUOUS
370
25
 62
     5
100
AcDbLine
 10
143.220688
 20
509.577759
 11
146.118465
 21
508.801302
  0
LINE
  5
19C
100
AcDbEntity
  8
M4
  6
CONTINUOUS
370
25
 62
     5
100
AcDbLine
 10
203.220688
 20
509.577759
 11
143.220688
 21
509.577759
  0
TEXT
  5
19D
100
AcDbEntity
  8
M4
 62
     5
100
AcDbText
 10
170.078186
 20
509.577759
 40
4.5
  1
７５
 41
0.616667
  7
STANDARD
100
AcDbText
  0
LINE
  5
19E
100
AcDbEntity
  8
M4
  6
CONTINUOUS
370
25
 62
     5
100
AcDbLine
 10
302.232635
 20
448.476288
 11
332.982208
 21
448.476288
  0
LINE
  5
19F
100
AcDbEntity
  8
M4
  6
CONTINUOUS
370
25
 62
     5
100
AcDbLine
 10
302.232635
 20
384.476288
 11
332.982208
 21
384.476288
  0
LINE
  5
1A0
100
AcDbEntity
  8
M4
  6
CONTINUOUS
370
25
 62
     5
100
AcDbLine
 10
332.758665
 20
445.57851
 11
331.982208
 21
448.476288
  0
LINE
  5
1A1
100
AcDbEntity
  8
M4
  6
CONTINUOUS
370
25
 62
     5
100
AcDbLine
 10
331.982208
 20
448.476288
 11
331.205751
 21
445.57851
  0
LINE
  5
1A2
100
AcDbEntity
  8
M4
  6
CONTINUOUS
370
25
 62
     5
100
AcDbLine
 10
331.205751
 20
387.374065
 11
331.982208
 21
384.476288
  0
LINE
  5
1A3
100
AcDbEntity
  8
M4
  6
CONTINUOUS
370
25
 62
     5
100
AcDbLine
 10
331.982208
 20
384.476288
 11
332.758665
 21
387.374065
  0
LINE
  5
1A4
100
AcDbEntity
  8
M4
  6
CONTINUOUS
370
25
 62
     5
100
AcDbLine
 10
331.982208
 20
448.476288
 11
331.982208
 21
384.476288
  0
TEXT
  5
1A5
100
AcDbEntity
  8
M4
 62
     5
100
AcDbText
 10
331.982208
 20
413.333801
 40
4.5
  1
８０
 50
90.000003
 41
0.616667
  7
STANDARD
100
AcDbText
  0
LINE
  5
1A6
100
AcDbEntity
  8
M4
  6
CONTINUOUS
370
25
 62
     5
100
AcDbLine
 10
318.512238
 20
450.076294
 11
348.982208
 21
450.076294
  0
LINE
  5
1A7
100
AcDbEntity
  8
M4
  6
CONTINUOUS
370
25
 62
     5
100
AcDbLine
 10
318.512238
 20
382.876282
 11
348.982208
 21
382.876282
  0
LINE
  5
1A8
100
AcDbEntity
  8
M4
  6
CONTINUOUS
370
25
 62
     5
100
AcDbLine
 10
348.758665
 20
447.178516
 11
347.982208
 21
450.076294
  0
LINE
  5
1A9
100
AcDbEntity
  8
M4
  6
CONTINUOUS
370
25
 62
     5
100
AcDbLine
 10
347.982208
 20
450.076294
 11
347.205751
 21
447.178516
  0
LINE
  5
1AA
100
AcDbEntity
  8
M4
  6
CONTINUOUS
370
25
 62
     5
100
AcDbLine
 10
347.205751
 20
385.774059
 11
347.982208
 21
382.876282
  0
LINE
  5
1AB
100
AcDbEntity
  8
M4
  6
CONTINUOUS
370
25
 62
     5
100
AcDbLine
 10
347.982208
 20
382.876282
 11
348.758665
 21
385.774059
  0
LINE
  5
1AC
100
AcDbEntity
  8
M4
  6
CONTINUOUS
370
25
 62
     5
100
AcDbLine
 10
347.982208
 20
450.076294
 11
347.982208
 21
382.876282
  0
TEXT
  5
1AD
100
AcDbEntity
  8
M4
 62
     5
100
AcDbText
 10
347.982208
 20
413.333801
 40
4.5
  1
８４
 50
90.000003
 41
0.616667
  7
STANDARD
100
AcDbText
  0
LINE
  5
1AE
100
AcDbEntity
  8
M4
  6
CONTINUOUS
370
25
 62
     5
100
AcDbLine
 10
317.512238
 20
378.6763
 11
317.512238
 21
355.550629
  0
LINE
  5
1AF
100
AcDbEntity
  8
M4
  6
CONTINUOUS
370
25
 62
     5
100
AcDbLine
 10
291.912231
 20
379.200226
 11
291.912231
 21
355.550629
  0
LINE
  5
1B0
100
AcDbEntity
  8
M4
  6
CONTINUOUS
370
25
 62
     5
100
AcDbLine
 10
314.61446
 20
355.774172
 11
317.512238
 21
356.550629
  0
LINE
  5
1B1
100
AcDbEntity
  8
M4
  6
CONTINUOUS
370
25
 62
     5
100
AcDbLine
 10
317.512238
 20
356.550629
 11
314.61446
 21
357.327086
  0
LINE
  5
1B2
100
AcDbEntity
  8
M4
  6
CONTINUOUS
370
25
 62
     5
100
AcDbLine
 10
294.810009
 20
357.327086
 11
291.912231
 21
356.550629
  0
LINE
  5
1B3
100
AcDbEntity
  8
M4
  6
CONTINUOUS
370
25
 62
     5
100
AcDbLine
 10
291.912231
 20
356.550629
 11
294.810009
 21
355.774172
  0
LINE
  5
1B4
100
AcDbEntity
  8
M4
  6
CONTINUOUS
370
25
 62
     5
100
AcDbLine
 10
317.512238
 20
356.550629
 11
291.912231
 21
356.550629
  0
TEXT
  5
1B5
100
AcDbEntity
  8
M4
 62
     5
100
AcDbText
 10
301.569733
 20
356.550629
 40
4.5
  1
３２
 41
0.616667
  7
STANDARD
100
AcDbText
  0
LINE
  5
1B6
100
AcDbEntity
  8
M4
  6
CONTINUOUS
370
25
 62
     5
100
AcDbLine
 10
285.512238
 20
454.396301
 11
285.512238
 21
471.622162
  0
LINE
  5
1B7
100
AcDbEntity
  8
M4
  6
CONTINUOUS
370
25
 62
     5
100
AcDbLine
 10
317.512238
 20
454.276276
 11
317.512238
 21
471.622162
  0
LINE
  5
1B8
100
AcDbEntity
  8
M4
  6
CONTINUOUS
370
25
 62
     5
100
AcDbLine
 10
288.410015
 20
471.398619
 11
285.512238
 21
470.622162
  0
LINE
  5
1B9
100
AcDbEntity
  8
M4
  6
CONTINUOUS
370
25
 62
     5
100
AcDbLine
 10
285.512238
 20
470.622162
 11
288.410015
 21
469.845705
  0
LINE
  5
1BA
100
AcDbEntity
  8
M4
  6
CONTINUOUS
370
25
 62
     5
100
AcDbLine
 10
314.61446
 20
469.845705
 11
317.512238
 21
470.622162
  0
LINE
  5
1BB
100
AcDbEntity
  8
M4
  6
CONTINUOUS
370
25
 62
     5
100
AcDbLine
 10
317.512238
 20
470.622162
 11
314.61446
 21
471.398619
  0
LINE
  5
1BC
100
AcDbEntity
  8
M4
  6
CONTINUOUS
370
25
 62
     5
100
AcDbLine
 10
285.512238
 20
470.622162
 11
317.512238
 21
470.622162
  0
TEXT
  5
1BD
100
AcDbEntity
  8
M4
 62
     5
100
AcDbText
 10
298.369751
 20
470.622162
 40
4.5
  1
４０
 41
0.616667
  7
STANDARD
100
AcDbText
  0
LINE
  5
1BE
100
AcDbEntity
  8
M4
  6
CONTINUOUS
370
25
 62
     5
100
AcDbLine
 10
317.512238
 20
378.6763
 11
317.512238
 21
339.550629
  0
LINE
  5
1BF
100
AcDbEntity
  8
M4
  6
CONTINUOUS
370
25
 62
     5
100
AcDbLine
 10
269.512238
 20
389.476288
 11
269.512238
 21
339.550629
  0
LINE
  5
1C0
100
AcDbEntity
  8
M4
  6
CONTINUOUS
370
25
 62
     5
100
AcDbLine
 10
314.61446
 20
339.774172
 11
317.512238
 21
340.550629
  0
LINE
  5
1C1
100
AcDbEntity
  8
M4
  6
CONTINUOUS
370
25
 62
     5
100
AcDbLine
 10
317.512238
 20
340.550629
 11
314.61446
 21
341.327086
  0
LINE
  5
1C2
100
AcDbEntity
  8
M4
  6
CONTINUOUS
370
25
 62
     5
100
AcDbLine
 10
272.410015
 20
341.327086
 11
269.512238
 21
340.550629
  0
LINE
  5
1C3
100
AcDbEntity
  8
M4
  6
CONTINUOUS
370
25
 62
     5
100
AcDbLine
 10
269.512238
 20
340.550629
 11
272.410015
 21
339.774172
  0
LINE
  5
1C4
100
AcDbEntity
  8
M4
  6
CONTINUOUS
370
25
 62
     5
100
AcDbLine
 10
317.512238
 20
340.550629
 11
269.512238
 21
340.550629
  0
TEXT
  5
1C5
100
AcDbEntity
  8
M4
 62
     5
100
AcDbText
 10
290.369751
 20
340.550629
 40
4.5
  1
６０
 41
0.616667
  7
STANDARD
100
AcDbText
  0
LINE
  5
1C6
100
AcDbEntity
  8
M4
  6
CONTINUOUS
370
25
 62
     5
100
AcDbLine
 10
317.512238
 20
378.6763
 11
317.512238
 21
323.550629
  0
LINE
  5
1C7
100
AcDbEntity
  8
M4
  6
CONTINUOUS
370
25
 62
     5
100
AcDbLine
 10
265.512238
 20
395.876282
 11
265.512238
 21
323.550629
  0
LINE
  5
1C8
100
AcDbEntity
  8
M4
  6
CONTINUOUS
370
25
 62
     5
100
AcDbLine
 10
314.61446
 20
323.774172
 11
317.512238
 21
324.550629
  0
LINE
  5
1C9
100
AcDbEntity
  8
M4
  6
CONTINUOUS
370
25
 62
     5
100
AcDbLine
 10
317.512238
 20
324.550629
 11
314.61446
 21
325.327086
  0
LINE
  5
1CA
100
AcDbEntity
  8
M4
  6
CONTINUOUS
370
25
 62
     5
100
AcDbLine
 10
268.410015
 20
325.327086
 11
265.512238
 21
324.550629
  0
LINE
  5
1CB
100
AcDbEntity
  8
M4
  6
CONTINUOUS
370
25
 62
     5
100
AcDbLine
 10
265.512238
 20
324.550629
 11
268.410015
 21
323.774172
  0
LINE
  5
1CC
100
AcDbEntity
  8
M4
  6
CONTINUOUS
370
25
 62
     5
100
AcDbLine
 10
317.512238
 20
324.550629
 11
265.512238
 21
324.550629
  0
TEXT
  5
1CD
100
AcDbEntity
  8
M4
 62
     5
100
AcDbText
 10
288.369751
 20
324.550629
 40
4.5
  1
６５
 41
0.616667
  7
STANDARD
100
AcDbText
  0
LINE
  5
1CE
100
AcDbEntity
  8
M4
  6
CONTINUOUS
370
25
 62
     5
100
AcDbLine
 10
199.020691
 20
299.932312
 11
220.228455
 21
299.932312
  0
LINE
  5
1CF
100
AcDbEntity
  8
M4
  6
CONTINUOUS
370
25
 62
     5
100
AcDbLine
 10
204.220688
 20
274.332306
 11
220.228455
 21
274.332306
  0
LINE
  5
1D0
100
AcDbEntity
  8
M4
  6
CONTINUOUS
370
25
 62
     5
100
AcDbLine
 10
220.004912
 20
297.034535
 11
219.228455
 21
299.932312
  0
LINE
  5
1D1
100
AcDbEntity
  8
M4
  6
CONTINUOUS
370
25
 62
     5
100
AcDbLine
 10
219.228455
 20
299.932312
 11
218.451997
 21
297.034535
  0
LINE
  5
1D2
100
AcDbEntity
  8
M4
  6
CONTINUOUS
370
25
 62
     5
100
AcDbLine
 10
218.451997
 20
277.230083
 11
219.228455
 21
274.332306
  0
LINE
  5
1D3
100
AcDbEntity
  8
M4
  6
CONTINUOUS
370
25
 62
     5
100
AcDbLine
 10
219.228455
 20
274.332306
 11
220.004912
 21
277.230083
  0
LINE
  5
1D4
100
AcDbEntity
  8
M4
  6
CONTINUOUS
370
25
 62
     5
100
AcDbLine
 10
219.228455
 20
299.932312
 11
219.228455
 21
274.332306
  0
TEXT
  5
1D5
100
AcDbEntity
  8
M4
 62
     5
100
AcDbText
 10
219.228455
 20
283.989838
 40
4.5
  1
３２
 50
90.000003
 41
0.616667
  7
STANDARD
100
AcDbText
  0
LINE
  5
1D6
100
AcDbEntity
  8
M4
  6
CONTINUOUS
370
25
 62
     5
100
AcDbLine
 10
158.900681
 20
306.332306
 11
128.782181
 21
306.332306
  0
LINE
  5
1D7
100
AcDbEntity
  8
M4
  6
CONTINUOUS
370
25
 62
     5
100
AcDbLine
 10
142.220688
 20
274.332306
 11
128.782181
 21
274.332306
  0
LINE
  5
1D8
100
AcDbEntity
  8
M4
  6
CONTINUOUS
370
25
 62
     5
100
AcDbLine
 10
130.558638
 20
303.434528
 11
129.782181
 21
306.332306
  0
LINE
  5
1D9
100
AcDbEntity
  8
M4
  6
CONTINUOUS
370
25
 62
     5
100
AcDbLine
 10
129.782181
 20
306.332306
 11
129.005724
 21
303.434528
  0
LINE
  5
1DA
100
AcDbEntity
  8
M4
  6
CONTINUOUS
370
25
 62
     5
100
AcDbLine
 10
129.005724
 20
277.230083
 11
129.782181
 21
274.332306
  0
LINE
  5
1DB
100
AcDbEntity
  8
M4
  6
CONTINUOUS
370
25
 62
     5
100
AcDbLine
 10
129.782181
 20
274.332306
 11
130.558638
 21
277.230083
  0
LINE
  5
1DC
100
AcDbEntity
  8
M4
  6
CONTINUOUS
370
25
 62
     5
100
AcDbLine
 10
129.782181
 20
306.332306
 11
129.782181
 21
274.332306
  0
TEXT
  5
1DD
100
AcDbEntity
  8
M4
 62
     5
100
AcDbText
 10
129.782181
 20
287.189819
 40
4.5
  1
４０
 50
90.000003
 41
0.616667
  7
STANDARD
100
AcDbText
  0
LINE
  5
1DE
100
AcDbEntity
  8
M4
  6
CONTINUOUS
370
25
 62
     5
100
AcDbLine
 10
272.112244
 20
210.396881
 11
242.672363
 21
210.396881
  0
LINE
  5
1DF
100
AcDbEntity
  8
M4
  6
CONTINUOUS
370
25
 62
     5
100
AcDbLine
 10
292.112244
 20
143.196884
 11
242.672363
 21
143.196884
  0
LINE
  5
1E0
100
AcDbEntity
  8
M4
  6
CONTINUOUS
370
25
 62
     5
100
AcDbLine
 10
244.44882
 20
207.499104
 11
243.672363
 21
210.396881
  0
LINE
  5
1E1
100
AcDbEntity
  8
M4
  6
CONTINUOUS
370
25
 62
     5
100
AcDbLine
 10
243.672363
 20
210.396881
 11
242.895906
 21
207.499104
  0
LINE
  5
1E2
100
AcDbEntity
  8
M4
  6
CONTINUOUS
370
25
 62
     5
100
AcDbLine
 10
242.895906
 20
146.094662
 11
243.672363
 21
143.196884
  0
LINE
  5
1E3
100
AcDbEntity
  8
M4
  6
CONTINUOUS
370
25
 62
     5
100
AcDbLine
 10
243.672363
 20
143.196884
 11
244.44882
 21
146.094662
  0
LINE
  5
1E4
100
AcDbEntity
  8
M4
  6
CONTINUOUS
370
25
 62
     5
100
AcDbLine
 10
243.672363
 20
210.396881
 11
243.672363
 21
143.196884
  0
TEXT
  5
1E5
100
AcDbEntity
  8
M4
 62
     5
100
AcDbText
 10
243.672363
 20
173.654373
 40
4.5
  1
８４
 50
90.000003
 41
0.616667
  7
STANDARD
100
AcDbText
  0
LINE
  5
1E6
100
AcDbEntity
  8
M4
  6
CONTINUOUS
370
25
 62
     5
100
AcDbLine
 10
277.912231
 20
216.196884
 11
277.912231
 21
231.18512
  0
LINE
  5
1E7
100
AcDbEntity
  8
M4
  6
CONTINUOUS
370
25
 62
     5
100
AcDbLine
 10
297.912231
 20
148.996887
 11
297.912231
 21
231.18512
  0
LINE
  5
1E8
100
AcDbEntity
  8
M4
  6
CONTINUOUS
370
25
 62
     5
100
AcDbLine
 10
280.810009
 20
230.961577
 11
277.912231
 21
230.18512
  0
LINE
  5
1E9
100
AcDbEntity
  8
M4
  6
CONTINUOUS
370
25
 62
     5
100
AcDbLine
 10
277.912231
 20
230.18512
 11
280.810009
 21
229.408662
  0
LINE
  5
1EA
100
AcDbEntity
  8
M4
  6
CONTINUOUS
370
25
 62
     5
100
AcDbLine
 10
295.014454
 20
229.408662
 11
297.912231
 21
230.18512
  0
LINE
  5
1EB
100
AcDbEntity
  8
M4
  6
CONTINUOUS
370
25
 62
     5
100
AcDbLine
 10
297.912231
 20
230.18512
 11
295.014454
 21
230.961577
  0
LINE
  5
1EC
100
AcDbEntity
  8
M4
  6
CONTINUOUS
370
25
 62
     5
100
AcDbLine
 10
277.912231
 20
230.18512
 11
297.912231
 21
230.18512
  0
TEXT
  5
1ED
100
AcDbEntity
  8
M4
 62
     5
100
AcDbText
 10
284.769745
 20
230.18512
 40
4.5
  1
２５
 41
0.616667
  7
STANDARD
100
AcDbText
  0
LINE
  5
1EE
100
AcDbEntity
  8
M4
  6
CONTINUOUS
370
25
 62
     5
100
AcDbLine
 10
143.220688
 20
197.796875
 11
143.220688
 21
230.088745
  0
LINE
  5
1EF
100
AcDbEntity
  8
M4
  6
CONTINUOUS
370
25
 62
     5
100
AcDbLine
 10
202.420685
 20
197.796875
 11
202.420685
 21
230.088745
  0
LINE
  5
1F0
100
AcDbEntity
  8
M4
  6
CONTINUOUS
370
25
 62
     5
100
AcDbLine
 10
146.118465
 20
229.865202
 11
143.220688
 21
229.088745
  0
LINE
  5
1F1
100
AcDbEntity
  8
M4
  6
CONTINUOUS
370
25
 62
     5
100
AcDbLine
 10
143.220688
 20
229.088745
 11
146.118465
 21
228.312288
  0
LINE
  5
1F2
100
AcDbEntity
  8
M4
  6
CONTINUOUS
370
25
 62
     5
100
AcDbLine
 10
199.522907
 20
228.312288
 11
202.420685
 21
229.088745
  0
LINE
  5
1F3
100
AcDbEntity
  8
M4
  6
CONTINUOUS
370
25
 62
     5
100
AcDbLine
 10
202.420685
 20
229.088745
 11
199.522907
 21
229.865202
  0
LINE
  5
1F4
100
AcDbEntity
  8
M4
  6
CONTINUOUS
370
25
 62
     5
100
AcDbLine
 10
143.220688
 20
229.088745
 11
202.420685
 21
229.088745
  0
TEXT
  5
1F5
100
AcDbEntity
  8
M4
 62
     5
100
AcDbText
 10
169.678177
 20
229.088745
 40
4.5
  1
７４
 41
0.616667
  7
STANDARD
100
AcDbText
  0
LINE
  5
1F6
100
AcDbEntity
  8
M4
  6
CONTINUOUS
370
25
 62
     5
100
AcDbLine
 10
202.620682
 20
197.596878
 11
228.672363
 21
197.596878
  0
LINE
  5
1F7
100
AcDbEntity
  8
M4
  6
CONTINUOUS
370
25
 62
     5
100
AcDbLine
 10
202.620682
 20
155.996887
 11
228.672363
 21
155.996887
  0
LINE
  5
1F8
100
AcDbEntity
  8
M4
  6
CONTINUOUS
370
25
 62
     5
100
AcDbLine
 10
228.44882
 20
194.699101
 11
227.672363
 21
197.596878
  0
LINE
  5
1F9
100
AcDbEntity
  8
M4
  6
CONTINUOUS
370
25
 62
     5
100
AcDbLine
 10
227.672363
 20
197.596878
 11
226.895906
 21
194.699101
  0
LINE
  5
1FA
100
AcDbEntity
  8
M4
  6
CONTINUOUS
370
25
 62
     5
100
AcDbLine
 10
226.895906
 20
158.894665
 11
227.672363
 21
155.996887
  0
LINE
  5
1FB
100
AcDbEntity
  8
M4
  6
CONTINUOUS
370
25
 62
     5
100
AcDbLine
 10
227.672363
 20
155.996887
 11
228.44882
 21
158.894665
  0
LINE
  5
1FC
100
AcDbEntity
  8
M4
  6
CONTINUOUS
370
25
 62
     5
100
AcDbLine
 10
227.672363
 20
197.596878
 11
227.672363
 21
155.996887
  0
TEXT
  5
1FD
100
AcDbEntity
  8
M4
 62
     5
100
AcDbText
 10
227.672363
 20
173.654373
 40
4.5
  1
５２
 50
90.000003
 41
0.616667
  7
STANDARD
100
AcDbText
  0
ENDSEC
  0
SECTION
  2
OBJECTS
  0
DICTIONARY
  5
C
100
AcDbDictionary
  3
ACAD_GROUP
350
D
  3
ACAD_MLINESTYLE
350
E
  0
DICTIONARY
  5
D
102
{ACAD_REACTORS
330
C
102
}
100
AcDbDictionary
  0
DICTIONARY
  5
E
102
{ACAD_REACTORS
330
C
102
}
100
AcDbDictionary
  3
STANDARD
350
13
  0
MLINESTYLE
  5
13
102
{ACAD_REACTORS
330
E
102
}
100
AcDbMlineStyle
  2
STANDARD
 70
     0
  3

 62
     0
 51
90.0
 52
90.0
 71
     2
 49
0.5
 62
   256
  6
BYLAYER
 49
-0.5
 62
   256
  6
BYLAYER
  0
ENDSEC
  0
EOF
