  0
SECTION
  2
HEADER
  9
$ACADVER
  1
AC1015
  9
$INSBASE
 10
0.000000
 20
0.000000
 30
0.0
  9
$VIEWCTR
 10
7.531722
 20
4.5
  9
$VIEWSIZE
 40
9.0
  9
$SNAPMODE
 70
     0
  9
$SNAPUNIT
 10
1.0
 20
1.0
  9
$SNAPBASE
 10
0.0
 20
0.0
  9
$SNAPANG
 50
0.0
  9
$SNAPSTYLE
 70
     0
  9
$SNAPISOPAIR
 70
     0
  9
$GRIDMODE
 70
     0
  9
$GRIDUNIT
 10
0.0
 20
0.0
  9
$ORTHOMODE
 70
     0
  9
$REGENMODE
 70
     1
  9
$FILLMODE
 70
     1
  9
$QTEXTMODE
 70
     0
  9
$DRAGMODE
 70
     2
  9
$LTSCALE
  40
     1.000000
  9
$OSMODE
 70
     0
  9
$ATTMODE
 70
     1
  9
$TEXTSIZE
 40
0.2
  9
$TRACEWID
 40
0.05
  9
$TEXTSTYLE
  7
STANDARD
  9
$CELTYPE
  6
BYLAYER
  9
$CECOLOR
 62
   256
  9
$DIMSCALE
 40
1.0
  9
$DIMASZ
 40
0.18
  9
$DIMEXO
 40
0.0625
  9
$DIMDLI
 40
0.38
  9
$DIMRND
 40
0.0
  9
$DIMDLE
 40
0.0
  9
$DIMEXE
 40
0.18
  9
$DIMTP
 40
0.0
  9
$DIMTM
 40
0.0
  9
$DIMTXT
 40
0.18
  9
$DIMCEN
 40
0.09
  9
$DIMTSZ
 40
0.0
  9
$DIMADEC
 70
     0
  9
$DIMALTRND
 40
0.000000
  9
$DIMAZIN
 70
     0
  9
$DIMDSEP
 70
    46
  9
$DIMATFIT
 70
     3
  9
$DIMFRAC
 70
     0
  9
$DIMLDRBLK
  1

  9
$DIMLUNIT
 70
     2
  9
$DIMLWD
 70
   13
  9
$DIMLWE
 70
   13
  9
$DIMTMOVE
 70
     0
  9
$CELWEIGHT
370
    25
  9
$LWDISPLAY
290
    1
  9
$EXTNAMES
290
    1
  9
$DIMTOL
 70
     0
  9
$DIMLIM
 70
     0
  9
$DIMTIH
 70
     1
  9
$DIMTOH
 70
     1
  9
$DIMSE1
 70
     0
  9
$DIMSE2
 70
     0
  9
$DIMTAD
 70
     0
  9
$DIMZIN
 70
     0
  9
$DIMBLK
  1

  9
$LUNITS
 70
     2
  9
$LUPREC
 70
     4
  9
$AXISMODE
 70
     0
  9
$AXISUNIT
 10
0.0
 20
0.0
  9
$SKETCHINC
 40
0.1
  9
$FILLETRAD
 40
0.0
  9
$AUNITS
 70
     0
  9
$AUPREC
 70
     0
  9
$MENU
  1
ACAD
  9
$ELEVATION
 40
0.0
  9
$THICKNESS
 40
0.0
  9
$VIEWDIR
 10
0.0
 20
0.0
 30
1.0
  9
$LIMCHECK
 70
     0
  9
$BLIPMODE
 70
     1
  9
$CHAMFERA
 40
0.0
  9
$CHAMFERB
 40
0.0
  9
$FASTZOOM
 70
     1
  9
$SKPOLY
 70
     0
  9
$TDCREATE
 40
0000000.0000000000
  9
$TDUPDATE
 40
0000000.0000000000
  9
$TDINDWG
 40
0.0000000000
  9
$TDUSRTIMER
 40
0.0000000000
  9
$USRTIMER
 70
     1
  9
$ANGBASE
 50
0.0
  9
$ANGDIR
 70
     0
  9
$PDMODE
 70
     0
  9
$PDSIZE
 40
0.0
  9
$PLINEWID
 40
0.0
  9
$COORDS
 70
     0
  9
$USERI1
 70
     0
  9
$USERI2
 70
     0
  9
$USERI3
 70
     0
  9
$USERI4
 70
     0
  9
$USERI5
 70
     0
  9
$USERR1
 40
0.0
  9
$USERR2
 40
0.0
  9
$USERR3
 40
0.0
  9
$USERR4
 40
0.0
  9
$USERR5
 40
0.0
  9
$CLAYER
  8
M2
  9
$EXTMIN
 10
0.0
 20
0.0
  9
$EXTMAX
 10
841.0
 20
594.0
  9
$LIMMIN
 10
0.0
 20
0.0
  9
$LIMMAX
 10
841.0
 20
594.0
  9
$HANDSEED
  5
15E
  0
ENDSEC
  0
SECTION
  2
CLASSES
  0
CLASS
  1
DIMASSOC
  2
AcDbDimAssoc
  3
"AcDbDimAssoc|Product Desc:     AcDim ARX App For Dimension|Company:          Autodesk, Inc.|WEB Address:      www.autodesk.com"
 90
        0
280
     0
281
     0
  0
ENDSEC
  0
SECTION
  2
TABLES
  0
TABLE
  2
VPORT
  5
8
100
AcDbSymbolTable
 70
     2
  0
VPORT
  5
14
100
AcDbSymbolTableRecord
100
AcDbViewportTableRecord
  2
*ACTIVE
 70
     0
 10
0.0
 20
0.0
 11
1.0
 21
1.0
 12
484.0
 22
297.0
 13
0.0
 23
0.0
 14
1.0
 24
1.0
 15
0.0
 25
0.0
 16
0.0
 26
0.0
 36
1.0
 17
0.0
 27
0.0
 37
0.0
 40
594.0
 41
2.0
 42
50.0
 43
0.0
 44
0.0
 50
0.0
 51
0.0
 71
     0
 72
   100
 73
     1
 74
     1
 75
     0
 76
     0
 77
     0
 78
     0
  0
ENDTAB
  0
TABLE
  2
LTYPE
  5
5
100
AcDbSymbolTable
 70
     5
  0
LTYPE
  5
15
100
AcDbSymbolTableRecord
100
AcDbLinetypeTableRecord
  2
BYBLOCK
 70
     0
  3

 72
    65
 73
     0
 40
0.0
  0
LTYPE
  5
16
100
AcDbSymbolTableRecord
100
AcDbLinetypeTableRecord
  2
BYLAYER
 70
     0
  3

 72
    65
 73
     0
 40
0.0
  0
LTYPE
  5
17
100
AcDbSymbolTableRecord
100
AcDbLinetypeTableRecord
  2
CONTINUOUS
 70
    64
  3
Solid line
 72
    65
 73
     0
 40
0.0
  0
LTYPE
  5
18
100
AcDbSymbolTableRecord
100
AcDbLinetypeTableRecord
  2
DASHED
 70
    64
  3
__ __ __ __ __ __ __ __ __ __ __ __ __ __ __ __
 72
    65
 73
     2
 40
0.75
 49
0.5
 74
     0
 49
-0.25
 74
     0
  0
LTYPE
  5
19
100
AcDbSymbolTableRecord
100
AcDbLinetypeTableRecord
  2
DASHDOT
 70
    64
  3
__ . __ . __ . __ . __ . __ . __ . __ . __ . __
 72
    65
 73
     4
 40
1.0
 49
0.5
 74
     0
 49
-0.25
 74
     0
 49
0.0
 74
     0
 49
-0.25
 74
     0
  0
LTYPE
  5
1A
100
AcDbSymbolTableRecord
100
AcDbLinetypeTableRecord
  2
DIVIDE
 70
    64
  3
____ . . ____ . . ____ . . ____ . . ____ . . __
 72
    65
 73
     6
 40
1.25
 49
0.5
 74
     0
 49
-0.25
 74
     0
 49
0.0
 74
     0
 49
-0.25
 74
     0
 49
0.0
 74
     0
 49
-0.25
 74
     0
  0
LTYPE
  5
1B
100
AcDbSymbolTableRecord
100
AcDbLinetypeTableRecord
  2
DOT
 70
    64
  3
. . . . . . . . . . . . . . . . . . . . . . . .
 72
    65
 73
     2
 40
0.25
 49
0.0
 74
     0
 49
-0.25
 74
     0
  0
ENDTAB
  0
TABLE
  2
LAYER
  5
2
100
AcDbSymbolTable
 70
   102
  0
LAYER
  5
F
100
AcDbSymbolTableRecord
100
AcDbLayerTableRecord
  2
0
 70
     0
 62
     7
  6
CONTINUOUS
370
     -3
390
F
  0
LAYER
  5
1C
100
AcDbSymbolTableRecord
100
AcDbLayerTableRecord
  2
M2
 70
     0
 62
     3
  6
CONTINUOUS
370
     -3
390
F
  0
LAYER
  5
1D
100
AcDbSymbolTableRecord
100
AcDbLayerTableRecord
  2
M3
 70
     0
 62
     7
  6
CONTINUOUS
370
     -3
390
F
  0
ENDTAB
  0
TABLE
  2
STYLE
  5
3
100
AcDbSymbolTable
 70
     2
  0
STYLE
  5
10
100
AcDbSymbolTableRecord
100
AcDbTextStyleTableRecord
  2
STANDARD
 70
     0
 40
0.0
 41
1.0
 50
0.0
 71
     0
 42
0.2
  3
txt
  4
BIGFONT
  0
ENDTAB
  0
TABLE
  2
VIEW
  5
6
100
AcDbSymbolTable
 70
     0
  0
ENDTAB
  0
TABLE
  2
UCS
  5
7
100
AcDbSymbolTable
 70
     0
  0
ENDTAB
  0
TABLE
  2
APPID
  5
9
100
AcDbSymbolTable
 70
     1
  0
APPID
  5
11
100
AcDbSymbolTableRecord
100
AcDbRegAppTableRecord
  2
ACAD
 70
     0
  0
ENDTAB
  0
TABLE
  2
DIMSTYLE
  5
A
100
AcDbSymbolTable
 70
     2
100
AcDbDimStyleTable
 71
     1
  0
DIMSTYLE
105
46
100
AcDbSymbolTableRecord
100
AcDbDimStyleTableRecord
  2
STANDARD
 70
     0
  3

  4

  5

  6
_OPEN
  7
_OPEN
 40
1.0
 41
3.0
 42
0.0
 43
8.0
 44
1.5
 45
0.0
 46
0.0
 47
0.0
 48
0.0
140
3.2
141
0.09
142
0.0
143
0.03937
144
1.0
145
0.0
146
1.0
147
1.0
148
0.000000
 71
     0
 72
     0
 73
     1
 74
     1
 75
     0
 76
     0
 77
     3
 78
     8
170
     0
171
     2
172
     0
173
     1
174
     0
175
     0
176
     0
177
     0
178
     0
270
     2
271
     2
272
     4
273
     2
274
     2
340
10
275
     0
278
    46
280
     0
281
     0
282
     0
283
     1
284
     0
285
     0
286
     0
287
     3
288
     0
371
   13
372
   13
  0
DIMSTYLE
105
47
100
AcDbSymbolTableRecord
100
AcDbDimStyleTableRecord
  2
LEADSTYL
 70
     0
  3

  4

  5

  6
_OPEN
  7
_OPEN
 40
1.0
 41
3.0
 42
0.0625
 43
0.38
 44
0.18
 45
0.0
 46
0.0
 47
0.0
 48
0.0
140
3.2
141
0.09
142
0.0
143
25.4
144
1.0
145
0.0
146
1.0
147
1.0
 71
     0
 72
     0
 73
     1
 74
     1
 75
     0
 76
     0
 77
     0
 78
     0
170
     0
171
     2
172
     0
173
     1
174
     0
175
     0
176
     0
177
     0
178
     0
270
     2
271
     4
272
     4
273
     2
274
     2
340
10
275
     0
280
     0
281
     0
282
     0
283
     1
284
     0
285
     0
286
     0
287
     3
288
     0
  0
ENDTAB
  0
TABLE
  2
BLOCK_RECORD
  5
1
100
AcDbSymbolTable
 70
     6
  0
BLOCK_RECORD
  5
1E
100
AcDbSymbolTableRecord
100
AcDbBlockTableRecord
  2
*MODEL_SPACE
  0
BLOCK_RECORD
  5
21
100
AcDbSymbolTableRecord
100
AcDbBlockTableRecord
  2
*PAPER_SPACE
  0
BLOCK_RECORD
  5
24
100
AcDbSymbolTableRecord
100
AcDbBlockTableRecord
  2
_NONE
  0
BLOCK_RECORD
  5
28
100
AcDbSymbolTableRecord
100
AcDbBlockTableRecord
  2
_OPEN
  0
BLOCK_RECORD
  5
2E
100
AcDbSymbolTableRecord
100
AcDbBlockTableRecord
  2
_CLOSED
  0
BLOCK_RECORD
  5
35
100
AcDbSymbolTableRecord
100
AcDbBlockTableRecord
  2
_ORIGIN
  0
BLOCK_RECORD
  5
3A
100
AcDbSymbolTableRecord
100
AcDbBlockTableRecord
  2
_DOT
  0
BLOCK_RECORD
  5
42
100
AcDbSymbolTableRecord
100
AcDbBlockTableRecord
  2
_OBLIQUE
  0
ENDTAB
  0
ENDSEC
  0
SECTION
  2
BLOCKS
  0
BLOCK
  5
1F
100
AcDbEntity
  8
0
100
AcDbBlockBegin
  2
*MODEL_SPACE
 70
     0
 10
0.0
 20
0.0
 30
0.0
  3
*MODEL_SPACE
  1

  0
ENDBLK
  5
20
100
AcDbEntity
  8
0
100
AcDbBlockEnd
  0
BLOCK
  5
22
100
AcDbEntity
 67
     1
  8
0
100
AcDbBlockBegin
  2
*PAPER_SPACE
 70
     0
 10
0.0
 20
0.0
 30
0.0
  3
*PAPER_SPACE
  1

  0
ENDBLK
  5
23
100
AcDbEntity
 67
     1
  8
0
100
AcDbBlockEnd
  0
BLOCK
  5
25
100
AcDbEntity
  8
0
100
AcDbBlockBegin
  2
_NONE
 70
     0
 10
0.0
 20
0.0
  0
CIRCLE
  5
26
100
AcDbEntity
  8
0
 62
     0
370
13
100
AcDbCircle
 10
0.0
 20
0.0
 40
0.25
  0
ENDBLK
  5
27
100
AcDbEntity
  8
0
100
AcDbBlockEnd
  0
BLOCK
  5
29
100
AcDbEntity
  8
0
100
AcDbBlockBegin
  2
_OPEN
 70
     0
 10
0.0
 20
0.0
  0
LINE
  5
2A
100
AcDbEntity
  8
0
 62
     0
370
13
100
AcDbLine
 10
-0.965926
 20
0.258819
 11
0.0
 21
0.0
  0
LINE
  5
2B
100
AcDbEntity
  8
0
 62
     0
370
13
100
AcDbLine
 10
0.0
 20
0.0
 11
-0.965926
 21
-0.258819
  0
LINE
  5
2C
100
AcDbEntity
  8
0
 62
     0
370
13
100
AcDbLine
 10
0.0
 20
0.0
 11
-1.0
 21
0.0
  0
ENDBLK
  5
2D
100
AcDbEntity
  8
0
100
AcDbBlockEnd
  0
BLOCK
  5
2F
100
AcDbEntity
  8
0
100
AcDbBlockBegin
  2
_CLOSED
 70
     0
 10
0.0
 20
0.0
  0
LINE
  5
30
100
AcDbEntity
  8
0
 62
     0
370
13
100
AcDbLine
 10
-0.965926
 20
0.258819
 11
0.0
 21
0.0
  0
LINE
  5
31
100
AcDbEntity
  8
0
 62
     0
370
13
100
AcDbLine
 10
0.0
 20
0.0
 11
-0.965926
 21
-0.258819
  0
LINE
  5
32
100
AcDbEntity
  8
0
 62
     0
370
13
100
AcDbLine
 10
-0.965926
 20
0.258819
 11
-0.965926
 21
-0.258819
  0
LINE
  5
33
100
AcDbEntity
  8
0
 62
     0
370
13
100
AcDbLine
 10
0.0
 20
0.0
 11
-1.0
 21
0.0
  0
ENDBLK
  5
34
100
AcDbEntity
  8
0
100
AcDbBlockEnd
  0
BLOCK
  5
36
100
AcDbEntity
  8
0
100
AcDbBlockBegin
  2
_ORIGIN
 70
     0
 10
0.0
 20
0.0
  0
CIRCLE
  5
37
100
AcDbEntity
  8
0
 62
     0
370
13
100
AcDbCircle
 10
0.0
 20
0.0
 40
0.5
  0
LINE
  5
38
100
AcDbEntity
  8
0
 62
     0
370
13
100
AcDbLine
 10
0.0
 20
0.0
 11
-1.0
 21
0.0
  0
ENDBLK
  5
39
100
AcDbEntity
  8
0
100
AcDbBlockEnd
  0
BLOCK
  5
3B
100
AcDbEntity
  8
0
100
AcDbBlockBegin
  2
_DOT
 70
     0
 10
0.0
 20
0.0
  0
POLYLINE
  5
3C
100
AcDbEntity
  8
0
 62
     0
100
AcDb2dPolyline
 66
     1
 70
     1
 40
0.5
 41
0.5
  0
VERTEX
  5
3D
100
AcDbEntity
  8
0
 62
     0
100
AcDbVertex
100
AcDb2dVertex
 10
-0.25
 20
0.0
 42
1.0
  0
VERTEX
  5
3E
100
AcDbEntity
  8
0
 62
     0
100
AcDbVertex
100
AcDb2dVertex
 10
0.25
 20
0.0
 42
1.0
  0
SEQEND
  5
3F
100
AcDbEntity
  8
0
 62
     0
  0
LINE
  5
40
100
AcDbEntity
  8
0
 62
     0
370
13
100
AcDbLine
 10
-0.5
 20
0.0
 11
-1.0
 21
0.0
  0
ENDBLK
  5
41
100
AcDbEntity
  8
0
100
AcDbBlockEnd
  0
BLOCK
  5
43
100
AcDbEntity
  8
0
100
AcDbBlockBegin
  2
_OBLIQUE
 70
     0
 10
0.0
 20
0.0
  0
LINE
  5
44
100
AcDbEntity
  8
0
 62
     0
370
13
100
AcDbLine
 10
-0.353553
 20
-0.353553
 11
0.353553
 21
0.353553
  0
ENDBLK
  5
45
100
AcDbEntity
  8
0
100
AcDbBlockEnd
  0
ENDSEC
  0
SECTION
  2
ENTITIES
  0
LINE
  5
48
100
AcDbEntity
  8
M2
  6
CONTINUOUS
370
25
 62
     4
100
AcDbLine
 10
136.496293
 20
487.160956
 11
144.123265
 21
484.561323
  0
ARC
  5
49
100
AcDbEntity
  8
M2
  6
CONTINUOUS
370
25
 62
     4
100
AcDbCircle
 10
133.921362
 20
484.159568
 40
0.799999
100
AcDbArc
 50
154.020881
 51
243.841477
  0
LINE
  5
4A
100
AcDbEntity
  8
M2
  6
CONTINUOUS
370
25
 62
     4
100
AcDbLine
 10
144.123265
 20
478.298425
 11
133.568677
 21
483.441507
  0
LINE
  5
4B
100
AcDbEntity
  8
M2
  6
CONTINUOUS
370
25
 62
     4
100
AcDbLine
 10
134.428724
 20
487.027074
 11
133.202197
 21
484.510008
  0
LINE
  5
4C
100
AcDbEntity
  8
M2
  6
CONTINUOUS
370
25
 62
     4
100
AcDbLine
 10
134.428724
 20
487.027074
 11
136.496293
 21
487.160956
  0
ARC
  5
4D
100
AcDbEntity
  8
M2
  6
CONTINUOUS
370
25
 62
     4
100
AcDbCircle
 10
144.623265
 20
438.866589
 40
0.5
100
AcDbArc
 50
180.0
 51
270.0
  0
ARC
  5
4E
100
AcDbEntity
  8
M2
  6
CONTINUOUS
370
25
 62
     4
100
AcDbCircle
 10
144.623265
 20
487.866597
 40
0.5
100
AcDbArc
 50
90.0
 51
180.0
  0
LINE
  5
4F
100
AcDbEntity
  8
M2
  6
CONTINUOUS
370
25
 62
     4
100
AcDbLine
 10
156.123265
 20
416.366605
 11
156.123265
 21
429.866589
  0
LINE
  5
50
100
AcDbEntity
  8
M2
  6
DASHDOT
370
25
 62
     4
100
AcDbLine
 10
139.123265
 20
463.366605
 11
209.123265
 21
463.366605
  0
LINE
  5
51
100
AcDbEntity
  8
M2
  6
CONTINUOUS
370
25
 62
     4
100
AcDbLine
 10
171.123269
 20
415.366605
 11
157.123265
 21
415.366605
  0
ARC
  5
52
100
AcDbEntity
  8
M2
  6
CONTINUOUS
370
25
 62
     4
100
AcDbCircle
 10
150.123265
 20
495.866597
 40
1.0
100
AcDbArc
 50
90.0
 51
180.0
  0
ARC
  5
53
100
AcDbEntity
  8
M2
  6
CONTINUOUS
370
25
 62
     4
100
AcDbCircle
 10
150.123265
 20
430.866589
 40
1.0
100
AcDbArc
 50
180.0
 51
270.0
  0
ARC
  5
54
100
AcDbEntity
  8
M2
  6
CONTINUOUS
370
25
 62
     4
100
AcDbCircle
 10
157.123265
 20
510.366611
 40
1.0
100
AcDbArc
 50
90.0
 51
180.0
  0
ARC
  5
55
100
AcDbEntity
  8
M2
  6
CONTINUOUS
370
25
 62
     4
100
AcDbCircle
 10
157.123265
 20
416.366605
 40
1.0
100
AcDbArc
 50
180.0
 51
270.0
  0
LINE
  5
56
100
AcDbEntity
  8
M2
  6
CONTINUOUS
370
25
 62
     4
100
AcDbLine
 10
144.623265
 20
488.366597
 11
149.123265
 21
488.366597
  0
LINE
  5
57
100
AcDbEntity
  8
M2
  6
CONTINUOUS
370
25
 62
     4
100
AcDbLine
 10
149.123265
 20
438.366589
 11
144.623265
 21
438.366589
  0
LINE
  5
58
100
AcDbEntity
  8
M2
  6
CONTINUOUS
370
25
 62
     4
100
AcDbLine
 10
156.123265
 20
496.866597
 11
150.123265
 21
496.866597
  0
LINE
  5
59
100
AcDbEntity
  8
M2
  6
CONTINUOUS
370
25
 62
     4
100
AcDbLine
 10
156.123265
 20
429.866589
 11
150.123265
 21
429.866589
  0
LINE
  5
5A
100
AcDbEntity
  8
M2
  6
CONTINUOUS
370
25
 62
     4
100
AcDbLine
 10
149.123265
 20
495.866597
 11
149.123265
 21
430.866589
  0
LINE
  5
5B
100
AcDbEntity
  8
M2
  6
CONTINUOUS
370
25
 62
     4
100
AcDbLine
 10
156.123265
 20
496.866597
 11
156.123265
 21
510.366611
  0
ARC
  5
5C
100
AcDbEntity
  8
M2
  6
CONTINUOUS
370
25
 62
     4
100
AcDbCircle
 10
144.158265
 20
486.901589
 40
0.035
100
AcDbArc
 50
180.0
 51
270.0
  0
LINE
  5
5D
100
AcDbEntity
  8
M2
  6
CONTINUOUS
370
25
 62
     4
100
AcDbLine
 10
144.123265
 20
486.901589
 11
144.123265
 21
438.866589
  0
LINE
  5
5E
100
AcDbEntity
  8
M2
  6
CONTINUOUS
370
25
 62
     4
100
AcDbLine
 10
171.123269
 20
511.366611
 11
157.123265
 21
511.366611
  0
LINE
  5
5F
100
AcDbEntity
  8
M2
  6
CONTINUOUS
370
25
 62
     4
100
AcDbLine
 10
144.123265
 20
486.901589
 11
144.123265
 21
487.866597
  0
LINE
  5
60
100
AcDbEntity
  8
M2
  6
CONTINUOUS
370
25
 62
     4
100
AcDbLine
 10
200.623265
 20
510.036475
 11
200.623265
 21
508.466602
  0
LINE
  5
61
100
AcDbEntity
  8
M2
  6
CONTINUOUS
370
25
 62
     4
100
AcDbLine
 10
200.623265
 20
416.696729
 11
200.623265
 21
418.266602
  0
LINE
  5
62
100
AcDbEntity
  8
M2
  6
CONTINUOUS
370
25
 62
     4
100
AcDbLine
 10
209.123265
 20
418.266602
 11
207.623265
 21
418.266602
  0
LINE
  5
63
100
AcDbEntity
  8
M2
  6
CONTINUOUS
370
25
 62
     4
100
AcDbLine
 10
204.123265
 20
445.716602
 11
204.123265
 21
481.016602
  0
LINE
  5
64
100
AcDbEntity
  8
M2
  6
CONTINUOUS
370
25
 62
     4
100
AcDbLine
 10
209.123265
 20
417.366602
 11
209.123265
 21
441.366602
  0
LINE
  5
65
100
AcDbEntity
  8
M2
  6
CONTINUOUS
370
25
 62
     4
100
AcDbLine
 10
171.123269
 20
511.366605
 11
195.659153
 21
511.366605
  0
LINE
  5
66
100
AcDbEntity
  8
M2
  6
CONTINUOUS
370
25
 62
     4
100
AcDbLine
 10
171.123269
 20
415.366599
 11
195.659153
 21
415.366599
  0
LINE
  5
67
100
AcDbEntity
  8
M2
  6
CONTINUOUS
370
25
 62
     4
100
AcDbLine
 10
204.723265
 20
445.716602
 11
204.123265
 21
445.716602
  0
LINE
  5
68
100
AcDbEntity
  8
M2
  6
CONTINUOUS
370
25
 62
     4
100
AcDbLine
 10
209.123265
 20
481.016602
 11
204.123265
 21
481.016602
  0
LINE
  5
69
100
AcDbEntity
  8
M2
  6
CONTINUOUS
370
25
 62
     4
100
AcDbLine
 10
209.123265
 20
479.016602
 11
209.123265
 21
509.366602
  0
LINE
  5
6A
100
AcDbEntity
  8
M2
  6
CONTINUOUS
370
25
 62
     4
100
AcDbLine
 10
209.123265
 20
417.366602
 11
208.998038
 21
417.366602
  0
LINE
  5
6B
100
AcDbEntity
  8
M2
  6
CONTINUOUS
370
25
 62
     4
100
AcDbLine
 10
209.123265
 20
509.366602
 11
208.998046
 21
509.366602
  0
LINE
  5
6C
100
AcDbEntity
  8
M2
  6
CONTINUOUS
370
25
 62
     4
100
AcDbLine
 10
203.123265
 20
417.366602
 11
195.659153
 21
415.366599
  0
LINE
  5
6D
100
AcDbEntity
  8
M2
  6
CONTINUOUS
370
25
 62
     4
100
AcDbLine
 10
203.123265
 20
509.366602
 11
195.659153
 21
511.366605
  0
LINE
  5
6E
100
AcDbEntity
  8
M2
  6
CONTINUOUS
370
25
 62
     4
100
AcDbLine
 10
209.123265
 20
479.016602
 11
207.123265
 21
479.016602
  0
LINE
  5
6F
100
AcDbEntity
  8
M2
  6
CONTINUOUS
370
25
 62
     4
100
AcDbLine
 10
205.877911
 20
479.59732
 11
205.123265
 21
481.016602
  0
LINE
  5
70
100
AcDbEntity
  8
M2
  6
CONTINUOUS
370
25
 62
     4
100
AcDbLine
 10
207.123265
 20
479.016602
 11
205.877911
 21
479.59732
  0
LINE
  5
71
100
AcDbEntity
  8
M2
  6
CONTINUOUS
370
25
 62
     4
100
AcDbLine
 10
205.723265
 20
442.366602
 11
205.723265
 21
444.716602
  0
LINE
  5
72
100
AcDbEntity
  8
M2
  6
CONTINUOUS
370
25
 62
     4
100
AcDbLine
 10
208.123265
 20
442.366602
 11
205.723265
 21
442.366602
  0
ARC
  5
73
100
AcDbEntity
  8
M2
  6
CONTINUOUS
370
25
 62
     4
100
AcDbCircle
 10
208.123265
 20
441.366602
 40
1.0
100
AcDbArc
 50
0.0
 51
90.0
  0
ARC
  5
74
100
AcDbEntity
  8
M2
  6
CONTINUOUS
370
25
 62
     4
100
AcDbCircle
 10
204.723265
 20
444.716602
 40
1.0
100
AcDbArc
 50
0.0
 51
90.0
  0
LINE
  5
75
100
AcDbEntity
  8
M2
  6
CONTINUOUS
370
25
 62
     4
100
AcDbLine
 10
200.623265
 20
508.466602
 11
202.888788
 21
508.466602
  0
LINE
  5
76
100
AcDbEntity
  8
M2
  6
CONTINUOUS
370
25
 62
     4
100
AcDbLine
 10
203.549251
 20
509.366602
 11
203.123265
 21
509.366602
  0
LINE
  5
77
100
AcDbEntity
  8
M2
  6
CONTINUOUS
370
25
 62
     4
100
AcDbLine
 10
207.630614
 20
508.466602
 11
209.123265
 21
508.466602
  0
LINE
  5
78
100
AcDbEntity
  8
M2
  6
CONTINUOUS
370
25
 62
     4
100
AcDbLine
 10
203.549225
 20
417.366602
 11
203.123265
 21
417.366602
  0
LINE
  5
79
100
AcDbEntity
  8
M2
  6
CONTINUOUS
370
25
 62
     4
100
AcDbLine
 10
202.888782
 20
418.266602
 11
200.623265
 21
418.266602
  0
LINE
  5
7A
100
AcDbEntity
  8
M2
  6
CONTINUOUS
370
25
 62
     4
100
AcDbLine
 10
205.623265
 20
447.216595
 11
209.123265
 21
443.016595
  0
LINE
  5
7B
100
AcDbEntity
  8
M2
  6
CONTINUOUS
370
25
 62
     4
100
AcDbLine
 10
205.123265
 20
446.016595
 11
205.423265
 21
447.216595
  0
LINE
  5
7C
100
AcDbEntity
  8
M2
  6
CONTINUOUS
370
25
 62
     4
100
AcDbLine
 10
209.123265
 20
443.016595
 11
209.123265
 21
417.366602
  0
LINE
  5
7D
100
AcDbEntity
  8
M2
  6
CONTINUOUS
370
25
 62
     4
100
AcDbLine
 10
205.423265
 20
447.216595
 11
205.623265
 21
447.216595
  0
LINE
  5
7E
100
AcDbEntity
  8
M2
  6
CONTINUOUS
370
25
 62
     4
100
AcDbLine
 10
204.123265
 20
446.016595
 11
205.123265
 21
446.016595
  0
LINE
  5
7F
100
AcDbEntity
  8
M2
  6
DASHDOT
370
25
 62
     4
100
AcDbLine
 10
204.51359
 20
508.466584
 11
207.623265
 21
508.466584
  0
ARC
  5
80
100
AcDbEntity
  8
M2
  6
DASHED
370
25
 62
     4
100
AcDbCircle
 10
207.623265
 20
509.966584
 40
1.5
100
AcDbArc
 50
270.0
 51
360.0
  0
ARC
  5
81
100
AcDbEntity
  8
M2
  6
DASHDOT
370
25
 62
     4
100
AcDbCircle
 10
204.51359
 20
507.966584
 40
1.7
100
AcDbArc
 50
90.0
 51
190.0
  0
LINE
  5
82
100
AcDbEntity
  8
M2
  6
DASHDOT
370
25
 62
     4
100
AcDbLine
 10
204.51359
 20
509.666584
 11
207.623265
 21
509.666584
  0
ARC
  5
83
100
AcDbEntity
  8
M2
  6
DASHED
370
25
 62
     4
100
AcDbCircle
 10
207.623265
 20
509.966584
 40
0.3
100
AcDbArc
 50
270.0
 51
360.0
  0
LINE
  5
84
100
AcDbEntity
  8
M2
  6
DASHDOT
370
25
 62
     4
100
AcDbLine
 10
207.923265
 20
521.966584
 11
207.923265
 21
509.966584
  0
LINE
  5
85
100
AcDbEntity
  8
M2
  6
DASHDOT
370
25
 62
     4
100
AcDbLine
 10
209.123265
 20
521.966584
 11
209.123265
 21
509.966584
  0
LINE
  5
86
100
AcDbEntity
  8
M2
  6
DASHDOT
370
25
 62
     4
100
AcDbLine
 10
207.923265
 20
521.966584
 11
209.123265
 21
521.966584
  0
LINE
  5
87
100
AcDbEntity
  8
M2
  6
DASHDOT
370
25
 62
     4
100
AcDbLine
 10
207.923265
 20
404.766602
 11
209.123265
 21
404.766602
  0
ARC
  5
88
100
AcDbEntity
  8
M2
  6
DASHDOT
370
25
 62
     4
100
AcDbCircle
 10
207.623265
 20
416.766602
 40
0.3
100
AcDbArc
 50
0.0
 51
90.0
  0
LINE
  5
89
100
AcDbEntity
  8
M2
  6
DASHDOT
370
25
 62
     4
100
AcDbLine
 10
209.123265
 20
404.766602
 11
209.123265
 21
416.766602
  0
LINE
  5
8A
100
AcDbEntity
  8
M2
  6
DASHDOT
370
25
 62
     4
100
AcDbLine
 10
207.923265
 20
404.766602
 11
207.923265
 21
416.766602
  0
ARC
  5
8B
100
AcDbEntity
  8
M2
  6
DASHDOT
370
25
 62
     4
100
AcDbCircle
 10
207.623265
 20
416.766602
 40
1.5
100
AcDbArc
 50
0.0
 51
90.0
  0
LINE
  5
8C
100
AcDbEntity
  8
M2
  6
DASHDOT
370
25
 62
     4
100
AcDbLine
 10
204.51359
 20
417.066602
 11
207.623265
 21
417.066602
  0
LINE
  5
8D
100
AcDbEntity
  8
M2
  6
DASHDOT
370
25
 62
     4
100
AcDbLine
 10
204.51359
 20
418.266602
 11
207.623265
 21
418.266602
  0
ARC
  5
8E
100
AcDbEntity
  8
M2
  6
DASHDOT
370
25
 62
     4
100
AcDbCircle
 10
204.51359
 20
418.766602
 40
1.7
100
AcDbArc
 50
170.036624
 51
270.0
  0
ARC
  5
8F
100
AcDbEntity
  8
M2
  6
DASHDOT
370
25
 62
     4
100
AcDbCircle
 10
207.623265
 20
509.966584
 40
0.3
100
AcDbArc
 50
270.0
 51
360.0
  0
ARC
  5
90
100
AcDbEntity
  8
M2
  6
DASHDOT
370
25
 62
     4
100
AcDbCircle
 10
207.623265
 20
509.966584
 40
1.5
100
AcDbArc
 50
270.0
 51
360.0
  0
LINE
  5
91
100
AcDbEntity
  8
M2
  6
DASHDOT
370
25
 62
     4
100
AcDbLine
 10
204.51359
 20
508.466584
 11
207.623265
 21
508.466584
  0
ARC
  5
92
100
AcDbEntity
  8
M2
  6
DASHDOT
370
25
 62
     4
100
AcDbCircle
 10
204.51359
 20
507.966584
 40
0.5
100
AcDbArc
 50
90.0
 51
190.0
  0
LINE
  5
93
100
AcDbEntity
  8
M2
  6
DASHDOT
370
25
 62
     4
100
AcDbLine
 10
202.839417
 20
507.671382
 11
203.141496
 21
505.958206
  0
LINE
  5
94
100
AcDbEntity
  8
M2
  6
DASHDOT
370
25
 62
     4
100
AcDbLine
 10
204.021186
 20
507.87976
 11
204.323265
 21
506.166584
  0
LINE
  5
95
100
AcDbEntity
  8
M2
  6
DASHDOT
370
25
 62
     4
100
AcDbLine
 10
204.323265
 20
506.166584
 11
203.141496
 21
505.958206
  0
ARC
  5
96
100
AcDbEntity
  8
M2
  6
DASHDOT
370
25
 62
     4
100
AcDbCircle
 10
204.51359
 20
418.7666
 40
0.5
100
AcDbArc
 50
170.0
 51
270.0
  0
LINE
  5
97
100
AcDbEntity
  8
M2
  6
DASHDOT
370
25
 62
     4
100
AcDbLine
 10
204.021186
 20
418.853424
 11
204.323265
 21
420.5666
  0
LINE
  5
98
100
AcDbEntity
  8
M2
  6
DASHDOT
370
25
 62
     4
100
AcDbLine
 10
202.839229
 20
419.060734
 11
203.141496
 21
420.774978
  0
LINE
  5
99
100
AcDbEntity
  8
M2
  6
DASHDOT
370
25
 62
     4
100
AcDbLine
 10
204.323265
 20
420.5666
 11
203.141496
 21
420.774978
  0
LINE
  5
9A
100
AcDbEntity
  8
M2
  6
CONTINUOUS
370
25
 62
     4
100
AcDbLine
 10
42.218993
 20
471.879156
 11
42.218993
 21
487.160956
  0
LINE
  5
9B
100
AcDbEntity
  8
M2
  6
CONTINUOUS
370
25
 62
     4
100
AcDbLine
 10
33.618993
 20
471.879156
 11
33.618993
 21
487.160956
  0
LINE
  5
9C
100
AcDbEntity
  8
M2
  6
CONTINUOUS
370
25
 62
     4
100
AcDbLine
 10
33.618993
 20
477.868828
 11
42.218993
 21
477.868828
  0
LINE
  5
9D
100
AcDbEntity
  8
M2
  6
CONTINUOUS
370
25
 62
     4
100
AcDbLine
 10
42.218993
 20
487.160956
 11
33.618993
 21
487.160956
  0
LINE
  5
9E
100
AcDbEntity
  8
M2
  6
CONTINUOUS
370
25
 62
     4
100
AcDbLine
 10
33.618993
 20
483.790848
 11
42.218993
 21
483.790848
  0
LINE
  5
9F
100
AcDbEntity
  8
M2
  6
CONTINUOUS
370
25
 62
     4
100
AcDbLine
 10
33.618993
 20
487.027074
 11
42.218993
 21
487.027074
  0
LINE
  5
A0
100
AcDbEntity
  8
M2
  6
DASHDOT
370
25
 62
     4
100
AcDbLine
 10
37.919001
 20
411.138147
 11
37.919001
 21
514.512231
  0
LINE
  5
A1
100
AcDbEntity
  8
M2
  6
CONTINUOUS
370
25
 62
     4
100
AcDbLine
 10
14.419001
 20
438.866589
 11
14.419001
 21
487.866589
  0
LINE
  5
A2
100
AcDbEntity
  8
M2
  6
CONTINUOUS
370
25
 62
     4
100
AcDbLine
 10
13.219001
 20
429.866589
 11
62.619001
 21
429.866589
  0
LINE
  5
A3
100
AcDbEntity
  8
M2
  6
CONTINUOUS
370
25
 62
     4
100
AcDbLine
 10
12.919001
 20
415.366605
 11
12.919001
 21
510.866611
  0
LINE
  5
A4
100
AcDbEntity
  8
M2
  6
CONTINUOUS
370
25
 62
     4
100
AcDbLine
 10
61.419001
 20
438.866589
 11
61.419001
 21
487.866589
  0
LINE
  5
A5
100
AcDbEntity
  8
M2
  6
CONTINUOUS
370
25
 62
     4
100
AcDbLine
 10
32.069001
 20
415.366605
 11
32.069001
 21
429.866589
  0
LINE
  5
A6
100
AcDbEntity
  8
M2
  6
CONTINUOUS
370
25
 62
     4
100
AcDbLine
 10
18.769001
 20
415.366605
 11
18.769001
 21
429.866589
  0
LINE
  5
A7
100
AcDbEntity
  8
M2
  6
CONTINUOUS
370
25
 62
     4
100
AcDbLine
 10
62.619001
 20
496.866597
 11
13.219001
 21
496.866597
  0
LINE
  5
A8
100
AcDbEntity
  8
M2
  6
CONTINUOUS
370
25
 62
     4
100
AcDbLine
 10
43.919001
 20
415.366605
 11
43.919001
 21
429.866589
  0
LINE
  5
A9
100
AcDbEntity
  8
M2
  6
CONTINUOUS
370
25
 62
     4
100
AcDbLine
 10
14.919001
 20
438.366589
 11
60.919001
 21
438.366589
  0
ARC
  5
AA
100
AcDbEntity
  8
M2
  6
CONTINUOUS
370
25
 62
     4
100
AcDbCircle
 10
14.919001
 20
438.866589
 40
0.5
100
AcDbArc
 50
180.0
 51
270.0
  0
ARC
  5
AB
100
AcDbEntity
  8
M2
  6
CONTINUOUS
370
25
 62
     4
100
AcDbCircle
 10
13.219001
 20
430.166589
 40
0.3
100
AcDbArc
 50
180.0
 51
270.0
  0
ARC
  5
AC
100
AcDbEntity
  8
M2
  6
CONTINUOUS
370
25
 62
     4
100
AcDbCircle
 10
60.919001
 20
487.866589
 40
0.5
100
AcDbArc
 50
0.0
 51
90.0
  0
ARC
  5
AD
100
AcDbEntity
  8
M2
  6
CONTINUOUS
370
25
 62
     4
100
AcDbCircle
 10
14.919001
 20
487.866589
 40
0.5
100
AcDbArc
 50
90.0
 51
180.0
  0
ARC
  5
AE
100
AcDbEntity
  8
M2
  6
CONTINUOUS
370
25
 62
     4
100
AcDbCircle
 10
62.619001
 20
430.166589
 40
0.3
100
AcDbArc
 50
270.0
 51
360.0
  0
LINE
  5
AF
100
AcDbEntity
  8
M2
  6
CONTINUOUS
370
25
 62
     4
100
AcDbLine
 10
14.919001
 20
488.366589
 11
60.919001
 21
488.366589
  0
ARC
  5
B0
100
AcDbEntity
  8
M2
  6
CONTINUOUS
370
25
 62
     4
100
AcDbCircle
 10
13.219001
 20
496.566597
 40
0.3
100
AcDbArc
 50
90.0
 51
180.0
  0
ARC
  5
B1
100
AcDbEntity
  8
M2
  6
CONTINUOUS
370
25
 62
     4
100
AcDbCircle
 10
62.619001
 20
496.566597
 40
0.3
100
AcDbArc
 50
0.0
 51
90.0
  0
LINE
  5
B2
100
AcDbEntity
  8
M2
  6
CONTINUOUS
370
25
 62
     4
100
AcDbLine
 10
33.319001
 20
469.06661
 11
42.519001
 21
469.06661
  0
LINE
  5
B3
100
AcDbEntity
  8
M2
  6
CONTINUOUS
370
25
 62
     4
100
AcDbLine
 10
33.319001
 20
469.06661
 11
33.319001
 21
484.966597
  0
LINE
  5
B4
100
AcDbEntity
  8
M2
  6
CONTINUOUS
370
25
 62
     4
100
AcDbLine
 10
33.319001
 20
484.966597
 11
33.618993
 21
484.966597
  0
LINE
  5
B5
100
AcDbEntity
  8
M2
  6
CONTINUOUS
370
25
 62
     4
100
AcDbLine
 10
42.519001
 20
469.06661
 11
42.519001
 21
484.966597
  0
LINE
  5
B6
100
AcDbEntity
  8
M2
  6
DASHDOT
370
25
 62
     4
100
AcDbLine
 10
67.419001
 20
463.366605
 11
-1.421085E-014
 21
463.366605
  0
LINE
  5
B7
100
AcDbEntity
  8
M2
  6
CONTINUOUS
370
25
 62
     4
100
AcDbLine
 10
42.218993
 20
484.966597
 11
42.519001
 21
484.966597
  0
LINE
  5
B8
100
AcDbEntity
  8
M2
  6
CONTINUOUS
370
25
 62
     4
100
AcDbLine
 10
18.769001
 20
496.866597
 11
18.769001
 21
511.366611
  0
LINE
  5
B9
100
AcDbEntity
  8
M2
  6
CONTINUOUS
370
25
 62
     4
100
AcDbLine
 10
62.919001
 20
415.866605
 11
62.919001
 21
511.366611
  0
LINE
  5
BA
100
AcDbEntity
  8
M2
  6
CONTINUOUS
370
25
 62
     4
100
AcDbLine
 10
43.919001
 20
496.866597
 11
43.919001
 21
511.366611
  0
LINE
  5
BB
100
AcDbEntity
  8
M2
  6
CONTINUOUS
370
25
 62
     4
100
AcDbLine
 10
32.069001
 20
496.866597
 11
32.069001
 21
511.366611
  0
LINE
  5
BC
100
AcDbEntity
  8
M2
  6
CONTINUOUS
370
25
 62
     4
100
AcDbLine
 10
62.919001
 20
415.366605
 11
12.919001
 21
415.366605
  0
LINE
  5
BD
100
AcDbEntity
  8
M2
  6
CONTINUOUS
370
25
 62
     4
100
AcDbLine
 10
57.069001
 20
415.366605
 11
57.069001
 21
429.866589
  0
LINE
  5
BE
100
AcDbEntity
  8
M2
  6
CONTINUOUS
370
25
 62
     4
100
AcDbLine
 10
62.919001
 20
511.366611
 11
12.919001
 21
511.366611
  0
LINE
  5
BF
100
AcDbEntity
  8
M2
  6
CONTINUOUS
370
25
 62
     4
100
AcDbLine
 10
57.069001
 20
496.866597
 11
57.069001
 21
511.366611
  0
ARC
  5
C0
100
AcDbEntity
  8
M2
  6
CONTINUOUS
370
25
 62
     4
100
AcDbCircle
 10
60.919001
 20
438.866589
 40
0.5
100
AcDbArc
 50
270.0
 51
360.0
  0
LINE
  5
C1
100
AcDbEntity
  8
M2
  6
DASHDOT
370
25
 62
     4
100
AcDbLine
 10
19.418993
 20
511.366593
 11
19.418993
 21
521.866596
  0
ARC
  5
C2
100
AcDbEntity
  8
M2
  6
DASHDOT
370
25
 62
     4
100
AcDbCircle
 10
50.418993
 20
413.366599
 40
2.25
100
AcDbArc
 50
0.0
 51
62.734289
  0
ARC
  5
C3
100
AcDbEntity
  8
M2
  6
DASHDOT
370
25
 62
     4
100
AcDbCircle
 10
50.418993
 20
409.366599
 40
2.25
100
AcDbArc
 50
180.0
 51
360.0
  0
LINE
  5
C4
100
AcDbEntity
  8
M2
  6
DASHDOT
370
25
 62
     4
100
AcDbLine
 10
27.668993
 20
513.366599
 11
27.668993
 21
517.366599
  0
LINE
  5
C5
100
AcDbEntity
  8
M2
  6
DASHDOT
370
25
 62
     4
100
AcDbLine
 10
19.418993
 20
521.866596
 11
31.418993
 21
521.866596
  0
LINE
  5
C6
100
AcDbEntity
  8
M2
  6
DASHDOT
370
25
 62
     4
100
AcDbLine
 10
31.418993
 20
511.366593
 11
31.418993
 21
521.866596
  0
LINE
  5
C7
100
AcDbEntity
  8
M2
  6
DASHDOT
370
25
 62
     4
100
AcDbLine
 10
23.168993
 20
513.366599
 11
23.168993
 21
517.366599
  0
ARC
  5
C8
100
AcDbEntity
  8
M2
  6
DASHDOT
370
25
 62
     4
100
AcDbCircle
 10
50.418993
 20
413.366599
 40
2.25
100
AcDbArc
 50
117.265711
 51
180.0
  0
ARC
  5
C9
100
AcDbEntity
  8
M2
  6
DASHDOT
370
25
 62
     4
100
AcDbCircle
 10
25.418993
 20
413.366599
 40
2.25
100
AcDbArc
 50
117.265711
 51
180.0
  0
ARC
  5
CA
100
AcDbEntity
  8
M2
  6
DASHDOT
370
25
 62
     4
100
AcDbCircle
 10
25.418993
 20
413.366599
 40
2.25
100
AcDbArc
 50
0.0
 51
62.734289
  0
ARC
  5
CB
100
AcDbEntity
  8
M2
  6
DASHDOT
370
25
 62
     4
100
AcDbCircle
 10
25.418993
 20
513.366599
 40
2.25
100
AcDbArc
 50
297.265711
 51
360.0
  0
ARC
  5
CC
100
AcDbEntity
  8
M2
  6
DASHDOT
370
25
 62
     4
100
AcDbCircle
 10
25.418993
 20
517.366599
 40
2.25
100
AcDbArc
 50
0.0
 51
180.0
  0
ARC
  5
CD
100
AcDbEntity
  8
M2
  6
DASHDOT
370
25
 62
     4
100
AcDbCircle
 10
50.418993
 20
513.366599
 40
2.25
100
AcDbArc
 50
297.265711
 51
360.0
  0
ARC
  5
CE
100
AcDbEntity
  8
M2
  6
DASHDOT
370
25
 62
     4
100
AcDbCircle
 10
50.418993
 20
517.366599
 40
2.25
100
AcDbArc
 50
0.0
 51
180.0
  0
ARC
  5
CF
100
AcDbEntity
  8
M2
  6
DASHDOT
370
25
 62
     4
100
AcDbCircle
 10
25.418993
 20
409.366599
 40
2.25
100
AcDbArc
 50
180.0
 51
360.0
  0
ARC
  5
D0
100
AcDbEntity
  8
M2
  6
DASHDOT
370
25
 62
     4
100
AcDbCircle
 10
50.418993
 20
513.366599
 40
2.25
100
AcDbArc
 50
180.0
 51
242.734289
  0
ARC
  5
D1
100
AcDbEntity
  8
M2
  6
DASHDOT
370
25
 62
     4
100
AcDbCircle
 10
25.418993
 20
513.366599
 40
2.25
100
AcDbArc
 50
180.0
 51
242.734289
  0
LINE
  5
D2
100
AcDbEntity
  8
M2
  6
DASHDOT
370
25
 62
     4
100
AcDbLine
 10
44.418993
 20
415.366605
 11
44.418993
 21
404.866602
  0
LINE
  5
D3
100
AcDbEntity
  8
M2
  6
DASHDOT
370
25
 62
     4
100
AcDbLine
 10
52.668993
 20
513.366599
 11
52.668993
 21
517.366599
  0
LINE
  5
D4
100
AcDbEntity
  8
M2
  6
DASHDOT
370
25
 62
     4
100
AcDbLine
 10
44.418993
 20
521.866596
 11
56.418993
 21
521.866596
  0
LINE
  5
D5
100
AcDbEntity
  8
M2
  6
DASHDOT
370
25
 62
     4
100
AcDbLine
 10
52.668993
 20
413.366599
 11
52.668993
 21
409.366599
  0
LINE
  5
D6
100
AcDbEntity
  8
M2
  6
DASHDOT
370
25
 62
     4
100
AcDbLine
 10
44.418993
 20
404.866602
 11
56.418993
 21
404.866602
  0
LINE
  5
D7
100
AcDbEntity
  8
M2
  6
DASHDOT
370
25
 62
     4
100
AcDbLine
 10
56.418993
 20
415.366605
 11
56.418993
 21
404.866602
  0
LINE
  5
D8
100
AcDbEntity
  8
M2
  6
DASHDOT
370
25
 62
     4
100
AcDbLine
 10
48.168993
 20
413.366599
 11
48.168993
 21
409.366599
  0
LINE
  5
D9
100
AcDbEntity
  8
M2
  6
DASHDOT
370
25
 62
     4
100
AcDbLine
 10
48.168993
 20
513.366599
 11
48.168993
 21
517.366599
  0
LINE
  5
DA
100
AcDbEntity
  8
M2
  6
DASHDOT
370
25
 62
     4
100
AcDbLine
 10
23.168993
 20
413.366599
 11
23.168993
 21
409.366599
  0
LINE
  5
DB
100
AcDbEntity
  8
M2
  6
DASHDOT
370
25
 62
     4
100
AcDbLine
 10
27.668993
 20
413.366599
 11
27.668993
 21
409.366599
  0
LINE
  5
DC
100
AcDbEntity
  8
M2
  6
DASHDOT
370
25
 62
     4
100
AcDbLine
 10
19.418993
 20
415.366605
 11
19.418993
 21
404.866602
  0
LINE
  5
DD
100
AcDbEntity
  8
M2
  6
DASHDOT
370
25
 62
     4
100
AcDbLine
 10
31.418993
 20
415.366605
 11
31.418993
 21
404.866602
  0
LINE
  5
DE
100
AcDbEntity
  8
M2
  6
DASHDOT
370
25
 62
     4
100
AcDbLine
 10
44.418993
 20
511.366593
 11
44.418993
 21
521.866596
  0
LINE
  5
DF
100
AcDbEntity
  8
M2
  6
DASHDOT
370
25
 62
     4
100
AcDbLine
 10
56.418993
 20
511.366593
 11
56.418993
 21
521.866596
  0
LINE
  5
E0
100
AcDbEntity
  8
M2
  6
DASHDOT
370
25
 62
     4
100
AcDbLine
 10
19.418993
 20
404.866602
 11
31.418993
 21
404.866602
  0
LINE
  5
E1
100
AcDbEntity
  8
M2
  6
CONTINUOUS
370
25
 62
     4
100
AcDbLine
 10
23.651226
 20
501.598829
 11
27.18676
 21
505.134363
  0
LINE
  5
E2
100
AcDbEntity
  8
M2
  6
CONTINUOUS
370
25
 62
     4
100
AcDbLine
 10
27.18676
 20
501.598829
 11
23.651226
 21
505.134363
  0
LINE
  5
E3
100
AcDbEntity
  8
M2
  6
CONTINUOUS
370
25
 62
     4
100
AcDbLine
 10
48.651226
 20
501.598829
 11
52.18676
 21
505.134363
  0
LINE
  5
E4
100
AcDbEntity
  8
M2
  6
CONTINUOUS
370
25
 62
     4
100
AcDbLine
 10
52.18676
 20
501.598829
 11
48.651226
 21
505.134363
  0
LINE
  5
E5
100
AcDbEntity
  8
M2
  6
CONTINUOUS
370
25
 62
     4
100
AcDbLine
 10
23.651226
 20
425.134381
 11
27.18676
 21
421.598847
  0
LINE
  5
E6
100
AcDbEntity
  8
M2
  6
CONTINUOUS
370
25
 62
     4
100
AcDbLine
 10
27.18676
 20
425.134381
 11
23.651226
 21
421.598847
  0
LINE
  5
E7
100
AcDbEntity
  8
M2
  6
CONTINUOUS
370
25
 62
     4
100
AcDbLine
 10
48.651226
 20
425.134381
 11
52.18676
 21
421.598847
  0
LINE
  5
E8
100
AcDbEntity
  8
M2
  6
CONTINUOUS
370
25
 62
     4
100
AcDbLine
 10
52.18676
 20
425.134381
 11
48.651226
 21
421.598847
  0
CIRCLE
  5
E9
100
AcDbEntity
  8
M2
  6
CONTINUOUS
370
25
 62
     4
100
AcDbCircle
 10
50.418983
 20
503.366606
 40
4.5
  0
CIRCLE
  5
EA
100
AcDbEntity
  8
M2
  6
CONTINUOUS
370
25
 62
     4
100
AcDbCircle
 10
25.418993
 20
503.366596
 40
4.5
  0
CIRCLE
  5
EB
100
AcDbEntity
  8
M2
  6
CONTINUOUS
370
25
 62
     4
100
AcDbCircle
 10
25.418983
 20
423.366604
 40
4.5
  0
CIRCLE
  5
EC
100
AcDbEntity
  8
M2
  6
CONTINUOUS
370
25
 62
     4
100
AcDbCircle
 10
50.419009
 20
423.36663
 40
4.5
  0
LINE
  5
ED
100
AcDbEntity
  8
M2
  6
CONTINUOUS
370
25
 62
     7
100
AcDbLine
 10
62.419001
 20
165.18998
 11
62.419001
 21
215.18998
  0
ARC
  5
EE
100
AcDbEntity
  8
M2
  6
CONTINUOUS
370
25
 62
     7
100
AcDbCircle
 10
14.419001
 20
215.18998
 40
1.0
100
AcDbArc
 50
90.0
 51
180.0
  0
LINE
  5
EF
100
AcDbEntity
  8
M2
  6
CONTINUOUS
370
25
 62
     7
100
AcDbLine
 10
13.419001
 20
215.18998
 11
13.419001
 21
165.18998
  0
ARC
  5
F0
100
AcDbEntity
  8
M2
  6
CONTINUOUS
370
25
 62
     7
100
AcDbCircle
 10
61.419001
 20
165.18998
 40
1.0
100
AcDbArc
 50
270.0
 51
360.0
  0
ARC
  5
F1
100
AcDbEntity
  8
M2
  6
CONTINUOUS
370
25
 62
     7
100
AcDbCircle
 10
61.419001
 20
215.18998
 40
1.0
100
AcDbArc
 50
0.0
 51
90.0
  0
LINE
  5
F2
100
AcDbEntity
  8
M2
  6
CONTINUOUS
370
25
 62
     7
100
AcDbLine
 10
14.419001
 20
164.18998
 11
61.419001
 21
164.18998
  0
ARC
  5
F3
100
AcDbEntity
  8
M2
  6
CONTINUOUS
370
25
 62
     7
100
AcDbCircle
 10
14.419001
 20
165.18998
 40
1.0
100
AcDbArc
 50
180.0
 51
270.0
  0
LINE
  5
F4
100
AcDbEntity
  8
M2
  6
CONTINUOUS
370
25
 62
     7
100
AcDbLine
 10
14.419001
 20
216.18998
 11
61.419001
 21
216.18998
  0
CIRCLE
  5
F5
100
AcDbEntity
  8
M2
  6
CONTINUOUS
370
25
100
AcDbCircle
 10
184.623265
 20
232.18998
 40
2.5
  0
CIRCLE
  5
F6
100
AcDbEntity
  8
M2
  6
CONTINUOUS
370
25
100
AcDbCircle
 10
184.623265
 20
148.18998
 40
2.5
  0
LINE
  5
F7
100
AcDbEntity
  8
M2
  6
DASHDOT
370
25
100
AcDbLine
 10
177.623265
 20
148.18998
 11
191.623265
 21
148.18998
  0
LINE
  5
F8
100
AcDbEntity
  8
M2
  6
DASHDOT
370
25
100
AcDbLine
 10
184.623265
 20
141.18998
 11
184.623265
 21
155.18998
  0
LINE
  5
F9
100
AcDbEntity
  8
M2
  6
DASHDOT
370
25
100
AcDbLine
 10
177.623265
 20
232.18998
 11
191.623265
 21
232.18998
  0
LINE
  5
FA
100
AcDbEntity
  8
M2
  6
DASHDOT
370
25
100
AcDbLine
 10
184.623265
 20
225.18998
 11
184.623265
 21
239.18998
  0
LINE
  5
FB
100
AcDbEntity
  8
M2
  6
DASHDOT
370
25
 62
     4
100
AcDbLine
 10
184.623265
 20
133.985149
 11
184.623265
 21
246.197883
  0
LINE
  5
FC
100
AcDbEntity
  8
M2
  6
DASHDOT
370
25
 62
     4
100
AcDbLine
 10
153.983229
 20
190.18998
 11
215.261374
 21
190.18998
  0
LINE
  5
FD
100
AcDbEntity
  8
M2
  6
DIVIDE
370
25
 62
     4
100
AcDbLine
 10
209.123265
 20
142.18998
 11
209.123265
 21
238.18998
  0
LINE
  5
FE
100
AcDbEntity
  8
M2
  6
DIVIDE
370
25
 62
     4
100
AcDbLine
 10
160.123265
 20
238.18998
 11
209.123265
 21
238.18998
  0
LINE
  5
FF
100
AcDbEntity
  8
M2
  6
DIVIDE
370
25
 62
     4
100
AcDbLine
 10
160.123265
 20
238.18998
 11
160.123265
 21
142.18998
  0
LINE
  5
100
100
AcDbEntity
  8
M2
  6
DIVIDE
370
25
 62
     4
100
AcDbLine
 10
160.123265
 20
142.18998
 11
209.123265
 21
142.18998
  0
LINE
  5
101
100
AcDbEntity
  8
M2
  6
DASHDOT
370
25
 62
     4
100
AcDbLine
 10
2.817055
 20
190.18998
 11
70.121605
 21
190.18998
  0
LINE
  5
102
100
AcDbEntity
  8
M2
  6
DASHDOT
370
25
 62
     4
100
AcDbLine
 10
37.919001
 20
129.750934
 11
37.919001
 21
246.197883
  0
LINE
  5
103
100
AcDbEntity
  8
M2
  6
DASHDOT
370
25
 62
     4
100
AcDbLine
 10
12.419001
 20
238.18998
 11
63.419001
 21
238.18998
  0
LINE
  5
104
100
AcDbEntity
  8
M2
  6
DASHDOT
370
25
 62
     4
100
AcDbLine
 10
12.419001
 20
238.18998
 11
12.419001
 21
142.18998
  0
LINE
  5
105
100
AcDbEntity
  8
M2
  6
DASHDOT
370
25
 62
     4
100
AcDbLine
 10
63.419001
 20
142.18998
 11
63.419001
 21
238.18998
  0
LINE
  5
106
100
AcDbEntity
  8
M2
  6
DASHDOT
370
25
 62
     4
100
AcDbLine
 10
12.419001
 20
142.18998
 11
63.419001
 21
142.18998
  0
LINE
  5
107
100
AcDbEntity
  8
M2
  6
DASHED
370
25
 62
     2
100
AcDbLine
 10
177.123256
 20
428.807221
 11
177.123256
 21
418.021524
  0
LINE
  5
108
100
AcDbEntity
  8
M2
  6
DASHDOT
370
25
 62
     2
100
AcDbLine
 10
188.77375
 20
423.366614
 11
167.229972
 21
423.366614
  0
LINE
  5
109
100
AcDbEntity
  8
M2
  6
DASHED
370
25
 62
     2
100
AcDbLine
 10
177.123256
 20
497.925989
 11
177.123256
 21
508.711686
  0
LINE
  5
10A
100
AcDbEntity
  8
M2
  6
DASHDOT
370
25
 62
     2
100
AcDbLine
 10
188.77375
 20
503.366596
 11
167.229972
 21
503.366596
  0
LINE
  5
10B
100
AcDbEntity
  8
M2
  6
DASHDOT
370
25
100
AcDbLine
 10
169.123269
 20
509.516605
 11
169.123269
 21
501.216605
  0
LINE
  5
10C
100
AcDbEntity
  8
M2
  6
DASHDOT
370
25
100
AcDbLine
 10
159.252207
 20
505.366605
 11
209.123265
 21
505.366605
  0
LINE
  5
10D
100
AcDbEntity
  8
M2
  6
DASHDOT
370
25
100
AcDbLine
 10
169.123269
 20
417.216605
 11
169.123269
 21
425.516605
  0
LINE
  5
10E
100
AcDbEntity
  8
M2
  6
DASHDOT
370
25
100
AcDbLine
 10
159.252207
 20
421.366605
 11
209.123265
 21
421.366605
  0
LINE
  5
10F
100
AcDbEntity
  8
M2
  6
DASHDOT
370
25
100
AcDbLine
 10
207.923265
 20
510.366611
 11
207.923265
 21
520.366611
  0
LINE
  5
110
100
AcDbEntity
  8
M2
  6
DASHDOT
370
25
100
AcDbLine
 10
202.923265
 20
515.366611
 11
212.923265
 21
515.366611
  0
LINE
  5
111
100
AcDbEntity
  8
M2
  6
DASHDOT
370
25
100
AcDbLine
 10
207.923265
 20
406.366599
 11
207.923265
 21
416.366599
  0
LINE
  5
112
100
AcDbEntity
  8
M2
  6
DASHDOT
370
25
100
AcDbLine
 10
202.923265
 20
411.366599
 11
212.923265
 21
411.366599
  0
LINE
  5
113
100
AcDbEntity
  8
M2
  6
DASHDOT
370
25
100
AcDbLine
 10
20.419001
 20
411.366605
 11
30.419001
 21
411.366605
  0
LINE
  5
114
100
AcDbEntity
  8
M2
  6
DASHDOT
370
25
100
AcDbLine
 10
25.419001
 20
406.366605
 11
25.419001
 21
416.366605
  0
LINE
  5
115
100
AcDbEntity
  8
M2
  6
DASHDOT
370
25
100
AcDbLine
 10
55.419001
 20
411.366605
 11
45.419001
 21
411.366605
  0
LINE
  5
116
100
AcDbEntity
  8
M2
  6
DASHDOT
370
25
100
AcDbLine
 10
50.419001
 20
406.366605
 11
50.419001
 21
416.366605
  0
LINE
  5
117
100
AcDbEntity
  8
M2
  6
DASHDOT
370
25
100
AcDbLine
 10
20.419001
 20
515.366605
 11
30.419001
 21
515.366605
  0
LINE
  5
118
100
AcDbEntity
  8
M2
  6
DASHDOT
370
25
100
AcDbLine
 10
25.419001
 20
520.366605
 11
25.419001
 21
510.366605
  0
LINE
  5
119
100
AcDbEntity
  8
M2
  6
DASHDOT
370
25
100
AcDbLine
 10
55.419001
 20
515.366605
 11
45.419001
 21
515.366605
  0
LINE
  5
11A
100
AcDbEntity
  8
M2
  6
DASHDOT
370
25
100
AcDbLine
 10
50.419001
 20
520.366605
 11
50.419001
 21
510.366605
  0
CIRCLE
  5
11B
100
AcDbEntity
  8
M2
  6
CONTINUOUS
370
25
100
AcDbCircle
 10
37.918993
 20
505.366595
 40
2.5
  0
CIRCLE
  5
11C
100
AcDbEntity
  8
M2
  6
CONTINUOUS
370
25
100
AcDbCircle
 10
37.918993
 20
421.366605
 40
2.5
  0
LINE
  5
11D
100
AcDbEntity
  8
M2
  6
DASHDOT
370
25
100
AcDbLine
 10
30.418993
 20
421.366605
 11
45.418993
 21
421.366605
  0
LINE
  5
11E
100
AcDbEntity
  8
M2
  6
DASHDOT
370
25
100
AcDbLine
 10
37.918993
 20
413.866605
 11
37.918993
 21
428.866605
  0
LINE
  5
11F
100
AcDbEntity
  8
M2
  6
DASHDOT
370
25
100
AcDbLine
 10
30.418993
 20
505.366595
 11
45.418993
 21
505.366595
  0
LINE
  5
120
100
AcDbEntity
  8
M2
  6
DASHDOT
370
25
100
AcDbLine
 10
37.918993
 20
497.866595
 11
37.918993
 21
512.866595
  0
LINE
  5
121
100
AcDbEntity
  8
M2
  6
DASHDOT
370
25
 62
     2
100
AcDbLine
 10
25.418993
 20
416.366604
 11
25.418993
 21
430.366604
  0
LINE
  5
122
100
AcDbEntity
  8
M2
  6
DASHDOT
370
25
 62
     2
100
AcDbLine
 10
18.418993
 20
423.366604
 11
32.418993
 21
423.366604
  0
LINE
  5
123
100
AcDbEntity
  8
M2
  6
DASHDOT
370
25
 62
     2
100
AcDbLine
 10
50.419009
 20
416.366604
 11
50.419009
 21
430.366604
  0
LINE
  5
124
100
AcDbEntity
  8
M2
  6
DASHDOT
370
25
 62
     2
100
AcDbLine
 10
57.419009
 20
423.366604
 11
43.419009
 21
423.366604
  0
LINE
  5
125
100
AcDbEntity
  8
M2
  6
DASHDOT
370
25
 62
     2
100
AcDbLine
 10
25.418993
 20
510.366606
 11
25.418993
 21
496.366606
  0
LINE
  5
126
100
AcDbEntity
  8
M2
  6
DASHDOT
370
25
 62
     2
100
AcDbLine
 10
18.418993
 20
503.366606
 11
32.418993
 21
503.366606
  0
LINE
  5
127
100
AcDbEntity
  8
M2
  6
DASHDOT
370
25
 62
     2
100
AcDbLine
 10
50.419009
 20
510.366606
 11
50.419009
 21
496.366606
  0
LINE
  5
128
100
AcDbEntity
  8
M2
  6
DASHDOT
370
25
 62
     2
100
AcDbLine
 10
57.419009
 20
503.366606
 11
43.419009
 21
503.366606
  0
LINE
  5
129
100
AcDbEntity
  8
M2
  6
CONTINUOUS
370
25
 62
     4
100
AcDbLine
 10
42.218993
 20
361.578514
 11
33.618993
 21
361.578514
  0
LINE
  5
12A
100
AcDbEntity
  8
M2
  6
CONTINUOUS
370
25
 62
     4
100
AcDbLine
 10
33.618993
 20
350.686612
 11
33.618993
 21
361.578514
  0
LINE
  5
12B
100
AcDbEntity
  8
M2
  6
CONTINUOUS
370
25
 62
     4
100
AcDbLine
 10
42.218993
 20
350.686612
 11
42.218993
 21
361.578514
  0
LINE
  5
12C
100
AcDbEntity
  8
M2
  6
CONTINUOUS
370
25
 62
     4
100
AcDbLine
 10
62.919001
 20
345.686612
 11
62.919001
 21
285.686618
  0
LINE
  5
12D
100
AcDbEntity
  8
M2
  6
CONTINUOUS
370
25
 62
     4
100
AcDbLine
 10
62.919001
 20
345.686612
 11
12.919001
 21
345.686612
  0
LINE
  5
12E
100
AcDbEntity
  8
M2
  6
CONTINUOUS
370
25
 62
     4
100
AcDbLine
 10
61.419001
 20
345.686612
 11
61.419001
 21
350.686612
  0
LINE
  5
12F
100
AcDbEntity
  8
M2
  6
CONTINUOUS
370
25
 62
     4
100
AcDbLine
 10
14.419001
 20
345.686612
 11
14.419001
 21
350.686612
  0
LINE
  5
130
100
AcDbEntity
  8
M2
  6
CONTINUOUS
370
25
 62
     4
100
AcDbLine
 10
12.919001
 20
345.686612
 11
12.919001
 21
285.686618
  0
LINE
  5
131
100
AcDbEntity
  8
M2
  6
CONTINUOUS
370
25
 62
     4
100
AcDbLine
 10
14.419001
 20
350.686612
 11
61.419001
 21
350.686612
  0
LINE
  5
132
100
AcDbEntity
  8
M2
  6
CONTINUOUS
370
25
 62
     4
100
AcDbLine
 10
62.919001
 20
285.686618
 11
12.919001
 21
285.686618
  0
LINE
  5
133
100
AcDbEntity
  8
M2
  6
DASHDOT
370
25
100
AcDbLine
 10
37.919001
 20
285.686618
 11
37.919001
 21
334.214841
  0
LINE
  5
134
100
AcDbEntity
  8
M2
  6
DASHDOT
370
25
100
AcDbLine
 10
42.069001
 20
325.686618
 11
33.769001
 21
325.686618
  0
LINE
  5
135
100
AcDbEntity
  8
M2
  6
DASHDOT
370
25
100
AcDbLine
 10
31.419001
 20
286.886618
 11
19.419001
 21
286.886618
  0
LINE
  5
136
100
AcDbEntity
  8
M2
  6
DASHDOT
370
25
100
AcDbLine
 10
25.419001
 20
282.524196
 11
25.419001
 21
291.869397
  0
LINE
  5
137
100
AcDbEntity
  8
M2
  6
DASHDOT
370
25
100
AcDbLine
 10
56.419001
 20
286.886618
 11
44.419001
 21
286.886618
  0
LINE
  5
138
100
AcDbEntity
  8
M2
  6
DASHDOT
370
25
100
AcDbLine
 10
50.419001
 20
282.524196
 11
50.419001
 21
291.869397
  0
LINE
  5
139
100
AcDbEntity
  8
M2
  6
DASHDOT
370
25
 62
     2
100
AcDbLine
 10
25.419001
 20
311.525162
 11
25.419001
 21
324.34419
  0
LINE
  5
13A
100
AcDbEntity
  8
M2
  6
DASHDOT
370
25
 62
     2
100
AcDbLine
 10
31.419001
 20
317.686618
 11
19.419001
 21
317.686618
  0
LINE
  5
13B
100
AcDbEntity
  8
M2
  6
DASHDOT
370
25
 62
     2
100
AcDbLine
 10
50.419001
 20
311.525162
 11
50.419001
 21
324.34419
  0
LINE
  5
13C
100
AcDbEntity
  8
M2
  6
DASHDOT
370
25
 62
     2
100
AcDbLine
 10
56.419001
 20
317.686618
 11
44.419001
 21
317.686618
  0
LINE
  5
13D
100
AcDbEntity
  8
M3
  6
CONTINUOUS
370
25
100
AcDbLine
 10
217.361217
 20
41.250005
 11
217.361217
 21
-1.421085E-014
  0
LINE
  5
13E
100
AcDbEntity
  8
M3
  6
CONTINUOUS
370
25
100
AcDbLine
 10
12.361227
 20
41.250005
 11
12.361227
 21
-1.421085E-014
  0
LINE
  5
13F
100
AcDbEntity
  8
M3
  6
CONTINUOUS
370
25
100
AcDbLine
 10
12.361227
 20
-1.421085E-014
 11
217.361217
 21
-1.421085E-014
  0
LINE
  5
140
100
AcDbEntity
  8
M3
  6
CONTINUOUS
370
25
100
AcDbLine
 10
12.361227
 20
41.250005
 11
217.361217
 21
41.250005
  0
LINE
  5
141
100
AcDbEntity
  8
M3
  6
CONTINUOUS
370
25
100
AcDbLine
 10
169.861236
 20
27.500005
 11
169.861236
 21
41.250005
  0
LINE
  5
142
100
AcDbEntity
  8
M3
  6
CONTINUOUS
370
25
100
AcDbLine
 10
42.361236
 20
27.500005
 11
169.861236
 21
27.500005
  0
LINE
  5
143
100
AcDbEntity
  8
M3
  6
CONTINUOUS
370
25
 60
     1
100
AcDbLine
 10
192.361217
 20
27.500005
 11
192.361217
 21
41.250005
  0
LINE
  5
144
100
AcDbEntity
  8
M3
  6
CONTINUOUS
370
25
100
AcDbLine
 10
169.861236
 20
27.500005
 11
192.361217
 21
27.500005
  0
TEXT
  5
145
100
AcDbEntity
  8
M3
100
AcDbText
 10
172.51263
 20
31.250001
 40
6.25
  1
ＲＥＶ．：
 41
0.666667
  7
STANDARD
100
AcDbText
  0
LINE
  5
146
100
AcDbEntity
  8
M3
  6
CONTINUOUS
370
25
 60
     1
100
AcDbLine
 10
217.361217
 20
27.500005
 11
217.361217
 21
41.250005
  0
LINE
  5
147
100
AcDbEntity
  8
M3
  6
CONTINUOUS
370
25
100
AcDbLine
 10
192.361217
 20
27.500005
 11
217.361217
 21
27.500005
  0
TEXT
  5
148
100
AcDbEntity
  8
M3
100
AcDbText
 10
202.534816
 20
31.250001
 40
6.25
  1
００
 41
0.833333
  7
STANDARD
100
AcDbText
  0
LINE
  5
149
100
AcDbEntity
  8
M3
  6
CONTINUOUS
370
25
 60
     1
100
AcDbLine
 10
42.361236
 20
27.500005
 11
42.361236
 21
41.250005
  0
LINE
  5
14A
100
AcDbEntity
  8
M3
  6
CONTINUOUS
370
25
100
AcDbLine
 10
12.361227
 20
27.500005
 11
42.361236
 21
27.500005
  0
TEXT
  5
14B
100
AcDbEntity
  8
M3
100
AcDbText
 10
15.034832
 20
31.250001
 40
6.25
  1
登録名：
 41
0.833333
  7
STANDARD
100
AcDbText
  0
LINE
  5
14C
100
AcDbEntity
  8
M3
  6
CONTINUOUS
370
25
 60
     1
100
AcDbLine
 10
217.361217
 20
13.750005
 11
217.361217
 21
27.500005
  0
LINE
  5
14D
100
AcDbEntity
  8
M3
  6
CONTINUOUS
370
25
100
AcDbLine
 10
192.361217
 20
13.750005
 11
217.361217
 21
13.750005
  0
LINE
  5
14E
100
AcDbEntity
  8
M3
  6
CONTINUOUS
370
25
 60
     1
100
AcDbLine
 10
192.361217
 20
13.750005
 11
192.361217
 21
27.500005
  0
LINE
  5
14F
100
AcDbEntity
  8
M3
  6
CONTINUOUS
370
25
100
AcDbLine
 10
42.361236
 20
13.750005
 11
192.361217
 21
13.750005
  0
TEXT
  5
150
100
AcDbEntity
  8
M3
100
AcDbText
 10
45.034847
 20
17.500001
 40
6.25
  1
表面形
 41
0.833333
  7
STANDARD
100
AcDbText
  0
LINE
  5
151
100
AcDbEntity
  8
M3
  6
CONTINUOUS
370
25
 60
     1
100
AcDbLine
 10
42.361236
 20
13.750005
 11
42.361236
 21
27.500005
  0
LINE
  5
152
100
AcDbEntity
  8
M3
  6
CONTINUOUS
370
25
100
AcDbLine
 10
12.361227
 20
13.750005
 11
42.361236
 21
13.750005
  0
TEXT
  5
153
100
AcDbEntity
  8
M3
100
AcDbText
 10
13.767482
 20
17.500001
 40
6.25
  1
接続方式：
 41
0.75
  7
STANDARD
100
AcDbText
  0
LINE
  5
154
100
AcDbEntity
  8
M3
  6
CONTINUOUS
370
25
 60
     1
100
AcDbLine
 10
217.361217
 20
-1.421085E-014
 11
217.361217
 21
13.750005
  0
LINE
  5
155
100
AcDbEntity
  8
M3
  6
CONTINUOUS
370
25
 60
     1
100
AcDbLine
 10
192.361217
 20
-1.421085E-014
 11
217.361217
 21
-1.421085E-014
  0
LINE
  5
156
100
AcDbEntity
  8
M3
  6
CONTINUOUS
370
25
 60
     1
100
AcDbLine
 10
192.361217
 20
-1.421085E-014
 11
192.361217
 21
13.750005
  0
LINE
  5
157
100
AcDbEntity
  8
M3
  6
CONTINUOUS
370
25
 60
     1
100
AcDbLine
 10
42.361236
 20
-1.421085E-014
 11
192.361217
 21
-1.421085E-014
  0
TEXT
  5
158
100
AcDbEntity
  8
M3
100
AcDbText
 10
45.017498
 20
3.750001
 40
6.25
  1
ＥＢ－５０Ｅ
 41
0.75
  7
STANDARD
100
AcDbText
  0
LINE
  5
159
100
AcDbEntity
  8
M3
  6
CONTINUOUS
370
25
 60
     1
100
AcDbLine
 10
42.361236
 20
-1.421085E-014
 11
42.361236
 21
13.750005
  0
LINE
  5
15A
100
AcDbEntity
  8
M3
  6
CONTINUOUS
370
25
 60
     1
100
AcDbLine
 10
12.361227
 20
-1.421085E-014
 11
42.361236
 21
-1.421085E-014
  0
TEXT
  5
15B
100
AcDbEntity
  8
M3
100
AcDbText
 10
13.767482
 20
3.750001
 40
6.25
  1
適用形式：
 41
0.75
  7
STANDARD
100
AcDbText
  0
TEXT
  5
15C
100
AcDbEntity
  8
M3
100
AcDbText
 10
45.034847
 20
31.250001
 40
6.25
  1
ＥＢ－５０Ｅ　２Ｐ
 41
0.833333
  7
STANDARD
100
AcDbText
  0
ENDSEC
  0
SECTION
  2
OBJECTS
  0
DICTIONARY
  5
C
100
AcDbDictionary
  3
ACAD_GROUP
350
D
  3
ACAD_MLINESTYLE
350
E
  0
DICTIONARY
  5
D
102
{ACAD_REACTORS
330
C
102
}
100
AcDbDictionary
  0
DICTIONARY
  5
E
102
{ACAD_REACTORS
330
C
102
}
100
AcDbDictionary
  3
STANDARD
350
13
  0
MLINESTYLE
  5
13
102
{ACAD_REACTORS
330
E
102
}
100
AcDbMlineStyle
  2
STANDARD
 70
     0
  3

 62
     0
 51
90.0
 52
90.0
 71
     2
 49
0.5
 62
   256
  6
BYLAYER
 49
-0.5
 62
   256
  6
BYLAYER
  0
ENDSEC
  0
EOF
