  0
SECTION
  2
HEADER
  9
$ACADVER
  1
AC1014
  9
$INSBASE
 10
0.000000
 20
0.000000
 30
0.0
  9
$VIEWCTR
 10
7.531722
 20
4.5
  9
$VIEWSIZE
 40
9.0
  9
$SNAPMODE
 70
     0
  9
$SNAPUNIT
 10
1.0
 20
1.0
  9
$SNAPBASE
 10
0.0
 20
0.0
  9
$SNAPANG
 50
0.0
  9
$SNAPSTYLE
 70
     0
  9
$SNAPISOPAIR
 70
     0
  9
$GRIDMODE
 70
     0
  9
$GRIDUNIT
 10
0.0
 20
0.0
  9
$ORTHOMODE
 70
     0
  9
$REGENMODE
 70
     1
  9
$FILLMODE
 70
     1
  9
$QTEXTMODE
 70
     0
  9
$DRAGMODE
 70
     2
  9
$LTSCALE
  40
     1.000000
  9
$OSMODE
 70
     0
  9
$ATTMODE
 70
     1
  9
$TEXTSIZE
 40
0.2
  9
$TRACEWID
 40
0.05
  9
$TEXTSTYLE
  7
STANDARD
  9
$CELTYPE
  6
BYLAYER
  9
$CECOLOR
 62
   256
  9
$DIMSCALE
 40
1.0
  9
$DIMASZ
 40
0.18
  9
$DIMEXO
 40
0.0625
  9
$DIMDLI
 40
0.38
  9
$DIMRND
 40
0.0
  9
$DIMDLE
 40
0.0
  9
$DIMEXE
 40
0.18
  9
$DIMTP
 40
0.0
  9
$DIMTM
 40
0.0
  9
$DIMTXT
 40
0.18
  9
$DIMCEN
 40
0.09
  9
$DIMTSZ
 40
0.0
  9
$DIMTOL
 70
     0
  9
$DIMLIM
 70
     0
  9
$DIMTIH
 70
     1
  9
$DIMTOH
 70
     1
  9
$DIMSE1
 70
     0
  9
$DIMSE2
 70
     0
  9
$DIMTAD
 70
     0
  9
$DIMZIN
 70
     0
  9
$DIMBLK
  1

  9
$LUNITS
 70
     2
  9
$LUPREC
 70
     4
  9
$AXISMODE
 70
     0
  9
$AXISUNIT
 10
0.0
 20
0.0
  9
$SKETCHINC
 40
0.1
  9
$FILLETRAD
 40
0.0
  9
$AUNITS
 70
     0
  9
$AUPREC
 70
     0
  9
$MENU
  1
ACAD
  9
$ELEVATION
 40
0.0
  9
$THICKNESS
 40
0.0
  9
$VIEWDIR
 10
0.0
 20
0.0
 30
1.0
  9
$LIMCHECK
 70
     0
  9
$BLIPMODE
 70
     1
  9
$CHAMFERA
 40
0.0
  9
$CHAMFERB
 40
0.0
  9
$FASTZOOM
 70
     1
  9
$SKPOLY
 70
     0
  9
$TDCREATE
 40
0000000.0000000000
  9
$TDUPDATE
 40
0000000.0000000000
  9
$TDINDWG
 40
0.0000000000
  9
$TDUSRTIMER
 40
0.0000000000
  9
$USRTIMER
 70
     1
  9
$ANGBASE
 50
0.0
  9
$ANGDIR
 70
     0
  9
$PDMODE
 70
     0
  9
$PDSIZE
 40
0.0
  9
$PLINEWID
 40
0.0
  9
$COORDS
 70
     0
  9
$USERI1
 70
     0
  9
$USERI2
 70
     0
  9
$USERI3
 70
     0
  9
$USERI4
 70
     0
  9
$USERI5
 70
     0
  9
$USERR1
 40
0.0
  9
$USERR2
 40
0.0
  9
$USERR3
 40
0.0
  9
$USERR4
 40
0.0
  9
$USERR5
 40
0.0
  9
$CLAYER
  8
M0
  9
$EXTMIN
 10
10.0
 20
10.0
  9
$EXTMAX
 10
200.0
 20
285.0
  9
$LIMMIN
 10
0.0
 20
0.0
  9
$LIMMAX
 10
210.0
 20
297.0
  9
$HANDSEED
  5
2BA
  0
ENDSEC
  0
SECTION
  2
CLASSES
  0
ENDSEC
  0
SECTION
  2
TABLES
  0
TABLE
  2
VPORT
  5
8
100
AcDbSymbolTable
 70
     2
  0
VPORT
  5
14
100
AcDbSymbolTableRecord
100
AcDbViewportTableRecord
  2
*ACTIVE
 70
     0
 10
0.0
 20
0.0
 11
1.0
 21
1.0
 12
484.0
 22
297.0
 13
0.0
 23
0.0
 14
1.0
 24
1.0
 15
0.0
 25
0.0
 16
0.0
 26
0.0
 36
1.0
 17
0.0
 27
0.0
 37
0.0
 40
594.0
 41
2.0
 42
50.0
 43
0.0
 44
0.0
 50
0.0
 51
0.0
 71
     0
 72
   100
 73
     1
 74
     1
 75
     0
 76
     0
 77
     0
 78
     0
  0
ENDTAB
  0
TABLE
  2
LTYPE
  5
5
100
AcDbSymbolTable
 70
     5
  0
LTYPE
  5
15
100
AcDbSymbolTableRecord
100
AcDbLinetypeTableRecord
  2
BYBLOCK
 70
     0
  3

 72
    65
 73
     0
 40
0.0
  0
LTYPE
  5
16
100
AcDbSymbolTableRecord
100
AcDbLinetypeTableRecord
  2
BYLAYER
 70
     0
  3

 72
    65
 73
     0
 40
0.0
  0
LTYPE
  5
17
100
AcDbSymbolTableRecord
100
AcDbLinetypeTableRecord
  2
CONTINUOUS
 70
    64
  3
Solid line
 72
    65
 73
     0
 40
0.0
  0
LTYPE
  5
18
100
AcDbSymbolTableRecord
100
AcDbLinetypeTableRecord
  2
DASHED
 70
    64
  3
__ __ __ __ __ __ __ __ __ __ __ __ __ __ __ __
 72
    65
 73
     2
 40
0.75
 49
0.5
 74
     0
 49
-0.25
 74
     0
  0
LTYPE
  5
19
100
AcDbSymbolTableRecord
100
AcDbLinetypeTableRecord
  2
DASHDOT
 70
    64
  3
__ . __ . __ . __ . __ . __ . __ . __ . __ . __
 72
    65
 73
     4
 40
1.0
 49
0.5
 74
     0
 49
-0.25
 74
     0
 49
0.0
 74
     0
 49
-0.25
 74
     0
  0
LTYPE
  5
1A
100
AcDbSymbolTableRecord
100
AcDbLinetypeTableRecord
  2
DIVIDE
 70
    64
  3
____ . . ____ . . ____ . . ____ . . ____ . . __
 72
    65
 73
     6
 40
1.25
 49
0.5
 74
     0
 49
-0.25
 74
     0
 49
0.0
 74
     0
 49
-0.25
 74
     0
 49
0.0
 74
     0
 49
-0.25
 74
     0
  0
LTYPE
  5
1B
100
AcDbSymbolTableRecord
100
AcDbLinetypeTableRecord
  2
DOT
 70
    64
  3
. . . . . . . . . . . . . . . . . . . . . . . .
 72
    65
 73
     2
 40
0.25
 49
0.0
 74
     0
 49
-0.25
 74
     0
  0
ENDTAB
  0
TABLE
  2
LAYER
  5
2
100
AcDbSymbolTable
 70
   102
  0
LAYER
  5
F
100
AcDbSymbolTableRecord
100
AcDbLayerTableRecord
  2
0
 70
     0
 62
     7
  6
CONTINUOUS
  0
LAYER
  5
1C
100
AcDbSymbolTableRecord
100
AcDbLayerTableRecord
  2
DEFPOINTS
 70
     0
 62
     7
  6
CONTINUOUS
  0
LAYER
  5
1D
100
AcDbSymbolTableRecord
100
AcDbLayerTableRecord
  2
M0
 70
     0
 62
     3
  6
CONTINUOUS
  0
LAYER
  5
1E
100
AcDbSymbolTableRecord
100
AcDbLayerTableRecord
  2
M1
 70
     0
 62
     3
  6
CONTINUOUS
  0
LAYER
  5
1F
100
AcDbSymbolTableRecord
100
AcDbLayerTableRecord
  2
DD0
 70
     0
 62
     4
  6
CONTINUOUS
  0
LAYER
  5
20
100
AcDbSymbolTableRecord
100
AcDbLayerTableRecord
  2
DN0
 70
     0
 62
     2
  6
CONTINUOUS
  0
ENDTAB
  0
TABLE
  2
STYLE
  5
3
100
AcDbSymbolTable
 70
     2
  0
STYLE
  5
10
100
AcDbSymbolTableRecord
100
AcDbTextStyleTableRecord
  2
STANDARD
 70
     0
 40
0.0
 41
1.0
 50
0.0
 71
     0
 42
0.2
  3
txt
  4
BIGFONT
  0
ENDTAB
  0
TABLE
  2
VIEW
  5
6
100
AcDbSymbolTable
 70
     0
  0
ENDTAB
  0
TABLE
  2
UCS
  5
7
100
AcDbSymbolTable
 70
     0
  0
ENDTAB
  0
TABLE
  2
APPID
  5
9
100
AcDbSymbolTable
 70
     1
  0
APPID
  5
11
100
AcDbSymbolTableRecord
100
AcDbRegAppTableRecord
  2
ACAD
 70
     0
  0
ENDTAB
  0
TABLE
  2
DIMSTYLE
  5
A
100
AcDbSymbolTable
 70
     2
  0
DIMSTYLE
105
27
100
AcDbSymbolTableRecord
100
AcDbDimStyleTableRecord
  2
STANDARD
 70
     0
  3

  4

  5

  6
_OPEN
  7
_OPEN
 40
1.0
 41
3.0
 42
1.0
 43
8.0
 44
1.0
 45
0.0
 46
0.0
 47
0.0
 48
0.0
140
3.15
141
0.09
142
0.0
143
0.03937
144
1.0
145
0.0
146
1.0
147
0.6
 71
     0
 72
     0
 73
     1
 74
     1
 75
     0
 76
     0
 77
     3
 78
     8
170
     0
171
     2
172
     0
173
     1
174
     0
175
     0
176
     0
177
     0
178
     0
270
     2
271
     2
272
     4
273
     2
274
     2
340
10
275
     0
280
     0
281
     0
282
     0
283
     1
284
     0
285
     0
286
     0
287
     3
288
     0
  0
DIMSTYLE
105
28
100
AcDbSymbolTableRecord
100
AcDbDimStyleTableRecord
  2
LEADSTYL
 70
     0
  3

  4

  5

  6
_OPEN
  7
_OPEN
 40
1.0
 41
3.0
 42
0.0625
 43
0.38
 44
0.18
 45
0.0
 46
0.0
 47
0.0
 48
0.0
140
3.15
141
0.09
142
0.0
143
25.4
144
1.0
145
0.0
146
1.0
147
0.6
 71
     0
 72
     0
 73
     1
 74
     1
 75
     0
 76
     0
 77
     0
 78
     0
170
     0
171
     2
172
     0
173
     1
174
     0
175
     0
176
     0
177
     0
178
     0
270
     2
271
     4
272
     4
273
     2
274
     2
340
10
275
     0
280
     0
281
     0
282
     0
283
     1
284
     0
285
     0
286
     0
287
     3
288
     0
  0
ENDTAB
  0
TABLE
  2
BLOCK_RECORD
  5
1
100
AcDbSymbolTable
 70
    16
  0
BLOCK_RECORD
  5
21
100
AcDbSymbolTableRecord
100
AcDbBlockTableRecord
  2
*MODEL_SPACE
  0
BLOCK_RECORD
  5
24
100
AcDbSymbolTableRecord
100
AcDbBlockTableRecord
  2
*PAPER_SPACE
  0
BLOCK_RECORD
  5
29
100
AcDbSymbolTableRecord
100
AcDbBlockTableRecord
  2
_NONE
  0
BLOCK_RECORD
  5
2D
100
AcDbSymbolTableRecord
100
AcDbBlockTableRecord
  2
_OPEN
  0
BLOCK_RECORD
  5
33
100
AcDbSymbolTableRecord
100
AcDbBlockTableRecord
  2
_CLOSED
  0
BLOCK_RECORD
  5
3A
100
AcDbSymbolTableRecord
100
AcDbBlockTableRecord
  2
_ORIGIN
  0
BLOCK_RECORD
  5
3F
100
AcDbSymbolTableRecord
100
AcDbBlockTableRecord
  2
_DOT
  0
BLOCK_RECORD
  5
47
100
AcDbSymbolTableRecord
100
AcDbBlockTableRecord
  2
_OBLIQUE
  0
BLOCK_RECORD
  5
4B
100
AcDbSymbolTableRecord
100
AcDbBlockTableRecord
  2
DIMS0
  0
BLOCK_RECORD
  5
56
100
AcDbSymbolTableRecord
100
AcDbBlockTableRecord
  2
DIMS1
  0
BLOCK_RECORD
  5
62
100
AcDbSymbolTableRecord
100
AcDbBlockTableRecord
  2
DIMS2
  0
BLOCK_RECORD
  5
6B
100
AcDbSymbolTableRecord
100
AcDbBlockTableRecord
  2
DIMS3
  0
BLOCK_RECORD
  5
77
100
AcDbSymbolTableRecord
100
AcDbBlockTableRecord
  2
DIMS4
  0
BLOCK_RECORD
  5
83
100
AcDbSymbolTableRecord
100
AcDbBlockTableRecord
  2
DIMS5
  0
BLOCK_RECORD
  5
8F
100
AcDbSymbolTableRecord
100
AcDbBlockTableRecord
  2
DIMS6
  0
BLOCK_RECORD
  5
94
100
AcDbSymbolTableRecord
100
AcDbBlockTableRecord
  2
DIMS7
  0
BLOCK_RECORD
  5
9B
100
AcDbSymbolTableRecord
100
AcDbBlockTableRecord
  2
DIMS8
  0
BLOCK_RECORD
  5
A7
100
AcDbSymbolTableRecord
100
AcDbBlockTableRecord
  2
DIMS9
  0
ENDTAB
  0
ENDSEC
  0
SECTION
  2
BLOCKS
  0
BLOCK
  5
22
100
AcDbEntity
  8
0
100
AcDbBlockBegin
  2
*MODEL_SPACE
 70
     0
 10
0.0
 20
0.0
 30
0.0
  3
*MODEL_SPACE
  1

  0
ENDBLK
  5
23
100
AcDbEntity
  8
0
100
AcDbBlockEnd
  0
BLOCK
  5
25
100
AcDbEntity
 67
     1
  8
0
100
AcDbBlockBegin
  2
*PAPER_SPACE
 70
     0
 10
0.0
 20
0.0
 30
0.0
  3
*PAPER_SPACE
  1

  0
ENDBLK
  5
26
100
AcDbEntity
 67
     1
  8
0
100
AcDbBlockEnd
  0
BLOCK
  5
2A
100
AcDbEntity
  8
0
100
AcDbBlockBegin
  2
_NONE
 70
     0
 10
0.0
 20
0.0
  0
CIRCLE
  5
2B
100
AcDbEntity
  8
0
 62
     0
100
AcDbCircle
 10
0.0
 20
0.0
 40
0.25
  0
ENDBLK
  5
2C
100
AcDbEntity
  8
0
100
AcDbBlockEnd
  0
BLOCK
  5
2E
100
AcDbEntity
  8
0
100
AcDbBlockBegin
  2
_OPEN
 70
     0
 10
0.0
 20
0.0
  0
LINE
  5
2F
100
AcDbEntity
  8
0
 62
     0
100
AcDbLine
 10
-0.965926
 20
0.258819
 11
0.0
 21
0.0
  0
LINE
  5
30
100
AcDbEntity
  8
0
 62
     0
100
AcDbLine
 10
0.0
 20
0.0
 11
-0.965926
 21
-0.258819
  0
LINE
  5
31
100
AcDbEntity
  8
0
 62
     0
100
AcDbLine
 10
0.0
 20
0.0
 11
-1.0
 21
0.0
  0
ENDBLK
  5
32
100
AcDbEntity
  8
0
100
AcDbBlockEnd
  0
BLOCK
  5
34
100
AcDbEntity
  8
0
100
AcDbBlockBegin
  2
_CLOSED
 70
     0
 10
0.0
 20
0.0
  0
LINE
  5
35
100
AcDbEntity
  8
0
 62
     0
100
AcDbLine
 10
-0.965926
 20
0.258819
 11
0.0
 21
0.0
  0
LINE
  5
36
100
AcDbEntity
  8
0
 62
     0
100
AcDbLine
 10
0.0
 20
0.0
 11
-0.965926
 21
-0.258819
  0
LINE
  5
37
100
AcDbEntity
  8
0
 62
     0
100
AcDbLine
 10
-0.965926
 20
0.258819
 11
-0.965926
 21
-0.258819
  0
LINE
  5
38
100
AcDbEntity
  8
0
 62
     0
100
AcDbLine
 10
0.0
 20
0.0
 11
-1.0
 21
0.0
  0
ENDBLK
  5
39
100
AcDbEntity
  8
0
100
AcDbBlockEnd
  0
BLOCK
  5
3B
100
AcDbEntity
  8
0
100
AcDbBlockBegin
  2
_ORIGIN
 70
     0
 10
0.0
 20
0.0
  0
CIRCLE
  5
3C
100
AcDbEntity
  8
0
 62
     0
100
AcDbCircle
 10
0.0
 20
0.0
 40
0.5
  0
LINE
  5
3D
100
AcDbEntity
  8
0
 62
     0
100
AcDbLine
 10
0.0
 20
0.0
 11
-1.0
 21
0.0
  0
ENDBLK
  5
3E
100
AcDbEntity
  8
0
100
AcDbBlockEnd
  0
BLOCK
  5
40
100
AcDbEntity
  8
0
100
AcDbBlockBegin
  2
_DOT
 70
     0
 10
0.0
 20
0.0
  0
POLYLINE
  5
41
100
AcDbEntity
  8
0
 62
     0
100
AcDb2dPolyline
 66
     1
 70
     1
 40
0.5
 41
0.5
  0
VERTEX
  5
42
100
AcDbEntity
  8
0
 62
     0
100
AcDbVertex
100
AcDb2dVertex
 10
-0.25
 20
0.0
 42
1.0
  0
VERTEX
  5
43
100
AcDbEntity
  8
0
 62
     0
100
AcDbVertex
100
AcDb2dVertex
 10
0.25
 20
0.0
 42
1.0
  0
SEQEND
  5
44
100
AcDbEntity
  8
0
 62
     0
  0
LINE
  5
45
100
AcDbEntity
  8
0
 62
     0
100
AcDbLine
 10
-0.5
 20
0.0
 11
-1.0
 21
0.0
  0
ENDBLK
  5
46
100
AcDbEntity
  8
0
100
AcDbBlockEnd
  0
BLOCK
  5
48
100
AcDbEntity
  8
0
100
AcDbBlockBegin
  2
_OBLIQUE
 70
     0
 10
0.0
 20
0.0
  0
LINE
  5
49
100
AcDbEntity
  8
0
 62
     0
100
AcDbLine
 10
-0.353553
 20
-0.353553
 11
0.353553
 21
0.353553
  0
ENDBLK
  5
4A
100
AcDbEntity
  8
0
100
AcDbBlockEnd
  0
BLOCK
  5
4C
100
AcDbEntity
  8
DD0
100
AcDbBlockBegin
  2
DIMS0
 70
     0
 10
0.0
 20
0.0
  0
LINE
  5
4D
100
AcDbEntity
  8
DD0
100
AcDbLine
 10
180.909668
 20
235.440506
 11
180.909668
 21
248.69812
  0
LINE
  5
4E
100
AcDbEntity
  8
DD0
100
AcDbLine
 10
188.01189
 20
246.921663
 11
190.909668
 21
247.69812
  0
LINE
  5
4F
100
AcDbEntity
  8
DD0
100
AcDbLine
 10
190.909668
 20
247.69812
 11
188.01189
 21
248.474577
  0
LINE
  5
50
100
AcDbEntity
  8
DD0
100
AcDbLine
 10
183.807445
 20
248.474577
 11
180.909668
 21
247.69812
  0
LINE
  5
51
100
AcDbEntity
  8
DD0
100
AcDbLine
 10
180.909668
 20
247.69812
 11
183.807445
 21
246.921663
  0
LINE
  5
52
100
AcDbEntity
  8
DD0
100
AcDbLine
 10
190.909668
 20
247.69812
 11
180.909668
 21
247.69812
  0
TEXT
  5
53
100
AcDbEntity
  8
DD0
100
AcDbText
 10
183.017175
 20
248.298126
 40
3.15
  1
１０
 41
0.833333
  7
STANDARD
100
AcDbText
  0
ENDBLK
  5
54
100
AcDbEntity
  8
DD0
100
AcDbBlockEnd
  0
BLOCK
  5
57
100
AcDbEntity
  8
DD0
100
AcDbBlockBegin
  2
DIMS1
 70
     0
 10
0.0
 20
0.0
  0
LINE
  5
58
100
AcDbEntity
  8
DD0
100
AcDbLine
 10
190.909668
 20
241.940506
 11
190.909668
 21
257.84024
  0
LINE
  5
59
100
AcDbEntity
  8
DD0
100
AcDbLine
 10
111.70974
 20
235.44046
 11
111.70974
 21
257.84024
  0
LINE
  5
5A
100
AcDbEntity
  8
DD0
100
AcDbLine
 10
188.01189
 20
256.063783
 11
190.909668
 21
256.84024
  0
LINE
  5
5B
100
AcDbEntity
  8
DD0
100
AcDbLine
 10
190.909668
 20
256.84024
 11
188.01189
 21
257.616698
  0
LINE
  5
5C
100
AcDbEntity
  8
DD0
100
AcDbLine
 10
114.607517
 20
257.616698
 11
111.70974
 21
256.84024
  0
LINE
  5
5D
100
AcDbEntity
  8
DD0
100
AcDbLine
 10
111.70974
 20
256.84024
 11
114.607517
 21
256.063783
  0
LINE
  5
5E
100
AcDbEntity
  8
DD0
100
AcDbLine
 10
190.909668
 20
256.84024
 11
111.70974
 21
256.84024
  0
TEXT
  5
5F
100
AcDbEntity
  8
DD0
100
AcDbText
 10
148.417215
 20
257.440247
 40
3.15
  1
７９
 41
0.833333
  7
STANDARD
100
AcDbText
  0
ENDBLK
  5
60
100
AcDbEntity
  8
DD0
100
AcDbBlockEnd
  0
BLOCK
  5
63
100
AcDbEntity
  8
DD0
100
AcDbBlockBegin
  2
DIMS2
 70
     0
 10
0.0
 20
0.0
  0
LINE
  5
64
100
AcDbEntity
  8
DD0
100
AcDbLine
 10
107.709694
 20
211.440506
 11
107.709694
 21
257.84024
  0
LINE
  5
65
100
AcDbEntity
  8
DD0
100
AcDbLine
 10
104.811916
 20
256.063783
 11
107.709694
 21
256.84024
  0
LINE
  5
66
100
AcDbEntity
  8
DD0
100
AcDbLine
 10
107.709694
 20
256.84024
 11
104.811916
 21
257.616698
  0
LINE
  5
67
100
AcDbEntity
  8
DD0
100
AcDbLine
 10
111.70974
 20
256.84024
 11
104.409694
 21
256.84024
  0
TEXT
  5
68
100
AcDbEntity
  8
DD0
100
AcDbText
 10
108.392221
 20
257.440247
 40
3.15
  1
４
 41
0.833333
  7
STANDARD
100
AcDbText
  0
ENDBLK
  5
69
100
AcDbEntity
  8
DD0
100
AcDbBlockEnd
  0
BLOCK
  5
6C
100
AcDbEntity
  8
DD0
100
AcDbBlockBegin
  2
DIMS3
 70
     0
 10
0.0
 20
0.0
  0
LINE
  5
6D
100
AcDbEntity
  8
DD0
100
AcDbLine
 10
101.709663
 20
187.440521
 11
101.709663
 21
167.440567
  0
LINE
  5
6E
100
AcDbEntity
  8
DD0
100
AcDbLine
 10
111.70974
 20
181.440521
 11
111.70974
 21
167.440567
  0
LINE
  5
6F
100
AcDbEntity
  8
DD0
100
AcDbLine
 10
104.607441
 20
169.217024
 11
101.709663
 21
168.440567
  0
LINE
  5
70
100
AcDbEntity
  8
DD0
100
AcDbLine
 10
101.709663
 20
168.440567
 11
104.607441
 21
167.66411
  0
LINE
  5
71
100
AcDbEntity
  8
DD0
100
AcDbLine
 10
108.811962
 20
167.66411
 11
111.70974
 21
168.440567
  0
LINE
  5
72
100
AcDbEntity
  8
DD0
100
AcDbLine
 10
111.70974
 20
168.440567
 11
108.811962
 21
169.217024
  0
LINE
  5
73
100
AcDbEntity
  8
DD0
100
AcDbLine
 10
101.709663
 20
168.440567
 11
111.70974
 21
168.440567
  0
TEXT
  5
74
100
AcDbEntity
  8
DD0
100
AcDbText
 10
101.879701
 20
164.590576
 40
3.15
  1
最小１０
 41
0.666667
  7
STANDARD
100
AcDbText
  0
ENDBLK
  5
75
100
AcDbEntity
  8
DD0
100
AcDbBlockEnd
  0
BLOCK
  5
78
100
AcDbEntity
  8
DD0
100
AcDbBlockBegin
  2
DIMS4
 70
     0
 10
0.0
 20
0.0
  0
LINE
  5
79
100
AcDbEntity
  8
DD0
100
AcDbLine
 10
77.150764
 20
241.440445
 11
77.150764
 21
257.84024
  0
LINE
  5
7A
100
AcDbEntity
  8
DD0
100
AcDbLine
 10
24.150764
 20
237.940399
 11
24.150764
 21
257.84024
  0
LINE
  5
7B
100
AcDbEntity
  8
DD0
100
AcDbLine
 10
74.252987
 20
256.063783
 11
77.150764
 21
256.84024
  0
LINE
  5
7C
100
AcDbEntity
  8
DD0
100
AcDbLine
 10
77.150764
 20
256.84024
 11
74.252987
 21
257.616698
  0
LINE
  5
7D
100
AcDbEntity
  8
DD0
100
AcDbLine
 10
27.048542
 20
257.616698
 11
24.150764
 21
256.84024
  0
LINE
  5
7E
100
AcDbEntity
  8
DD0
100
AcDbLine
 10
24.150764
 20
256.84024
 11
27.048542
 21
256.063783
  0
LINE
  5
7F
100
AcDbEntity
  8
DD0
100
AcDbLine
 10
77.150764
 20
256.84024
 11
24.150764
 21
256.84024
  0
TEXT
  5
80
100
AcDbEntity
  8
DD0
100
AcDbText
 10
47.758264
 20
257.440247
 40
3.15
  1
５３
 41
0.833333
  7
STANDARD
100
AcDbText
  0
ENDBLK
  5
81
100
AcDbEntity
  8
DD0
100
AcDbBlockEnd
  0
BLOCK
  5
84
100
AcDbEntity
  8
DD0
100
AcDbBlockBegin
  2
DIMS5
 70
     0
 10
0.0
 20
0.0
  0
LINE
  5
85
100
AcDbEntity
  8
DD0
100
AcDbLine
 10
77.650764
 20
240.940445
 11
89.064514
 21
240.940445
  0
LINE
  5
86
100
AcDbEntity
  8
DD0
100
AcDbLine
 10
73.150764
 20
175.940445
 11
89.064514
 21
175.940445
  0
LINE
  5
87
100
AcDbEntity
  8
DD0
100
AcDbLine
 10
88.840971
 20
238.042667
 11
88.064514
 21
240.940445
  0
LINE
  5
88
100
AcDbEntity
  8
DD0
100
AcDbLine
 10
88.064514
 20
240.940445
 11
87.288057
 21
238.042667
  0
LINE
  5
89
100
AcDbEntity
  8
DD0
100
AcDbLine
 10
87.288057
 20
178.838222
 11
88.064514
 21
175.940445
  0
LINE
  5
8A
100
AcDbEntity
  8
DD0
100
AcDbLine
 10
88.064514
 20
175.940445
 11
88.840971
 21
178.838222
  0
LINE
  5
8B
100
AcDbEntity
  8
DD0
100
AcDbLine
 10
88.064514
 20
240.940445
 11
88.064514
 21
175.940445
  0
TEXT
  5
8C
100
AcDbEntity
  8
DD0
100
AcDbText
 10
87.464516
 20
205.547952
 40
3.15
  1
６５
 50
90.000003
 41
0.833333
  7
STANDARD
100
AcDbText
  0
ENDBLK
  5
8D
100
AcDbEntity
  8
DD0
100
AcDbBlockEnd
  0
BLOCK
  5
90
100
AcDbEntity
  8
DD0
100
AcDbBlockBegin
  2
DIMS6
 70
     0
 10
0.0
 20
0.0
  0
TEXT
  5
91
100
AcDbEntity
  8
DD0
100
AcDbText
 10
71.908922
 20
63.171589
 40
3.15
  1
２－Ｍ４ねじ穴
 41
0.833333
  7
STANDARD
100
AcDbText
  0
ENDBLK
  5
92
100
AcDbEntity
  8
DD0
100
AcDbBlockEnd
  0
BLOCK
  5
95
100
AcDbEntity
  8
DD0
100
AcDbBlockBegin
  2
DIMS7
 70
     0
 10
0.0
 20
0.0
  0
LINE
  5
96
100
AcDbEntity
  8
DD0
100
AcDbLine
 10
70.100134
 20
73.518591
 11
68.116333
 21
75.769043
  0
LINE
  5
97
100
AcDbEntity
  8
DD0
100
AcDbLine
 10
68.116333
 20
75.769043
 11
68.70913
 21
72.828194
  0
LINE
  5
98
100
AcDbEntity
  8
DD0
100
AcDbLine
 10
68.116333
 20
75.769043
 11
72.376587
 21
67.185532
  0
ENDBLK
  5
99
100
AcDbEntity
  8
DD0
100
AcDbBlockEnd
  0
BLOCK
  5
9C
100
AcDbEntity
  8
DD0
100
AcDbBlockBegin
  2
DIMS8
 70
     0
 10
0.0
 20
0.0
  0
LINE
  5
9D
100
AcDbEntity
  8
DD0
100
AcDbLine
 10
72.248535
 20
77.794685
 11
89.064514
 21
77.794685
  0
LINE
  5
9E
100
AcDbEntity
  8
DD0
100
AcDbLine
 10
38.748539
 20
132.794662
 11
89.064514
 21
132.794662
  0
LINE
  5
9F
100
AcDbEntity
  8
DD0
100
AcDbLine
 10
87.288057
 20
80.692463
 11
88.064514
 21
77.794685
  0
LINE
  5
A0
100
AcDbEntity
  8
DD0
100
AcDbLine
 10
88.064514
 20
77.794685
 11
88.840971
 21
80.692463
  0
LINE
  5
A1
100
AcDbEntity
  8
DD0
100
AcDbLine
 10
88.840971
 20
129.896885
 11
88.064514
 21
132.794662
  0
LINE
  5
A2
100
AcDbEntity
  8
DD0
100
AcDbLine
 10
88.064514
 20
132.794662
 11
87.288057
 21
129.896885
  0
LINE
  5
A3
100
AcDbEntity
  8
DD0
100
AcDbLine
 10
88.064514
 20
77.794685
 11
88.064514
 21
132.794662
  0
TEXT
  5
A4
100
AcDbEntity
  8
DD0
100
AcDbText
 10
87.464516
 20
102.402177
 40
3.15
  1
５５
 50
90.000003
 41
0.833333
  7
STANDARD
100
AcDbText
  0
ENDBLK
  5
A5
100
AcDbEntity
  8
DD0
100
AcDbBlockEnd
  0
BLOCK
  5
A8
100
AcDbEntity
  8
DD0
100
AcDbBlockBegin
  2
DIMS9
 70
     0
 10
0.0
 20
0.0
  0
LINE
  5
A9
100
AcDbEntity
  8
DD0
100
AcDbLine
 10
33.651127
 20
137.892059
 11
33.651127
 21
150.265106
  0
LINE
  5
AA
100
AcDbEntity
  8
DD0
100
AcDbLine
 10
66.651123
 20
83.392082
 11
66.651123
 21
150.265106
  0
LINE
  5
AB
100
AcDbEntity
  8
DD0
100
AcDbLine
 10
36.548904
 20
150.041563
 11
33.651127
 21
149.265106
  0
LINE
  5
AC
100
AcDbEntity
  8
DD0
100
AcDbLine
 10
33.651127
 20
149.265106
 11
36.548904
 21
148.488649
  0
LINE
  5
AD
100
AcDbEntity
  8
DD0
100
AcDbLine
 10
63.753346
 20
148.488649
 11
66.651123
 21
149.265106
  0
LINE
  5
AE
100
AcDbEntity
  8
DD0
100
AcDbLine
 10
66.651123
 20
149.265106
 11
63.753346
 21
150.041563
  0
LINE
  5
AF
100
AcDbEntity
  8
DD0
100
AcDbLine
 10
33.651127
 20
149.265106
 11
66.651123
 21
149.265106
  0
TEXT
  5
B0
100
AcDbEntity
  8
DD0
100
AcDbText
 10
47.258623
 20
149.865112
 40
3.15
  1
３３
 41
0.833333
  7
STANDARD
100
AcDbText
  0
ENDBLK
  5
B1
100
AcDbEntity
  8
DD0
100
AcDbBlockEnd
  0
ENDSEC
  0
SECTION
  2
ENTITIES
  0
INSERT
  5
55
100
AcDbEntity
  8
DD0
100
AcDbBlockReference
  2
DIMS0
 10
0.0
 20
0.0
  0
INSERT
  5
61
100
AcDbEntity
  8
DD0
100
AcDbBlockReference
  2
DIMS1
 10
0.0
 20
0.0
  0
INSERT
  5
6A
100
AcDbEntity
  8
DD0
100
AcDbBlockReference
  2
DIMS2
 10
0.0
 20
0.0
  0
INSERT
  5
76
100
AcDbEntity
  8
DD0
100
AcDbBlockReference
  2
DIMS3
 10
0.0
 20
0.0
  0
INSERT
  5
82
100
AcDbEntity
  8
DD0
100
AcDbBlockReference
  2
DIMS4
 10
0.0
 20
0.0
  0
INSERT
  5
8E
100
AcDbEntity
  8
DD0
100
AcDbBlockReference
  2
DIMS5
 10
0.0
 20
0.0
  0
INSERT
  5
93
100
AcDbEntity
  8
DD0
100
AcDbBlockReference
  2
DIMS6
 10
0.0
 20
0.0
  0
INSERT
  5
9A
100
AcDbEntity
  8
DD0
100
AcDbBlockReference
  2
DIMS7
 10
0.0
 20
0.0
  0
INSERT
  5
A6
100
AcDbEntity
  8
DD0
100
AcDbBlockReference
  2
DIMS8
 10
0.0
 20
0.0
  0
INSERT
  5
B2
100
AcDbEntity
  8
DD0
100
AcDbBlockReference
  2
DIMS9
 10
0.0
 20
0.0
  0
LINE
  5
B3
100
AcDbEntity
  8
M0
 62
     7
100
AcDbLine
 10
180.909675
 20
175.940499
 11
180.909675
 21
187.440484
  0
LINE
  5
B4
100
AcDbEntity
  8
M0
 62
     7
100
AcDbLine
 10
172.009666
 20
182.940499
 11
172.009666
 21
178.940499
  0
LINE
  5
B5
100
AcDbEntity
  8
M0
 62
     7
100
AcDbLine
 10
176.509666
 20
182.940499
 11
176.509666
 21
177.940499
  0
LINE
  5
B6
100
AcDbEntity
  8
M0
 62
     7
100
AcDbLine
 10
173.009666
 20
177.940499
 11
176.509666
 21
177.940499
  0
ARC
  5
B7
100
AcDbEntity
  8
M0
 62
     7
100
AcDbCircle
 10
173.009666
 20
178.940499
 40
1.0
100
AcDbArc
 50
179.999945
 51
270.0
  0
LINE
  5
B8
100
AcDbEntity
  8
M0
 62
     7
100
AcDbLine
 10
161.909675
 20
188.440499
 11
179.909675
 21
188.440499
  0
ARC
  5
B9
100
AcDbEntity
  8
M0
 62
     7
100
AcDbCircle
 10
179.909675
 20
187.440499
 40
1.0
100
AcDbArc
 50
0.0
 51
90.0
  0
ARC
  5
BA
100
AcDbEntity
  8
M0
 62
     7
100
AcDbCircle
 10
171.509666
 20
182.940499
 40
0.5
100
AcDbArc
 50
0.0
 51
90.0
  0
ARC
  5
BB
100
AcDbEntity
  8
M0
 62
     7
100
AcDbCircle
 10
171.509666
 20
181.987542
 40
0.5
100
AcDbArc
 50
0.0
 51
84.348228
  0
LINE
  5
BC
100
AcDbEntity
  8
M0
 62
     7
100
AcDbLine
 10
180.909675
 20
175.940499
 11
190.909675
 21
175.940499
  0
LINE
  5
BD
100
AcDbEntity
  8
M0
 62
     7
100
AcDbLine
 10
190.909675
 20
175.940499
 11
190.90966
 21
189.790505
  0
LINE
  5
BE
100
AcDbEntity
  8
M0
 62
     7
100
AcDbLine
 10
190.909675
 20
240.940499
 11
180.909675
 21
240.940484
  0
LINE
  5
BF
100
AcDbEntity
  8
M0
  6
DASHDOT
 62
     7
100
AcDbLine
 10
161.909675
 20
208.440499
 11
196.497306
 21
208.440499
  0
LINE
  5
C0
100
AcDbEntity
  8
M0
 62
     7
100
AcDbLine
 10
161.909675
 20
234.440499
 11
190.909675
 21
234.440499
  0
LINE
  5
C1
100
AcDbEntity
  8
M0
 62
     7
100
AcDbLine
 10
190.609672
 20
190.090493
 11
190.609672
 21
190.79049
  0
LINE
  5
C2
100
AcDbEntity
  8
M0
 62
     7
100
AcDbLine
 10
186.109672
 20
190.790505
 11
189.909675
 21
190.790505
  0
LINE
  5
C3
100
AcDbEntity
  8
M0
 62
     7
100
AcDbLine
 10
186.109672
 20
226.090493
 11
190.909675
 21
226.090493
  0
LINE
  5
C4
100
AcDbEntity
  8
M0
 62
     7
100
AcDbLine
 10
187.109672
 20
191.290505
 11
187.209602
 21
191.290505
  0
LINE
  5
C5
100
AcDbEntity
  8
M0
 62
     7
100
AcDbLine
 10
187.209602
 20
192.790505
 11
188.209602
 21
192.790505
  0
LINE
  5
C6
100
AcDbEntity
  8
M0
 62
     7
100
AcDbLine
 10
190.909675
 20
226.090493
 11
190.909675
 21
240.940499
  0
LINE
  5
C7
100
AcDbEntity
  8
M0
 62
     7
100
AcDbLine
 10
187.909644
 20
224.090493
 11
188.909644
 21
224.090493
  0
LINE
  5
C8
100
AcDbEntity
  8
M0
 62
     7
100
AcDbLine
 10
188.90966
 20
224.090493
 11
190.609672
 21
226.090493
  0
LINE
  5
C9
100
AcDbEntity
  8
M0
 62
     7
100
AcDbLine
 10
187.90966
 20
224.090493
 11
187.209663
 21
226.090493
  0
LINE
  5
CA
100
AcDbEntity
  8
M0
 62
     7
100
AcDbLine
 10
187.209602
 20
192.790505
 11
187.209602
 21
191.290505
  0
LINE
  5
CB
100
AcDbEntity
  8
M0
 62
     7
100
AcDbLine
 10
161.909675
 20
183.440499
 11
180.909675
 21
183.440499
  0
LINE
  5
CC
100
AcDbEntity
  8
M0
 62
     7
100
AcDbLine
 10
161.909675
 20
182.440499
 11
171.721381
 21
182.440499
  0
LINE
  5
CD
100
AcDbEntity
  8
M0
 62
     7
100
AcDbLine
 10
161.909675
 20
183.440499
 11
171.558921
 21
182.485116
  0
ARC
  5
CE
100
AcDbEntity
  8
M0
 62
     7
100
AcDbCircle
 10
177.009666
 20
182.940499
 40
0.5
100
AcDbArc
 50
90.0
 51
179.999966
  0
ARC
  5
CF
100
AcDbEntity
  8
M0
 62
     7
100
AcDbCircle
 10
177.009666
 20
181.940499
 40
0.5
100
AcDbArc
 50
90.0
 51
179.999959
  0
LINE
  5
D0
100
AcDbEntity
  8
M0
 62
     7
100
AcDbLine
 10
177.009666
 20
182.440499
 11
180.909675
 21
182.440499
  0
LINE
  5
D1
100
AcDbEntity
  8
M0
 62
     7
100
AcDbLine
 10
180.909675
 20
240.940484
 11
180.909675
 21
234.440499
  0
LINE
  5
D2
100
AcDbEntity
  8
M0
 62
     7
100
AcDbLine
 10
186.109672
 20
190.790505
 11
186.109672
 21
226.090493
  0
LINE
  5
D3
100
AcDbEntity
  8
M0
 62
     7
100
AcDbLine
 10
189.909675
 20
190.790505
 11
190.90966
 21
189.790505
  0
LINE
  5
D4
100
AcDbEntity
  8
M0
 62
     7
100
AcDbLine
 10
188.209602
 20
192.790505
 11
188.209602
 21
190.790505
  0
LINE
  5
D5
100
AcDbEntity
  8
M0
 62
     7
100
AcDbLine
 10
190.609672
 20
190.79049
 11
188.209602
 21
192.790505
  0
CIRCLE
  5
D6
100
AcDbEntity
  8
M0
 62
     6
100
AcDbCircle
 10
30.650748
 20
180.440515
 40
3.0
  0
LINE
  5
D7
100
AcDbEntity
  8
M0
 62
     6
100
AcDbLine
 10
27.554023
 20
183.940423
 11
26.875739
 21
181.740563
  0
LINE
  5
D8
100
AcDbEntity
  8
M0
 62
     6
100
AcDbLine
 10
27.691993
 20
176.493264
 11
26.875739
 21
179.140588
  0
LINE
  5
D9
100
AcDbEntity
  8
M0
 62
     6
100
AcDbLine
 10
33.747428
 20
183.940423
 11
34.425742
 21
181.740563
  0
LINE
  5
DA
100
AcDbEntity
  8
M0
 62
     6
100
AcDbLine
 10
33.609473
 20
176.493249
 11
34.425742
 21
179.140588
  0
LINE
  5
DB
100
AcDbEntity
  8
M0
 62
     6
100
AcDbLine
 10
28.169791
 20
176.140588
 11
33.13166
 21
176.140588
  0
LINE
  5
DC
100
AcDbEntity
  8
M0
 62
     6
100
AcDbLine
 10
34.425742
 20
179.140588
 11
34.425742
 21
181.740563
  0
LINE
  5
DD
100
AcDbEntity
  8
M0
 62
     6
100
AcDbLine
 10
26.875739
 20
181.740563
 11
26.875739
 21
179.140588
  0
LINE
  5
DE
100
AcDbEntity
  8
M0
  6
DASHDOT
 62
     6
100
AcDbLine
 10
24.375739
 20
180.440515
 11
36.925742
 21
180.440515
  0
LINE
  5
DF
100
AcDbEntity
  8
M0
  6
DASHDOT
 62
     6
100
AcDbLine
 10
30.650748
 20
173.640603
 11
30.650748
 21
187.240563
  0
LINE
  5
E0
100
AcDbEntity
  8
M0
 62
     6
100
AcDbLine
 10
32.241523
 20
178.849694
 11
29.059715
 21
182.031457
  0
LINE
  5
E1
100
AcDbEntity
  8
M0
 62
     6
100
AcDbLine
 10
31.004157
 20
181.854699
 11
29.236488
 21
180.086999
  0
LINE
  5
E2
100
AcDbEntity
  8
M0
 62
     6
100
AcDbLine
 10
32.064765
 20
180.79403
 11
30.297141
 21
179.026452
  0
ARC
  5
E3
100
AcDbEntity
  8
M0
 62
     6
100
AcDbCircle
 10
28.169791
 20
176.640588
 40
0.5
100
AcDbArc
 50
197.137551
 51
270.0
  0
ARC
  5
E4
100
AcDbEntity
  8
M0
 62
     6
100
AcDbCircle
 10
33.13166
 20
176.640588
 40
0.5
100
AcDbArc
 50
270.0
 51
342.861653
  0
CIRCLE
  5
E5
100
AcDbEntity
  8
M0
 62
     6
100
AcDbCircle
 10
30.650748
 20
188.440515
 40
3.0
  0
LINE
  5
E6
100
AcDbEntity
  8
M0
 62
     6
100
AcDbLine
 10
27.691993
 20
192.387856
 11
26.875739
 21
189.740563
  0
LINE
  5
E7
100
AcDbEntity
  8
M0
 62
     6
100
AcDbLine
 10
27.691993
 20
184.493264
 11
26.875739
 21
187.140588
  0
LINE
  5
E8
100
AcDbEntity
  8
M0
 62
     6
100
AcDbLine
 10
33.609473
 20
192.387872
 11
34.425742
 21
189.740563
  0
LINE
  5
E9
100
AcDbEntity
  8
M0
 62
     6
100
AcDbLine
 10
33.609473
 20
184.493249
 11
34.425742
 21
187.140588
  0
LINE
  5
EA
100
AcDbEntity
  8
M0
 62
     6
100
AcDbLine
 10
28.169791
 20
184.140588
 11
33.13166
 21
184.140588
  0
LINE
  5
EB
100
AcDbEntity
  8
M0
 62
     6
100
AcDbLine
 10
34.425742
 20
187.140588
 11
34.425742
 21
189.740563
  0
LINE
  5
EC
100
AcDbEntity
  8
M0
 62
     6
100
AcDbLine
 10
33.13166
 20
192.740563
 11
28.169791
 21
192.740548
  0
LINE
  5
ED
100
AcDbEntity
  8
M0
 62
     6
100
AcDbLine
 10
26.875739
 20
189.740563
 11
26.875739
 21
187.140588
  0
LINE
  5
EE
100
AcDbEntity
  8
M0
  6
DASHDOT
 62
     6
100
AcDbLine
 10
24.375739
 20
188.440515
 11
36.925742
 21
188.440515
  0
LINE
  5
EF
100
AcDbEntity
  8
M0
  6
DASHDOT
 62
     6
100
AcDbLine
 10
30.650748
 20
181.640603
 11
30.650748
 21
195.240563
  0
LINE
  5
F0
100
AcDbEntity
  8
M0
 62
     6
100
AcDbLine
 10
32.241523
 20
186.849694
 11
29.059715
 21
190.031457
  0
LINE
  5
F1
100
AcDbEntity
  8
M0
 62
     6
100
AcDbLine
 10
31.004157
 20
189.854699
 11
29.236488
 21
188.086999
  0
LINE
  5
F2
100
AcDbEntity
  8
M0
 62
     6
100
AcDbLine
 10
32.064765
 20
188.79403
 11
30.297141
 21
187.026452
  0
ARC
  5
F3
100
AcDbEntity
  8
M0
 62
     6
100
AcDbCircle
 10
28.169791
 20
192.240548
 40
0.5
100
AcDbArc
 50
90.0
 51
162.865663
  0
ARC
  5
F4
100
AcDbEntity
  8
M0
 62
     6
100
AcDbCircle
 10
28.169791
 20
184.640588
 40
0.5
100
AcDbArc
 50
197.137551
 51
270.0
  0
ARC
  5
F5
100
AcDbEntity
  8
M0
 62
     6
100
AcDbCircle
 10
33.13166
 20
184.640588
 40
0.5
100
AcDbArc
 50
270.0
 51
342.861653
  0
ARC
  5
F6
100
AcDbEntity
  8
M0
 62
     6
100
AcDbCircle
 10
33.13166
 20
192.240548
 40
0.5
100
AcDbArc
 50
17.134787
 51
90.0
  0
CIRCLE
  5
F7
100
AcDbEntity
  8
M0
 62
     6
100
AcDbCircle
 10
40.650748
 20
188.440515
 40
3.0
  0
LINE
  5
F8
100
AcDbEntity
  8
M0
 62
     6
100
AcDbLine
 10
37.691993
 20
192.387856
 11
36.875739
 21
189.740563
  0
LINE
  5
F9
100
AcDbEntity
  8
M0
 62
     6
100
AcDbLine
 10
37.691993
 20
184.493264
 11
36.875739
 21
187.140588
  0
LINE
  5
FA
100
AcDbEntity
  8
M0
 62
     6
100
AcDbLine
 10
43.609473
 20
192.387872
 11
44.425742
 21
189.740563
  0
LINE
  5
FB
100
AcDbEntity
  8
M0
 62
     6
100
AcDbLine
 10
43.609473
 20
184.493249
 11
44.425742
 21
187.140588
  0
LINE
  5
FC
100
AcDbEntity
  8
M0
 62
     6
100
AcDbLine
 10
38.169791
 20
184.140588
 11
43.13166
 21
184.140588
  0
LINE
  5
FD
100
AcDbEntity
  8
M0
 62
     6
100
AcDbLine
 10
44.425742
 20
187.140588
 11
44.425742
 21
189.740563
  0
LINE
  5
FE
100
AcDbEntity
  8
M0
 62
     6
100
AcDbLine
 10
43.13166
 20
192.740563
 11
38.169791
 21
192.740548
  0
LINE
  5
FF
100
AcDbEntity
  8
M0
 62
     6
100
AcDbLine
 10
36.875739
 20
189.740563
 11
36.875739
 21
187.140588
  0
LINE
  5
100
100
AcDbEntity
  8
M0
  6
DASHDOT
 62
     6
100
AcDbLine
 10
34.375739
 20
188.440515
 11
46.925742
 21
188.440515
  0
LINE
  5
101
100
AcDbEntity
  8
M0
  6
DASHDOT
 62
     6
100
AcDbLine
 10
40.650748
 20
181.640603
 11
40.650748
 21
195.240563
  0
LINE
  5
102
100
AcDbEntity
  8
M0
 62
     6
100
AcDbLine
 10
42.241523
 20
186.849694
 11
39.059715
 21
190.031457
  0
LINE
  5
103
100
AcDbEntity
  8
M0
 62
     6
100
AcDbLine
 10
41.004157
 20
189.854699
 11
39.236488
 21
188.086999
  0
LINE
  5
104
100
AcDbEntity
  8
M0
 62
     6
100
AcDbLine
 10
42.064765
 20
188.79403
 11
40.297141
 21
187.026452
  0
ARC
  5
105
100
AcDbEntity
  8
M0
 62
     6
100
AcDbCircle
 10
38.169791
 20
192.240548
 40
0.5
100
AcDbArc
 50
90.0
 51
162.865663
  0
ARC
  5
106
100
AcDbEntity
  8
M0
 62
     6
100
AcDbCircle
 10
38.169791
 20
184.640588
 40
0.5
100
AcDbArc
 50
197.137551
 51
270.0
  0
ARC
  5
107
100
AcDbEntity
  8
M0
 62
     6
100
AcDbCircle
 10
43.13166
 20
184.640588
 40
0.5
100
AcDbArc
 50
270.0
 51
342.861653
  0
ARC
  5
108
100
AcDbEntity
  8
M0
 62
     6
100
AcDbCircle
 10
43.13166
 20
192.240548
 40
0.5
100
AcDbArc
 50
17.134787
 51
90.0
  0
CIRCLE
  5
109
100
AcDbEntity
  8
M0
 62
     6
100
AcDbCircle
 10
50.650748
 20
188.440515
 40
3.0
  0
LINE
  5
10A
100
AcDbEntity
  8
M0
 62
     6
100
AcDbLine
 10
47.691993
 20
192.387856
 11
46.875739
 21
189.740563
  0
LINE
  5
10B
100
AcDbEntity
  8
M0
 62
     6
100
AcDbLine
 10
47.691993
 20
184.493264
 11
46.875739
 21
187.140588
  0
LINE
  5
10C
100
AcDbEntity
  8
M0
 62
     6
100
AcDbLine
 10
53.609473
 20
192.387872
 11
54.425742
 21
189.740563
  0
LINE
  5
10D
100
AcDbEntity
  8
M0
 62
     6
100
AcDbLine
 10
53.609473
 20
184.493249
 11
54.425742
 21
187.140588
  0
LINE
  5
10E
100
AcDbEntity
  8
M0
 62
     6
100
AcDbLine
 10
48.169791
 20
184.140588
 11
53.13166
 21
184.140588
  0
LINE
  5
10F
100
AcDbEntity
  8
M0
 62
     6
100
AcDbLine
 10
54.425742
 20
187.140588
 11
54.425742
 21
189.740563
  0
LINE
  5
110
100
AcDbEntity
  8
M0
 62
     6
100
AcDbLine
 10
53.13166
 20
192.740563
 11
48.169791
 21
192.740548
  0
LINE
  5
111
100
AcDbEntity
  8
M0
 62
     6
100
AcDbLine
 10
46.875739
 20
189.740563
 11
46.875739
 21
187.140588
  0
LINE
  5
112
100
AcDbEntity
  8
M0
  6
DASHDOT
 62
     6
100
AcDbLine
 10
44.375739
 20
188.440515
 11
56.925742
 21
188.440515
  0
LINE
  5
113
100
AcDbEntity
  8
M0
 62
     6
100
AcDbLine
 10
52.241523
 20
186.849694
 11
49.059715
 21
190.031457
  0
LINE
  5
114
100
AcDbEntity
  8
M0
 62
     6
100
AcDbLine
 10
51.004157
 20
189.854699
 11
49.236488
 21
188.086999
  0
LINE
  5
115
100
AcDbEntity
  8
M0
 62
     6
100
AcDbLine
 10
52.064765
 20
188.79403
 11
50.297141
 21
187.026452
  0
ARC
  5
116
100
AcDbEntity
  8
M0
 62
     6
100
AcDbCircle
 10
48.169791
 20
192.240548
 40
0.5
100
AcDbArc
 50
90.0
 51
162.865663
  0
ARC
  5
117
100
AcDbEntity
  8
M0
 62
     6
100
AcDbCircle
 10
48.169791
 20
184.640588
 40
0.5
100
AcDbArc
 50
197.137551
 51
270.0
  0
ARC
  5
118
100
AcDbEntity
  8
M0
 62
     6
100
AcDbCircle
 10
53.13166
 20
184.640588
 40
0.5
100
AcDbArc
 50
270.0
 51
342.861653
  0
ARC
  5
119
100
AcDbEntity
  8
M0
 62
     6
100
AcDbCircle
 10
53.13166
 20
192.240548
 40
0.5
100
AcDbArc
 50
17.134787
 51
90.0
  0
CIRCLE
  5
11A
100
AcDbEntity
  8
M0
 62
     6
100
AcDbCircle
 10
60.650748
 20
188.440515
 40
3.0
  0
LINE
  5
11B
100
AcDbEntity
  8
M0
 62
     6
100
AcDbLine
 10
57.691993
 20
192.387856
 11
56.875739
 21
189.740563
  0
LINE
  5
11C
100
AcDbEntity
  8
M0
 62
     6
100
AcDbLine
 10
57.691993
 20
184.493264
 11
56.875739
 21
187.140588
  0
LINE
  5
11D
100
AcDbEntity
  8
M0
 62
     6
100
AcDbLine
 10
63.609473
 20
192.387872
 11
64.425742
 21
189.740563
  0
LINE
  5
11E
100
AcDbEntity
  8
M0
 62
     6
100
AcDbLine
 10
63.609473
 20
184.493249
 11
64.425742
 21
187.140588
  0
LINE
  5
11F
100
AcDbEntity
  8
M0
 62
     6
100
AcDbLine
 10
58.169791
 20
184.140588
 11
63.13166
 21
184.140588
  0
LINE
  5
120
100
AcDbEntity
  8
M0
 62
     6
100
AcDbLine
 10
64.425742
 20
187.140588
 11
64.425742
 21
189.740563
  0
LINE
  5
121
100
AcDbEntity
  8
M0
 62
     6
100
AcDbLine
 10
63.13166
 20
192.740563
 11
58.169791
 21
192.740548
  0
LINE
  5
122
100
AcDbEntity
  8
M0
 62
     6
100
AcDbLine
 10
56.875739
 20
189.740563
 11
56.875739
 21
187.140588
  0
LINE
  5
123
100
AcDbEntity
  8
M0
  6
DASHDOT
 62
     6
100
AcDbLine
 10
54.375739
 20
188.440515
 11
66.925742
 21
188.440515
  0
LINE
  5
124
100
AcDbEntity
  8
M0
  6
DASHDOT
 62
     6
100
AcDbLine
 10
60.650748
 20
181.640603
 11
60.650748
 21
195.240563
  0
LINE
  5
125
100
AcDbEntity
  8
M0
 62
     6
100
AcDbLine
 10
62.241523
 20
186.849694
 11
59.059715
 21
190.031457
  0
LINE
  5
126
100
AcDbEntity
  8
M0
 62
     6
100
AcDbLine
 10
61.004157
 20
189.854699
 11
59.236488
 21
188.086999
  0
LINE
  5
127
100
AcDbEntity
  8
M0
 62
     6
100
AcDbLine
 10
62.064765
 20
188.79403
 11
60.297141
 21
187.026452
  0
ARC
  5
128
100
AcDbEntity
  8
M0
 62
     6
100
AcDbCircle
 10
58.169791
 20
192.240548
 40
0.5
100
AcDbArc
 50
90.0
 51
162.865663
  0
ARC
  5
129
100
AcDbEntity
  8
M0
 62
     6
100
AcDbCircle
 10
58.169791
 20
184.640588
 40
0.5
100
AcDbArc
 50
197.137551
 51
270.0
  0
ARC
  5
12A
100
AcDbEntity
  8
M0
 62
     6
100
AcDbCircle
 10
63.13166
 20
184.640588
 40
0.5
100
AcDbArc
 50
270.0
 51
342.861653
  0
ARC
  5
12B
100
AcDbEntity
  8
M0
 62
     6
100
AcDbCircle
 10
63.13166
 20
192.240548
 40
0.5
100
AcDbArc
 50
17.134787
 51
90.0
  0
CIRCLE
  5
12C
100
AcDbEntity
  8
M0
 62
     6
100
AcDbCircle
 10
40.650748
 20
228.440347
 40
3.0
  0
LINE
  5
12D
100
AcDbEntity
  8
M0
 62
     6
100
AcDbLine
 10
37.691993
 20
232.387689
 11
36.875739
 21
229.740396
  0
LINE
  5
12E
100
AcDbEntity
  8
M0
 62
     6
100
AcDbLine
 10
37.691993
 20
224.493096
 11
36.875739
 21
227.14042
  0
LINE
  5
12F
100
AcDbEntity
  8
M0
 62
     6
100
AcDbLine
 10
43.609473
 20
232.387704
 11
44.425742
 21
229.740396
  0
LINE
  5
130
100
AcDbEntity
  8
M0
 62
     6
100
AcDbLine
 10
43.609473
 20
224.493081
 11
44.425742
 21
227.14042
  0
LINE
  5
131
100
AcDbEntity
  8
M0
 62
     6
100
AcDbLine
 10
38.169791
 20
224.14042
 11
43.13166
 21
224.14042
  0
LINE
  5
132
100
AcDbEntity
  8
M0
 62
     6
100
AcDbLine
 10
44.425742
 20
227.14042
 11
44.425742
 21
229.740396
  0
LINE
  5
133
100
AcDbEntity
  8
M0
 62
     6
100
AcDbLine
 10
43.13166
 20
232.740396
 11
38.169791
 21
232.74038
  0
LINE
  5
134
100
AcDbEntity
  8
M0
 62
     6
100
AcDbLine
 10
36.875739
 20
229.740396
 11
36.875739
 21
227.14042
  0
LINE
  5
135
100
AcDbEntity
  8
M0
  6
DASHDOT
 62
     6
100
AcDbLine
 10
34.375739
 20
228.440347
 11
46.925742
 21
228.440347
  0
LINE
  5
136
100
AcDbEntity
  8
M0
  6
DASHDOT
 62
     6
100
AcDbLine
 10
40.650748
 20
221.640435
 11
40.650748
 21
235.240396
  0
LINE
  5
137
100
AcDbEntity
  8
M0
 62
     6
100
AcDbLine
 10
42.241523
 20
226.849526
 11
39.059715
 21
230.031289
  0
LINE
  5
138
100
AcDbEntity
  8
M0
 62
     6
100
AcDbLine
 10
41.004157
 20
229.854531
 11
39.236488
 21
228.086831
  0
LINE
  5
139
100
AcDbEntity
  8
M0
 62
     6
100
AcDbLine
 10
42.064765
 20
228.793862
 11
40.297141
 21
227.026284
  0
ARC
  5
13A
100
AcDbEntity
  8
M0
 62
     6
100
AcDbCircle
 10
38.169791
 20
232.24038
 40
0.5
100
AcDbArc
 50
90.0
 51
162.865663
  0
ARC
  5
13B
100
AcDbEntity
  8
M0
 62
     6
100
AcDbCircle
 10
38.169791
 20
224.64042
 40
0.5
100
AcDbArc
 50
197.137551
 51
270.0
  0
ARC
  5
13C
100
AcDbEntity
  8
M0
 62
     6
100
AcDbCircle
 10
43.13166
 20
224.64042
 40
0.5
100
AcDbArc
 50
270.0
 51
342.861653
  0
ARC
  5
13D
100
AcDbEntity
  8
M0
 62
     6
100
AcDbCircle
 10
43.13166
 20
232.24038
 40
0.5
100
AcDbArc
 50
17.134787
 51
90.0
  0
CIRCLE
  5
13E
100
AcDbEntity
  8
M0
 62
     6
100
AcDbCircle
 10
50.650748
 20
228.440347
 40
3.0
  0
LINE
  5
13F
100
AcDbEntity
  8
M0
 62
     6
100
AcDbLine
 10
47.691993
 20
232.387689
 11
46.875739
 21
229.740396
  0
LINE
  5
140
100
AcDbEntity
  8
M0
 62
     6
100
AcDbLine
 10
47.691993
 20
224.493096
 11
46.875739
 21
227.14042
  0
LINE
  5
141
100
AcDbEntity
  8
M0
 62
     6
100
AcDbLine
 10
53.609473
 20
232.387704
 11
54.425742
 21
229.740396
  0
LINE
  5
142
100
AcDbEntity
  8
M0
 62
     6
100
AcDbLine
 10
53.609473
 20
224.493081
 11
54.425742
 21
227.14042
  0
LINE
  5
143
100
AcDbEntity
  8
M0
 62
     6
100
AcDbLine
 10
48.169791
 20
224.14042
 11
53.13166
 21
224.14042
  0
LINE
  5
144
100
AcDbEntity
  8
M0
 62
     6
100
AcDbLine
 10
54.425742
 20
227.14042
 11
54.425742
 21
229.740396
  0
LINE
  5
145
100
AcDbEntity
  8
M0
 62
     6
100
AcDbLine
 10
53.13166
 20
232.740396
 11
48.169791
 21
232.74038
  0
LINE
  5
146
100
AcDbEntity
  8
M0
 62
     6
100
AcDbLine
 10
46.875739
 20
229.740396
 11
46.875739
 21
227.14042
  0
LINE
  5
147
100
AcDbEntity
  8
M0
  6
DASHDOT
 62
     6
100
AcDbLine
 10
44.375739
 20
228.440347
 11
56.925742
 21
228.440347
  0
LINE
  5
148
100
AcDbEntity
  8
M0
 62
     6
100
AcDbLine
 10
52.241523
 20
226.849526
 11
49.059715
 21
230.031289
  0
LINE
  5
149
100
AcDbEntity
  8
M0
 62
     6
100
AcDbLine
 10
51.004157
 20
229.854531
 11
49.236488
 21
228.086831
  0
LINE
  5
14A
100
AcDbEntity
  8
M0
 62
     6
100
AcDbLine
 10
52.064765
 20
228.793862
 11
50.297141
 21
227.026284
  0
ARC
  5
14B
100
AcDbEntity
  8
M0
 62
     6
100
AcDbCircle
 10
48.169791
 20
232.24038
 40
0.5
100
AcDbArc
 50
90.0
 51
162.865663
  0
ARC
  5
14C
100
AcDbEntity
  8
M0
 62
     6
100
AcDbCircle
 10
48.169791
 20
224.64042
 40
0.5
100
AcDbArc
 50
197.137551
 51
270.0
  0
ARC
  5
14D
100
AcDbEntity
  8
M0
 62
     6
100
AcDbCircle
 10
53.13166
 20
224.64042
 40
0.5
100
AcDbArc
 50
270.0
 51
342.861653
  0
ARC
  5
14E
100
AcDbEntity
  8
M0
 62
     6
100
AcDbCircle
 10
53.13166
 20
232.24038
 40
0.5
100
AcDbArc
 50
17.134787
 51
90.0
  0
CIRCLE
  5
14F
100
AcDbEntity
  8
M0
 62
     6
100
AcDbCircle
 10
60.650748
 20
228.440347
 40
3.0
  0
LINE
  5
150
100
AcDbEntity
  8
M0
 62
     6
100
AcDbLine
 10
57.691993
 20
232.387689
 11
56.875739
 21
229.740396
  0
LINE
  5
151
100
AcDbEntity
  8
M0
 62
     6
100
AcDbLine
 10
57.691993
 20
224.493096
 11
56.875739
 21
227.14042
  0
LINE
  5
152
100
AcDbEntity
  8
M0
 62
     6
100
AcDbLine
 10
63.609473
 20
232.387704
 11
64.425742
 21
229.740396
  0
LINE
  5
153
100
AcDbEntity
  8
M0
 62
     6
100
AcDbLine
 10
63.609473
 20
224.493081
 11
64.425742
 21
227.14042
  0
LINE
  5
154
100
AcDbEntity
  8
M0
 62
     6
100
AcDbLine
 10
58.169791
 20
224.14042
 11
63.13166
 21
224.14042
  0
LINE
  5
155
100
AcDbEntity
  8
M0
 62
     6
100
AcDbLine
 10
64.425742
 20
227.14042
 11
64.425742
 21
229.740396
  0
LINE
  5
156
100
AcDbEntity
  8
M0
 62
     6
100
AcDbLine
 10
63.13166
 20
232.740396
 11
58.169791
 21
232.74038
  0
LINE
  5
157
100
AcDbEntity
  8
M0
 62
     6
100
AcDbLine
 10
56.875739
 20
229.740396
 11
56.875739
 21
227.14042
  0
LINE
  5
158
100
AcDbEntity
  8
M0
  6
DASHDOT
 62
     6
100
AcDbLine
 10
54.375739
 20
228.440347
 11
66.925742
 21
228.440347
  0
LINE
  5
159
100
AcDbEntity
  8
M0
  6
DASHDOT
 62
     6
100
AcDbLine
 10
60.650748
 20
221.640435
 11
60.650748
 21
235.240396
  0
LINE
  5
15A
100
AcDbEntity
  8
M0
 62
     6
100
AcDbLine
 10
62.241523
 20
226.849526
 11
59.059715
 21
230.031289
  0
LINE
  5
15B
100
AcDbEntity
  8
M0
 62
     6
100
AcDbLine
 10
61.004157
 20
229.854531
 11
59.236488
 21
228.086831
  0
LINE
  5
15C
100
AcDbEntity
  8
M0
 62
     6
100
AcDbLine
 10
62.064765
 20
228.793862
 11
60.297141
 21
227.026284
  0
ARC
  5
15D
100
AcDbEntity
  8
M0
 62
     6
100
AcDbCircle
 10
58.169791
 20
232.24038
 40
0.5
100
AcDbArc
 50
90.0
 51
162.865663
  0
ARC
  5
15E
100
AcDbEntity
  8
M0
 62
     6
100
AcDbCircle
 10
58.169791
 20
224.64042
 40
0.5
100
AcDbArc
 50
197.137551
 51
270.0
  0
ARC
  5
15F
100
AcDbEntity
  8
M0
 62
     6
100
AcDbCircle
 10
63.13166
 20
224.64042
 40
0.5
100
AcDbArc
 50
270.0
 51
342.861653
  0
ARC
  5
160
100
AcDbEntity
  8
M0
 62
     6
100
AcDbCircle
 10
63.13166
 20
232.24038
 40
0.5
100
AcDbArc
 50
17.134787
 51
90.0
  0
CIRCLE
  5
161
100
AcDbEntity
  8
M0
 62
     6
100
AcDbCircle
 10
70.650748
 20
236.440103
 40
3.0
  0
LINE
  5
162
100
AcDbEntity
  8
M0
 62
     6
100
AcDbLine
 10
67.691993
 20
240.387444
 11
66.875739
 21
237.740151
  0
LINE
  5
163
100
AcDbEntity
  8
M0
 62
     6
100
AcDbLine
 10
67.554115
 20
232.940011
 11
66.875739
 21
235.140176
  0
LINE
  5
164
100
AcDbEntity
  8
M0
 62
     6
100
AcDbLine
 10
73.609473
 20
240.38746
 11
74.425742
 21
237.740151
  0
LINE
  5
165
100
AcDbEntity
  8
M0
 62
     6
100
AcDbLine
 10
73.747352
 20
232.940011
 11
74.425742
 21
235.140176
  0
LINE
  5
166
100
AcDbEntity
  8
M0
 62
     6
100
AcDbLine
 10
74.425742
 20
235.140176
 11
74.425742
 21
237.740151
  0
LINE
  5
167
100
AcDbEntity
  8
M0
 62
     6
100
AcDbLine
 10
73.13166
 20
240.740151
 11
68.169791
 21
240.740136
  0
LINE
  5
168
100
AcDbEntity
  8
M0
 62
     6
100
AcDbLine
 10
66.875739
 20
237.740151
 11
66.875739
 21
235.140176
  0
LINE
  5
169
100
AcDbEntity
  8
M0
  6
DASHDOT
 62
     6
100
AcDbLine
 10
64.375739
 20
236.440103
 11
76.925742
 21
236.440103
  0
LINE
  5
16A
100
AcDbEntity
  8
M0
  6
DASHDOT
 62
     6
100
AcDbLine
 10
70.650748
 20
229.640191
 11
70.650748
 21
243.240151
  0
LINE
  5
16B
100
AcDbEntity
  8
M0
 62
     6
100
AcDbLine
 10
72.241523
 20
234.849282
 11
69.059715
 21
238.031045
  0
LINE
  5
16C
100
AcDbEntity
  8
M0
 62
     6
100
AcDbLine
 10
71.004157
 20
237.854287
 11
69.236488
 21
236.086587
  0
LINE
  5
16D
100
AcDbEntity
  8
M0
 62
     6
100
AcDbLine
 10
72.064765
 20
236.793618
 11
70.297141
 21
235.02604
  0
ARC
  5
16E
100
AcDbEntity
  8
M0
 62
     6
100
AcDbCircle
 10
68.169791
 20
240.240136
 40
0.5
100
AcDbArc
 50
90.0
 51
162.865663
  0
ARC
  5
16F
100
AcDbEntity
  8
M0
 62
     6
100
AcDbCircle
 10
73.13166
 20
240.240136
 40
0.5
100
AcDbArc
 50
17.134787
 51
90.0
  0
CIRCLE
  5
170
100
AcDbEntity
  8
M0
 62
     6
100
AcDbCircle
 10
70.650748
 20
228.440347
 40
3.0
  0
LINE
  5
171
100
AcDbEntity
  8
M0
 62
     6
100
AcDbLine
 10
67.691993
 20
232.387689
 11
66.875739
 21
229.740396
  0
LINE
  5
172
100
AcDbEntity
  8
M0
 62
     6
100
AcDbLine
 10
67.691993
 20
224.493096
 11
66.875739
 21
227.14042
  0
LINE
  5
173
100
AcDbEntity
  8
M0
 62
     6
100
AcDbLine
 10
73.609473
 20
232.387704
 11
74.425742
 21
229.740396
  0
LINE
  5
174
100
AcDbEntity
  8
M0
 62
     6
100
AcDbLine
 10
73.609473
 20
224.493081
 11
74.425742
 21
227.14042
  0
LINE
  5
175
100
AcDbEntity
  8
M0
 62
     6
100
AcDbLine
 10
68.169791
 20
224.14042
 11
73.13166
 21
224.14042
  0
LINE
  5
176
100
AcDbEntity
  8
M0
 62
     6
100
AcDbLine
 10
74.425742
 20
227.14042
 11
74.425742
 21
229.740396
  0
LINE
  5
177
100
AcDbEntity
  8
M0
 62
     6
100
AcDbLine
 10
73.13166
 20
232.740396
 11
68.169791
 21
232.74038
  0
LINE
  5
178
100
AcDbEntity
  8
M0
 62
     6
100
AcDbLine
 10
66.875739
 20
229.740396
 11
66.875739
 21
227.14042
  0
LINE
  5
179
100
AcDbEntity
  8
M0
  6
DASHDOT
 62
     6
100
AcDbLine
 10
64.375739
 20
228.440347
 11
76.925742
 21
228.440347
  0
LINE
  5
17A
100
AcDbEntity
  8
M0
  6
DASHDOT
 62
     6
100
AcDbLine
 10
70.650748
 20
221.640435
 11
70.650748
 21
235.240396
  0
LINE
  5
17B
100
AcDbEntity
  8
M0
 62
     6
100
AcDbLine
 10
72.241523
 20
226.849526
 11
69.059715
 21
230.031289
  0
LINE
  5
17C
100
AcDbEntity
  8
M0
 62
     6
100
AcDbLine
 10
71.004157
 20
229.854531
 11
69.236488
 21
228.086831
  0
LINE
  5
17D
100
AcDbEntity
  8
M0
 62
     6
100
AcDbLine
 10
72.064765
 20
228.793862
 11
70.297141
 21
227.026284
  0
ARC
  5
17E
100
AcDbEntity
  8
M0
 62
     6
100
AcDbCircle
 10
68.169791
 20
232.24038
 40
0.5
100
AcDbArc
 50
90.0
 51
162.865663
  0
ARC
  5
17F
100
AcDbEntity
  8
M0
 62
     6
100
AcDbCircle
 10
68.169791
 20
224.64042
 40
0.5
100
AcDbArc
 50
197.137551
 51
270.0
  0
ARC
  5
180
100
AcDbEntity
  8
M0
 62
     6
100
AcDbCircle
 10
73.13166
 20
224.64042
 40
0.5
100
AcDbArc
 50
270.0
 51
342.861653
  0
ARC
  5
181
100
AcDbEntity
  8
M0
 62
     6
100
AcDbCircle
 10
73.13166
 20
232.24038
 40
0.5
100
AcDbArc
 50
17.134787
 51
90.0
  0
LINE
  5
182
100
AcDbEntity
  8
M0
 62
     1
100
AcDbLine
 10
46.050742
 20
176.940515
 11
55.050742
 21
176.940515
  0
ARC
  5
183
100
AcDbEntity
  8
M0
 62
     1
100
AcDbCircle
 10
46.050742
 20
177.940515
 40
1.0
100
AcDbArc
 50
210.003761
 51
270.0
  0
ARC
  5
184
100
AcDbEntity
  8
M0
 62
     1
100
AcDbCircle
 10
55.050742
 20
177.940515
 40
1.0
100
AcDbArc
 50
270.0
 51
329.995752
  0
LINE
  5
185
100
AcDbEntity
  8
M0
 62
     1
100
AcDbLine
 10
47.600745
 20
179.240502
 11
50.650764
 21
179.240502
  0
LINE
  5
186
100
AcDbEntity
  8
M0
 62
     1
100
AcDbLine
 10
53.900748
 20
179.440484
 11
53.900748
 21
181.440423
  0
ARC
  5
187
100
AcDbEntity
  8
M0
 62
     1
100
AcDbCircle
 10
47.600745
 20
179.440499
 40
0.2
100
AcDbArc
 50
179.999727
 51
270.0
  0
ARC
  5
188
100
AcDbEntity
  8
M0
 62
     1
100
AcDbCircle
 10
53.700736
 20
179.440499
 40
0.2
100
AcDbArc
 50
270.0
 51
360.0
  0
LINE
  5
189
100
AcDbEntity
  8
M0
 62
     1
100
AcDbLine
 10
47.400733
 20
181.440423
 11
47.400748
 21
179.440499
  0
LINE
  5
18A
100
AcDbEntity
  8
M0
 62
     1
100
AcDbLine
 10
50.650764
 20
179.240502
 11
53.700736
 21
179.240502
  0
LINE
  5
18B
100
AcDbEntity
  8
M0
 62
     2
100
AcDbLine
 10
107.709694
 20
210.440499
 11
107.709709
 21
206.440499
  0
LINE
  5
18C
100
AcDbEntity
  8
M0
 62
     2
100
AcDbLine
 10
111.709693
 20
210.940483
 11
108.209694
 21
210.940498
  0
LINE
  5
18D
100
AcDbEntity
  8
M0
 62
     2
100
AcDbLine
 10
111.709693
 20
205.940515
 11
108.209709
 21
205.940515
  0
ARC
  5
18E
100
AcDbEntity
  8
M0
 62
     2
100
AcDbCircle
 10
108.209694
 20
210.440498
 40
0.5
100
AcDbArc
 50
90.0
 51
179.999982
  0
ARC
  5
18F
100
AcDbEntity
  8
M0
 62
     2
100
AcDbCircle
 10
108.209709
 20
206.440499
 40
0.5
100
AcDbArc
 50
179.999968
 51
270.0
  0
LINE
  5
190
100
AcDbEntity
  8
M0
100
AcDbLine
 10
101.709663
 20
188.440515
 11
101.709663
 21
228.440515
  0
LINE
  5
191
100
AcDbEntity
  8
M0
100
AcDbLine
 10
98.709678
 20
189.683129
 11
101.709678
 21
192.683145
  0
LINE
  5
192
100
AcDbEntity
  8
M0
100
AcDbLine
 10
98.709663
 20
193.925759
 11
101.709663
 21
196.925775
  0
LINE
  5
193
100
AcDbEntity
  8
M0
100
AcDbLine
 10
98.709663
 20
198.168405
 11
101.709663
 21
201.168405
  0
LINE
  5
194
100
AcDbEntity
  8
M0
100
AcDbLine
 10
98.709663
 20
202.41105
 11
101.709663
 21
205.41105
  0
LINE
  5
195
100
AcDbEntity
  8
M0
100
AcDbLine
 10
98.709663
 20
206.653695
 11
101.709663
 21
209.653695
  0
LINE
  5
196
100
AcDbEntity
  8
M0
100
AcDbLine
 10
98.709663
 20
210.89634
 11
101.709663
 21
213.89634
  0
LINE
  5
197
100
AcDbEntity
  8
M0
100
AcDbLine
 10
98.709647
 20
215.13897
 11
101.709647
 21
218.13897
  0
LINE
  5
198
100
AcDbEntity
  8
M0
100
AcDbLine
 10
98.709663
 20
219.381616
 11
101.709663
 21
222.381616
  0
LINE
  5
199
100
AcDbEntity
  8
M0
100
AcDbLine
 10
98.709663
 20
223.624261
 11
101.709663
 21
226.624261
  0
LINE
  5
19A
100
AcDbEntity
  8
M0
  6
DIVIDE
100
AcDbLine
 10
187.109672
 20
190.790505
 11
187.109672
 21
196.940499
  0
LINE
  5
19B
100
AcDbEntity
  8
M0
  6
DIVIDE
100
AcDbLine
 10
187.109672
 20
196.940499
 11
193.909675
 21
196.940499
  0
LINE
  5
19C
100
AcDbEntity
  8
M0
  6
DIVIDE
100
AcDbLine
 10
186.109672
 20
197.940499
 11
192.909675
 21
197.940499
  0
LINE
  5
19D
100
AcDbEntity
  8
M0
  6
DIVIDE
100
AcDbLine
 10
192.909675
 20
218.940499
 11
192.909675
 21
197.940499
  0
LINE
  5
19E
100
AcDbEntity
  8
M0
  6
DIVIDE
100
AcDbLine
 10
193.909675
 20
196.940499
 11
193.909675
 21
219.940499
  0
LINE
  5
19F
100
AcDbEntity
  8
M0
  6
DIVIDE
100
AcDbLine
 10
187.109672
 20
219.940499
 11
187.109672
 21
226.090493
  0
LINE
  5
1A0
100
AcDbEntity
  8
M0
  6
DIVIDE
100
AcDbLine
 10
187.109672
 20
219.940499
 11
193.909675
 21
219.940499
  0
LINE
  5
1A1
100
AcDbEntity
  8
M0
  6
DIVIDE
100
AcDbLine
 10
186.109672
 20
218.940499
 11
192.909675
 21
218.940499
  0
LINE
  5
1A2
100
AcDbEntity
  8
M0
100
AcDbLine
 10
153.90966
 20
238.440087
 11
153.909675
 21
240.939965
  0
LINE
  5
1A3
100
AcDbEntity
  8
M0
100
AcDbLine
 10
155.109657
 20
238.440347
 11
155.109672
 21
240.939858
  0
LINE
  5
1A4
100
AcDbEntity
  8
M0
 62
     6
100
AcDbLine
 10
150.859672
 20
239.440072
 11
150.736076
 21
239.440072
  0
LINE
  5
1A5
100
AcDbEntity
  8
M0
 62
     6
100
AcDbLine
 10
151.00402
 20
238.940118
 11
151.509681
 21
238.940118
  0
LINE
  5
1A6
100
AcDbEntity
  8
M0
 62
     6
100
AcDbLine
 10
151.509681
 20
240.740106
 11
153.109672
 21
240.740106
  0
LINE
  5
1A7
100
AcDbEntity
  8
M0
 62
     6
100
AcDbLine
 10
153.109672
 20
239.740106
 11
153.909675
 21
239.540109
  0
LINE
  5
1A8
100
AcDbEntity
  8
M0
 62
     6
100
AcDbLine
 10
153.109672
 20
239.74009
 11
153.109672
 21
240.740106
  0
LINE
  5
1A9
100
AcDbEntity
  8
M0
 62
     6
100
AcDbLine
 10
151.509666
 20
239.540109
 11
152.109657
 21
239.540109
  0
ARC
  5
1AA
100
AcDbEntity
  8
M0
 62
     6
100
AcDbCircle
 10
149.15969
 20
238.440103
 40
1.0
100
AcDbArc
 50
90.0
 51
180.0
  0
ARC
  5
1AB
100
AcDbEntity
  8
M0
 62
     6
100
AcDbCircle
 10
161.76049
 20
237.940072
 40
11.300797
100
AcDbArc
 50
173.274797
 51
177.463452
  0
LINE
  5
1AC
100
AcDbEntity
  8
M0
 62
     6
100
AcDbLine
 10
150.459693
 20
239.440072
 11
149.15969
 21
239.440118
  0
ARC
  5
1AD
100
AcDbEntity
  8
M0
 62
     6
100
AcDbCircle
 10
162.260368
 20
237.940072
 40
11.300682
100
AcDbArc
 50
173.948749
 51
177.463398
  0
LINE
  5
1AE
100
AcDbEntity
  8
M0
 62
     6
100
AcDbLine
 10
151.059684
 20
239.240045
 11
151.059684
 21
238.940118
  0
ARC
  5
1AF
100
AcDbEntity
  8
M0
 62
     6
100
AcDbCircle
 10
150.859672
 20
239.240045
 40
0.2
100
AcDbArc
 50
0.0
 51
90.0
  0
ARC
  5
1B0
100
AcDbEntity
  8
M0
 62
     6
100
AcDbCircle
 10
150.736076
 20
239.24006
 40
0.2
100
AcDbArc
 50
90.0
 51
173.28397
  0
LINE
  5
1B1
100
AcDbEntity
  8
M0
 62
     6
100
AcDbLine
 10
153.90966
 20
238.440179
 11
153.909675
 21
239.540093
  0
LINE
  5
1B2
100
AcDbEntity
  8
M0
 62
     6
100
AcDbLine
 10
150.459678
 20
238.440179
 11
150.459693
 21
239.440118
  0
LINE
  5
1B3
100
AcDbEntity
  8
M0
 62
     6
100
AcDbLine
 10
151.509666
 20
238.440179
 11
151.509681
 21
240.740106
  0
LINE
  5
1B4
100
AcDbEntity
  8
M0
 62
     6
100
AcDbLine
 10
152.109641
 20
238.440179
 11
152.109657
 21
239.540109
  0
LINE
  5
1B5
100
AcDbEntity
  8
M0
 62
     4
100
AcDbLine
 10
77.150764
 20
179.940453
 11
77.150764
 21
240.440438
  0
LINE
  5
1B6
100
AcDbEntity
  8
M0
 62
     4
100
AcDbLine
 10
76.650764
 20
238.440438
 11
75.100715
 21
238.440438
  0
LINE
  5
1B7
100
AcDbEntity
  8
M0
 62
     4
100
AcDbLine
 10
24.150764
 20
236.940392
 11
24.150764
 21
176.440423
  0
LINE
  5
1B8
100
AcDbEntity
  8
M0
  6
DASHDOT
 62
     4
100
AcDbLine
 10
19.150764
 20
208.440438
 11
82.150764
 21
208.440438
  0
LINE
  5
1B9
100
AcDbEntity
  8
M0
  6
DASHDOT
 62
     4
100
AcDbLine
 10
50.650764
 20
170.940438
 11
50.650764
 21
245.940438
  0
LINE
  5
1BA
100
AcDbEntity
  8
M0
 62
     4
100
AcDbLine
 10
46.700568
 20
224.440438
 11
46.700568
 21
238.940392
  0
LINE
  5
1BB
100
AcDbEntity
  8
M0
 62
     4
100
AcDbLine
 10
54.600715
 20
224.440438
 11
54.600715
 21
238.940423
  0
LINE
  5
1BC
100
AcDbEntity
  8
M0
 62
     4
100
AcDbLine
 10
46.200568
 20
239.440423
 11
45.100715
 21
239.440423
  0
LINE
  5
1BD
100
AcDbEntity
  8
M0
 62
     4
100
AcDbLine
 10
47.700568
 20
223.440438
 11
53.600715
 21
223.440438
  0
ARC
  5
1BE
100
AcDbEntity
  8
M0
 62
     4
100
AcDbCircle
 10
47.700568
 20
224.440438
 40
1.0
100
AcDbArc
 50
180.0
 51
270.0
  0
ARC
  5
1BF
100
AcDbEntity
  8
M0
 62
     4
100
AcDbCircle
 10
53.600715
 20
224.440438
 40
1.0
100
AcDbArc
 50
269.916016
 51
360.0
  0
ARC
  5
1C0
100
AcDbEntity
  8
M0
 62
     4
100
AcDbCircle
 10
55.100715
 20
238.940423
 40
0.5
100
AcDbArc
 50
90.0
 51
180.0
  0
ARC
  5
1C1
100
AcDbEntity
  8
M0
 62
     4
100
AcDbCircle
 10
46.200568
 20
238.940408
 40
0.5
100
AcDbArc
 50
0.0
 51
90.0
  0
LINE
  5
1C2
100
AcDbEntity
  8
M0
 62
     4
100
AcDbLine
 10
26.200568
 20
237.440408
 11
24.650764
 21
237.440408
  0
LINE
  5
1C3
100
AcDbEntity
  8
M0
 62
     4
100
AcDbLine
 10
36.200568
 20
239.440408
 11
35.100715
 21
239.440408
  0
LINE
  5
1C4
100
AcDbEntity
  8
M0
 62
     4
100
AcDbLine
 10
56.200568
 20
239.440423
 11
55.100715
 21
239.440423
  0
LINE
  5
1C5
100
AcDbEntity
  8
M0
 62
     4
100
AcDbLine
 10
66.200568
 20
239.440423
 11
65.100715
 21
239.440423
  0
ARC
  5
1C6
100
AcDbEntity
  8
M0
 62
     4
100
AcDbCircle
 10
76.650764
 20
237.940423
 40
0.5
100
AcDbArc
 50
0.0
 51
90.0
  0
ARC
  5
1C7
100
AcDbEntity
  8
M0
 62
     4
100
AcDbCircle
 10
75.100715
 20
237.940423
 40
0.5
100
AcDbArc
 50
90.0
 51
180.0
  0
ARC
  5
1C8
100
AcDbEntity
  8
M0
 62
     4
100
AcDbCircle
 10
65.100715
 20
238.940423
 40
0.5
100
AcDbArc
 50
90.0
 51
180.0
  0
ARC
  5
1C9
100
AcDbEntity
  8
M0
 62
     4
100
AcDbCircle
 10
45.100715
 20
238.940408
 40
0.5
100
AcDbArc
 50
90.0
 51
180.0
  0
ARC
  5
1CA
100
AcDbEntity
  8
M0
 62
     4
100
AcDbCircle
 10
35.100715
 20
238.940392
 40
0.5
100
AcDbArc
 50
90.0
 51
180.0
  0
ARC
  5
1CB
100
AcDbEntity
  8
M0
 62
     4
100
AcDbCircle
 10
24.650764
 20
236.940392
 40
0.5
100
AcDbArc
 50
89.998251
 51
180.0
  0
LINE
  5
1CC
100
AcDbEntity
  8
M0
 62
     4
100
AcDbLine
 10
66.700568
 20
232.940438
 11
74.600715
 21
232.940438
  0
LINE
  5
1CD
100
AcDbEntity
  8
M0
 62
     4
100
AcDbLine
 10
56.700568
 20
232.940438
 11
64.600715
 21
232.940438
  0
LINE
  5
1CE
100
AcDbEntity
  8
M0
 62
     4
100
AcDbLine
 10
46.700568
 20
232.940438
 11
54.600715
 21
232.940438
  0
LINE
  5
1CF
100
AcDbEntity
  8
M0
 62
     4
100
AcDbLine
 10
36.700568
 20
232.940438
 11
44.600715
 21
232.940438
  0
LINE
  5
1D0
100
AcDbEntity
  8
M0
 62
     4
100
AcDbLine
 10
34.600715
 20
232.940438
 11
26.700568
 21
232.940438
  0
LINE
  5
1D1
100
AcDbEntity
  8
M0
 62
     4
100
AcDbLine
 10
36.700569
 20
235.440438
 11
44.600716
 21
235.440438
  0
LINE
  5
1D2
100
AcDbEntity
  8
M0
 62
     4
100
AcDbLine
 10
46.700569
 20
235.440438
 11
54.600715
 21
235.440438
  0
LINE
  5
1D3
100
AcDbEntity
  8
M0
 62
     4
100
AcDbLine
 10
56.700568
 20
235.440438
 11
64.600715
 21
235.440438
  0
LINE
  5
1D4
100
AcDbEntity
  8
M0
 62
     4
100
AcDbLine
 10
65.100715
 20
240.940438
 11
76.650764
 21
240.940438
  0
ARC
  5
1D5
100
AcDbEntity
  8
M0
 62
     4
100
AcDbCircle
 10
65.100715
 20
240.440438
 40
0.5
100
AcDbArc
 50
90.0
 51
180.0
  0
ARC
  5
1D6
100
AcDbEntity
  8
M0
 62
     4
100
AcDbCircle
 10
76.650764
 20
240.440438
 40
0.5
100
AcDbArc
 50
0.0
 51
90.0
  0
ARC
  5
1D7
100
AcDbEntity
  8
M0
 62
     4
100
AcDbCircle
 10
75.100715
 20
240.440438
 40
0.5
100
AcDbArc
 50
90.0
 51
180.0
  0
LINE
  5
1D8
100
AcDbEntity
  8
M0
 62
     4
100
AcDbLine
 10
61.758521
 20
235.440347
 11
64.663215
 21
240.682534
  0
ARC
  5
1D9
100
AcDbEntity
  8
M0
 62
     4
100
AcDbCircle
 10
24.650764
 20
176.440423
 40
0.5
100
AcDbArc
 50
179.998251
 51
270.0
  0
LINE
  5
1DA
100
AcDbEntity
  8
M0
 62
     4
100
AcDbLine
 10
56.700568
 20
224.440438
 11
56.700568
 21
238.940392
  0
ARC
  5
1DB
100
AcDbEntity
  8
M0
 62
     4
100
AcDbCircle
 10
57.700568
 20
224.440438
 40
1.0
100
AcDbArc
 50
180.0
 51
269.930004
  0
LINE
  5
1DC
100
AcDbEntity
  8
M0
 62
     4
100
AcDbLine
 10
57.700568
 20
223.440438
 11
63.600715
 21
223.440438
  0
ARC
  5
1DD
100
AcDbEntity
  8
M0
 62
     4
100
AcDbCircle
 10
63.600715
 20
224.440438
 40
1.0
100
AcDbArc
 50
269.916016
 51
360.0
  0
LINE
  5
1DE
100
AcDbEntity
  8
M0
 62
     4
100
AcDbLine
 10
64.600715
 20
224.440438
 11
64.600715
 21
240.440438
  0
ARC
  5
1DF
100
AcDbEntity
  8
M0
 62
     4
100
AcDbCircle
 10
56.200568
 20
238.940408
 40
0.5
100
AcDbArc
 50
0.0
 51
90.0
  0
LINE
  5
1E0
100
AcDbEntity
  8
M0
 62
     4
100
AcDbLine
 10
36.700568
 20
224.440438
 11
36.700568
 21
238.940377
  0
ARC
  5
1E1
100
AcDbEntity
  8
M0
 62
     4
100
AcDbCircle
 10
37.700568
 20
224.440438
 40
1.0
100
AcDbArc
 50
180.0
 51
269.930059
  0
LINE
  5
1E2
100
AcDbEntity
  8
M0
 62
     4
100
AcDbLine
 10
37.700568
 20
223.440438
 11
43.600715
 21
223.440438
  0
ARC
  5
1E3
100
AcDbEntity
  8
M0
 62
     4
100
AcDbCircle
 10
43.600715
 20
224.440438
 40
1.0
100
AcDbArc
 50
269.888094
 51
360.0
  0
LINE
  5
1E4
100
AcDbEntity
  8
M0
 62
     4
100
AcDbLine
 10
44.600715
 20
224.440438
 11
44.600715
 21
238.940408
  0
ARC
  5
1E5
100
AcDbEntity
  8
M0
 62
     4
100
AcDbCircle
 10
36.200568
 20
238.940392
 40
0.5
100
AcDbArc
 50
0.0
 51
90.0
  0
LINE
  5
1E6
100
AcDbEntity
  8
M0
 62
     4
100
AcDbLine
 10
66.700568
 20
224.440438
 11
66.700568
 21
240.440438
  0
ARC
  5
1E7
100
AcDbEntity
  8
M0
 62
     4
100
AcDbCircle
 10
67.700568
 20
224.440438
 40
1.0
100
AcDbArc
 50
180.0
 51
269.929185
  0
LINE
  5
1E8
100
AcDbEntity
  8
M0
 62
     4
100
AcDbLine
 10
67.700568
 20
223.440438
 11
73.600715
 21
223.440438
  0
ARC
  5
1E9
100
AcDbEntity
  8
M0
 62
     4
100
AcDbCircle
 10
73.600715
 20
224.440438
 40
1.0
100
AcDbArc
 50
269.915196
 51
360.0
  0
LINE
  5
1EA
100
AcDbEntity
  8
M0
 62
     4
100
AcDbLine
 10
74.600715
 20
224.440438
 11
74.600715
 21
240.440438
  0
ARC
  5
1EB
100
AcDbEntity
  8
M0
 62
     4
100
AcDbCircle
 10
66.200568
 20
238.940408
 40
0.5
100
AcDbArc
 50
0.0
 51
90.0
  0
ARC
  5
1EC
100
AcDbEntity
  8
M0
 62
     4
100
AcDbCircle
 10
66.200568
 20
240.440438
 40
0.5
100
AcDbArc
 50
0.0
 51
90.0
  0
ARC
  5
1ED
100
AcDbEntity
  8
M0
 62
     4
100
AcDbCircle
 10
27.700568
 20
224.440438
 40
1.0
100
AcDbArc
 50
180.0
 51
269.969401
  0
LINE
  5
1EE
100
AcDbEntity
  8
M0
 62
     4
100
AcDbLine
 10
26.700568
 20
224.440438
 11
26.700568
 21
236.940377
  0
LINE
  5
1EF
100
AcDbEntity
  8
M0
 62
     4
100
AcDbLine
 10
27.700568
 20
223.440438
 11
33.600715
 21
223.440438
  0
ARC
  5
1F0
100
AcDbEntity
  8
M0
 62
     4
100
AcDbCircle
 10
33.600715
 20
224.440438
 40
1.0
100
AcDbArc
 50
269.927436
 51
360.0
  0
LINE
  5
1F1
100
AcDbEntity
  8
M0
 62
     4
100
AcDbLine
 10
34.600715
 20
224.440438
 11
34.600715
 21
238.940392
  0
ARC
  5
1F2
100
AcDbEntity
  8
M0
 62
     4
100
AcDbCircle
 10
26.200568
 20
236.940392
 40
0.5
100
AcDbArc
 50
0.0
 51
89.998251
  0
LINE
  5
1F3
100
AcDbEntity
  8
M0
 62
     4
100
AcDbLine
 10
24.650764
 20
178.440438
 11
26.200813
 21
178.440438
  0
LINE
  5
1F4
100
AcDbEntity
  8
M0
 62
     4
100
AcDbLine
 10
54.600959
 20
192.440438
 11
54.600959
 21
177.940484
  0
LINE
  5
1F5
100
AcDbEntity
  8
M0
 62
     4
100
AcDbLine
 10
46.700813
 20
192.440438
 11
46.700813
 21
177.940453
  0
LINE
  5
1F6
100
AcDbEntity
  8
M0
 62
     4
100
AcDbLine
 10
55.100959
 20
177.440453
 11
56.200813
 21
177.440453
  0
LINE
  5
1F7
100
AcDbEntity
  8
M0
 62
     4
100
AcDbLine
 10
53.600959
 20
193.440438
 11
47.700813
 21
193.440438
  0
ARC
  5
1F8
100
AcDbEntity
  8
M0
 62
     4
100
AcDbCircle
 10
53.600959
 20
192.440438
 40
1.0
100
AcDbArc
 50
0.0
 51
90.0
  0
ARC
  5
1F9
100
AcDbEntity
  8
M0
 62
     4
100
AcDbCircle
 10
47.700813
 20
192.440438
 40
1.0
100
AcDbArc
 50
89.916016
 51
179.999945
  0
ARC
  5
1FA
100
AcDbEntity
  8
M0
 62
     4
100
AcDbCircle
 10
46.200813
 20
177.940453
 40
0.5
100
AcDbArc
 50
270.027977
 51
360.0
  0
ARC
  5
1FB
100
AcDbEntity
  8
M0
 62
     4
100
AcDbCircle
 10
55.100959
 20
177.940469
 40
0.5
100
AcDbArc
 50
179.998251
 51
270.027868
  0
LINE
  5
1FC
100
AcDbEntity
  8
M0
 62
     4
100
AcDbLine
 10
75.100959
 20
179.440469
 11
76.650764
 21
179.440469
  0
LINE
  5
1FD
100
AcDbEntity
  8
M0
 62
     4
100
AcDbLine
 10
65.100959
 20
177.440469
 11
66.200813
 21
177.440469
  0
LINE
  5
1FE
100
AcDbEntity
  8
M0
 62
     4
100
AcDbLine
 10
45.100959
 20
177.440453
 11
46.200813
 21
177.440453
  0
LINE
  5
1FF
100
AcDbEntity
  8
M0
 62
     4
100
AcDbLine
 10
35.100959
 20
177.440453
 11
36.200813
 21
177.440453
  0
ARC
  5
200
100
AcDbEntity
  8
M0
 62
     4
100
AcDbCircle
 10
26.200813
 20
178.940453
 40
0.5
100
AcDbArc
 50
270.027977
 51
360.0
  0
ARC
  5
201
100
AcDbEntity
  8
M0
 62
     4
100
AcDbCircle
 10
36.200813
 20
177.940453
 40
0.5
100
AcDbArc
 50
270.027977
 51
360.0
  0
ARC
  5
202
100
AcDbEntity
  8
M0
 62
     4
100
AcDbCircle
 10
56.200813
 20
177.940469
 40
0.5
100
AcDbArc
 50
270.027868
 51
360.0
  0
ARC
  5
203
100
AcDbEntity
  8
M0
 62
     4
100
AcDbCircle
 10
66.200813
 20
177.940484
 40
0.5
100
AcDbArc
 50
270.027868
 51
360.0
  0
LINE
  5
204
100
AcDbEntity
  8
M0
 62
     4
100
AcDbLine
 10
34.600959
 20
183.940438
 11
26.700813
 21
183.940438
  0
LINE
  5
205
100
AcDbEntity
  8
M0
 62
     4
100
AcDbLine
 10
44.600959
 20
183.940438
 11
36.700813
 21
183.940438
  0
LINE
  5
206
100
AcDbEntity
  8
M0
 62
     4
100
AcDbLine
 10
54.600959
 20
183.940438
 11
46.700813
 21
183.940438
  0
LINE
  5
207
100
AcDbEntity
  8
M0
 62
     4
100
AcDbLine
 10
64.600959
 20
183.940438
 11
56.700813
 21
183.940438
  0
LINE
  5
208
100
AcDbEntity
  8
M0
 62
     4
100
AcDbLine
 10
66.700813
 20
183.940438
 11
74.600959
 21
183.940438
  0
LINE
  5
209
100
AcDbEntity
  8
M0
 62
     4
100
AcDbLine
 10
64.600959
 20
181.440438
 11
56.700813
 21
181.440438
  0
LINE
  5
20A
100
AcDbEntity
  8
M0
 62
     4
100
AcDbLine
 10
54.600959
 20
181.440438
 11
46.700814
 21
181.440438
  0
LINE
  5
20B
100
AcDbEntity
  8
M0
 62
     4
100
AcDbLine
 10
44.60096
 20
181.440438
 11
36.700814
 21
181.440438
  0
LINE
  5
20C
100
AcDbEntity
  8
M0
 62
     4
100
AcDbLine
 10
36.200813
 20
175.940438
 11
24.650764
 21
175.940423
  0
ARC
  5
20D
100
AcDbEntity
  8
M0
 62
     4
100
AcDbCircle
 10
36.200813
 20
176.440438
 40
0.5
100
AcDbArc
 50
270.027977
 51
360.0
  0
ARC
  5
20E
100
AcDbEntity
  8
M0
 62
     4
100
AcDbCircle
 10
26.200813
 20
176.440438
 40
0.5
100
AcDbArc
 50
270.027977
 51
360.0
  0
LINE
  5
20F
100
AcDbEntity
  8
M0
 62
     4
100
AcDbLine
 10
39.542976
 20
181.440423
 11
36.638313
 21
176.198129
  0
LINE
  5
210
100
AcDbEntity
  8
M0
 62
     4
100
AcDbLine
 10
44.600959
 20
192.440438
 11
44.600959
 21
177.940484
  0
ARC
  5
211
100
AcDbEntity
  8
M0
 62
     4
100
AcDbCircle
 10
43.600959
 20
192.440438
 40
1.0
100
AcDbArc
 50
0.0
 51
89.943992
  0
LINE
  5
212
100
AcDbEntity
  8
M0
 62
     4
100
AcDbLine
 10
43.600959
 20
193.440438
 11
37.700813
 21
193.440438
  0
ARC
  5
213
100
AcDbEntity
  8
M0
 62
     4
100
AcDbCircle
 10
37.700813
 20
192.440438
 40
1.0
100
AcDbArc
 50
89.916016
 51
179.999945
  0
LINE
  5
214
100
AcDbEntity
  8
M0
 62
     4
100
AcDbLine
 10
36.700813
 20
192.440438
 11
36.700813
 21
176.440438
  0
ARC
  5
215
100
AcDbEntity
  8
M0
 62
     4
100
AcDbCircle
 10
45.100959
 20
177.940469
 40
0.5
100
AcDbArc
 50
179.998251
 51
270.027977
  0
LINE
  5
216
100
AcDbEntity
  8
M0
 62
     4
100
AcDbLine
 10
64.600959
 20
192.440438
 11
64.600959
 21
177.940499
  0
ARC
  5
217
100
AcDbEntity
  8
M0
 62
     4
100
AcDbCircle
 10
63.600959
 20
192.440438
 40
1.0
100
AcDbArc
 50
0.0
 51
89.944047
  0
LINE
  5
218
100
AcDbEntity
  8
M0
 62
     4
100
AcDbLine
 10
63.600959
 20
193.440438
 11
57.700813
 21
193.440438
  0
ARC
  5
219
100
AcDbEntity
  8
M0
 62
     4
100
AcDbCircle
 10
57.700813
 20
192.440438
 40
1.0
100
AcDbArc
 50
89.888094
 51
179.999945
  0
LINE
  5
21A
100
AcDbEntity
  8
M0
 62
     4
100
AcDbLine
 10
56.700813
 20
192.440438
 11
56.700813
 21
177.940469
  0
ARC
  5
21B
100
AcDbEntity
  8
M0
 62
     4
100
AcDbCircle
 10
65.100959
 20
177.940484
 40
0.5
100
AcDbArc
 50
179.998251
 51
270.027868
  0
LINE
  5
21C
100
AcDbEntity
  8
M0
 62
     4
100
AcDbLine
 10
34.600959
 20
192.440438
 11
34.600959
 21
176.440438
  0
ARC
  5
21D
100
AcDbEntity
  8
M0
 62
     4
100
AcDbCircle
 10
33.600959
 20
192.440438
 40
1.0
100
AcDbArc
 50
0.0
 51
89.930059
  0
LINE
  5
21E
100
AcDbEntity
  8
M0
 62
     4
100
AcDbLine
 10
33.600959
 20
193.440438
 11
27.700813
 21
193.440438
  0
ARC
  5
21F
100
AcDbEntity
  8
M0
 62
     4
100
AcDbCircle
 10
27.700813
 20
192.440438
 40
1.0
100
AcDbArc
 50
89.915196
 51
179.999945
  0
LINE
  5
220
100
AcDbEntity
  8
M0
 62
     4
100
AcDbLine
 10
26.700813
 20
192.440438
 11
26.700813
 21
176.440438
  0
ARC
  5
221
100
AcDbEntity
  8
M0
 62
     4
100
AcDbCircle
 10
35.100959
 20
177.940469
 40
0.5
100
AcDbArc
 50
179.998251
 51
270.027977
  0
ARC
  5
222
100
AcDbEntity
  8
M0
 62
     4
100
AcDbCircle
 10
35.100959
 20
176.440438
 40
0.5
100
AcDbArc
 50
179.998251
 51
270.027977
  0
ARC
  5
223
100
AcDbEntity
  8
M0
 62
     4
100
AcDbCircle
 10
73.600959
 20
192.440438
 40
1.0
100
AcDbArc
 50
0.0
 51
89.972024
  0
LINE
  5
224
100
AcDbEntity
  8
M0
 62
     4
100
AcDbLine
 10
74.600959
 20
192.440438
 11
74.600959
 21
179.940499
  0
LINE
  5
225
100
AcDbEntity
  8
M0
 62
     4
100
AcDbLine
 10
73.600959
 20
193.440438
 11
67.700813
 21
193.440438
  0
ARC
  5
226
100
AcDbEntity
  8
M0
 62
     4
100
AcDbCircle
 10
67.700813
 20
192.440438
 40
1.0
100
AcDbArc
 50
89.930059
 51
179.999945
  0
LINE
  5
227
100
AcDbEntity
  8
M0
 62
     4
100
AcDbLine
 10
66.700813
 20
192.440438
 11
66.700813
 21
177.940484
  0
ARC
  5
228
100
AcDbEntity
  8
M0
 62
     4
100
AcDbCircle
 10
75.100959
 20
179.940484
 40
0.5
100
AcDbArc
 50
179.998251
 51
269.998251
  0
ARC
  5
229
100
AcDbEntity
  8
M0
 62
     4
100
AcDbCircle
 10
24.650764
 20
178.940453
 40
0.5
100
AcDbArc
 50
179.998251
 51
270.027977
  0
ARC
  5
22A
100
AcDbEntity
  8
M0
 62
     4
100
AcDbCircle
 10
76.650764
 20
179.940469
 40
0.5
100
AcDbArc
 50
269.998251
 51
360.0
  0
LINE
  5
22B
100
AcDbEntity
  8
M0
 62
     4
100
AcDbLine
 10
48.150764
 20
205.290429
 11
53.150764
 21
205.290429
  0
LINE
  5
22C
100
AcDbEntity
  8
M0
 62
     4
100
AcDbLine
 10
53.650764
 20
205.790414
 11
53.650764
 21
211.090402
  0
LINE
  5
22D
100
AcDbEntity
  8
M0
 62
     4
100
AcDbLine
 10
53.150764
 20
211.590432
 11
48.150764
 21
211.590417
  0
LINE
  5
22E
100
AcDbEntity
  8
M0
 62
     4
100
AcDbLine
 10
47.650764
 20
211.090417
 11
47.650764
 21
205.790429
  0
ARC
  5
22F
100
AcDbEntity
  8
M0
 62
     4
100
AcDbCircle
 10
53.150764
 20
205.790429
 40
0.5
100
AcDbArc
 50
270.0
 51
360.0
  0
ARC
  5
230
100
AcDbEntity
  8
M0
 62
     4
100
AcDbCircle
 10
53.150764
 20
211.090417
 40
0.5
100
AcDbArc
 50
0.0
 51
90.0
  0
ARC
  5
231
100
AcDbEntity
  8
M0
 62
     4
100
AcDbCircle
 10
48.150764
 20
211.090417
 40
0.5
100
AcDbArc
 50
90.0
 51
180.0
  0
ARC
  5
232
100
AcDbEntity
  8
M0
 62
     4
100
AcDbCircle
 10
48.150764
 20
205.790429
 40
0.5
100
AcDbArc
 50
179.999891
 51
270.0
  0
LINE
  5
233
100
AcDbEntity
  8
M0
 62
     4
100
AcDbLine
 10
146.709495
 20
175.940484
 11
161.90969
 21
175.940484
  0
LINE
  5
234
100
AcDbEntity
  8
M0
 62
     4
100
AcDbLine
 10
161.90969
 20
175.940484
 11
161.90969
 21
240.940484
  0
LINE
  5
235
100
AcDbEntity
  8
M0
 62
     4
100
AcDbLine
 10
161.90969
 20
240.940484
 11
146.709495
 21
240.940469
  0
LINE
  5
236
100
AcDbEntity
  8
M0
 62
     4
100
AcDbLine
 10
111.709739
 20
234.440453
 11
111.709739
 21
182.440515
  0
LINE
  5
237
100
AcDbEntity
  8
M0
  6
DASHDOT
 62
     4
100
AcDbLine
 10
106.709739
 20
208.440484
 11
161.909675
 21
208.440484
  0
LINE
  5
238
100
AcDbEntity
  8
M0
 62
     4
100
AcDbLine
 10
116.709739
 20
179.440515
 11
137.709495
 21
179.440515
  0
LINE
  5
239
100
AcDbEntity
  8
M0
 62
     4
100
AcDbLine
 10
116.709739
 20
177.440515
 11
143.138694
 21
177.440515
  0
LINE
  5
23A
100
AcDbEntity
  8
M0
 62
     4
100
AcDbLine
 10
116.709739
 20
238.440347
 11
155.109657
 21
238.440347
  0
LINE
  5
23B
100
AcDbEntity
  8
M0
 62
     4
100
AcDbLine
 10
116.709739
 20
239.440469
 11
143.138694
 21
239.440469
  0
ARC
  5
23C
100
AcDbEntity
  8
M0
 62
     4
100
AcDbCircle
 10
116.709739
 20
184.440515
 40
5.0
100
AcDbArc
 50
179.999825
 51
270.0
  0
ARC
  5
23D
100
AcDbEntity
  8
M0
 62
     4
100
AcDbCircle
 10
116.709739
 20
182.440515
 40
5.0
100
AcDbArc
 50
179.999825
 51
270.0
  0
ARC
  5
23E
100
AcDbEntity
  8
M0
 62
     4
100
AcDbCircle
 10
116.709739
 20
233.440484
 40
5.0
100
AcDbArc
 50
89.999825
 51
180.0
  0
ARC
  5
23F
100
AcDbEntity
  8
M0
 62
     4
100
AcDbCircle
 10
116.709739
 20
234.440469
 40
5.0
100
AcDbArc
 50
89.999825
 51
180.0
  0
LINE
  5
240
100
AcDbEntity
  8
M0
 62
     4
100
AcDbLine
 10
142.709495
 20
188.440484
 11
161.90969
 21
188.440484
  0
LINE
  5
241
100
AcDbEntity
  8
M0
 62
     4
100
AcDbLine
 10
142.709495
 20
183.440484
 11
161.90969
 21
183.440484
  0
LINE
  5
242
100
AcDbEntity
  8
M0
 62
     4
100
AcDbLine
 10
141.709495
 20
179.440515
 11
141.709495
 21
187.440484
  0
LINE
  5
243
100
AcDbEntity
  8
M0
 62
     4
100
AcDbLine
 10
139.709495
 20
181.440515
 11
139.709495
 21
185.440484
  0
ARC
  5
244
100
AcDbEntity
  8
M0
 62
     4
100
AcDbCircle
 10
142.709495
 20
182.440484
 40
1.0
100
AcDbArc
 50
90.0
 51
179.999126
  0
ARC
  5
245
100
AcDbEntity
  8
M0
 62
     4
100
AcDbCircle
 10
142.709495
 20
187.440484
 40
1.0
100
AcDbArc
 50
90.0
 51
179.999126
  0
ARC
  5
246
100
AcDbEntity
  8
M0
 62
     4
100
AcDbCircle
 10
142.709495
 20
185.440484
 40
3.0
100
AcDbArc
 50
90.0
 51
179.999709
  0
ARC
  5
247
100
AcDbEntity
  8
M0
 62
     4
100
AcDbCircle
 10
139.709495
 20
179.440515
 40
2.0
100
AcDbArc
 50
270.0
 51
360.0
  0
ARC
  5
248
100
AcDbEntity
  8
M0
 62
     4
100
AcDbCircle
 10
137.709495
 20
181.440515
 40
2.0
100
AcDbArc
 50
270.0
 51
360.0
  0
ARC
  5
249
100
AcDbEntity
  8
M0
 62
     4
100
AcDbCircle
 10
146.709495
 20
180.940484
 40
5.0
100
AcDbArc
 50
179.999825
 51
270.0
  0
LINE
  5
24A
100
AcDbEntity
  8
M0
 62
     4
100
AcDbLine
 10
155.209495
 20
183.440484
 11
155.209495
 21
175.940484
  0
LINE
  5
24B
100
AcDbEntity
  8
M0
 62
     4
100
AcDbLine
 10
151.209495
 20
183.440484
 11
151.209495
 21
175.940484
  0
LINE
  5
24C
100
AcDbEntity
  8
M0
 62
     4
100
AcDbLine
 10
149.209495
 20
183.440469
 11
149.209495
 21
175.940469
  0
ARC
  5
24D
100
AcDbEntity
  8
M0
 62
     4
100
AcDbCircle
 10
146.709495
 20
235.940469
 40
5.0
100
AcDbArc
 50
90.0
 51
135.573713
  0
LINE
  5
24E
100
AcDbEntity
  8
M0
 62
     7
100
AcDbLine
 10
39.650764
 20
235.440347
 11
39.65052
 21
239.940347
  0
LINE
  5
24F
100
AcDbEntity
  8
M0
 62
     7
100
AcDbLine
 10
39.65052
 20
239.940423
 11
38.650764
 21
240.940423
  0
LINE
  5
250
100
AcDbEntity
  8
M0
 62
     7
100
AcDbLine
 10
39.650764
 20
181.440423
 11
39.650764
 21
177.940438
  0
LINE
  5
251
100
AcDbEntity
  8
M0
 62
     7
100
AcDbLine
 10
41.150764
 20
181.440423
 11
41.150764
 21
179.940438
  0
LINE
  5
252
100
AcDbEntity
  8
M0
 62
     7
100
AcDbLine
 10
42.650764
 20
181.440423
 11
42.650764
 21
179.940438
  0
LINE
  5
253
100
AcDbEntity
  8
M0
 62
     7
100
AcDbLine
 10
43.650764
 20
181.440423
 11
43.650764
 21
177.940438
  0
LINE
  5
254
100
AcDbEntity
  8
M0
 62
     7
100
AcDbLine
 10
63.650764
 20
175.940438
 11
72.150764
 21
175.940438
  0
LINE
  5
255
100
AcDbEntity
  8
M0
 62
     7
100
AcDbLine
 10
72.150764
 20
175.940438
 11
72.150764
 21
183.940438
  0
LINE
  5
256
100
AcDbEntity
  8
M0
 62
     7
100
AcDbLine
 10
38.650764
 20
240.940423
 11
31.150764
 21
240.940408
  0
LINE
  5
257
100
AcDbEntity
  8
M0
 62
     7
100
AcDbLine
 10
29.150764
 20
238.940408
 11
29.150764
 21
232.940423
  0
ARC
  5
258
100
AcDbEntity
  8
M0
 62
     7
100
AcDbCircle
 10
31.150764
 20
238.940408
 40
2.0
100
AcDbArc
 50
89.999563
 51
180.0
  0
LINE
  5
259
100
AcDbEntity
  8
M0
 62
     7
100
AcDbLine
 10
57.650764
 20
179.940438
 11
57.650764
 21
181.440423
  0
LINE
  5
25A
100
AcDbEntity
  8
M0
 62
     7
100
AcDbLine
 10
59.150764
 20
177.940438
 11
59.150764
 21
181.440423
  0
LINE
  5
25B
100
AcDbEntity
  8
M0
 62
     7
100
AcDbLine
 10
39.650764
 20
177.940438
 11
43.650764
 21
177.940438
  0
LINE
  5
25C
100
AcDbEntity
  8
M0
 62
     7
100
AcDbLine
 10
62.650764
 20
176.940423
 11
62.650764
 21
181.440423
  0
LINE
  5
25D
100
AcDbEntity
  8
M0
 62
     7
100
AcDbLine
 10
62.650764
 20
176.940423
 11
63.650764
 21
175.940438
  0
LINE
  5
25E
100
AcDbEntity
  8
M0
 62
     7
100
AcDbLine
 10
61.150764
 20
179.940438
 11
61.150764
 21
181.440423
  0
LINE
  5
25F
100
AcDbEntity
  8
M0
 62
     7
100
AcDbLine
 10
59.650764
 20
177.940438
 11
59.650764
 21
181.440423
  0
LINE
  5
260
100
AcDbEntity
  8
M0
 62
     7
100
AcDbLine
 10
38.650764
 20
177.940438
 11
38.650764
 21
179.830163
  0
LINE
  5
261
100
AcDbEntity
  8
M0
 62
     7
100
AcDbLine
 10
56.700813
 20
177.940438
 11
59.150764
 21
177.940438
  0
LINE
  5
262
100
AcDbEntity
  8
M0
 62
     7
100
AcDbLine
 10
56.700813
 20
179.940438
 11
57.650764
 21
179.940438
  0
LINE
  5
263
100
AcDbEntity
  8
M0
 62
     7
100
AcDbLine
 10
61.150764
 20
179.940438
 11
62.650764
 21
179.940438
  0
LINE
  5
264
100
AcDbEntity
  8
M0
 62
     7
100
AcDbLine
 10
59.650764
 20
177.940438
 11
62.650764
 21
177.940438
  0
LINE
  5
265
100
AcDbEntity
  8
M0
 62
     7
100
AcDbLine
 10
37.60369
 20
177.940438
 11
38.650764
 21
177.940438
  0
LINE
  5
266
100
AcDbEntity
  8
M0
 62
     7
100
AcDbLine
 10
41.150764
 20
179.940438
 11
42.650764
 21
179.940438
  0
LINE
  5
267
100
AcDbEntity
  8
M0
 62
     7
100
AcDbLine
 10
32.249763
 20
232.940423
 11
32.249992
 21
237.64486
  0
ARC
  5
268
100
AcDbEntity
  8
M0
 62
     7
100
AcDbCircle
 10
33.699714
 20
232.440362
 40
2.25
100
AcDbArc
 50
130.127109
 51
147.597441
  0
ARC
  5
269
100
AcDbEntity
  8
M0
 62
     7
100
AcDbCircle
 10
34.150382
 20
236.440301
 40
2.25
100
AcDbArc
 50
78.453989
 51
147.643365
  0
LINE
  5
26A
100
AcDbEntity
  8
M0
 62
     7
100
AcDbLine
 10
31.80004
 20
233.646066
 11
31.80004
 21
232.940423
  0
ARC
  5
26B
100
AcDbEntity
  8
M0
 62
     7
100
AcDbCircle
 10
68.700568
 20
182.440331
 40
2.25
100
AcDbArc
 50
278.630328
 51
282.616176
  0
LINE
  5
26C
100
AcDbEntity
  8
M0
 62
     7
100
AcDbLine
 10
70.896369
 20
181.949029
 11
69.192023
 21
180.244622
  0
ARC
  5
26D
100
AcDbEntity
  8
M0
 62
     7
100
AcDbCircle
 10
68.700568
 20
182.440331
 40
2.25
100
AcDbArc
 50
347.38825
 51
401.8145
  0
LINE
  5
26E
100
AcDbEntity
  8
M0
 62
     7
100
AcDbLine
 10
66.700813
 20
179.540322
 11
68.355842
 21
179.540322
  0
ARC
  5
26F
100
AcDbEntity
  8
M0
 62
     7
100
AcDbCircle
 10
67.150764
 20
181.440331
 40
2.25
100
AcDbArc
 50
302.384559
 51
327.025424
  0
CIRCLE
  5
270
100
AcDbEntity
  8
M0
 62
     6
100
AcDbCircle
 10
30.650764
 20
228.440347
 40
3.0
  0
LINE
  5
271
100
AcDbEntity
  8
M0
 62
     6
100
AcDbLine
 10
27.692008
 20
232.387689
 11
26.875755
 21
229.740396
  0
LINE
  5
272
100
AcDbEntity
  8
M0
 62
     6
100
AcDbLine
 10
27.692008
 20
224.493096
 11
26.875755
 21
227.14042
  0
LINE
  5
273
100
AcDbEntity
  8
M0
 62
     6
100
AcDbLine
 10
33.609489
 20
232.387704
 11
34.425758
 21
229.740396
  0
LINE
  5
274
100
AcDbEntity
  8
M0
 62
     6
100
AcDbLine
 10
33.609489
 20
224.493081
 11
34.425758
 21
227.14042
  0
LINE
  5
275
100
AcDbEntity
  8
M0
 62
     6
100
AcDbLine
 10
28.169807
 20
224.14042
 11
33.131675
 21
224.14042
  0
LINE
  5
276
100
AcDbEntity
  8
M0
 62
     6
100
AcDbLine
 10
34.425758
 20
227.14042
 11
34.425758
 21
229.740396
  0
LINE
  5
277
100
AcDbEntity
  8
M0
 62
     6
100
AcDbLine
 10
33.131675
 20
232.740396
 11
28.169807
 21
232.74038
  0
LINE
  5
278
100
AcDbEntity
  8
M0
 62
     6
100
AcDbLine
 10
26.875755
 20
229.740396
 11
26.875755
 21
227.14042
  0
LINE
  5
279
100
AcDbEntity
  8
M0
  6
DASHDOT
 62
     6
100
AcDbLine
 10
24.375755
 20
228.440347
 11
36.925758
 21
228.440347
  0
LINE
  5
27A
100
AcDbEntity
  8
M0
  6
DASHDOT
 62
     6
100
AcDbLine
 10
30.650764
 20
221.640435
 11
30.650764
 21
235.240396
  0
LINE
  5
27B
100
AcDbEntity
  8
M0
 62
     6
100
AcDbLine
 10
32.241538
 20
226.849526
 11
29.05973
 21
230.031289
  0
LINE
  5
27C
100
AcDbEntity
  8
M0
 62
     6
100
AcDbLine
 10
31.004173
 20
229.854531
 11
29.236503
 21
228.086831
  0
LINE
  5
27D
100
AcDbEntity
  8
M0
 62
     6
100
AcDbLine
 10
32.06478
 20
228.793862
 11
30.297157
 21
227.026284
  0
ARC
  5
27E
100
AcDbEntity
  8
M0
 62
     6
100
AcDbCircle
 10
28.169807
 20
232.24038
 40
0.5
100
AcDbArc
 50
90.0
 51
162.865663
  0
ARC
  5
27F
100
AcDbEntity
  8
M0
 62
     6
100
AcDbCircle
 10
28.169807
 20
224.64042
 40
0.5
100
AcDbArc
 50
197.137551
 51
270.0
  0
ARC
  5
280
100
AcDbEntity
  8
M0
 62
     6
100
AcDbCircle
 10
33.131675
 20
224.64042
 40
0.5
100
AcDbArc
 50
270.0
 51
342.861653
  0
ARC
  5
281
100
AcDbEntity
  8
M0
 62
     6
100
AcDbCircle
 10
33.131675
 20
232.24038
 40
0.5
100
AcDbArc
 50
17.134787
 51
90.0
  0
CIRCLE
  5
282
100
AcDbEntity
  8
M0
 62
     6
100
AcDbCircle
 10
70.650764
 20
188.440515
 40
3.0
  0
LINE
  5
283
100
AcDbEntity
  8
M0
 62
     6
100
AcDbLine
 10
67.692008
 20
192.387856
 11
66.875755
 21
189.740563
  0
LINE
  5
284
100
AcDbEntity
  8
M0
 62
     6
100
AcDbLine
 10
67.692008
 20
184.493264
 11
66.875755
 21
187.140588
  0
LINE
  5
285
100
AcDbEntity
  8
M0
 62
     6
100
AcDbLine
 10
73.609489
 20
192.387872
 11
74.425758
 21
189.740563
  0
LINE
  5
286
100
AcDbEntity
  8
M0
 62
     6
100
AcDbLine
 10
73.609489
 20
184.493249
 11
74.425758
 21
187.140588
  0
LINE
  5
287
100
AcDbEntity
  8
M0
 62
     6
100
AcDbLine
 10
68.169807
 20
184.140588
 11
73.131675
 21
184.140588
  0
LINE
  5
288
100
AcDbEntity
  8
M0
 62
     6
100
AcDbLine
 10
74.425758
 20
187.140588
 11
74.425758
 21
189.740563
  0
LINE
  5
289
100
AcDbEntity
  8
M0
 62
     6
100
AcDbLine
 10
73.131675
 20
192.740563
 11
68.169807
 21
192.740548
  0
LINE
  5
28A
100
AcDbEntity
  8
M0
 62
     6
100
AcDbLine
 10
66.875755
 20
189.740563
 11
66.875755
 21
187.140588
  0
LINE
  5
28B
100
AcDbEntity
  8
M0
  6
DASHDOT
 62
     6
100
AcDbLine
 10
64.375755
 20
188.440515
 11
76.925758
 21
188.440515
  0
LINE
  5
28C
100
AcDbEntity
  8
M0
  6
DASHDOT
 62
     6
100
AcDbLine
 10
70.650764
 20
181.640603
 11
70.650764
 21
195.240563
  0
LINE
  5
28D
100
AcDbEntity
  8
M0
 62
     6
100
AcDbLine
 10
72.241538
 20
186.849694
 11
69.05973
 21
190.031457
  0
LINE
  5
28E
100
AcDbEntity
  8
M0
 62
     6
100
AcDbLine
 10
71.004173
 20
189.854699
 11
69.236503
 21
188.086999
  0
LINE
  5
28F
100
AcDbEntity
  8
M0
 62
     6
100
AcDbLine
 10
72.06478
 20
188.79403
 11
70.297157
 21
187.026452
  0
ARC
  5
290
100
AcDbEntity
  8
M0
 62
     6
100
AcDbCircle
 10
68.169807
 20
192.240548
 40
0.5
100
AcDbArc
 50
90.0
 51
162.865663
  0
ARC
  5
291
100
AcDbEntity
  8
M0
 62
     6
100
AcDbCircle
 10
68.169807
 20
184.640588
 40
0.5
100
AcDbArc
 50
197.137551
 51
270.0
  0
ARC
  5
292
100
AcDbEntity
  8
M0
 62
     6
100
AcDbCircle
 10
73.131675
 20
184.640588
 40
0.5
100
AcDbArc
 50
270.0
 51
342.861653
  0
ARC
  5
293
100
AcDbEntity
  8
M0
 62
     6
100
AcDbCircle
 10
73.131675
 20
192.240548
 40
0.5
100
AcDbArc
 50
17.134787
 51
90.0
  0
LINE
  5
294
100
AcDbEntity
  8
M0
 62
     2
100
AcDbLine
 10
48.650764
 20
205.940438
 11
52.650764
 21
205.940438
  0
LINE
  5
295
100
AcDbEntity
  8
M0
 62
     2
100
AcDbLine
 10
53.150764
 20
206.440423
 11
53.150764
 21
210.440408
  0
LINE
  5
296
100
AcDbEntity
  8
M0
 62
     2
100
AcDbLine
 10
52.650764
 20
210.940438
 11
48.650764
 21
210.940423
  0
LINE
  5
297
100
AcDbEntity
  8
M0
 62
     2
100
AcDbLine
 10
48.150764
 20
210.440423
 11
48.150764
 21
206.440438
  0
ARC
  5
298
100
AcDbEntity
  8
M0
 62
     2
100
AcDbCircle
 10
48.650764
 20
206.440438
 40
0.5
100
AcDbArc
 50
179.999891
 51
270.0
  0
ARC
  5
299
100
AcDbEntity
  8
M0
 62
     2
100
AcDbCircle
 10
52.650764
 20
206.440438
 40
0.5
100
AcDbArc
 50
270.0
 51
360.0
  0
ARC
  5
29A
100
AcDbEntity
  8
M0
 62
     2
100
AcDbCircle
 10
52.650764
 20
210.440423
 40
0.5
100
AcDbArc
 50
0.0
 51
90.0
  0
ARC
  5
29B
100
AcDbEntity
  8
M0
 62
     2
100
AcDbCircle
 10
48.650764
 20
210.440423
 40
0.5
100
AcDbArc
 50
90.0
 51
180.0
  0
LINE
  5
29C
100
AcDbEntity
  8
M0
  6
DIVIDE
 62
     6
100
AcDbLine
 10
24.151141
 20
72.794685
 11
77.151141
 21
72.794685
  0
LINE
  5
29D
100
AcDbEntity
  8
M0
  6
DIVIDE
 62
     6
100
AcDbLine
 10
77.151141
 20
72.794685
 11
77.151141
 21
137.794685
  0
LINE
  5
29E
100
AcDbEntity
  8
M0
  6
DIVIDE
 62
     6
100
AcDbLine
 10
77.151141
 20
137.794685
 11
24.151141
 21
137.794685
  0
LINE
  5
29F
100
AcDbEntity
  8
M0
  6
DIVIDE
 62
     6
100
AcDbLine
 10
24.151141
 20
137.794685
 11
24.151141
 21
72.794685
  0
CIRCLE
  5
2A0
100
AcDbEntity
  8
M0
 62
     6
100
AcDbCircle
 10
33.651141
 20
132.79467
 40
2.5
  0
CIRCLE
  5
2A1
100
AcDbEntity
  8
M0
 62
     6
100
AcDbCircle
 10
66.651141
 20
77.794685
 40
2.5
  0
CIRCLE
  5
2A2
100
AcDbEntity
  8
M0
 62
     6
100
AcDbCircle
 10
66.651141
 20
77.794685
 40
1.249997
  0
CIRCLE
  5
2A3
100
AcDbEntity
  8
M0
 62
     6
100
AcDbCircle
 10
33.651141
 20
132.79467
 40
1.249997
  0
LINE
  5
2A4
100
AcDbEntity
  8
M0
  6
DASHDOT
 62
     6
100
AcDbLine
 10
71.248538
 20
77.794685
 11
62.053729
 21
77.794685
  0
LINE
  5
2A5
100
AcDbEntity
  8
M0
  6
DASHDOT
 62
     6
100
AcDbLine
 10
66.651126
 20
82.392082
 11
66.651141
 21
73.197273
  0
LINE
  5
2A6
100
AcDbEntity
  8
M0
  6
DASHDOT
 62
     6
100
AcDbLine
 10
37.748538
 20
132.79467
 11
29.553729
 21
132.79467
  0
LINE
  5
2A7
100
AcDbEntity
  8
M0
  6
DASHDOT
 62
     6
100
AcDbLine
 10
33.651126
 20
136.892067
 11
33.651141
 21
128.697258
  0
LINE
  5
2A8
100
AcDbEntity
  8
M0
  6
DASHDOT
 62
     6
100
AcDbLine
 10
50.651141
 20
68.801185
 11
50.651141
 21
141.788185
  0
LINE
  5
2A9
100
AcDbEntity
  8
M0
  6
DASHDOT
 62
     6
100
AcDbLine
 10
21.157642
 20
105.294685
 11
80.144641
 21
105.294685
  0
LINE
  5
2AA
100
AcDbEntity
  8
M1
 62
     2
100
AcDbLine
 10
10.0
 20
10.0
 11
10.0
 21
285.0
  0
LINE
  5
2AB
100
AcDbEntity
  8
M1
 62
     2
100
AcDbLine
 10
10.0
 20
285.0
 11
200.0
 21
285.0
  0
LINE
  5
2AC
100
AcDbEntity
  8
M1
 62
     2
100
AcDbLine
 10
200.0
 20
285.0
 11
200.0
 21
10.0
  0
LINE
  5
2AD
100
AcDbEntity
  8
M1
 62
     2
100
AcDbLine
 10
200.0
 20
10.0
 11
10.0
 21
10.0
  0
LINE
  5
2AE
100
AcDbEntity
  8
M1
 62
     2
100
AcDbLine
 10
200.0
 20
20.0
 11
100.0
 21
20.0
  0
LINE
  5
2AF
100
AcDbEntity
  8
M1
 62
     2
100
AcDbLine
 10
200.0
 20
30.0
 11
100.0
 21
30.0
  0
LINE
  5
2B0
100
AcDbEntity
  8
M1
 62
     2
100
AcDbLine
 10
200.0
 20
40.0
 11
100.0
 21
40.0
  0
LINE
  5
2B1
100
AcDbEntity
  8
M1
 62
     2
100
AcDbLine
 10
100.0
 20
10.0
 11
100.0
 21
40.0
  0
TEXT
  5
2B2
100
AcDbEntity
  8
M1
 62
     2
100
AcDbText
 10
102.5
 20
12.5
 40
5.0
  1
適　用；
  7
STANDARD
100
AcDbText
  0
TEXT
  5
2B3
100
AcDbEntity
  8
M1
 62
     2
100
AcDbText
 10
102.5
 20
32.5
 40
5.0
  1
登録名：
  7
STANDARD
100
AcDbText
  0
TEXT
  5
2B4
100
AcDbEntity
  8
M1
 62
     2
100
AcDbText
 10
126.5
 20
32.5
 40
5.0
  1
ＤＭＸ５Ｒ００
 41
0.5
  7
STANDARD
100
AcDbText
  0
TEXT
  5
2B5
100
AcDbEntity
  8
M1
 62
     2
100
AcDbText
 10
102.5
 20
22.5
 40
5.0
  1
形　式；
  7
STANDARD
100
AcDbText
  0
TEXT
  5
2B6
100
AcDbEntity
  8
M1
 62
     2
100
AcDbText
 10
126.5
 20
22.5
 40
5.0
  1
Ｘ５，Ｘ５－Ｗ
 41
0.5
  7
STANDARD
100
AcDbText
  0
LINE
  5
2B7
100
AcDbEntity
  8
DN0
100
AcDbLine
 10
42.492909
 20
54.224137
 11
60.75291
 21
54.224137
  0
TEXT
  5
2B8
100
AcDbEntity
  8
DN0
100
AcDbText
 10
42.997909
 20
54.674137
 40
4.5
  1
せん孔図
 41
0.833333
  7
STANDARD
100
AcDbText
  0
ENDSEC
  0
SECTION
  2
OBJECTS
  0
DICTIONARY
  5
C
100
AcDbDictionary
  3
ACAD_GROUP
350
D
  3
ACAD_MLINESTYLE
350
E
  0
DICTIONARY
  5
D
102
{ACAD_REACTORS
330
C
102
}
100
AcDbDictionary
  0
DICTIONARY
  5
E
102
{ACAD_REACTORS
330
C
102
}
100
AcDbDictionary
  3
STANDARD
350
13
  0
MLINESTYLE
  5
13
102
{ACAD_REACTORS
330
E
102
}
100
AcDbMlineStyle
  2
STANDARD
 70
     0
  3

 62
     0
 51
90.0
 52
90.0
 71
     2
 49
0.5
 62
   256
  6
BYLAYER
 49
-0.5
 62
   256
  6
BYLAYER
  0
ENDSEC
  0
EOF
