  0
SECTION
  2
HEADER
  9
$ACADVER
  1
AC1014
  9
$INSBASE
 10
0.000000
 20
0.000000
 30
0.0
  9
$VIEWCTR
 10
7.531722
 20
4.5
  9
$VIEWSIZE
 40
9.0
  9
$SNAPMODE
 70
     0
  9
$SNAPUNIT
 10
1.0
 20
1.0
  9
$SNAPBASE
 10
0.0
 20
0.0
  9
$SNAPANG
 50
0.0
  9
$SNAPSTYLE
 70
     0
  9
$SNAPISOPAIR
 70
     0
  9
$GRIDMODE
 70
     0
  9
$GRIDUNIT
 10
0.0
 20
0.0
  9
$ORTHOMODE
 70
     0
  9
$REGENMODE
 70
     1
  9
$FILLMODE
 70
     1
  9
$QTEXTMODE
 70
     0
  9
$DRAGMODE
 70
     2
  9
$LTSCALE
  40
     1.000000
  9
$OSMODE
 70
     0
  9
$ATTMODE
 70
     1
  9
$TEXTSIZE
 40
0.2
  9
$TRACEWID
 40
0.05
  9
$TEXTSTYLE
  7
STANDARD
  9
$CELTYPE
  6
BYLAYER
  9
$CECOLOR
 62
   256
  9
$DIMSCALE
 40
1.0
  9
$DIMASZ
 40
0.18
  9
$DIMEXO
 40
0.0625
  9
$DIMDLI
 40
0.38
  9
$DIMRND
 40
0.0
  9
$DIMDLE
 40
0.0
  9
$DIMEXE
 40
0.18
  9
$DIMTP
 40
0.0
  9
$DIMTM
 40
0.0
  9
$DIMTXT
 40
0.18
  9
$DIMCEN
 40
0.09
  9
$DIMTSZ
 40
0.0
  9
$DIMTOL
 70
     0
  9
$DIMLIM
 70
     0
  9
$DIMTIH
 70
     1
  9
$DIMTOH
 70
     1
  9
$DIMSE1
 70
     0
  9
$DIMSE2
 70
     0
  9
$DIMTAD
 70
     0
  9
$DIMZIN
 70
     0
  9
$DIMBLK
  1

  9
$LUNITS
 70
     2
  9
$LUPREC
 70
     4
  9
$AXISMODE
 70
     0
  9
$AXISUNIT
 10
0.0
 20
0.0
  9
$SKETCHINC
 40
0.1
  9
$FILLETRAD
 40
0.0
  9
$AUNITS
 70
     0
  9
$AUPREC
 70
     0
  9
$MENU
  1
ACAD
  9
$ELEVATION
 40
0.0
  9
$THICKNESS
 40
0.0
  9
$VIEWDIR
 10
0.0
 20
0.0
 30
1.0
  9
$LIMCHECK
 70
     0
  9
$BLIPMODE
 70
     1
  9
$CHAMFERA
 40
0.0
  9
$CHAMFERB
 40
0.0
  9
$FASTZOOM
 70
     1
  9
$SKPOLY
 70
     0
  9
$TDCREATE
 40
0000000.0000000000
  9
$TDUPDATE
 40
0000000.0000000000
  9
$TDINDWG
 40
0.0000000000
  9
$TDUSRTIMER
 40
0.0000000000
  9
$USRTIMER
 70
     1
  9
$ANGBASE
 50
0.0
  9
$ANGDIR
 70
     0
  9
$PDMODE
 70
     0
  9
$PDSIZE
 40
0.0
  9
$PLINEWID
 40
0.0
  9
$COORDS
 70
     0
  9
$USERI1
 70
     0
  9
$USERI2
 70
     0
  9
$USERI3
 70
     0
  9
$USERI4
 70
     0
  9
$USERI5
 70
     0
  9
$USERR1
 40
0.0
  9
$USERR2
 40
0.0
  9
$USERR3
 40
0.0
  9
$USERR4
 40
0.0
  9
$USERR5
 40
0.0
  9
$CLAYER
  8
M0
  9
$EXTMIN
 10
49.999999
 20
49.999999
  9
$EXTMAX
 10
999.999985
 20
1424.999979
  9
$LIMMIN
 10
0.0
 20
0.0
  9
$LIMMAX
 10
210.0
 20
297.0
  9
$HANDSEED
  5
13E
  0
ENDSEC
  0
SECTION
  2
CLASSES
  0
ENDSEC
  0
SECTION
  2
TABLES
  0
TABLE
  2
VPORT
  5
8
100
AcDbSymbolTable
 70
     2
  0
VPORT
  5
14
100
AcDbSymbolTableRecord
100
AcDbViewportTableRecord
  2
*ACTIVE
 70
     0
 10
0.0
 20
0.0
 11
1.0
 21
1.0
 12
484.0
 22
297.0
 13
0.0
 23
0.0
 14
1.0
 24
1.0
 15
0.0
 25
0.0
 16
0.0
 26
0.0
 36
1.0
 17
0.0
 27
0.0
 37
0.0
 40
594.0
 41
2.0
 42
50.0
 43
0.0
 44
0.0
 50
0.0
 51
0.0
 71
     0
 72
   100
 73
     1
 74
     1
 75
     0
 76
     0
 77
     0
 78
     0
  0
ENDTAB
  0
TABLE
  2
LTYPE
  5
5
100
AcDbSymbolTable
 70
     5
  0
LTYPE
  5
15
100
AcDbSymbolTableRecord
100
AcDbLinetypeTableRecord
  2
BYBLOCK
 70
     0
  3

 72
    65
 73
     0
 40
0.0
  0
LTYPE
  5
16
100
AcDbSymbolTableRecord
100
AcDbLinetypeTableRecord
  2
BYLAYER
 70
     0
  3

 72
    65
 73
     0
 40
0.0
  0
LTYPE
  5
17
100
AcDbSymbolTableRecord
100
AcDbLinetypeTableRecord
  2
CONTINUOUS
 70
    64
  3
Solid line
 72
    65
 73
     0
 40
0.0
  0
LTYPE
  5
18
100
AcDbSymbolTableRecord
100
AcDbLinetypeTableRecord
  2
DASHED
 70
    64
  3
__ __ __ __ __ __ __ __ __ __ __ __ __ __ __ __
 72
    65
 73
     2
 40
0.75
 49
0.5
 74
     0
 49
-0.25
 74
     0
  0
LTYPE
  5
19
100
AcDbSymbolTableRecord
100
AcDbLinetypeTableRecord
  2
DASHDOT
 70
    64
  3
__ . __ . __ . __ . __ . __ . __ . __ . __ . __
 72
    65
 73
     4
 40
1.0
 49
0.5
 74
     0
 49
-0.25
 74
     0
 49
0.0
 74
     0
 49
-0.25
 74
     0
  0
LTYPE
  5
1A
100
AcDbSymbolTableRecord
100
AcDbLinetypeTableRecord
  2
DIVIDE
 70
    64
  3
____ . . ____ . . ____ . . ____ . . ____ . . __
 72
    65
 73
     6
 40
1.25
 49
0.5
 74
     0
 49
-0.25
 74
     0
 49
0.0
 74
     0
 49
-0.25
 74
     0
 49
0.0
 74
     0
 49
-0.25
 74
     0
  0
LTYPE
  5
1B
100
AcDbSymbolTableRecord
100
AcDbLinetypeTableRecord
  2
DOT
 70
    64
  3
. . . . . . . . . . . . . . . . . . . . . . . .
 72
    65
 73
     2
 40
0.25
 49
0.0
 74
     0
 49
-0.25
 74
     0
  0
ENDTAB
  0
TABLE
  2
LAYER
  5
2
100
AcDbSymbolTable
 70
   102
  0
LAYER
  5
F
100
AcDbSymbolTableRecord
100
AcDbLayerTableRecord
  2
0
 70
     0
 62
     7
  6
CONTINUOUS
  0
LAYER
  5
1C
100
AcDbSymbolTableRecord
100
AcDbLayerTableRecord
  2
DEFPOINTS
 70
     0
 62
     7
  6
CONTINUOUS
  0
LAYER
  5
1D
100
AcDbSymbolTableRecord
100
AcDbLayerTableRecord
  2
M0
 70
     0
 62
     3
  6
CONTINUOUS
  0
LAYER
  5
1E
100
AcDbSymbolTableRecord
100
AcDbLayerTableRecord
  2
M1
 70
     0
 62
     3
  6
CONTINUOUS
  0
LAYER
  5
1F
100
AcDbSymbolTableRecord
100
AcDbLayerTableRecord
  2
DD0
 70
     0
 62
     4
  6
CONTINUOUS
  0
ENDTAB
  0
TABLE
  2
STYLE
  5
3
100
AcDbSymbolTable
 70
     2
  0
STYLE
  5
10
100
AcDbSymbolTableRecord
100
AcDbTextStyleTableRecord
  2
STANDARD
 70
     0
 40
0.0
 41
1.0
 50
0.0
 71
     0
 42
0.2
  3
txt
  4
BIGFONT
  0
ENDTAB
  0
TABLE
  2
VIEW
  5
6
100
AcDbSymbolTable
 70
     0
  0
ENDTAB
  0
TABLE
  2
UCS
  5
7
100
AcDbSymbolTable
 70
     0
  0
ENDTAB
  0
TABLE
  2
APPID
  5
9
100
AcDbSymbolTable
 70
     1
  0
APPID
  5
11
100
AcDbSymbolTableRecord
100
AcDbRegAppTableRecord
  2
ACAD
 70
     0
  0
ENDTAB
  0
TABLE
  2
DIMSTYLE
  5
A
100
AcDbSymbolTable
 70
     2
  0
DIMSTYLE
105
26
100
AcDbSymbolTableRecord
100
AcDbDimStyleTableRecord
  2
STANDARD
 70
     0
  3

  4

  5

  6
_OPEN
  7
_OPEN
 40
1.0
 41
15.0
 42
1.0
 43
8.0
 44
1.0
 45
0.0
 46
0.0
 47
0.0
 48
0.0
140
15.75
141
0.09
142
0.0
143
0.03937
144
1.0
145
0.0
146
1.0
147
0.6
 71
     0
 72
     0
 73
     1
 74
     1
 75
     0
 76
     0
 77
     3
 78
     8
170
     0
171
     2
172
     0
173
     1
174
     0
175
     0
176
     0
177
     0
178
     0
270
     2
271
     2
272
     4
273
     2
274
     2
340
10
275
     0
280
     0
281
     0
282
     0
283
     1
284
     0
285
     0
286
     0
287
     3
288
     0
  0
DIMSTYLE
105
27
100
AcDbSymbolTableRecord
100
AcDbDimStyleTableRecord
  2
LEADSTYL
 70
     0
  3

  4

  5

  6
_OPEN
  7
_OPEN
 40
1.0
 41
15.0
 42
0.0625
 43
0.38
 44
0.18
 45
0.0
 46
0.0
 47
0.0
 48
0.0
140
15.75
141
0.09
142
0.0
143
25.4
144
1.0
145
0.0
146
1.0
147
0.6
 71
     0
 72
     0
 73
     1
 74
     1
 75
     0
 76
     0
 77
     0
 78
     0
170
     0
171
     2
172
     0
173
     1
174
     0
175
     0
176
     0
177
     0
178
     0
270
     2
271
     4
272
     4
273
     2
274
     2
340
10
275
     0
280
     0
281
     0
282
     0
283
     1
284
     0
285
     0
286
     0
287
     3
288
     0
  0
ENDTAB
  0
TABLE
  2
BLOCK_RECORD
  5
1
100
AcDbSymbolTable
 70
    15
  0
BLOCK_RECORD
  5
20
100
AcDbSymbolTableRecord
100
AcDbBlockTableRecord
  2
*MODEL_SPACE
  0
BLOCK_RECORD
  5
23
100
AcDbSymbolTableRecord
100
AcDbBlockTableRecord
  2
*PAPER_SPACE
  0
BLOCK_RECORD
  5
28
100
AcDbSymbolTableRecord
100
AcDbBlockTableRecord
  2
_NONE
  0
BLOCK_RECORD
  5
2C
100
AcDbSymbolTableRecord
100
AcDbBlockTableRecord
  2
_OPEN
  0
BLOCK_RECORD
  5
32
100
AcDbSymbolTableRecord
100
AcDbBlockTableRecord
  2
_CLOSED
  0
BLOCK_RECORD
  5
39
100
AcDbSymbolTableRecord
100
AcDbBlockTableRecord
  2
_ORIGIN
  0
BLOCK_RECORD
  5
3E
100
AcDbSymbolTableRecord
100
AcDbBlockTableRecord
  2
_DOT
  0
BLOCK_RECORD
  5
46
100
AcDbSymbolTableRecord
100
AcDbBlockTableRecord
  2
_OBLIQUE
  0
BLOCK_RECORD
  5
4A
100
AcDbSymbolTableRecord
100
AcDbBlockTableRecord
  2
DIMS0
  0
BLOCK_RECORD
  5
56
100
AcDbSymbolTableRecord
100
AcDbBlockTableRecord
  2
DIMS1
  0
BLOCK_RECORD
  5
5F
100
AcDbSymbolTableRecord
100
AcDbBlockTableRecord
  2
DIMS2
  0
BLOCK_RECORD
  5
6B
100
AcDbSymbolTableRecord
100
AcDbBlockTableRecord
  2
DIMS3
  0
BLOCK_RECORD
  5
77
100
AcDbSymbolTableRecord
100
AcDbBlockTableRecord
  2
DIMS4
  0
BLOCK_RECORD
  5
83
100
AcDbSymbolTableRecord
100
AcDbBlockTableRecord
  2
DIMS5
  0
BLOCK_RECORD
  5
8F
100
AcDbSymbolTableRecord
100
AcDbBlockTableRecord
  2
DIMS6
  0
BLOCK_RECORD
  5
9B
100
AcDbSymbolTableRecord
100
AcDbBlockTableRecord
  2
DIMS7
  0
BLOCK_RECORD
  5
A7
100
AcDbSymbolTableRecord
100
AcDbBlockTableRecord
  2
DIMS8
  0
ENDTAB
  0
ENDSEC
  0
SECTION
  2
BLOCKS
  0
BLOCK
  5
21
100
AcDbEntity
  8
0
100
AcDbBlockBegin
  2
*MODEL_SPACE
 70
     0
 10
0.0
 20
0.0
 30
0.0
  3
*MODEL_SPACE
  1

  0
ENDBLK
  5
22
100
AcDbEntity
  8
0
100
AcDbBlockEnd
  0
BLOCK
  5
24
100
AcDbEntity
 67
     1
  8
0
100
AcDbBlockBegin
  2
*PAPER_SPACE
 70
     0
 10
0.0
 20
0.0
 30
0.0
  3
*PAPER_SPACE
  1

  0
ENDBLK
  5
25
100
AcDbEntity
 67
     1
  8
0
100
AcDbBlockEnd
  0
BLOCK
  5
29
100
AcDbEntity
  8
0
100
AcDbBlockBegin
  2
_NONE
 70
     0
 10
0.0
 20
0.0
  0
CIRCLE
  5
2A
100
AcDbEntity
  8
0
 62
     0
100
AcDbCircle
 10
0.0
 20
0.0
 40
0.25
  0
ENDBLK
  5
2B
100
AcDbEntity
  8
0
100
AcDbBlockEnd
  0
BLOCK
  5
2D
100
AcDbEntity
  8
0
100
AcDbBlockBegin
  2
_OPEN
 70
     0
 10
0.0
 20
0.0
  0
LINE
  5
2E
100
AcDbEntity
  8
0
 62
     0
100
AcDbLine
 10
-0.965926
 20
0.258819
 11
0.0
 21
0.0
  0
LINE
  5
2F
100
AcDbEntity
  8
0
 62
     0
100
AcDbLine
 10
0.0
 20
0.0
 11
-0.965926
 21
-0.258819
  0
LINE
  5
30
100
AcDbEntity
  8
0
 62
     0
100
AcDbLine
 10
0.0
 20
0.0
 11
-1.0
 21
0.0
  0
ENDBLK
  5
31
100
AcDbEntity
  8
0
100
AcDbBlockEnd
  0
BLOCK
  5
33
100
AcDbEntity
  8
0
100
AcDbBlockBegin
  2
_CLOSED
 70
     0
 10
0.0
 20
0.0
  0
LINE
  5
34
100
AcDbEntity
  8
0
 62
     0
100
AcDbLine
 10
-0.965926
 20
0.258819
 11
0.0
 21
0.0
  0
LINE
  5
35
100
AcDbEntity
  8
0
 62
     0
100
AcDbLine
 10
0.0
 20
0.0
 11
-0.965926
 21
-0.258819
  0
LINE
  5
36
100
AcDbEntity
  8
0
 62
     0
100
AcDbLine
 10
-0.965926
 20
0.258819
 11
-0.965926
 21
-0.258819
  0
LINE
  5
37
100
AcDbEntity
  8
0
 62
     0
100
AcDbLine
 10
0.0
 20
0.0
 11
-1.0
 21
0.0
  0
ENDBLK
  5
38
100
AcDbEntity
  8
0
100
AcDbBlockEnd
  0
BLOCK
  5
3A
100
AcDbEntity
  8
0
100
AcDbBlockBegin
  2
_ORIGIN
 70
     0
 10
0.0
 20
0.0
  0
CIRCLE
  5
3B
100
AcDbEntity
  8
0
 62
     0
100
AcDbCircle
 10
0.0
 20
0.0
 40
0.5
  0
LINE
  5
3C
100
AcDbEntity
  8
0
 62
     0
100
AcDbLine
 10
0.0
 20
0.0
 11
-1.0
 21
0.0
  0
ENDBLK
  5
3D
100
AcDbEntity
  8
0
100
AcDbBlockEnd
  0
BLOCK
  5
3F
100
AcDbEntity
  8
0
100
AcDbBlockBegin
  2
_DOT
 70
     0
 10
0.0
 20
0.0
  0
POLYLINE
  5
40
100
AcDbEntity
  8
0
 62
     0
100
AcDb2dPolyline
 66
     1
 70
     1
 40
0.5
 41
0.5
  0
VERTEX
  5
41
100
AcDbEntity
  8
0
 62
     0
100
AcDbVertex
100
AcDb2dVertex
 10
-0.25
 20
0.0
 42
1.0
  0
VERTEX
  5
42
100
AcDbEntity
  8
0
 62
     0
100
AcDbVertex
100
AcDb2dVertex
 10
0.25
 20
0.0
 42
1.0
  0
SEQEND
  5
43
100
AcDbEntity
  8
0
 62
     0
  0
LINE
  5
44
100
AcDbEntity
  8
0
 62
     0
100
AcDbLine
 10
-0.5
 20
0.0
 11
-1.0
 21
0.0
  0
ENDBLK
  5
45
100
AcDbEntity
  8
0
100
AcDbBlockEnd
  0
BLOCK
  5
47
100
AcDbEntity
  8
0
100
AcDbBlockBegin
  2
_OBLIQUE
 70
     0
 10
0.0
 20
0.0
  0
LINE
  5
48
100
AcDbEntity
  8
0
 62
     0
100
AcDbLine
 10
-0.353553
 20
-0.353553
 11
0.353553
 21
0.353553
  0
ENDBLK
  5
49
100
AcDbEntity
  8
0
100
AcDbBlockEnd
  0
BLOCK
  5
4B
100
AcDbEntity
  8
DD0
100
AcDbBlockBegin
  2
DIMS0
 70
     0
 10
0.0
 20
0.0
  0
LINE
  5
4C
100
AcDbEntity
  8
DD0
100
AcDbLine
 10
296.394668
 20
731.371907
 11
527.08007
 21
731.371907
  0
LINE
  5
4D
100
AcDbEntity
  8
DD0
100
AcDbLine
 10
410.094675
 20
741.371907
 11
527.08007
 21
741.371907
  0
LINE
  5
4E
100
AcDbEntity
  8
DD0
100
AcDbLine
 10
525.962356
 20
716.88302
 11
522.08007
 21
731.371907
  0
LINE
  5
4F
100
AcDbEntity
  8
DD0
100
AcDbLine
 10
522.08007
 20
731.371907
 11
518.197785
 21
716.88302
  0
LINE
  5
50
100
AcDbEntity
  8
DD0
100
AcDbLine
 10
518.197785
 20
755.860794
 11
522.08007
 21
741.371907
  0
LINE
  5
51
100
AcDbEntity
  8
DD0
100
AcDbLine
 10
522.08007
 20
741.371907
 11
525.962356
 21
755.860794
  0
LINE
  5
52
100
AcDbEntity
  8
DD0
100
AcDbLine
 10
522.08007
 20
669.871907
 11
522.08007
 21
757.871906
  0
TEXT
  5
53
100
AcDbEntity
  8
DD0
100
AcDbText
 10
517.08007
 20
673.713565
 40
20.0
  1
１０
 50
90.000003
 41
0.833333
  7
STANDARD
100
AcDbText
  0
ENDBLK
  5
54
100
AcDbEntity
  8
DD0
100
AcDbBlockEnd
  0
BLOCK
  5
57
100
AcDbEntity
  8
DD0
100
AcDbBlockBegin
  2
DIMS1
 70
     0
 10
0.0
 20
0.0
  0
TEXT
  5
58
100
AcDbEntity
  8
DD0
100
AcDbText
 10
455.010375
 20
624.86373
 40
20.0
  1
４－Ｍ８ボルト取付穴
 41
0.833333
  7
STANDARD
100
AcDbText
  0
LINE
  5
59
100
AcDbEntity
  8
DD0
100
AcDbLine
 10
392.875157
 20
748.775557
 11
384.173845
 21
760.99387
  0
LINE
  5
5A
100
AcDbEntity
  8
DD0
100
AcDbLine
 10
384.173845
 20
760.99387
 11
385.600245
 21
746.061845
  0
LINE
  5
5B
100
AcDbEntity
  8
DD0
100
AcDbLine
 10
384.173845
 20
760.99387
 11
436.818689
 21
619.86373
  0
LINE
  5
5C
100
AcDbEntity
  8
DD0
100
AcDbLine
 10
436.818689
 20
619.86373
 11
669.818639
 21
619.86373
  0
ENDBLK
  5
5D
100
AcDbEntity
  8
DD0
100
AcDbBlockEnd
  0
BLOCK
  5
60
100
AcDbEntity
  8
DD0
100
AcDbBlockBegin
  2
DIMS2
 70
     0
 10
0.0
 20
0.0
  0
LINE
  5
61
100
AcDbEntity
  8
DD0
100
AcDbLine
 10
399.344667
 20
1151.371901
 11
478.025582
 21
1151.371901
  0
LINE
  5
62
100
AcDbEntity
  8
DD0
100
AcDbLine
 10
399.344667
 20
766.371906
 11
478.025582
 21
766.371906
  0
LINE
  5
63
100
AcDbEntity
  8
DD0
100
AcDbLine
 10
476.907868
 20
1136.883013
 11
473.025582
 21
1151.371901
  0
LINE
  5
64
100
AcDbEntity
  8
DD0
100
AcDbLine
 10
473.025582
 20
1151.371901
 11
469.143296
 21
1136.883013
  0
LINE
  5
65
100
AcDbEntity
  8
DD0
100
AcDbLine
 10
469.143296
 20
780.860793
 11
473.025582
 21
766.371906
  0
LINE
  5
66
100
AcDbEntity
  8
DD0
100
AcDbLine
 10
473.025582
 20
766.371906
 11
476.907868
 21
780.860793
  0
LINE
  5
67
100
AcDbEntity
  8
DD0
100
AcDbLine
 10
473.025582
 20
1151.371901
 11
473.025582
 21
766.371906
  0
TEXT
  5
68
100
AcDbEntity
  8
DD0
100
AcDbText
 10
468.025582
 20
930.563537
 40
20.0
  1
３８５
 50
90.000003
 41
0.833333
  7
STANDARD
100
AcDbText
  0
ENDBLK
  5
69
100
AcDbEntity
  8
DD0
100
AcDbBlockEnd
  0
BLOCK
  5
6C
100
AcDbEntity
  8
DD0
100
AcDbBlockBegin
  2
DIMS3
 70
     0
 10
0.0
 20
0.0
  0
LINE
  5
6D
100
AcDbEntity
  8
DD0
100
AcDbLine
 10
380.094675
 20
1170.621931
 11
380.094675
 21
1228.684369
  0
LINE
  5
6E
100
AcDbEntity
  8
DD0
100
AcDbLine
 10
195.094678
 20
1170.621931
 11
195.094678
 21
1228.684369
  0
LINE
  5
6F
100
AcDbEntity
  8
DD0
100
AcDbLine
 10
365.605788
 20
1219.802083
 11
380.094675
 21
1223.684369
  0
LINE
  5
70
100
AcDbEntity
  8
DD0
100
AcDbLine
 10
380.094675
 20
1223.684369
 11
365.605788
 21
1227.566655
  0
LINE
  5
71
100
AcDbEntity
  8
DD0
100
AcDbLine
 10
209.583565
 20
1227.566655
 11
195.094678
 21
1223.684369
  0
LINE
  5
72
100
AcDbEntity
  8
DD0
100
AcDbLine
 10
195.094678
 20
1223.684369
 11
209.583565
 21
1219.802083
  0
LINE
  5
73
100
AcDbEntity
  8
DD0
100
AcDbLine
 10
380.094675
 20
1223.684369
 11
195.094678
 21
1223.684369
  0
TEXT
  5
74
100
AcDbEntity
  8
DD0
100
AcDbText
 10
259.286348
 20
1228.684369
 40
20.0
  1
１８５
 41
0.833333
  7
STANDARD
100
AcDbText
  0
ENDBLK
  5
75
100
AcDbEntity
  8
DD0
100
AcDbBlockEnd
  0
BLOCK
  5
78
100
AcDbEntity
  8
DD0
100
AcDbBlockBegin
  2
DIMS4
 70
     0
 10
0.0
 20
0.0
  0
LINE
  5
79
100
AcDbEntity
  8
DD0
100
AcDbLine
 10
410.094675
 20
1176.3719
 11
478.025582
 21
1176.3719
  0
LINE
  5
7A
100
AcDbEntity
  8
DD0
100
AcDbLine
 10
391.844667
 20
1151.371901
 11
478.025582
 21
1151.371901
  0
LINE
  5
7B
100
AcDbEntity
  8
DD0
100
AcDbLine
 10
469.143296
 20
1190.860787
 11
473.025582
 21
1176.3719
  0
LINE
  5
7C
100
AcDbEntity
  8
DD0
100
AcDbLine
 10
473.025582
 20
1176.3719
 11
476.907868
 21
1190.860787
  0
LINE
  5
7D
100
AcDbEntity
  8
DD0
100
AcDbLine
 10
476.907868
 20
1136.883013
 11
473.025582
 21
1151.371901
  0
LINE
  5
7E
100
AcDbEntity
  8
DD0
100
AcDbLine
 10
473.025582
 20
1151.371901
 11
469.143296
 21
1136.883013
  0
LINE
  5
7F
100
AcDbEntity
  8
DD0
100
AcDbLine
 10
473.025582
 20
1237.8719
 11
473.025582
 21
1134.871901
  0
TEXT
  5
80
100
AcDbEntity
  8
DD0
100
AcDbText
 10
468.025582
 20
1194.563548
 40
20.0
  1
２５
 50
90.000003
 41
0.833333
  7
STANDARD
100
AcDbText
  0
ENDBLK
  5
81
100
AcDbEntity
  8
DD0
100
AcDbBlockEnd
  0
BLOCK
  5
84
100
AcDbEntity
  8
DD0
100
AcDbBlockBegin
  2
DIMS5
 70
     0
 10
0.0
 20
0.0
  0
LINE
  5
85
100
AcDbEntity
  8
DD0
100
AcDbLine
 10
170.094678
 20
1181.3719
 11
170.094678
 21
1280.091686
  0
LINE
  5
86
100
AcDbEntity
  8
DD0
100
AcDbLine
 10
405.094675
 20
1181.3719
 11
405.094675
 21
1280.091686
  0
LINE
  5
87
100
AcDbEntity
  8
DD0
100
AcDbLine
 10
184.583565
 20
1278.974048
 11
170.094678
 21
1275.091763
  0
LINE
  5
88
100
AcDbEntity
  8
DD0
100
AcDbLine
 10
170.094678
 20
1275.091763
 11
184.583565
 21
1271.209477
  0
LINE
  5
89
100
AcDbEntity
  8
DD0
100
AcDbLine
 10
390.605788
 20
1271.209477
 11
405.094675
 21
1275.091763
  0
LINE
  5
8A
100
AcDbEntity
  8
DD0
100
AcDbLine
 10
405.094675
 20
1275.091763
 11
390.605788
 21
1278.974048
  0
LINE
  5
8B
100
AcDbEntity
  8
DD0
100
AcDbLine
 10
170.094678
 20
1275.091763
 11
405.094675
 21
1275.091763
  0
TEXT
  5
8C
100
AcDbEntity
  8
DD0
100
AcDbText
 10
259.286348
 20
1280.091839
 40
20.0
  1
２３５
 41
0.833333
  7
STANDARD
100
AcDbText
  0
ENDBLK
  5
8D
100
AcDbEntity
  8
DD0
100
AcDbBlockEnd
  0
BLOCK
  5
90
100
AcDbEntity
  8
DD0
100
AcDbBlockBegin
  2
DIMS6
 70
     0
 10
0.0
 20
0.0
  0
LINE
  5
91
100
AcDbEntity
  8
DD0
100
AcDbLine
 10
410.094675
 20
1176.3719
 11
527.08007
 21
1176.3719
  0
LINE
  5
92
100
AcDbEntity
  8
DD0
100
AcDbLine
 10
410.094675
 20
741.371907
 11
527.08007
 21
741.371907
  0
LINE
  5
93
100
AcDbEntity
  8
DD0
100
AcDbLine
 10
525.962356
 20
1161.883013
 11
522.08007
 21
1176.3719
  0
LINE
  5
94
100
AcDbEntity
  8
DD0
100
AcDbLine
 10
522.08007
 20
1176.3719
 11
518.197785
 21
1161.883013
  0
LINE
  5
95
100
AcDbEntity
  8
DD0
100
AcDbLine
 10
518.197785
 20
755.860794
 11
522.08007
 21
741.371907
  0
LINE
  5
96
100
AcDbEntity
  8
DD0
100
AcDbLine
 10
522.08007
 20
741.371907
 11
525.962356
 21
755.860794
  0
LINE
  5
97
100
AcDbEntity
  8
DD0
100
AcDbLine
 10
522.08007
 20
1176.3719
 11
522.08007
 21
741.371907
  0
TEXT
  5
98
100
AcDbEntity
  8
DD0
100
AcDbText
 10
517.08007
 20
930.563537
 40
20.0
  1
４３５
 50
90.000003
 41
0.833333
  7
STANDARD
100
AcDbText
  0
ENDBLK
  5
99
100
AcDbEntity
  8
DD0
100
AcDbBlockEnd
  0
BLOCK
  5
9C
100
AcDbEntity
  8
DD0
100
AcDbBlockBegin
  2
DIMS7
 70
     0
 10
0.0
 20
0.0
  0
LINE
  5
9D
100
AcDbEntity
  8
DD0
100
AcDbLine
 10
844.894702
 20
1177.871915
 11
844.894702
 21
1280.091686
  0
LINE
  5
9E
100
AcDbEntity
  8
DD0
100
AcDbLine
 10
645.094671
 20
1179.571897
 11
645.094671
 21
1280.091686
  0
LINE
  5
9F
100
AcDbEntity
  8
DD0
100
AcDbLine
 10
830.405815
 20
1271.209477
 11
844.894702
 21
1275.091763
  0
LINE
  5
A0
100
AcDbEntity
  8
DD0
100
AcDbLine
 10
844.894702
 20
1275.091763
 11
830.405815
 21
1278.974048
  0
LINE
  5
A1
100
AcDbEntity
  8
DD0
100
AcDbLine
 10
659.583558
 20
1278.974048
 11
645.094671
 21
1275.091763
  0
LINE
  5
A2
100
AcDbEntity
  8
DD0
100
AcDbLine
 10
645.094671
 20
1275.091763
 11
659.583558
 21
1271.209477
  0
LINE
  5
A3
100
AcDbEntity
  8
DD0
100
AcDbLine
 10
844.894702
 20
1275.091763
 11
645.094671
 21
1275.091763
  0
TEXT
  5
A4
100
AcDbEntity
  8
DD0
100
AcDbText
 10
716.686282
 20
1280.091839
 40
20.0
  1
２００
 41
0.833333
  7
STANDARD
100
AcDbText
  0
ENDBLK
  5
A5
100
AcDbEntity
  8
DD0
100
AcDbBlockEnd
  0
BLOCK
  5
A8
100
AcDbEntity
  8
DD0
100
AcDbBlockBegin
  2
DIMS8
 70
     0
 10
0.0
 20
0.0
  0
LINE
  5
A9
100
AcDbEntity
  8
DD0
100
AcDbLine
 10
859.383589
 20
796.129207
 11
844.894702
 21
792.246921
  0
LINE
  5
AA
100
AcDbEntity
  8
DD0
100
AcDbLine
 10
844.894702
 20
792.246921
 11
859.383589
 21
788.364635
  0
LINE
  5
AB
100
AcDbEntity
  8
DD0
100
AcDbLine
 10
824.405754
 20
788.364635
 11
838.894641
 21
792.246921
  0
LINE
  5
AC
100
AcDbEntity
  8
DD0
100
AcDbLine
 10
838.894641
 20
792.246921
 11
824.405754
 21
796.129207
  0
LINE
  5
AD
100
AcDbEntity
  8
DD0
100
AcDbLine
 10
946.394696
 20
792.246921
 11
822.394641
 21
792.246921
  0
TEXT
  5
AE
100
AcDbEntity
  8
DD0
100
AcDbText
 10
863.08635
 20
797.246921
 40
20.0
  1
ｔ１．２
 41
0.833333
  7
STANDARD
100
AcDbText
  0
ENDBLK
  5
AF
100
AcDbEntity
  8
DD0
100
AcDbBlockEnd
  0
ENDSEC
  0
SECTION
  2
ENTITIES
  0
INSERT
  5
55
100
AcDbEntity
  8
DD0
100
AcDbBlockReference
  2
DIMS0
 10
0.0
 20
0.0
  0
INSERT
  5
5E
100
AcDbEntity
  8
DD0
100
AcDbBlockReference
  2
DIMS1
 10
0.0
 20
0.0
  0
INSERT
  5
6A
100
AcDbEntity
  8
DD0
100
AcDbBlockReference
  2
DIMS2
 10
0.0
 20
0.0
  0
INSERT
  5
76
100
AcDbEntity
  8
DD0
100
AcDbBlockReference
  2
DIMS3
 10
0.0
 20
0.0
  0
INSERT
  5
82
100
AcDbEntity
  8
DD0
100
AcDbBlockReference
  2
DIMS4
 10
0.0
 20
0.0
  0
INSERT
  5
8E
100
AcDbEntity
  8
DD0
100
AcDbBlockReference
  2
DIMS5
 10
0.0
 20
0.0
  0
INSERT
  5
9A
100
AcDbEntity
  8
DD0
100
AcDbBlockReference
  2
DIMS6
 10
0.0
 20
0.0
  0
INSERT
  5
A6
100
AcDbEntity
  8
DD0
100
AcDbBlockReference
  2
DIMS7
 10
0.0
 20
0.0
  0
INSERT
  5
B0
100
AcDbEntity
  8
DD0
100
AcDbBlockReference
  2
DIMS8
 10
0.0
 20
0.0
  0
LINE
  5
B1
100
AcDbEntity
  8
M0
 62
     4
100
AcDbLine
 10
283.09467
 20
741.371905
 11
283.09467
 21
738.371905
  0
LINE
  5
B2
100
AcDbEntity
  8
M0
 62
     4
100
AcDbLine
 10
292.59467
 20
732.571905
 11
282.59467
 21
732.571905
  0
LINE
  5
B3
100
AcDbEntity
  8
M0
 62
     4
100
AcDbLine
 10
282.59467
 20
732.571905
 11
283.79467
 21
731.371905
  0
LINE
  5
B4
100
AcDbEntity
  8
M0
 62
     4
100
AcDbLine
 10
292.09467
 20
741.371905
 11
292.09467
 21
738.371905
  0
LINE
  5
B5
100
AcDbEntity
  8
M0
 62
     4
100
AcDbLine
 10
291.39467
 20
731.371905
 11
292.59467
 21
732.571905
  0
LINE
  5
B6
100
AcDbEntity
  8
M0
 62
     4
100
AcDbLine
 10
282.59467
 20
738.371905
 11
282.59467
 21
732.571905
  0
LINE
  5
B7
100
AcDbEntity
  8
M0
 62
     4
100
AcDbLine
 10
292.59467
 20
732.571905
 11
292.59467
 21
738.371905
  0
LINE
  5
B8
100
AcDbEntity
  8
M0
 62
     4
100
AcDbLine
 10
292.09467
 20
741.371905
 11
283.09467
 21
741.371905
  0
LINE
  5
B9
100
AcDbEntity
  8
M0
 62
     4
100
AcDbLine
 10
283.79467
 20
731.371905
 11
291.39467
 21
731.371905
  0
LINE
  5
BA
100
AcDbEntity
  8
M0
 62
     4
100
AcDbLine
 10
292.59467
 20
738.371905
 11
282.59467
 21
738.371905
  0
CIRCLE
  5
BB
100
AcDbEntity
  8
M0
  6
DOT
 62
     4
100
AcDbCircle
 10
195.09467
 20
766.371905
 40
6.75
  0
CIRCLE
  5
BC
100
AcDbEntity
  8
M0
  6
DOT
 62
     4
100
AcDbCircle
 10
380.09467
 20
766.371905
 40
6.75
  0
LINE
  5
BD
100
AcDbEntity
  8
M0
  6
DASHDOT
 62
     4
100
AcDbLine
 10
365.84467
 20
1151.371905
 11
394.34467
 21
1151.371905
  0
LINE
  5
BE
100
AcDbEntity
  8
M0
  6
DASHDOT
 62
     4
100
AcDbLine
 10
380.09467
 20
1109.371905
 11
380.09467
 21
1165.621905
  0
ARC
  5
BF
100
AcDbEntity
  8
M0
  6
DOT
 62
     4
100
AcDbCircle
 10
380.09467
 20
1130.371905
 40
13.5
100
AcDbArc
 50
120.0
 51
420.0
  0
ARC
  5
C0
100
AcDbEntity
  8
M0
  6
DOT
 62
     4
100
AcDbCircle
 10
380.09467
 20
1151.371905
 40
6.75
100
AcDbArc
 50
0.0
 51
180.0
  0
ARC
  5
C1
100
AcDbEntity
  8
M0
  6
DOT
 62
     4
100
AcDbCircle
 10
195.09467
 20
1130.371905
 40
13.5
100
AcDbArc
 50
120.0
 51
420.0
  0
ARC
  5
C2
100
AcDbEntity
  8
M0
  6
DOT
 62
     4
100
AcDbCircle
 10
195.09467
 20
1151.371905
 40
6.75
100
AcDbArc
 50
0.0
 51
180.0
  0
LINE
  5
C3
100
AcDbEntity
  8
M0
  6
DASHDOT
 62
     4
100
AcDbLine
 10
195.09467
 20
1109.371905
 11
195.09467
 21
1165.621905
  0
LINE
  5
C4
100
AcDbEntity
  8
M0
  6
DOT
 62
     4
100
AcDbLine
 10
373.34467
 20
1151.371905
 11
373.34467
 21
1142.063248
  0
LINE
  5
C5
100
AcDbEntity
  8
M0
  6
DASHDOT
 62
     4
100
AcDbLine
 10
365.84467
 20
766.371905
 11
394.34467
 21
766.371905
  0
LINE
  5
C6
100
AcDbEntity
  8
M0
  6
DOT
 62
     4
100
AcDbLine
 10
188.34467
 20
1151.371905
 11
188.34467
 21
1142.063248
  0
LINE
  5
C7
100
AcDbEntity
  8
M0
  6
DOT
 62
     4
100
AcDbLine
 10
386.84467
 20
1151.371905
 11
386.84467
 21
1142.063248
  0
LINE
  5
C8
100
AcDbEntity
  8
M0
  6
DASHDOT
 62
     4
100
AcDbLine
 10
195.09467
 20
752.121905
 11
195.09467
 21
780.621905
  0
LINE
  5
C9
100
AcDbEntity
  8
M0
  6
DASHDOT
 62
     4
100
AcDbLine
 10
180.84467
 20
1151.371905
 11
209.34467
 21
1151.371905
  0
LINE
  5
CA
100
AcDbEntity
  8
M0
  6
DASHDOT
 62
     4
100
AcDbLine
 10
380.09467
 20
752.121905
 11
380.09467
 21
780.621905
  0
LINE
  5
CB
100
AcDbEntity
  8
M0
  6
DASHDOT
 62
     4
100
AcDbLine
 10
180.84467
 20
766.371905
 11
209.34467
 21
766.371905
  0
LINE
  5
CC
100
AcDbEntity
  8
M0
  6
DOT
 62
     4
100
AcDbLine
 10
201.84467
 20
1151.371905
 11
201.84467
 21
1142.063248
  0
LINE
  5
CD
100
AcDbEntity
  8
M0
 62
     4
100
AcDbLine
 10
405.09467
 20
741.371905
 11
405.09467
 21
1176.371905
  0
LINE
  5
CE
100
AcDbEntity
  8
M0
 62
     4
100
AcDbLine
 10
405.09467
 20
1176.371905
 11
170.09467
 21
1176.371905
  0
LINE
  5
CF
100
AcDbEntity
  8
M0
 62
     4
100
AcDbLine
 10
170.09467
 20
1176.371905
 11
170.09467
 21
741.371905
  0
LINE
  5
D0
100
AcDbEntity
  8
M0
 62
     4
100
AcDbLine
 10
170.09467
 20
741.371905
 11
405.09467
 21
741.371905
  0
LINE
  5
D1
100
AcDbEntity
  8
M0
  6
DASHDOT
 62
     4
100
AcDbLine
 10
145.09467
 20
958.871905
 11
430.09467
 21
958.871905
  0
LINE
  5
D2
100
AcDbEntity
  8
M0
  6
DASHDOT
 62
     4
100
AcDbLine
 10
287.59467
 20
716.371906
 11
287.59467
 21
1201.371905
  0
LINE
  5
D3
100
AcDbEntity
  8
M0
  6
DASHDOT
 62
     4
100
AcDbLine
 10
362.09467
 20
726.171908
 11
362.09467
 21
751.371905
  0
LINE
  5
D4
100
AcDbEntity
  8
M0
 62
     4
100
AcDbLine
 10
354.593678
 20
741.371905
 11
354.593678
 21
736.865302
  0
LINE
  5
D5
100
AcDbEntity
  8
M0
 62
     4
100
AcDbLine
 10
355.794671
 20
736.171908
 11
368.394669
 21
736.171908
  0
LINE
  5
D6
100
AcDbEntity
  8
M0
 62
     4
100
AcDbLine
 10
369.595677
 20
736.865311
 11
369.595677
 21
741.371905
  0
LINE
  5
D7
100
AcDbEntity
  8
M0
 62
     4
100
AcDbLine
 10
358.341908
 20
736.865302
 11
358.341908
 21
741.371905
  0
LINE
  5
D8
100
AcDbEntity
  8
M0
 62
     4
100
AcDbLine
 10
365.847447
 20
736.865302
 11
365.847447
 21
741.371905
  0
LINE
  5
D9
100
AcDbEntity
  8
M0
 62
     4
100
AcDbLine
 10
354.593678
 20
736.865302
 11
355.794671
 21
736.171909
  0
ARC
  5
DA
100
AcDbEntity
  8
M0
 62
     4
100
AcDbCircle
 10
362.094678
 20
746.673942
 40
10.502033
100
AcDbArc
 50
249.063198
 51
290.93668
  0
ARC
  5
DB
100
AcDbEntity
  8
M0
 62
     4
100
AcDbCircle
 10
356.091054
 20
740.171908
 40
4.0
100
AcDbArc
 50
270.0
 51
304.243644
  0
LINE
  5
DC
100
AcDbEntity
  8
M0
 62
     4
100
AcDbLine
 10
369.595662
 20
736.865302
 11
368.394669
 21
736.171909
  0
ARC
  5
DD
100
AcDbEntity
  8
M0
 62
     4
100
AcDbCircle
 10
368.098286
 20
740.171908
 40
4.0
100
AcDbArc
 50
235.755784
 51
270.0
  0
LINE
  5
DE
100
AcDbEntity
  8
M0
 62
     4
100
AcDbLine
 10
662.89467
 20
732.571905
 11
662.89467
 21
738.371905
  0
LINE
  5
DF
100
AcDbEntity
  8
M0
 62
     4
100
AcDbLine
 10
652.89467
 20
738.371905
 11
652.89467
 21
732.571905
  0
LINE
  5
E0
100
AcDbEntity
  8
M0
 62
     4
100
AcDbLine
 10
654.09467
 20
731.371905
 11
661.69467
 21
731.371905
  0
LINE
  5
E1
100
AcDbEntity
  8
M0
 62
     4
100
AcDbLine
 10
662.39467
 20
741.371905
 11
653.39467
 21
741.371905
  0
LINE
  5
E2
100
AcDbEntity
  8
M0
 62
     4
100
AcDbLine
 10
662.89467
 20
738.371905
 11
652.89467
 21
738.371905
  0
LINE
  5
E3
100
AcDbEntity
  8
M0
 62
     4
100
AcDbLine
 10
662.89467
 20
732.571905
 11
652.89467
 21
732.571905
  0
LINE
  5
E4
100
AcDbEntity
  8
M0
 62
     4
100
AcDbLine
 10
653.39467
 20
741.371905
 11
653.39467
 21
738.371905
  0
LINE
  5
E5
100
AcDbEntity
  8
M0
 62
     4
100
AcDbLine
 10
662.39467
 20
741.371905
 11
662.39467
 21
738.371905
  0
LINE
  5
E6
100
AcDbEntity
  8
M0
 62
     4
100
AcDbLine
 10
652.89467
 20
732.571905
 11
654.09467
 21
731.371905
  0
LINE
  5
E7
100
AcDbEntity
  8
M0
 62
     4
100
AcDbLine
 10
661.69467
 20
731.371905
 11
662.89467
 21
732.571905
  0
LINE
  5
E8
100
AcDbEntity
  8
M0
 62
     4
100
AcDbLine
 10
670.09467
 20
741.371905
 11
670.09467
 21
1176.371905
  0
LINE
  5
E9
100
AcDbEntity
  8
M0
 62
     4
100
AcDbLine
 10
645.09467
 20
1174.571905
 11
645.09467
 21
743.171905
  0
LINE
  5
EA
100
AcDbEntity
  8
M0
 62
     4
100
AcDbLine
 10
646.89467
 20
741.371905
 11
670.09467
 21
741.371905
  0
LINE
  5
EB
100
AcDbEntity
  8
M0
 62
     4
100
AcDbLine
 10
670.09467
 20
1176.371905
 11
646.89467
 21
1176.371905
  0
ARC
  5
EC
100
AcDbEntity
  8
M0
 62
     4
100
AcDbCircle
 10
646.89467
 20
1174.571905
 40
1.8
100
AcDbArc
 50
90.0
 51
180.0
  0
ARC
  5
ED
100
AcDbEntity
  8
M0
 62
     4
100
AcDbCircle
 10
646.89467
 20
743.171905
 40
1.8
100
AcDbArc
 50
180.0
 51
270.0
  0
LINE
  5
EE
100
AcDbEntity
  8
M0
 62
     4
100
AcDbLine
 10
844.89467
 20
744.871905
 11
844.89467
 21
1172.871905
  0
LINE
  5
EF
100
AcDbEntity
  8
M0
 62
     4
100
AcDbLine
 10
844.89467
 20
1172.871905
 11
670.09467
 21
1172.871905
  0
LINE
  5
F0
100
AcDbEntity
  8
M0
 62
     4
100
AcDbLine
 10
670.09467
 20
744.871905
 11
844.89467
 21
744.871905
  0
LINE
  5
F1
100
AcDbEntity
  8
M0
  6
DASHDOT
 62
     4
100
AcDbLine
 10
625.09467
 20
958.871905
 11
864.89467
 21
958.871905
  0
LINE
  5
F2
100
AcDbEntity
  8
M0
  6
DOT
 62
     4
100
AcDbLine
 10
838.89467
 20
744.871905
 11
838.89467
 21
1172.871905
  0
LINE
  5
F3
100
AcDbEntity
  8
M0
 62
     4
100
AcDbLine
 10
817.594673
 20
741.671908
 11
817.594673
 21
743.671908
  0
LINE
  5
F4
100
AcDbEntity
  8
M0
 62
     4
100
AcDbLine
 10
817.594673
 20
743.671908
 11
802.194664
 21
743.671908
  0
LINE
  5
F5
100
AcDbEntity
  8
M0
 62
     4
100
AcDbLine
 10
802.194664
 20
743.671908
 11
802.194664
 21
741.671908
  0
LINE
  5
F6
100
AcDbEntity
  8
M0
 62
     4
100
AcDbLine
 10
802.194664
 20
741.671908
 11
817.594673
 21
741.671908
  0
LINE
  5
F7
100
AcDbEntity
  8
M0
 62
     4
100
AcDbLine
 10
809.894676
 20
741.671908
 11
811.04937
 21
743.671908
  0
LINE
  5
F8
100
AcDbEntity
  8
M0
 62
     4
100
AcDbLine
 10
808.739982
 20
741.671908
 11
809.894676
 21
743.671908
  0
LINE
  5
F9
100
AcDbEntity
  8
M0
 62
     4
100
AcDbLine
 10
817.894652
 20
743.671908
 11
817.894652
 21
744.871905
  0
LINE
  5
FA
100
AcDbEntity
  8
M0
 62
     4
100
AcDbLine
 10
817.894652
 20
744.871905
 11
801.894652
 21
744.871905
  0
LINE
  5
FB
100
AcDbEntity
  8
M0
 62
     4
100
AcDbLine
 10
801.894652
 20
744.871905
 11
801.894652
 21
743.671908
  0
LINE
  5
FC
100
AcDbEntity
  8
M0
 62
     4
100
AcDbLine
 10
801.894652
 20
743.671908
 11
817.894652
 21
743.671908
  0
LINE
  5
FD
100
AcDbEntity
  8
M0
 62
     4
100
AcDbLine
 10
803.395637
 20
741.67192
 11
816.396126
 21
741.671897
  0
LINE
  5
FE
100
AcDbEntity
  8
M0
 62
     4
100
AcDbLine
 10
806.645133
 20
736.172155
 11
813.14537
 21
736.172136
  0
LINE
  5
FF
100
AcDbEntity
  8
M0
 62
     4
100
AcDbLine
 10
816.396097
 20
736.899534
 11
816.39611
 21
741.671883
  0
LINE
  5
100
100
AcDbEntity
  8
M0
 62
     4
100
AcDbLine
 10
803.395637
 20
741.67192
 11
803.395624
 21
736.899571
  0
LINE
  5
101
100
AcDbEntity
  8
M0
  6
DASHDOT
 62
     4
100
AcDbLine
 10
809.894617
 20
726.172145
 11
809.894698
 21
754.871905
  0
LINE
  5
102
100
AcDbEntity
  8
M0
 62
     4
100
AcDbLine
 10
809.894661
 20
741.671931
 11
809.894647
 21
736.899553
  0
ARC
  5
103
100
AcDbEntity
  8
M0
 62
     4
100
AcDbCircle
 10
813.145392
 20
743.799444
 40
7.627309
100
AcDbArc
 50
244.773433
 51
295.226126
  0
ARC
  5
104
100
AcDbEntity
  8
M0
 62
     4
100
AcDbCircle
 10
806.645155
 20
743.794043
 40
7.621889
100
AcDbArc
 50
244.764363
 51
295.23564
  0
CIRCLE
  5
105
100
AcDbEntity
  8
M0
 62
     4
100
AcDbCircle
 10
287.59467
 20
528.571905
 40
5.0
  0
LINE
  5
106
100
AcDbEntity
  8
M0
  6
DASHDOT
 62
     4
100
AcDbLine
 10
272.59467
 20
528.571905
 11
302.59467
 21
528.571905
  0
LINE
  5
107
100
AcDbEntity
  8
M0
 62
     4
100
AcDbLine
 10
372.09467
 20
321.571905
 11
352.09467
 21
321.571905
  0
LINE
  5
108
100
AcDbEntity
  8
M0
 62
     4
100
AcDbLine
 10
362.09467
 20
368.571905
 11
362.09467
 21
321.571905
  0
LINE
  5
109
100
AcDbEntity
  8
M0
 62
     4
100
AcDbLine
 10
368.09467
 20
316.571905
 11
356.09467
 21
316.571905
  0
LINE
  5
10A
100
AcDbEntity
  8
M0
 62
     4
100
AcDbLine
 10
366.09467
 20
311.571905
 11
358.09467
 21
311.571905
  0
LINE
  5
10B
100
AcDbEntity
  8
M0
 62
     4
100
AcDbLine
 10
403.29467
 20
541.371905
 11
171.89467
 21
541.371905
  0
LINE
  5
10C
100
AcDbEntity
  8
M0
 62
     4
100
AcDbLine
 10
405.09467
 20
516.371905
 11
170.09467
 21
516.371905
  0
LINE
  5
10D
100
AcDbEntity
  8
M0
 62
     4
100
AcDbLine
 10
170.09467
 20
539.571905
 11
170.09467
 21
516.371905
  0
LINE
  5
10E
100
AcDbEntity
  8
M0
 62
     4
100
AcDbLine
 10
405.09467
 20
539.571905
 11
405.09467
 21
516.371905
  0
LINE
  5
10F
100
AcDbEntity
  8
M0
  6
DASHDOT
 62
     4
100
AcDbLine
 10
287.59467
 20
561.371905
 11
287.59467
 21
321.571905
  0
ARC
  5
110
100
AcDbEntity
  8
M0
 62
     4
100
AcDbCircle
 10
403.29467
 20
539.571905
 40
1.8
100
AcDbArc
 50
0.0
 51
90.0
  0
ARC
  5
111
100
AcDbEntity
  8
M0
 62
     4
100
AcDbCircle
 10
171.89467
 20
539.571905
 40
1.8
100
AcDbArc
 50
90.0
 51
180.0
  0
LINE
  5
112
100
AcDbEntity
  8
M0
 62
     4
100
AcDbLine
 10
402.09467
 20
341.571905
 11
173.09467
 21
341.571905
  0
LINE
  5
113
100
AcDbEntity
  8
M0
 62
     4
100
AcDbLine
 10
173.09467
 20
516.371905
 11
173.09467
 21
341.571905
  0
LINE
  5
114
100
AcDbEntity
  8
M0
 62
     4
100
AcDbLine
 10
402.09467
 20
516.371905
 11
402.09467
 21
341.571905
  0
CIRCLE
  5
115
100
AcDbEntity
  8
M0
 62
     4
100
AcDbCircle
 10
227.59467
 20
431.571905
 40
26.0
  0
CIRCLE
  5
116
100
AcDbEntity
  8
M0
 62
     4
100
AcDbCircle
 10
227.59467
 20
431.571905
 40
22.5
  0
CIRCLE
  5
117
100
AcDbEntity
  8
M0
 62
     4
100
AcDbCircle
 10
347.59467
 20
431.571905
 40
22.5
  0
CIRCLE
  5
118
100
AcDbEntity
  8
M0
 62
     4
100
AcDbCircle
 10
347.59467
 20
431.571905
 40
26.0
  0
CIRCLE
  5
119
100
AcDbEntity
  8
M0
 62
     4
100
AcDbCircle
 10
287.59467
 20
431.571905
 40
11.0
  0
CIRCLE
  5
11A
100
AcDbEntity
  8
M0
 62
     4
100
AcDbCircle
 10
287.59467
 20
431.571905
 40
14.0
  0
CIRCLE
  5
11B
100
AcDbEntity
  8
M0
  6
DOT
 62
     4
100
AcDbCircle
 10
347.59467
 20
446.571905
 40
26.0
  0
CIRCLE
  5
11C
100
AcDbEntity
  8
M0
  6
DOT
 62
     4
100
AcDbCircle
 10
347.59467
 20
446.571905
 40
22.5
  0
CIRCLE
  5
11D
100
AcDbEntity
  8
M0
  6
DOT
 62
     4
100
AcDbCircle
 10
227.59467
 20
446.571905
 40
26.0
  0
CIRCLE
  5
11E
100
AcDbEntity
  8
M0
  6
DOT
 62
     4
100
AcDbCircle
 10
227.59467
 20
446.571905
 40
22.5
  0
LINE
  5
11F
100
AcDbEntity
  8
M0
  6
DASHDOT
 62
     4
100
AcDbLine
 10
315.09467
 20
431.571905
 11
380.09467
 21
431.571905
  0
LINE
  5
120
100
AcDbEntity
  8
M0
  6
DASHDOT
 62
     4
100
AcDbLine
 10
347.59467
 20
399.071906
 11
347.59467
 21
479.071905
  0
LINE
  5
121
100
AcDbEntity
  8
M0
  6
DASHDOT
 62
     4
100
AcDbLine
 10
195.09467
 20
431.571905
 11
260.09467
 21
431.571905
  0
LINE
  5
122
100
AcDbEntity
  8
M0
  6
DASHDOT
 62
     4
100
AcDbLine
 10
227.59467
 20
399.071906
 11
227.59467
 21
479.071905
  0
LINE
  5
123
100
AcDbEntity
  8
M0
  6
DASHDOT
 62
     4
100
AcDbLine
 10
266.59467
 20
431.571905
 11
308.59467
 21
431.571905
  0
LINE
  5
124
100
AcDbEntity
  8
M0
  6
DASHDOT
 62
     4
100
AcDbLine
 10
347.59467
 20
376.571905
 11
376.59467
 21
376.571905
  0
LINE
  5
125
100
AcDbEntity
  8
M0
  6
DASHDOT
 62
     4
100
AcDbLine
 10
362.09467
 20
362.071906
 11
362.09467
 21
391.071905
  0
LINE
  5
126
100
AcDbEntity
  8
M0
  6
DASHDOT
 62
     4
100
AcDbLine
 10
195.09467
 20
446.571905
 11
260.09467
 21
446.571905
  0
LINE
  5
127
100
AcDbEntity
  8
M0
  6
DASHDOT
 62
     4
100
AcDbLine
 10
315.09467
 20
446.571905
 11
380.09467
 21
446.571905
  0
CIRCLE
  5
128
100
AcDbEntity
  8
M0
 62
     4
100
AcDbCircle
 10
362.09467
 20
376.571905
 40
8.0
  0
LINE
  5
129
100
AcDbEntity
  8
M0
 62
     4
100
AcDbLine
 10
362.094678
 20
384.077444
 11
355.594678
 21
380.324667
  0
LINE
  5
12A
100
AcDbEntity
  8
M0
 62
     4
100
AcDbLine
 10
355.594678
 20
380.324667
 11
355.594678
 21
372.819128
  0
LINE
  5
12B
100
AcDbEntity
  8
M0
 62
     4
100
AcDbLine
 10
355.594678
 20
372.819128
 11
362.094662
 21
369.066351
  0
LINE
  5
12C
100
AcDbEntity
  8
M0
 62
     4
100
AcDbLine
 10
362.094662
 20
369.066351
 11
368.594662
 21
372.819128
  0
LINE
  5
12D
100
AcDbEntity
  8
M0
 62
     4
100
AcDbLine
 10
368.594662
 20
372.819128
 11
368.594678
 21
380.324667
  0
LINE
  5
12E
100
AcDbEntity
  8
M0
 62
     4
100
AcDbLine
 10
368.594678
 20
380.324667
 11
362.094678
 21
384.077444
  0
CIRCLE
  5
12F
100
AcDbEntity
  8
M0
 62
     4
100
AcDbCircle
 10
362.094678
 20
376.571905
 40
6.5
  0
LINE
  5
130
100
AcDbEntity
  8
M1
 62
     2
100
AcDbLine
 10
49.999999
 20
49.999999
 11
49.999999
 21
1424.999979
  0
LINE
  5
131
100
AcDbEntity
  8
M1
 62
     2
100
AcDbLine
 10
49.999999
 20
1424.999979
 11
999.999985
 21
1424.999979
  0
LINE
  5
132
100
AcDbEntity
  8
M1
 62
     2
100
AcDbLine
 10
999.999985
 20
1424.999979
 11
999.999985
 21
49.999999
  0
LINE
  5
133
100
AcDbEntity
  8
M1
 62
     2
100
AcDbLine
 10
999.999985
 20
49.999999
 11
49.999999
 21
49.999999
  0
LINE
  5
134
100
AcDbEntity
  8
M1
 62
     2
100
AcDbLine
 10
999.999985
 20
99.999999
 11
499.999993
 21
99.999999
  0
LINE
  5
135
100
AcDbEntity
  8
M1
 62
     2
100
AcDbLine
 10
999.999985
 20
149.999998
 11
499.999993
 21
149.999998
  0
LINE
  5
136
100
AcDbEntity
  8
M1
 62
     2
100
AcDbLine
 10
999.999985
 20
199.999997
 11
499.999993
 21
199.999997
  0
LINE
  5
137
100
AcDbEntity
  8
M1
 62
     2
100
AcDbLine
 10
499.999993
 20
49.999999
 11
499.999993
 21
199.999997
  0
TEXT
  5
138
100
AcDbEntity
  8
M1
 62
     2
100
AcDbText
 10
512.499992
 20
62.499999
 40
25.0
  1
適　用；
  7
STANDARD
100
AcDbText
  0
TEXT
  5
139
100
AcDbEntity
  8
M1
 62
     2
100
AcDbText
 10
512.499992
 20
162.499998
 40
25.0
  1
登録名：
  7
STANDARD
100
AcDbText
  0
TEXT
  5
13A
100
AcDbEntity
  8
M1
 62
     2
100
AcDbText
 10
632.499991
 20
162.499998
 40
25.0
  1
ＤＭＳＨ１００ＣＴＲ００
 41
0.5
  7
STANDARD
100
AcDbText
  0
TEXT
  5
13B
100
AcDbEntity
  8
M1
 62
     2
100
AcDbText
 10
512.499992
 20
112.499998
 40
25.0
  1
形　式；
  7
STANDARD
100
AcDbText
  0
TEXT
  5
13C
100
AcDbEntity
  8
M1
 62
     2
100
AcDbText
 10
632.499991
 20
112.499998
 40
25.0
  1
ＳＨ１００Ｃ－Ｔ
 41
0.5
  7
STANDARD
100
AcDbText
  0
ENDSEC
  0
SECTION
  2
OBJECTS
  0
DICTIONARY
  5
C
100
AcDbDictionary
  3
ACAD_GROUP
350
D
  3
ACAD_MLINESTYLE
350
E
  0
DICTIONARY
  5
D
102
{ACAD_REACTORS
330
C
102
}
100
AcDbDictionary
  0
DICTIONARY
  5
E
102
{ACAD_REACTORS
330
C
102
}
100
AcDbDictionary
  3
STANDARD
350
13
  0
MLINESTYLE
  5
13
102
{ACAD_REACTORS
330
E
102
}
100
AcDbMlineStyle
  2
STANDARD
 70
     0
  3

 62
     0
 51
90.0
 52
90.0
 71
     2
 49
0.5
 62
   256
  6
BYLAYER
 49
-0.5
 62
   256
  6
BYLAYER
  0
ENDSEC
  0
EOF
