  0
SECTION
  2
HEADER
  9
$ACADVER
  1
AC1014
  9
$INSBASE
 10
0.000000
 20
0.000000
 30
0.0
  9
$VIEWCTR
 10
7.531722
 20
4.5
  9
$VIEWSIZE
 40
9.0
  9
$SNAPMODE
 70
     0
  9
$SNAPUNIT
 10
1.0
 20
1.0
  9
$SNAPBASE
 10
0.0
 20
0.0
  9
$SNAPANG
 50
0.0
  9
$SNAPSTYLE
 70
     0
  9
$SNAPISOPAIR
 70
     0
  9
$GRIDMODE
 70
     0
  9
$GRIDUNIT
 10
0.0
 20
0.0
  9
$ORTHOMODE
 70
     0
  9
$REGENMODE
 70
     1
  9
$FILLMODE
 70
     1
  9
$QTEXTMODE
 70
     0
  9
$DRAGMODE
 70
     2
  9
$LTSCALE
  40
     1.000000
  9
$OSMODE
 70
     0
  9
$ATTMODE
 70
     1
  9
$TEXTSIZE
 40
0.2
  9
$TRACEWID
 40
0.05
  9
$TEXTSTYLE
  7
STANDARD
  9
$CELTYPE
  6
BYLAYER
  9
$CECOLOR
 62
   256
  9
$DIMSCALE
 40
1.0
  9
$DIMASZ
 40
0.18
  9
$DIMEXO
 40
0.0625
  9
$DIMDLI
 40
0.38
  9
$DIMRND
 40
0.0
  9
$DIMDLE
 40
0.0
  9
$DIMEXE
 40
0.18
  9
$DIMTP
 40
0.0
  9
$DIMTM
 40
0.0
  9
$DIMTXT
 40
0.18
  9
$DIMCEN
 40
0.09
  9
$DIMTSZ
 40
0.0
  9
$DIMTOL
 70
     0
  9
$DIMLIM
 70
     0
  9
$DIMTIH
 70
     1
  9
$DIMTOH
 70
     1
  9
$DIMSE1
 70
     0
  9
$DIMSE2
 70
     0
  9
$DIMTAD
 70
     0
  9
$DIMZIN
 70
     0
  9
$DIMBLK
  1

  9
$LUNITS
 70
     2
  9
$LUPREC
 70
     4
  9
$AXISMODE
 70
     0
  9
$AXISUNIT
 10
0.0
 20
0.0
  9
$SKETCHINC
 40
0.1
  9
$FILLETRAD
 40
0.0
  9
$AUNITS
 70
     0
  9
$AUPREC
 70
     0
  9
$MENU
  1
ACAD
  9
$ELEVATION
 40
0.0
  9
$THICKNESS
 40
0.0
  9
$VIEWDIR
 10
0.0
 20
0.0
 30
1.0
  9
$LIMCHECK
 70
     0
  9
$BLIPMODE
 70
     1
  9
$CHAMFERA
 40
0.0
  9
$CHAMFERB
 40
0.0
  9
$FASTZOOM
 70
     1
  9
$SKPOLY
 70
     0
  9
$TDCREATE
 40
0000000.0000000000
  9
$TDUPDATE
 40
0000000.0000000000
  9
$TDINDWG
 40
0.0000000000
  9
$TDUSRTIMER
 40
0.0000000000
  9
$USRTIMER
 70
     1
  9
$ANGBASE
 50
0.0
  9
$ANGDIR
 70
     0
  9
$PDMODE
 70
     0
  9
$PDSIZE
 40
0.0
  9
$PLINEWID
 40
0.0
  9
$COORDS
 70
     0
  9
$USERI1
 70
     0
  9
$USERI2
 70
     0
  9
$USERI3
 70
     0
  9
$USERI4
 70
     0
  9
$USERI5
 70
     0
  9
$USERR1
 40
0.0
  9
$USERR2
 40
0.0
  9
$USERR3
 40
0.0
  9
$USERR4
 40
0.0
  9
$USERR5
 40
0.0
  9
$CLAYER
  8
M0
  9
$EXTMIN
 10
14.717987
 20
15.85014
  9
$EXTMAX
 10
300.003268
 20
428.763047
  9
$LIMMIN
 10
0.0
 20
0.0
  9
$LIMMAX
 10
210.0
 20
297.0
  9
$HANDSEED
  5
84B
  0
ENDSEC
  0
SECTION
  2
CLASSES
  0
CLASS
  1
DICTIONARYVAR
  2
AcDbDictionaryVar
  3
"AutoCAD"
 90
        0
280
     0
281
     0
  0
CLASS
  1
HATCH
  2
AcDbHatch
  3
"ACAD_SEDONA"
 90
        0
280
     0
281
     1
  0
ENDSEC
  0
SECTION
  2
TABLES
  0
TABLE
  2
VPORT
  5
8
100
AcDbSymbolTable
 70
     2
  0
VPORT
  5
14
100
AcDbSymbolTableRecord
100
AcDbViewportTableRecord
  2
*ACTIVE
 70
     0
 10
0.0
 20
0.0
 11
1.0
 21
1.0
 12
484.0
 22
297.0
 13
0.0
 23
0.0
 14
1.0
 24
1.0
 15
0.0
 25
0.0
 16
0.0
 26
0.0
 36
1.0
 17
0.0
 27
0.0
 37
0.0
 40
594.0
 41
2.0
 42
50.0
 43
0.0
 44
0.0
 50
0.0
 51
0.0
 71
     0
 72
   100
 73
     1
 74
     1
 75
     0
 76
     0
 77
     0
 78
     0
  0
ENDTAB
  0
TABLE
  2
LTYPE
  5
5
100
AcDbSymbolTable
 70
     5
  0
LTYPE
  5
15
100
AcDbSymbolTableRecord
100
AcDbLinetypeTableRecord
  2
BYBLOCK
 70
     0
  3

 72
    65
 73
     0
 40
0.0
  0
LTYPE
  5
16
100
AcDbSymbolTableRecord
100
AcDbLinetypeTableRecord
  2
BYLAYER
 70
     0
  3

 72
    65
 73
     0
 40
0.0
  0
LTYPE
  5
17
100
AcDbSymbolTableRecord
100
AcDbLinetypeTableRecord
  2
CONTINUOUS
 70
    64
  3
Solid line
 72
    65
 73
     0
 40
0.0
  0
LTYPE
  5
18
100
AcDbSymbolTableRecord
100
AcDbLinetypeTableRecord
  2
DASHED
 70
    64
  3
__ __ __ __ __ __ __ __ __ __ __ __ __ __ __ __
 72
    65
 73
     2
 40
0.75
 49
0.5
 74
     0
 49
-0.25
 74
     0
  0
LTYPE
  5
19
100
AcDbSymbolTableRecord
100
AcDbLinetypeTableRecord
  2
DASHDOT
 70
    64
  3
__ . __ . __ . __ . __ . __ . __ . __ . __ . __
 72
    65
 73
     4
 40
1.0
 49
0.5
 74
     0
 49
-0.25
 74
     0
 49
0.0
 74
     0
 49
-0.25
 74
     0
  0
LTYPE
  5
1A
100
AcDbSymbolTableRecord
100
AcDbLinetypeTableRecord
  2
DIVIDE
 70
    64
  3
____ . . ____ . . ____ . . ____ . . ____ . . __
 72
    65
 73
     6
 40
1.25
 49
0.5
 74
     0
 49
-0.25
 74
     0
 49
0.0
 74
     0
 49
-0.25
 74
     0
 49
0.0
 74
     0
 49
-0.25
 74
     0
  0
LTYPE
  5
1B
100
AcDbSymbolTableRecord
100
AcDbLinetypeTableRecord
  2
DOT
 70
    64
  3
. . . . . . . . . . . . . . . . . . . . . . . .
 72
    65
 73
     2
 40
0.25
 49
0.0
 74
     0
 49
-0.25
 74
     0
  0
ENDTAB
  0
TABLE
  2
LAYER
  5
2
100
AcDbSymbolTable
 70
   102
  0
LAYER
  5
F
100
AcDbSymbolTableRecord
100
AcDbLayerTableRecord
  2
0
 70
     0
 62
     7
  6
CONTINUOUS
  0
LAYER
  5
1C
100
AcDbSymbolTableRecord
100
AcDbLayerTableRecord
  2
DEFPOINTS
 70
     0
 62
     7
  6
CONTINUOUS
  0
LAYER
  5
1D
100
AcDbSymbolTableRecord
100
AcDbLayerTableRecord
  2
M0
 70
     0
 62
     3
  6
CONTINUOUS
  0
LAYER
  5
1E
100
AcDbSymbolTableRecord
100
AcDbLayerTableRecord
  2
M3
 70
     0
 62
     3
  6
CONTINUOUS
  0
LAYER
  5
1F
100
AcDbSymbolTableRecord
100
AcDbLayerTableRecord
  2
DD0
 70
     0
 62
     4
  6
CONTINUOUS
  0
LAYER
  5
20
100
AcDbSymbolTableRecord
100
AcDbLayerTableRecord
  2
DN0
 70
     0
 62
     2
  6
CONTINUOUS
  0
ENDTAB
  0
TABLE
  2
STYLE
  5
3
100
AcDbSymbolTable
 70
     2
  0
STYLE
  5
10
100
AcDbSymbolTableRecord
100
AcDbTextStyleTableRecord
  2
STANDARD
 70
     0
 40
0.0
 41
1.0
 50
0.0
 71
     0
 42
0.2
  3
txt
  4
BIGFONT
  0
ENDTAB
  0
TABLE
  2
VIEW
  5
6
100
AcDbSymbolTable
 70
     0
  0
ENDTAB
  0
TABLE
  2
UCS
  5
7
100
AcDbSymbolTable
 70
     0
  0
ENDTAB
  0
TABLE
  2
APPID
  5
9
100
AcDbSymbolTable
 70
     1
  0
APPID
  5
11
100
AcDbSymbolTableRecord
100
AcDbRegAppTableRecord
  2
ACAD
 70
     0
  0
ENDTAB
  0
TABLE
  2
DIMSTYLE
  5
A
100
AcDbSymbolTable
 70
     2
  0
DIMSTYLE
105
27
100
AcDbSymbolTableRecord
100
AcDbDimStyleTableRecord
  2
STANDARD
 70
     0
  3

  4

  5

  6
_OPEN
  7
_OPEN
 40
1.0
 41
4.504504
 42
1.0
 43
8.0
 44
1.0
 45
0.0
 46
0.0
 47
0.0
 48
0.0
140
4.72973
141
0.09
142
0.0
143
0.03937
144
1.0
145
0.0
146
1.0
147
0.6
 71
     0
 72
     0
 73
     1
 74
     1
 75
     0
 76
     0
 77
     3
 78
     8
170
     0
171
     2
172
     0
173
     1
174
     0
175
     0
176
     0
177
     0
178
     0
270
     2
271
     2
272
     4
273
     2
274
     2
340
10
275
     0
280
     0
281
     0
282
     0
283
     1
284
     0
285
     0
286
     0
287
     3
288
     0
  0
DIMSTYLE
105
28
100
AcDbSymbolTableRecord
100
AcDbDimStyleTableRecord
  2
LEADSTYL
 70
     0
  3

  4

  5

  6
_OPEN
  7
_OPEN
 40
1.0
 41
4.504504
 42
0.0625
 43
0.38
 44
0.18
 45
0.0
 46
0.0
 47
0.0
 48
0.0
140
4.72973
141
0.09
142
0.0
143
25.4
144
1.0
145
0.0
146
1.0
147
0.6
 71
     0
 72
     0
 73
     1
 74
     1
 75
     0
 76
     0
 77
     0
 78
     0
170
     0
171
     2
172
     0
173
     1
174
     0
175
     0
176
     0
177
     0
178
     0
270
     2
271
     4
272
     4
273
     2
274
     2
340
10
275
     0
280
     0
281
     0
282
     0
283
     1
284
     0
285
     0
286
     0
287
     3
288
     0
  0
ENDTAB
  0
TABLE
  2
BLOCK_RECORD
  5
1
100
AcDbSymbolTable
 70
    21
  0
BLOCK_RECORD
  5
21
100
AcDbSymbolTableRecord
100
AcDbBlockTableRecord
  2
*MODEL_SPACE
  0
BLOCK_RECORD
  5
24
100
AcDbSymbolTableRecord
100
AcDbBlockTableRecord
  2
*PAPER_SPACE
  0
BLOCK_RECORD
  5
29
100
AcDbSymbolTableRecord
100
AcDbBlockTableRecord
  2
_NONE
  0
BLOCK_RECORD
  5
2D
100
AcDbSymbolTableRecord
100
AcDbBlockTableRecord
  2
_OPEN
  0
BLOCK_RECORD
  5
33
100
AcDbSymbolTableRecord
100
AcDbBlockTableRecord
  2
_CLOSED
  0
BLOCK_RECORD
  5
3A
100
AcDbSymbolTableRecord
100
AcDbBlockTableRecord
  2
_ORIGIN
  0
BLOCK_RECORD
  5
3F
100
AcDbSymbolTableRecord
100
AcDbBlockTableRecord
  2
_DOT
  0
BLOCK_RECORD
  5
47
100
AcDbSymbolTableRecord
100
AcDbBlockTableRecord
  2
_OBLIQUE
  0
BLOCK_RECORD
  5
4B
100
AcDbSymbolTableRecord
100
AcDbBlockTableRecord
  2
DIMS0
  0
BLOCK_RECORD
  5
56
100
AcDbSymbolTableRecord
100
AcDbBlockTableRecord
  2
DIMS1
  0
BLOCK_RECORD
  5
61
100
AcDbSymbolTableRecord
100
AcDbBlockTableRecord
  2
DIMS2
  0
BLOCK_RECORD
  5
6D
100
AcDbSymbolTableRecord
100
AcDbBlockTableRecord
  2
DIMS3
  0
BLOCK_RECORD
  5
79
100
AcDbSymbolTableRecord
100
AcDbBlockTableRecord
  2
DIMS4
  0
BLOCK_RECORD
  5
86
100
AcDbSymbolTableRecord
100
AcDbBlockTableRecord
  2
DIMS5
  0
BLOCK_RECORD
  5
92
100
AcDbSymbolTableRecord
100
AcDbBlockTableRecord
  2
DIMS6
  0
BLOCK_RECORD
  5
9E
100
AcDbSymbolTableRecord
100
AcDbBlockTableRecord
  2
DIMS7
  0
BLOCK_RECORD
  5
AA
100
AcDbSymbolTableRecord
100
AcDbBlockTableRecord
  2
DIMS8
  0
BLOCK_RECORD
  5
B6
100
AcDbSymbolTableRecord
100
AcDbBlockTableRecord
  2
DIMS9
  0
BLOCK_RECORD
  5
C2
100
AcDbSymbolTableRecord
100
AcDbBlockTableRecord
  2
DIMS10
  0
BLOCK_RECORD
  5
CE
100
AcDbSymbolTableRecord
100
AcDbBlockTableRecord
  2
DIMS11
  0
BLOCK_RECORD
  5
DA
100
AcDbSymbolTableRecord
100
AcDbBlockTableRecord
  2
DIMS12
  0
BLOCK_RECORD
  5
E6
100
AcDbSymbolTableRecord
100
AcDbBlockTableRecord
  2
DIMS13
  0
BLOCK_RECORD
  5
F2
100
AcDbSymbolTableRecord
100
AcDbBlockTableRecord
  2
DIMS14
  0
ENDTAB
  0
ENDSEC
  0
SECTION
  2
BLOCKS
  0
BLOCK
  5
22
100
AcDbEntity
  8
0
100
AcDbBlockBegin
  2
*MODEL_SPACE
 70
     0
 10
0.0
 20
0.0
 30
0.0
  3
*MODEL_SPACE
  1

  0
ENDBLK
  5
23
100
AcDbEntity
  8
0
100
AcDbBlockEnd
  0
BLOCK
  5
25
100
AcDbEntity
 67
     1
  8
0
100
AcDbBlockBegin
  2
*PAPER_SPACE
 70
     0
 10
0.0
 20
0.0
 30
0.0
  3
*PAPER_SPACE
  1

  0
ENDBLK
  5
26
100
AcDbEntity
 67
     1
  8
0
100
AcDbBlockEnd
  0
BLOCK
  5
2A
100
AcDbEntity
  8
0
100
AcDbBlockBegin
  2
_NONE
 70
     0
 10
0.0
 20
0.0
  0
CIRCLE
  5
2B
100
AcDbEntity
  8
0
 62
     0
100
AcDbCircle
 10
0.0
 20
0.0
 40
0.25
  0
ENDBLK
  5
2C
100
AcDbEntity
  8
0
100
AcDbBlockEnd
  0
BLOCK
  5
2E
100
AcDbEntity
  8
0
100
AcDbBlockBegin
  2
_OPEN
 70
     0
 10
0.0
 20
0.0
  0
LINE
  5
2F
100
AcDbEntity
  8
0
 62
     0
100
AcDbLine
 10
-0.965926
 20
0.258819
 11
0.0
 21
0.0
  0
LINE
  5
30
100
AcDbEntity
  8
0
 62
     0
100
AcDbLine
 10
0.0
 20
0.0
 11
-0.965926
 21
-0.258819
  0
LINE
  5
31
100
AcDbEntity
  8
0
 62
     0
100
AcDbLine
 10
0.0
 20
0.0
 11
-1.0
 21
0.0
  0
ENDBLK
  5
32
100
AcDbEntity
  8
0
100
AcDbBlockEnd
  0
BLOCK
  5
34
100
AcDbEntity
  8
0
100
AcDbBlockBegin
  2
_CLOSED
 70
     0
 10
0.0
 20
0.0
  0
LINE
  5
35
100
AcDbEntity
  8
0
 62
     0
100
AcDbLine
 10
-0.965926
 20
0.258819
 11
0.0
 21
0.0
  0
LINE
  5
36
100
AcDbEntity
  8
0
 62
     0
100
AcDbLine
 10
0.0
 20
0.0
 11
-0.965926
 21
-0.258819
  0
LINE
  5
37
100
AcDbEntity
  8
0
 62
     0
100
AcDbLine
 10
-0.965926
 20
0.258819
 11
-0.965926
 21
-0.258819
  0
LINE
  5
38
100
AcDbEntity
  8
0
 62
     0
100
AcDbLine
 10
0.0
 20
0.0
 11
-1.0
 21
0.0
  0
ENDBLK
  5
39
100
AcDbEntity
  8
0
100
AcDbBlockEnd
  0
BLOCK
  5
3B
100
AcDbEntity
  8
0
100
AcDbBlockBegin
  2
_ORIGIN
 70
     0
 10
0.0
 20
0.0
  0
CIRCLE
  5
3C
100
AcDbEntity
  8
0
 62
     0
100
AcDbCircle
 10
0.0
 20
0.0
 40
0.5
  0
LINE
  5
3D
100
AcDbEntity
  8
0
 62
     0
100
AcDbLine
 10
0.0
 20
0.0
 11
-1.0
 21
0.0
  0
ENDBLK
  5
3E
100
AcDbEntity
  8
0
100
AcDbBlockEnd
  0
BLOCK
  5
40
100
AcDbEntity
  8
0
100
AcDbBlockBegin
  2
_DOT
 70
     0
 10
0.0
 20
0.0
  0
POLYLINE
  5
41
100
AcDbEntity
  8
0
 62
     0
100
AcDb2dPolyline
 66
     1
 70
     1
 40
0.5
 41
0.5
  0
VERTEX
  5
42
100
AcDbEntity
  8
0
 62
     0
100
AcDbVertex
100
AcDb2dVertex
 10
-0.25
 20
0.0
 42
1.0
  0
VERTEX
  5
43
100
AcDbEntity
  8
0
 62
     0
100
AcDbVertex
100
AcDb2dVertex
 10
0.25
 20
0.0
 42
1.0
  0
SEQEND
  5
44
100
AcDbEntity
  8
0
 62
     0
  0
LINE
  5
45
100
AcDbEntity
  8
0
 62
     0
100
AcDbLine
 10
-0.5
 20
0.0
 11
-1.0
 21
0.0
  0
ENDBLK
  5
46
100
AcDbEntity
  8
0
100
AcDbBlockEnd
  0
BLOCK
  5
48
100
AcDbEntity
  8
0
100
AcDbBlockBegin
  2
_OBLIQUE
 70
     0
 10
0.0
 20
0.0
  0
LINE
  5
49
100
AcDbEntity
  8
0
 62
     0
100
AcDbLine
 10
-0.353553
 20
-0.353553
 11
0.353553
 21
0.353553
  0
ENDBLK
  5
4A
100
AcDbEntity
  8
0
100
AcDbBlockEnd
  0
BLOCK
  5
4C
100
AcDbEntity
  8
DD0
100
AcDbBlockBegin
  2
DIMS0
 70
     0
 10
0.0
 20
0.0
  0
LINE
  5
4D
100
AcDbEntity
  8
DD0
100
AcDbLine
 10
199.568187
 20
349.909529
 11
199.568187
 21
402.955975
  0
LINE
  5
4E
100
AcDbEntity
  8
DD0
100
AcDbLine
 10
276.317175
 20
400.288622
 11
280.668192
 21
401.454474
  0
LINE
  5
4F
100
AcDbEntity
  8
DD0
100
AcDbLine
 10
280.668192
 20
401.454474
 11
276.317175
 21
402.620325
  0
LINE
  5
50
100
AcDbEntity
  8
DD0
100
AcDbLine
 10
203.919205
 20
402.620325
 11
199.568187
 21
401.454474
  0
LINE
  5
51
100
AcDbEntity
  8
DD0
100
AcDbLine
 10
199.568187
 20
401.454474
 11
203.919205
 21
400.288622
  0
LINE
  5
52
100
AcDbEntity
  8
DD0
100
AcDbLine
 10
280.668192
 20
401.454474
 11
199.568187
 21
401.454474
  0
TEXT
  5
53
100
AcDbEntity
  8
DD0
100
AcDbText
 10
237.372935
 20
402.355384
 40
3.753754
  1
８１
 41
0.666667
  7
STANDARD
100
AcDbText
  0
ENDBLK
  5
54
100
AcDbEntity
  8
DD0
100
AcDbBlockEnd
  0
BLOCK
  5
57
100
AcDbEntity
  8
DD0
100
AcDbBlockBegin
  2
DIMS1
 70
     0
 10
0.0
 20
0.0
  0
LINE
  5
58
100
AcDbEntity
  8
DD0
100
AcDbLine
 10
269.668186
 20
372.909518
 11
269.668186
 21
383.272733
  0
LINE
  5
59
100
AcDbEntity
  8
DD0
100
AcDbLine
 10
276.317175
 20
380.60538
 11
280.668192
 21
381.771232
  0
LINE
  5
5A
100
AcDbEntity
  8
DD0
100
AcDbLine
 10
280.668192
 20
381.771232
 11
276.317175
 21
382.937083
  0
LINE
  5
5B
100
AcDbEntity
  8
DD0
100
AcDbLine
 10
274.019203
 20
382.937083
 11
269.668186
 21
381.771232
  0
LINE
  5
5C
100
AcDbEntity
  8
DD0
100
AcDbLine
 10
269.668186
 20
381.771232
 11
274.019203
 21
380.60538
  0
LINE
  5
5D
100
AcDbEntity
  8
DD0
100
AcDbLine
 10
280.668192
 20
381.771232
 11
269.668186
 21
381.771232
  0
TEXT
  5
5E
100
AcDbEntity
  8
DD0
100
AcDbText
 10
272.211477
 20
382.672142
 40
3.753754
  1
１１
 41
0.666667
  7
STANDARD
100
AcDbText
  0
ENDBLK
  5
5F
100
AcDbEntity
  8
DD0
100
AcDbBlockEnd
  0
BLOCK
  5
62
100
AcDbEntity
  8
DD0
100
AcDbBlockBegin
  2
DIMS2
 70
     0
 10
0.0
 20
0.0
  0
LINE
  5
63
100
AcDbEntity
  8
DD0
100
AcDbLine
 10
280.668192
 20
372.159524
 11
280.668192
 21
408.711105
  0
LINE
  5
64
100
AcDbEntity
  8
DD0
100
AcDbLine
 10
168.268184
 20
339.70951
 11
168.268184
 21
408.711105
  0
LINE
  5
65
100
AcDbEntity
  8
DD0
100
AcDbLine
 10
276.317175
 20
406.043751
 11
280.668192
 21
407.209603
  0
LINE
  5
66
100
AcDbEntity
  8
DD0
100
AcDbLine
 10
280.668192
 20
407.209603
 11
276.317175
 21
408.375455
  0
LINE
  5
67
100
AcDbEntity
  8
DD0
100
AcDbLine
 10
172.619202
 20
408.375455
 11
168.268184
 21
407.209603
  0
LINE
  5
68
100
AcDbEntity
  8
DD0
100
AcDbLine
 10
168.268184
 20
407.209603
 11
172.619202
 21
406.043751
  0
LINE
  5
69
100
AcDbEntity
  8
DD0
100
AcDbLine
 10
280.668192
 20
407.209603
 11
168.268184
 21
407.209603
  0
TEXT
  5
6A
100
AcDbEntity
  8
DD0
100
AcDbText
 10
188.689907
 20
408.110513
 40
3.753754
  1
１１２（補助接点ヘッドオンユニットを付けた場合）
 41
0.666667
  7
STANDARD
100
AcDbText
  0
ENDBLK
  5
6B
100
AcDbEntity
  8
DD0
100
AcDbBlockEnd
  0
BLOCK
  5
6E
100
AcDbEntity
  8
DD0
100
AcDbBlockBegin
  2
DIMS3
 70
     0
 10
0.0
 20
0.0
  0
LINE
  5
6F
100
AcDbEntity
  8
DD0
100
AcDbLine
 10
199.568187
 20
349.909529
 11
199.568187
 21
387.676108
  0
LINE
  5
70
100
AcDbEntity
  8
DD0
100
AcDbLine
 10
194.568185
 20
382.409512
 11
194.568185
 21
387.676108
  0
LINE
  5
71
100
AcDbEntity
  8
DD0
100
AcDbLine
 10
203.919205
 20
387.340458
 11
199.568187
 21
386.174607
  0
LINE
  5
72
100
AcDbEntity
  8
DD0
100
AcDbLine
 10
199.568187
 20
386.174607
 11
203.919205
 21
385.008755
  0
LINE
  5
73
100
AcDbEntity
  8
DD0
100
AcDbLine
 10
190.217168
 20
385.008755
 11
194.568185
 21
386.174607
  0
LINE
  5
74
100
AcDbEntity
  8
DD0
100
AcDbLine
 10
194.568185
 20
386.174607
 11
190.217168
 21
387.340458
  0
LINE
  5
75
100
AcDbEntity
  8
DD0
100
AcDbLine
 10
204.523142
 20
386.174607
 11
185.108725
 21
386.174607
  0
TEXT
  5
76
100
AcDbEntity
  8
DD0
100
AcDbText
 10
186.432546
 20
387.075517
 40
3.753754
  1
５
 41
0.666667
  7
STANDARD
100
AcDbText
  0
ENDBLK
  5
77
100
AcDbEntity
  8
DD0
100
AcDbBlockEnd
  0
BLOCK
  5
7A
100
AcDbEntity
  8
DD0
100
AcDbBlockBegin
  2
DIMS4
 70
     0
 10
0.0
 20
0.0
  0
LINE
  5
7B
100
AcDbEntity
  8
DD0
100
AcDbLine
 10
126.79105
 20
368.109529
 11
126.79105
 21
411.956828
  0
LINE
  5
7C
100
AcDbEntity
  8
DD0
100
AcDbLine
 10
38.991054
 20
368.109529
 11
38.991054
 21
411.956828
  0
LINE
  5
7D
100
AcDbEntity
  8
DD0
100
AcDbLine
 10
122.440033
 20
409.289475
 11
126.79105
 21
410.455326
  0
LINE
  5
7E
100
AcDbEntity
  8
DD0
100
AcDbLine
 10
126.79105
 20
410.455326
 11
122.440033
 21
411.621178
  0
LINE
  5
7F
100
AcDbEntity
  8
DD0
100
AcDbLine
 10
43.342071
 20
411.621178
 11
38.991054
 21
410.455326
  0
LINE
  5
80
100
AcDbEntity
  8
DD0
100
AcDbLine
 10
38.991054
 20
410.455326
 11
43.342071
 21
409.289475
  0
LINE
  5
81
100
AcDbEntity
  8
DD0
100
AcDbLine
 10
126.79105
 20
410.455326
 11
38.991054
 21
410.455326
  0
TEXT
  5
82
100
AcDbEntity
  8
DD0
100
AcDbText
 10
80.145808
 20
411.356236
 40
3.753754
  1
８８
 41
0.666667
  7
STANDARD
100
AcDbText
  0
TEXT
  5
83
100
AcDbEntity
  8
DD0
100
AcDbText
 10
51.61728
 20
405.50039
 40
3.753754
  1
（補助接点サイドオンユニットを付けた場合）
 41
0.666667
  7
STANDARD
100
AcDbText
  0
ENDBLK
  5
84
100
AcDbEntity
  8
DD0
100
AcDbBlockEnd
  0
BLOCK
  5
87
100
AcDbEntity
  8
DD0
100
AcDbBlockBegin
  2
DIMS5
 70
     0
 10
0.0
 20
0.0
  0
LINE
  5
88
100
AcDbEntity
  8
DD0
100
AcDbLine
 10
82.891051
 20
391.202309
 11
82.891051
 21
393.374326
  0
LINE
  5
89
100
AcDbEntity
  8
DD0
100
AcDbLine
 10
60.991052
 20
382.909524
 11
60.991052
 21
393.374326
  0
LINE
  5
8A
100
AcDbEntity
  8
DD0
100
AcDbLine
 10
78.540034
 20
390.706973
 11
82.891051
 21
391.872825
  0
LINE
  5
8B
100
AcDbEntity
  8
DD0
100
AcDbLine
 10
82.891051
 20
391.872825
 11
78.540034
 21
393.038676
  0
LINE
  5
8C
100
AcDbEntity
  8
DD0
100
AcDbLine
 10
65.342069
 20
393.038676
 11
60.991052
 21
391.872825
  0
LINE
  5
8D
100
AcDbEntity
  8
DD0
100
AcDbLine
 10
60.991052
 20
391.872825
 11
65.342069
 21
390.706973
  0
LINE
  5
8E
100
AcDbEntity
  8
DD0
100
AcDbLine
 10
82.891051
 20
391.872825
 11
60.991052
 21
391.872825
  0
TEXT
  5
8F
100
AcDbEntity
  8
DD0
100
AcDbText
 10
69.195811
 20
392.773735
 40
3.753754
  1
２２
 41
0.666667
  7
STANDARD
100
AcDbText
  0
ENDBLK
  5
90
100
AcDbEntity
  8
DD0
100
AcDbBlockEnd
  0
BLOCK
  5
93
100
AcDbEntity
  8
DD0
100
AcDbBlockBegin
  2
DIMS6
 70
     0
 10
0.0
 20
0.0
  0
LINE
  5
94
100
AcDbEntity
  8
DD0
100
AcDbLine
 10
280.668192
 20
301.656519
 11
280.668192
 21
225.312376
  0
LINE
  5
95
100
AcDbEntity
  8
DD0
100
AcDbLine
 10
206.068706
 20
272.660833
 11
206.068706
 21
225.312376
  0
LINE
  5
96
100
AcDbEntity
  8
DD0
100
AcDbLine
 10
276.317175
 20
225.648026
 11
280.668192
 21
226.813878
  0
LINE
  5
97
100
AcDbEntity
  8
DD0
100
AcDbLine
 10
280.668192
 20
226.813878
 11
276.317175
 21
227.979729
  0
LINE
  5
98
100
AcDbEntity
  8
DD0
100
AcDbLine
 10
210.419724
 20
227.979729
 11
206.068706
 21
226.813878
  0
LINE
  5
99
100
AcDbEntity
  8
DD0
100
AcDbLine
 10
206.068706
 20
226.813878
 11
210.419724
 21
225.648026
  0
LINE
  5
9A
100
AcDbEntity
  8
DD0
100
AcDbLine
 10
280.668192
 20
226.813878
 11
206.068706
 21
226.813878
  0
TEXT
  5
9B
100
AcDbEntity
  8
DD0
100
AcDbText
 10
237.620192
 20
227.714788
 40
3.753754
  1
７４．５
 41
0.666667
  7
STANDARD
100
AcDbText
  0
ENDBLK
  5
9C
100
AcDbEntity
  8
DD0
100
AcDbBlockEnd
  0
BLOCK
  5
9F
100
AcDbEntity
  8
DD0
100
AcDbBlockBegin
  2
DIMS7
 70
     0
 10
0.0
 20
0.0
  0
LINE
  5
A0
100
AcDbEntity
  8
DD0
100
AcDbLine
 10
110.292554
 20
386.908036
 11
140.520947
 21
386.908036
  0
LINE
  5
A1
100
AcDbEntity
  8
DD0
100
AcDbLine
 10
91.542555
 20
240.408015
 11
140.520947
 21
240.408015
  0
LINE
  5
A2
100
AcDbEntity
  8
DD0
100
AcDbLine
 10
140.185298
 20
382.557019
 11
139.019446
 21
386.908036
  0
LINE
  5
A3
100
AcDbEntity
  8
DD0
100
AcDbLine
 10
139.019446
 20
386.908036
 11
137.853594
 21
382.557019
  0
LINE
  5
A4
100
AcDbEntity
  8
DD0
100
AcDbLine
 10
137.853594
 20
244.759032
 11
139.019446
 21
240.408015
  0
LINE
  5
A5
100
AcDbEntity
  8
DD0
100
AcDbLine
 10
139.019446
 20
240.408015
 11
140.185298
 21
244.759032
  0
LINE
  5
A6
100
AcDbEntity
  8
DD0
100
AcDbLine
 10
139.019446
 20
386.908036
 11
139.019446
 21
240.408015
  0
TEXT
  5
A7
100
AcDbEntity
  8
DD0
100
AcDbText
 10
138.118547
 20
306.408256
 40
3.753754
  1
１４６．５
 50
90.000003
 41
0.666667
  7
STANDARD
100
AcDbText
  0
ENDBLK
  5
A8
100
AcDbEntity
  8
DD0
100
AcDbBlockEnd
  0
BLOCK
  5
AB
100
AcDbEntity
  8
DD0
100
AcDbBlockBegin
  2
DIMS8
 70
     0
 10
0.0
 20
0.0
  0
LINE
  5
AC
100
AcDbEntity
  8
DD0
100
AcDbLine
 10
60.041049
 20
244.406528
 11
60.041049
 21
227.197111
  0
LINE
  5
AD
100
AcDbEntity
  8
DD0
100
AcDbLine
 10
72.54105
 20
244.406528
 11
72.54105
 21
227.197111
  0
LINE
  5
AE
100
AcDbEntity
  8
DD0
100
AcDbLine
 10
64.392066
 20
229.864465
 11
60.041049
 21
228.698613
  0
LINE
  5
AF
100
AcDbEntity
  8
DD0
100
AcDbLine
 10
60.041049
 20
228.698613
 11
64.392066
 21
227.532761
  0
LINE
  5
B0
100
AcDbEntity
  8
DD0
100
AcDbLine
 10
68.190033
 20
227.532761
 11
72.54105
 21
228.698613
  0
LINE
  5
B1
100
AcDbEntity
  8
DD0
100
AcDbLine
 10
72.54105
 20
228.698613
 11
68.190033
 21
229.864465
  0
LINE
  5
B2
100
AcDbEntity
  8
DD0
100
AcDbLine
 10
60.041049
 20
228.698613
 11
72.54105
 21
228.698613
  0
TEXT
  5
B3
100
AcDbEntity
  8
DD0
100
AcDbText
 10
60.298809
 20
229.599523
 40
3.753754
  1
１２．５
 41
0.666667
  7
STANDARD
100
AcDbText
  0
ENDBLK
  5
B4
100
AcDbEntity
  8
DD0
100
AcDbBlockEnd
  0
BLOCK
  5
B7
100
AcDbEntity
  8
DD0
100
AcDbBlockBegin
  2
DIMS9
 70
     0
 10
0.0
 20
0.0
  0
LINE
  5
B8
100
AcDbEntity
  8
DD0
100
AcDbLine
 10
51.491052
 20
368.909516
 11
51.491052
 21
401.160295
  0
LINE
  5
B9
100
AcDbEntity
  8
DD0
100
AcDbLine
 10
114.291044
 20
368.909516
 11
114.291044
 21
401.160295
  0
LINE
  5
BA
100
AcDbEntity
  8
DD0
100
AcDbLine
 10
55.842069
 20
400.824645
 11
51.491052
 21
399.658794
  0
LINE
  5
BB
100
AcDbEntity
  8
DD0
100
AcDbLine
 10
51.491052
 20
399.658794
 11
55.842069
 21
398.492942
  0
LINE
  5
BC
100
AcDbEntity
  8
DD0
100
AcDbLine
 10
109.940026
 20
398.492942
 11
114.291044
 21
399.658794
  0
LINE
  5
BD
100
AcDbEntity
  8
DD0
100
AcDbLine
 10
114.291044
 20
399.658794
 11
109.940026
 21
400.824645
  0
LINE
  5
BE
100
AcDbEntity
  8
DD0
100
AcDbLine
 10
51.491052
 20
399.658794
 11
114.291044
 21
399.658794
  0
TEXT
  5
BF
100
AcDbEntity
  8
DD0
100
AcDbText
 10
80.145802
 20
400.559704
 40
3.753754
  1
６３
 41
0.666667
  7
STANDARD
100
AcDbText
  0
ENDBLK
  5
C0
100
AcDbEntity
  8
DD0
100
AcDbBlockEnd
  0
BLOCK
  5
C3
100
AcDbEntity
  8
DD0
100
AcDbBlockBegin
  2
DIMS10
 70
     0
 10
0.0
 20
0.0
  0
LINE
  5
C4
100
AcDbEntity
  8
DD0
100
AcDbLine
 10
61.489958
 20
178.871175
 11
131.712411
 21
178.871175
  0
LINE
  5
C5
100
AcDbEntity
  8
DD0
100
AcDbLine
 10
115.989958
 20
119.871178
 11
131.712411
 21
119.871178
  0
LINE
  5
C6
100
AcDbEntity
  8
DD0
100
AcDbLine
 10
131.376761
 20
174.520158
 11
130.210909
 21
178.871175
  0
LINE
  5
C7
100
AcDbEntity
  8
DD0
100
AcDbLine
 10
130.210909
 20
178.871175
 11
129.045058
 21
174.520158
  0
LINE
  5
C8
100
AcDbEntity
  8
DD0
100
AcDbLine
 10
129.045058
 20
124.222195
 11
130.210909
 21
119.871178
  0
LINE
  5
C9
100
AcDbEntity
  8
DD0
100
AcDbLine
 10
130.210909
 20
119.871178
 11
131.376761
 21
124.222195
  0
LINE
  5
CA
100
AcDbEntity
  8
DD0
100
AcDbLine
 10
130.210909
 20
178.871175
 11
130.210909
 21
119.871178
  0
TEXT
  5
CB
100
AcDbEntity
  8
DD0
100
AcDbText
 10
129.310011
 20
146.625928
 40
3.753754
  1
５９
 50
90.000003
 41
0.666667
  7
STANDARD
100
AcDbText
  0
ENDBLK
  5
CC
100
AcDbEntity
  8
DD0
100
AcDbBlockEnd
  0
BLOCK
  5
CF
100
AcDbEntity
  8
DD0
100
AcDbBlockBegin
  2
DIMS11
 70
     0
 10
0.0
 20
0.0
  0
LINE
  5
D0
100
AcDbEntity
  8
DD0
100
AcDbLine
 10
61.489958
 20
178.871175
 11
131.712411
 21
178.871175
  0
LINE
  5
D1
100
AcDbEntity
  8
DD0
100
AcDbLine
 10
101.362554
 20
198.871163
 11
131.712411
 21
198.871163
  0
LINE
  5
D2
100
AcDbEntity
  8
DD0
100
AcDbLine
 10
129.045058
 20
183.222193
 11
130.210909
 21
178.871175
  0
LINE
  5
D3
100
AcDbEntity
  8
DD0
100
AcDbLine
 10
130.210909
 20
178.871175
 11
131.376761
 21
183.222193
  0
LINE
  5
D4
100
AcDbEntity
  8
DD0
100
AcDbLine
 10
131.376761
 20
194.520146
 11
130.210909
 21
198.871163
  0
LINE
  5
D5
100
AcDbEntity
  8
DD0
100
AcDbLine
 10
130.210909
 20
198.871163
 11
129.045058
 21
194.520146
  0
LINE
  5
D6
100
AcDbEntity
  8
DD0
100
AcDbLine
 10
130.210909
 20
178.871175
 11
130.210909
 21
198.871163
  0
TEXT
  5
D7
100
AcDbEntity
  8
DD0
100
AcDbText
 10
129.310011
 20
185.945284
 40
3.753754
  1
２０
 50
90.000003
 41
0.666667
  7
STANDARD
100
AcDbText
  0
ENDBLK
  5
D8
100
AcDbEntity
  8
DD0
100
AcDbBlockEnd
  0
BLOCK
  5
DB
100
AcDbEntity
  8
DD0
100
AcDbBlockBegin
  2
DIMS12
 70
     0
 10
0.0
 20
0.0
  0
LINE
  5
DC
100
AcDbEntity
  8
DD0
100
AcDbLine
 10
55.891042
 20
184.470074
 11
55.891042
 21
212.378032
  0
LINE
  5
DD
100
AcDbEntity
  8
DD0
100
AcDbLine
 10
109.891048
 20
125.970077
 11
109.891048
 21
212.378032
  0
LINE
  5
DE
100
AcDbEntity
  8
DD0
100
AcDbLine
 10
60.242059
 20
212.042382
 11
55.891042
 21
210.876531
  0
LINE
  5
DF
100
AcDbEntity
  8
DD0
100
AcDbLine
 10
55.891042
 20
210.876531
 11
60.242059
 21
209.710679
  0
LINE
  5
E0
100
AcDbEntity
  8
DD0
100
AcDbLine
 10
105.540031
 20
209.710679
 11
109.891048
 21
210.876531
  0
LINE
  5
E1
100
AcDbEntity
  8
DD0
100
AcDbLine
 10
109.891048
 20
210.876531
 11
105.540031
 21
212.042382
  0
LINE
  5
E2
100
AcDbEntity
  8
DD0
100
AcDbLine
 10
55.891042
 20
210.876531
 11
109.891048
 21
210.876531
  0
TEXT
  5
E3
100
AcDbEntity
  8
DD0
100
AcDbText
 10
80.145802
 20
211.777441
 40
3.753754
  1
５４
 41
0.666667
  7
STANDARD
100
AcDbText
  0
ENDBLK
  5
E4
100
AcDbEntity
  8
DD0
100
AcDbBlockEnd
  0
BLOCK
  5
E7
100
AcDbEntity
  8
DD0
100
AcDbBlockBegin
  2
DIMS13
 70
     0
 10
0.0
 20
0.0
  0
LINE
  5
E8
100
AcDbEntity
  8
DD0
100
AcDbLine
 10
55.891042
 20
184.470074
 11
55.891042
 21
212.378032
  0
LINE
  5
E9
100
AcDbEntity
  8
DD0
100
AcDbLine
 10
51.491052
 20
185.87268
 11
51.491052
 21
212.378032
  0
LINE
  5
EA
100
AcDbEntity
  8
DD0
100
AcDbLine
 10
60.242059
 20
212.042382
 11
55.891042
 21
210.876531
  0
LINE
  5
EB
100
AcDbEntity
  8
DD0
100
AcDbLine
 10
55.891042
 20
210.876531
 11
60.242059
 21
209.710679
  0
LINE
  5
EC
100
AcDbEntity
  8
DD0
100
AcDbLine
 10
47.140035
 20
209.710679
 11
51.491052
 21
210.876531
  0
LINE
  5
ED
100
AcDbEntity
  8
DD0
100
AcDbLine
 10
51.491052
 20
210.876531
 11
47.140035
 21
212.042382
  0
LINE
  5
EE
100
AcDbEntity
  8
DD0
100
AcDbLine
 10
60.845997
 20
210.876531
 11
36.025587
 21
210.876531
  0
TEXT
  5
EF
100
AcDbEntity
  8
DD0
100
AcDbText
 10
37.349413
 20
211.777441
 40
3.753754
  1
４．４
 41
0.666667
  7
STANDARD
100
AcDbText
  0
ENDBLK
  5
F0
100
AcDbEntity
  8
DD0
100
AcDbBlockEnd
  0
BLOCK
  5
F3
100
AcDbEntity
  8
DD0
100
AcDbBlockBegin
  2
DIMS14
 70
     0
 10
0.0
 20
0.0
  0
TEXT
  5
F4
100
AcDbEntity
  8
DD0
100
AcDbText
 10
122.893368
 20
109.325408
 40
3.753754
  1
２－Ｍ４ねじ穴
 41
0.666667
  7
STANDARD
100
AcDbText
  0
LINE
  5
F5
100
AcDbEntity
  8
DD0
100
AcDbLine
 10
114.444144
 20
115.284413
 11
111.039421
 21
118.233722
  0
LINE
  5
F6
100
AcDbEntity
  8
DD0
100
AcDbLine
 10
111.039421
 20
118.233722
 11
112.513343
 21
113.977184
  0
LINE
  5
F7
100
AcDbEntity
  8
DD0
100
AcDbLine
 10
111.039421
 20
118.233722
 11
117.680648
 21
108.424509
  0
LINE
  5
F8
100
AcDbEntity
  8
DD0
100
AcDbLine
 10
117.680648
 20
108.424509
 11
148.611577
 21
108.424509
  0
ENDBLK
  5
F9
100
AcDbEntity
  8
DD0
100
AcDbBlockEnd
  0
ENDSEC
  0
SECTION
  2
ENTITIES
  0
INSERT
  5
55
100
AcDbEntity
  8
DD0
100
AcDbBlockReference
  2
DIMS0
 10
0.0
 20
0.0
  0
INSERT
  5
60
100
AcDbEntity
  8
DD0
100
AcDbBlockReference
  2
DIMS1
 10
0.0
 20
0.0
  0
INSERT
  5
6C
100
AcDbEntity
  8
DD0
100
AcDbBlockReference
  2
DIMS2
 10
0.0
 20
0.0
  0
INSERT
  5
78
100
AcDbEntity
  8
DD0
100
AcDbBlockReference
  2
DIMS3
 10
0.0
 20
0.0
  0
INSERT
  5
85
100
AcDbEntity
  8
DD0
100
AcDbBlockReference
  2
DIMS4
 10
0.0
 20
0.0
  0
INSERT
  5
91
100
AcDbEntity
  8
DD0
100
AcDbBlockReference
  2
DIMS5
 10
0.0
 20
0.0
  0
INSERT
  5
9D
100
AcDbEntity
  8
DD0
100
AcDbBlockReference
  2
DIMS6
 10
0.0
 20
0.0
  0
INSERT
  5
A9
100
AcDbEntity
  8
DD0
100
AcDbBlockReference
  2
DIMS7
 10
0.0
 20
0.0
  0
INSERT
  5
B5
100
AcDbEntity
  8
DD0
100
AcDbBlockReference
  2
DIMS8
 10
0.0
 20
0.0
  0
INSERT
  5
C1
100
AcDbEntity
  8
DD0
100
AcDbBlockReference
  2
DIMS9
 10
0.0
 20
0.0
  0
INSERT
  5
CD
100
AcDbEntity
  8
DD0
100
AcDbBlockReference
  2
DIMS10
 10
0.0
 20
0.0
  0
INSERT
  5
D9
100
AcDbEntity
  8
DD0
100
AcDbBlockReference
  2
DIMS11
 10
0.0
 20
0.0
  0
INSERT
  5
E5
100
AcDbEntity
  8
DD0
100
AcDbBlockReference
  2
DIMS12
 10
0.0
 20
0.0
  0
INSERT
  5
F1
100
AcDbEntity
  8
DD0
100
AcDbBlockReference
  2
DIMS13
 10
0.0
 20
0.0
  0
INSERT
  5
FA
100
AcDbEntity
  8
DD0
100
AcDbBlockReference
  2
DIMS14
 10
0.0
 20
0.0
  0
LINE
  5
FB
100
AcDbEntity
  8
M0
  6
DASHED
 62
   154
100
AcDbLine
 10
38.991054
 20
366.608018
 11
38.991054
 21
307.208018
  0
LINE
  5
FC
100
AcDbEntity
  8
M0
  6
DASHED
 62
   154
100
AcDbLine
 10
38.991054
 20
307.208018
 11
51.491054
 21
307.208018
  0
LINE
  5
FD
100
AcDbEntity
  8
M0
  6
DASHED
 62
   154
100
AcDbLine
 10
38.991054
 20
366.608018
 11
51.491054
 21
366.608018
  0
LINE
  5
FE
100
AcDbEntity
  8
M0
  6
DASHED
 62
   154
100
AcDbLine
 10
126.791048
 20
366.608018
 11
114.291048
 21
366.608018
  0
LINE
  5
FF
100
AcDbEntity
  8
M0
  6
DASHED
 62
   154
100
AcDbLine
 10
126.791048
 20
366.608018
 11
126.791048
 21
307.208018
  0
LINE
  5
100
100
AcDbEntity
  8
M0
  6
DASHED
 62
   154
100
AcDbLine
 10
126.791048
 20
307.208018
 11
114.291048
 21
307.208018
  0
LINE
  5
101
100
AcDbEntity
  8
M0
 62
   154
100
AcDbLine
 10
194.568183
 20
362.708018
 11
194.568183
 21
380.908018
  0
CIRCLE
  5
102
100
AcDbEntity
  8
M0
 62
   154
100
AcDbCircle
 10
104.791019
 20
380.908018
 40
4.5
  0
CIRCLE
  5
103
100
AcDbEntity
  8
M0
 62
   154
100
AcDbCircle
 10
104.791019
 20
380.908018
 40
5.0
  0
CIRCLE
  5
104
100
AcDbEntity
  8
M0
 62
   154
100
AcDbCircle
 10
82.891047
 20
380.908018
 40
5.0
  0
CIRCLE
  5
105
100
AcDbEntity
  8
M0
 62
   154
100
AcDbCircle
 10
60.991051
 20
380.908018
 40
5.0
  0
LINE
  5
106
100
AcDbEntity
  8
M0
 62
     7
100
AcDbLine
 10
213.228535
 20
376.569621
 11
215.068134
 21
376.408702
  0
LINE
  5
107
100
AcDbEntity
  8
M0
 62
     7
100
AcDbLine
 10
215.068134
 20
376.408687
 11
216.368183
 21
376.408687
  0
LINE
  5
108
100
AcDbEntity
  8
M0
 62
     7
100
AcDbLine
 10
216.368183
 20
385.907981
 11
216.368183
 21
375.907981
  0
ARC
  5
109
100
AcDbEntity
  8
M0
 62
     7
100
AcDbCircle
 10
213.368183
 20
383.65385
 40
1.599998
100
AcDbArc
 50
95.007035
 51
179.999966
  0
ARC
  5
10A
100
AcDbEntity
  8
M0
 62
     7
100
AcDbCircle
 10
213.368183
 20
378.163524
 40
1.599998
100
AcDbArc
 50
179.999966
 51
264.99283
  0
LINE
  5
10B
100
AcDbEntity
  8
M0
 62
     7
100
AcDbLine
 10
215.068134
 20
376.408702
 11
215.068134
 21
385.408702
  0
LINE
  5
10C
100
AcDbEntity
  8
M0
 62
     7
100
AcDbLine
 10
216.368183
 20
385.907981
 11
217.368183
 21
385.908018
  0
LINE
  5
10D
100
AcDbEntity
  8
M0
 62
     7
100
AcDbLine
 10
211.768223
 20
383.65385
 11
211.768223
 21
378.163524
  0
LINE
  5
10E
100
AcDbEntity
  8
M0
 62
     7
100
AcDbLine
 10
217.368183
 20
386.908018
 11
219.668183
 21
386.908018
  0
LINE
  5
10F
100
AcDbEntity
  8
M0
 62
     7
100
AcDbLine
 10
216.368183
 20
375.907981
 11
217.368183
 21
375.908018
  0
LINE
  5
110
100
AcDbEntity
  8
M0
 62
     7
100
AcDbLine
 10
213.228535
 20
385.247768
 11
215.068134
 21
385.408702
  0
LINE
  5
111
100
AcDbEntity
  8
M0
 62
     7
100
AcDbLine
 10
216.368183
 20
385.408687
 11
215.068134
 21
385.408687
  0
LINE
  5
112
100
AcDbEntity
  8
M0
 62
     7
100
AcDbLine
 10
219.668183
 20
378.408458
 11
227.368183
 21
378.408458
  0
LINE
  5
113
100
AcDbEntity
  8
M0
 62
     7
100
AcDbLine
 10
219.668183
 20
372.408019
 11
219.668183
 21
386.908018
  0
LINE
  5
114
100
AcDbEntity
  8
M0
 62
     7
100
AcDbLine
 10
217.368183
 20
386.908018
 11
217.368183
 21
372.408019
  0
LINE
  5
115
100
AcDbEntity
  8
M0
 62
     7
100
AcDbLine
 10
227.368183
 20
383.408394
 11
219.668183
 21
383.408105
  0
LINE
  5
116
100
AcDbEntity
  8
M0
 62
     7
100
AcDbLine
 10
227.368183
 20
378.408458
 11
227.368183
 21
383.408394
  0
LINE
  5
117
100
AcDbEntity
  8
M0
 62
     7
100
AcDbLine
 10
227.368356
 20
378.808394
 11
219.668356
 21
378.808105
  0
LINE
  5
118
100
AcDbEntity
  8
M0
 62
     7
100
AcDbLine
 10
227.368198
 20
383.008394
 11
219.668198
 21
383.008105
  0
LINE
  5
119
100
AcDbEntity
  8
M0
  6
DASHDOT
100
AcDbLine
 10
82.891049
 20
238.433742
 11
82.891049
 21
389.700826
  0
LINE
  5
11A
100
AcDbEntity
  8
M0
  6
DASHDOT
100
AcDbLine
 10
36.991054
 20
336.908018
 11
128.791048
 21
336.908018
  0
ARC
  5
11B
100
AcDbEntity
  8
M0
 62
   154
100
AcDbCircle
 10
94.241048
 20
291.408018
 40
9.0
100
AcDbArc
 50
120.042201
 51
160.747898
  0
ARC
  5
11C
100
AcDbEntity
  8
M0
 62
   154
100
AcDbCircle
 10
86.691048
 20
303.908018
 40
9.0
100
AcDbArc
 50
300.042201
 51
340.747898
  0
LINE
  5
11D
100
AcDbEntity
  8
M0
 62
   154
100
AcDbLine
 10
97.45695
 20
307.437743
 11
95.18774
 21
300.940491
  0
LINE
  5
11E
100
AcDbEntity
  8
M0
 62
   154
100
AcDbLine
 10
89.735308
 20
299.19893
 11
91.242769
 21
300.070744
  0
LINE
  5
11F
100
AcDbEntity
  8
M0
 62
   154
100
AcDbLine
 10
89.689326
 20
295.245292
 11
91.196787
 21
296.117106
  0
LINE
  5
120
100
AcDbEntity
  8
M0
 62
   154
100
AcDbLine
 10
83.475146
 20
287.878293
 11
85.744355
 21
294.375546
  0
ARC
  5
121
100
AcDbEntity
  8
M0
 62
   154
100
AcDbCircle
 10
89.891048
 20
302.408018
 40
2.7
100
AcDbArc
 50
300.042201
 51
351.333467
  0
ARC
  5
122
100
AcDbEntity
  8
M0
 62
   154
100
AcDbCircle
 10
91.041048
 20
292.908018
 40
2.7
100
AcDbArc
 50
120.042201
 51
171.333467
  0
ARC
  5
123
100
AcDbEntity
  8
M0
 62
   154
100
AcDbCircle
 10
92.559869
 20
307.308018
 40
0.8
100
AcDbArc
 50
351.333467
 51
450.0
  0
LINE
  5
124
100
AcDbEntity
  8
M0
 62
   154
100
AcDbLine
 10
93.350734
 20
307.187471
 11
92.560219
 21
302.001173
  0
LINE
  5
125
100
AcDbEntity
  8
M0
 62
   154
100
AcDbLine
 10
87.581361
 20
288.128565
 11
88.371876
 21
293.314863
  0
LINE
  5
126
100
AcDbEntity
  8
M0
 62
   154
100
AcDbLine
 10
98.401026
 20
308.108018
 11
99.091048
 21
308.108018
  0
LINE
  5
127
100
AcDbEntity
  8
M0
 62
   154
100
AcDbLine
 10
92.559869
 20
308.108018
 11
92.191048
 21
308.108018
  0
ARC
  5
128
100
AcDbEntity
  8
M0
 62
   154
100
AcDbCircle
 10
98.401026
 20
307.108018
 40
1.0
100
AcDbArc
 50
90.0
 51
160.747898
  0
ARC
  5
129
100
AcDbEntity
  8
M0
 62
   154
100
AcDbCircle
 10
88.372226
 20
288.008018
 40
0.8
100
AcDbArc
 50
171.333467
 51
270.0
  0
LINE
  5
12A
100
AcDbEntity
  8
M0
 62
   154
100
AcDbLine
 10
88.372226
 20
287.208018
 11
88.741048
 21
287.208018
  0
LINE
  5
12B
100
AcDbEntity
  8
M0
 62
   154
100
AcDbLine
 10
82.531069
 20
287.208018
 11
81.841048
 21
287.208018
  0
ARC
  5
12C
100
AcDbEntity
  8
M0
 62
   154
100
AcDbCircle
 10
82.531069
 20
288.208018
 40
1.0
100
AcDbArc
 50
270.0
 51
340.747898
  0
ARC
  5
12D
100
AcDbEntity
  8
M0
 62
   154
100
AcDbCircle
 10
81.841048
 20
286.208018
 40
1.0
100
AcDbArc
 50
90.0
 51
180.0
  0
ARC
  5
12E
100
AcDbEntity
  8
M0
 62
   154
100
AcDbCircle
 10
99.091048
 20
309.108018
 40
1.0
100
AcDbArc
 50
270.0
 51
360.0
  0
LINE
  5
12F
100
AcDbEntity
  8
M0
 62
   154
100
AcDbLine
 10
100.091048
 20
316.308018
 11
100.091048
 21
309.108018
  0
LINE
  5
130
100
AcDbEntity
  8
M0
 62
   154
100
AcDbLine
 10
91.691048
 20
316.308018
 11
91.691048
 21
308.608018
  0
LINE
  5
131
100
AcDbEntity
  8
M0
 62
   154
100
AcDbLine
 10
92.691048
 20
317.308018
 11
99.091048
 21
317.308018
  0
ARC
  5
132
100
AcDbEntity
  8
M0
 62
   154
100
AcDbCircle
 10
92.191048
 20
308.608018
 40
0.5
100
AcDbArc
 50
180.0
 51
270.0
  0
ARC
  5
133
100
AcDbEntity
  8
M0
 62
   154
100
AcDbCircle
 10
88.741048
 20
286.708018
 40
0.5
100
AcDbArc
 50
0.0
 51
90.0
  0
LINE
  5
134
100
AcDbEntity
  8
M0
 62
   154
100
AcDbLine
 10
89.241048
 20
279.008018
 11
89.241048
 21
286.708018
  0
LINE
  5
135
100
AcDbEntity
  8
M0
 62
   154
100
AcDbLine
 10
80.841048
 20
279.008018
 11
80.841048
 21
286.208018
  0
LINE
  5
136
100
AcDbEntity
  8
M0
 62
   154
100
AcDbLine
 10
88.241048
 20
278.008018
 11
81.841048
 21
278.008018
  0
ARC
  5
137
100
AcDbEntity
  8
M0
 62
   154
100
AcDbCircle
 10
81.841048
 20
279.008018
 40
1.0
100
AcDbArc
 50
180.0
 51
270.0
  0
ARC
  5
138
100
AcDbEntity
  8
M0
 62
   154
100
AcDbCircle
 10
88.241048
 20
279.008018
 40
1.0
100
AcDbArc
 50
270.0
 51
360.0
  0
ARC
  5
139
100
AcDbEntity
  8
M0
 62
   154
100
AcDbCircle
 10
92.691048
 20
316.308018
 40
1.0
100
AcDbArc
 50
90.0
 51
180.0
  0
ARC
  5
13A
100
AcDbEntity
  8
M0
 62
   154
100
AcDbCircle
 10
99.091048
 20
316.308018
 40
1.0
100
AcDbArc
 50
3.256888E-012
 51
90.0
  0
LINE
  5
13B
100
AcDbEntity
  8
M0
100
AcDbLine
 10
279.068565
 20
256.912396
 11
279.068565
 21
293.909253
  0
LINE
  5
13C
100
AcDbEntity
  8
M0
100
AcDbLine
 10
276.071983
 20
290.912381
 11
204.068565
 21
290.912415
  0
LINE
  5
13D
100
AcDbEntity
  8
M0
100
AcDbLine
 10
216.568718
 20
269.910245
 11
216.568718
 21
290.912381
  0
LINE
  5
13E
100
AcDbEntity
  8
M0
100
AcDbLine
 10
230.368522
 20
293.912381
 11
217.368278
 21
293.912366
  0
LINE
  5
13F
100
AcDbEntity
  8
M0
100
AcDbLine
 10
279.068565
 20
256.912396
 11
271.568565
 21
256.912396
  0
LINE
  5
140
100
AcDbEntity
  8
M0
100
AcDbLine
 10
250.513389
 20
249.41235
 11
266.08419
 21
249.41235
  0
ARC
  5
141
100
AcDbEntity
  8
M0
100
AcDbCircle
 10
230.368522
 20
291.912381
 40
1.999998
100
AcDbArc
 50
14.479306
 51
89.999563
  0
LINE
  5
142
100
AcDbEntity
  8
M0
100
AcDbLine
 10
215.768287
 20
293.912366
 11
207.06855
 21
293.91235
  0
LINE
  5
143
100
AcDbEntity
  8
M0
100
AcDbLine
 10
215.768287
 20
301.408017
 11
215.768287
 21
290.91241
  0
LINE
  5
144
100
AcDbEntity
  8
M0
100
AcDbLine
 10
217.368278
 20
301.408017
 11
217.368278
 21
290.912409
  0
LINE
  5
145
100
AcDbEntity
  8
M0
100
AcDbLine
 10
279.068428
 20
267.412381
 11
279.068428
 21
258.412381
  0
LINE
  5
146
100
AcDbEntity
  8
M0
100
AcDbLine
 10
279.068428
 20
290.912366
 11
279.068428
 21
272.412366
  0
LINE
  5
147
100
AcDbEntity
  8
M0
100
AcDbLine
 10
216.568718
 20
270.412366
 11
216.568718
 21
284.412366
  0
LINE
  5
148
100
AcDbEntity
  8
M0
100
AcDbLine
 10
216.568718
 20
284.412366
 11
216.368507
 21
284.41235
  0
LINE
  5
149
100
AcDbEntity
  8
M0
100
AcDbLine
 10
204.068565
 20
275.910214
 11
204.068565
 21
290.910077
  0
LINE
  5
14A
100
AcDbEntity
  8
M0
100
AcDbLine
 10
222.915886
 20
256.412396
 11
247.103477
 21
256.412396
  0
LINE
  5
14B
100
AcDbEntity
  8
M0
100
AcDbLine
 10
246.568565
 20
258.409924
 11
248.581749
 21
250.894879
  0
ARC
  5
14C
100
AcDbEntity
  8
M0
100
AcDbCircle
 10
250.513389
 20
251.41235
 40
2.0
100
AcDbArc
 50
194.996439
 51
270.0
  0
LINE
  5
14D
100
AcDbEntity
  8
M0
100
AcDbLine
 10
271.568565
 20
256.912396
 11
267.816368
 21
250.412411
  0
ARC
  5
14E
100
AcDbEntity
  8
M0
100
AcDbCircle
 10
266.08419
 20
251.41235
 40
2.0
100
AcDbArc
 50
269.999563
 51
330.003375
  0
ARC
  5
14F
100
AcDbEntity
  8
M0
100
AcDbCircle
 10
249.442344
 20
255.409985
 40
2.0
100
AcDbArc
 50
194.99554
 51
270.0
  0
LINE
  5
150
100
AcDbEntity
  8
M0
100
AcDbLine
 10
254.068565
 20
253.40997
 11
257.068321
 21
251.40997
  0
LINE
  5
151
100
AcDbEntity
  8
M0
100
AcDbLine
 10
217.568684
 20
269.910242
 11
220.589576
 21
258.635953
  0
ARC
  5
152
100
AcDbEntity
  8
M0
100
AcDbCircle
 10
223.487343
 20
259.412396
 40
3.0
100
AcDbArc
 50
194.999804
 51
270.0
  0
LINE
  5
153
100
AcDbEntity
  8
M0
100
AcDbLine
 10
211.282495
 20
269.112343
 11
213.688255
 21
260.133771
  0
ARC
  5
154
100
AcDbEntity
  8
M0
100
AcDbCircle
 10
216.586021
 20
260.910214
 40
3.0
100
AcDbArc
 50
194.999804
 51
270.0
  0
LINE
  5
155
100
AcDbEntity
  8
M0
100
AcDbLine
 10
276.068565
 20
253.412381
 11
276.068565
 21
256.912381
  0
LINE
  5
156
100
AcDbEntity
  8
M0
100
AcDbLine
 10
268.393516
 20
251.412396
 11
274.068565
 21
251.412396
  0
ARC
  5
157
100
AcDbEntity
  8
M0
100
AcDbCircle
 10
274.068565
 20
253.412396
 40
2.0
100
AcDbArc
 50
269.999563
 51
360.0
  0
LINE
  5
158
100
AcDbEntity
  8
M0
100
AcDbLine
 10
214.924415
 20
258.412396
 11
211.059028
 21
258.412381
  0
ARC
  5
159
100
AcDbEntity
  8
M0
100
AcDbCircle
 10
207.068565
 20
290.91235
 40
3.0
100
AcDbArc
 50
89.999709
 51
179.999709
  0
LINE
  5
15A
100
AcDbEntity
  8
M0
100
AcDbLine
 10
224.068718
 20
288.912381
 11
224.068718
 21
290.212338
  0
LINE
  5
15B
100
AcDbEntity
  8
M0
100
AcDbLine
 10
227.268715
 20
288.912381
 11
227.268715
 21
290.212353
  0
LINE
  5
15C
100
AcDbEntity
  8
M0
100
AcDbLine
 10
224.068718
 20
288.912381
 11
227.268715
 21
288.912381
  0
ARC
  5
15D
100
AcDbEntity
  8
M0
100
AcDbCircle
 10
227.968712
 20
290.212353
 40
0.7
100
AcDbArc
 50
89.998751
 51
179.998751
  0
ARC
  5
15E
100
AcDbEntity
  8
M0
100
AcDbCircle
 10
223.368706
 20
290.212353
 40
0.7
100
AcDbArc
 50
0.0
 51
89.998751
  0
LINE
  5
15F
100
AcDbEntity
  8
M0
100
AcDbLine
 10
204.068718
 20
269.910504
 11
204.068718
 21
271.410489
  0
LINE
  5
160
100
AcDbEntity
  8
M0
100
AcDbLine
 10
205.068718
 20
288.412381
 11
214.568718
 21
288.412381
  0
LINE
  5
161
100
AcDbEntity
  8
M0
100
AcDbLine
 10
205.068718
 20
281.662396
 11
205.068718
 21
288.412381
  0
ARC
  5
162
100
AcDbEntity
  8
M0
100
AcDbCircle
 10
206.068718
 20
281.662396
 40
1.0
100
AcDbArc
 50
179.999126
 51
270.0
  0
ARC
  5
163
100
AcDbEntity
  8
M0
100
AcDbCircle
 10
206.068687
 20
273.162396
 40
1.0
100
AcDbArc
 50
89.999126
 51
179.999126
  0
LINE
  5
164
100
AcDbEntity
  8
M0
100
AcDbLine
 10
205.068718
 20
273.154584
 11
205.068718
 21
272.410229
  0
LINE
  5
165
100
AcDbEntity
  8
M0
100
AcDbLine
 10
218.568718
 20
269.910244
 11
218.568718
 21
290.912381
  0
LINE
  5
166
100
AcDbEntity
  8
M0
100
AcDbLine
 10
246.568809
 20
258.410092
 11
236.573097
 21
258.410138
  0
LINE
  5
167
100
AcDbEntity
  8
M0
100
AcDbLine
 10
233.573143
 20
260.410153
 11
236.573143
 21
258.410138
  0
LINE
  5
168
100
AcDbEntity
  8
M0
100
AcDbLine
 10
233.573128
 20
260.410168
 11
228.573128
 21
260.410199
  0
ARC
  5
169
100
AcDbEntity
  8
M0
100
AcDbCircle
 10
228.573143
 20
263.410214
 40
3.0
100
AcDbArc
 50
179.999709
 51
270.0
  0
LINE
  5
16A
100
AcDbEntity
  8
M0
100
AcDbLine
 10
225.573143
 20
263.410245
 11
225.573234
 21
269.910275
  0
LINE
  5
16B
100
AcDbEntity
  8
M0
100
AcDbLine
 10
225.57325
 20
269.91026
 11
213.568693
 21
269.910232
  0
LINE
  5
16C
100
AcDbEntity
  8
M0
100
AcDbLine
 10
216.586097
 20
257.910245
 11
220.784126
 21
257.910245
  0
ARC
  5
16D
100
AcDbEntity
  8
M0
100
AcDbCircle
 10
211.059044
 20
261.41235
 40
3.0
100
AcDbArc
 50
194.999804
 51
270.0
  0
LINE
  5
16E
100
AcDbEntity
  8
M0
100
AcDbLine
 10
205.676211
 20
269.910392
 11
208.161293
 21
260.635892
  0
LINE
  5
16F
100
AcDbEntity
  8
M0
100
AcDbLine
 10
209.668693
 20
272.410154
 11
205.044843
 21
272.410204
  0
LINE
  5
170
100
AcDbEntity
  8
M0
100
AcDbLine
 10
204.068611
 20
275.910168
 11
205.006416
 21
272.410199
  0
LINE
  5
171
100
AcDbEntity
  8
M0
100
AcDbLine
 10
209.668693
 20
269.910151
 11
204.068733
 21
269.910489
  0
LINE
  5
172
100
AcDbEntity
  8
M0
100
AcDbLine
 10
249.442589
 20
253.410092
 11
254.068565
 21
253.410061
  0
LINE
  5
173
100
AcDbEntity
  8
M0
100
AcDbLine
 10
257.068321
 20
251.410031
 11
267.237266
 21
251.409985
  0
ARC
  5
174
100
AcDbEntity
  8
M0
100
AcDbCircle
 10
267.237266
 20
253.409985
 40
2.0
100
AcDbArc
 50
269.992569
 51
329.999254
  0
LINE
  5
175
100
AcDbEntity
  8
M0
100
AcDbLine
 10
276.071983
 20
293.909299
 11
279.068321
 21
293.909237
  0
LINE
  5
176
100
AcDbEntity
  8
M0
100
AcDbLine
 10
276.071983
 20
293.909314
 11
276.071983
 21
290.912366
  0
LINE
  5
177
100
AcDbEntity
  8
M0
100
AcDbLine
 10
276.071739
 20
291.912396
 11
221.068702
 21
291.912396
  0
LINE
  5
178
100
AcDbEntity
  8
M0
100
AcDbLine
 10
221.068702
 20
291.912396
 11
221.068702
 21
290.910168
  0
LINE
  5
179
100
AcDbEntity
  8
M0
 62
     7
100
AcDbLine
 10
213.568693
 20
285.712343
 11
213.568693
 21
285.412343
  0
LINE
  5
17A
100
AcDbEntity
  8
M0
 62
     7
100
AcDbLine
 10
210.868693
 20
282.917117
 11
210.868693
 21
281.044786
  0
LINE
  5
17B
100
AcDbEntity
  8
M0
 62
     7
100
AcDbLine
 10
210.868693
 20
285.257958
 11
213.568693
 21
285.257958
  0
LINE
  5
17C
100
AcDbEntity
  8
M0
 62
     7
100
AcDbLine
 10
210.868693
 20
285.712343
 11
210.868693
 21
285.257958
  0
LINE
  5
17D
100
AcDbEntity
  8
M0
 62
     7
100
AcDbLine
 10
206.568702
 20
281.162343
 11
209.668693
 21
281.162343
  0
LINE
  5
17E
100
AcDbEntity
  8
M0
 62
     7
100
AcDbLine
 10
209.668693
 20
285.712343
 11
209.668693
 21
269.112343
  0
LINE
  5
17F
100
AcDbEntity
  8
M0
 62
     7
100
AcDbLine
 10
213.568693
 20
285.412343
 11
215.568693
 21
285.412343
  0
LINE
  5
180
100
AcDbEntity
  8
M0
 62
     7
100
AcDbLine
 10
210.868693
 20
284.875275
 11
213.568693
 21
284.875275
  0
LINE
  5
181
100
AcDbEntity
  8
M0
 62
     7
100
AcDbLine
 10
213.568693
 20
285.257958
 11
213.568693
 21
284.875275
  0
LINE
  5
182
100
AcDbEntity
  8
M0
 62
     7
100
AcDbLine
 10
210.868693
 20
282.917117
 11
213.568693
 21
282.917117
  0
LINE
  5
183
100
AcDbEntity
  8
M0
 62
     7
100
AcDbLine
 10
210.868693
 20
283.624223
 11
213.568693
 21
283.624223
  0
LINE
  5
184
100
AcDbEntity
  8
M0
 62
     7
100
AcDbLine
 10
210.868693
 20
280.120907
 11
213.568693
 21
280.120907
  0
LINE
  5
185
100
AcDbEntity
  8
M0
 62
     7
100
AcDbLine
 10
210.868693
 20
281.044786
 11
213.568693
 21
281.044786
  0
LINE
  5
186
100
AcDbEntity
  8
M0
 62
     7
100
AcDbLine
 10
213.568693
 20
283.624223
 11
213.568693
 21
282.917117
  0
LINE
  5
187
100
AcDbEntity
  8
M0
 62
     7
100
AcDbLine
 10
213.568693
 20
281.044786
 11
213.568693
 21
280.120907
  0
LINE
  5
188
100
AcDbEntity
  8
M0
 62
     7
100
AcDbLine
 10
210.868693
 20
284.875275
 11
210.868693
 21
283.624223
  0
LINE
  5
189
100
AcDbEntity
  8
M0
 62
     7
100
AcDbLine
 10
209.668693
 20
285.712343
 11
213.568693
 21
285.712343
  0
LINE
  5
18A
100
AcDbEntity
  8
M0
 62
     7
100
AcDbLine
 10
210.868693
 20
280.120907
 11
210.868693
 21
277.912343
  0
LINE
  5
18B
100
AcDbEntity
  8
M0
 62
     7
100
AcDbLine
 10
215.568693
 20
269.912343
 11
215.568693
 21
285.412343
  0
LINE
  5
18C
100
AcDbEntity
  8
M0
 62
     7
100
AcDbLine
 10
216.568718
 20
284.912343
 11
215.568693
 21
284.912343
  0
LINE
  5
18D
100
AcDbEntity
  8
M0
 62
     7
100
AcDbLine
 10
213.568693
 20
275.018202
 11
213.568693
 21
269.112343
  0
LINE
  5
18E
100
AcDbEntity
  8
M0
 62
     7
100
AcDbLine
 10
210.868693
 20
276.912343
 11
210.868693
 21
274.703778
  0
LINE
  5
18F
100
AcDbEntity
  8
M0
 62
     7
100
AcDbLine
 10
210.868693
 20
274.703778
 11
213.568693
 21
274.703778
  0
LINE
  5
190
100
AcDbEntity
  8
M0
 62
     7
100
AcDbLine
 10
210.868693
 20
273.779899
 11
213.568693
 21
273.779899
  0
LINE
  5
191
100
AcDbEntity
  8
M0
 62
     7
100
AcDbLine
 10
213.568693
 20
277.912343
 11
213.568693
 21
276.912343
  0
LINE
  5
192
100
AcDbEntity
  8
M0
 62
     7
100
AcDbLine
 10
210.868693
 20
277.912343
 11
213.568693
 21
277.912343
  0
LINE
  5
193
100
AcDbEntity
  8
M0
 62
     7
100
AcDbLine
 10
210.868693
 20
273.779899
 11
210.868693
 21
271.907569
  0
LINE
  5
194
100
AcDbEntity
  8
M0
 62
     7
100
AcDbLine
 10
210.868693
 20
276.912343
 11
213.568693
 21
276.912343
  0
LINE
  5
195
100
AcDbEntity
  8
M0
 62
     7
100
AcDbLine
 10
215.568693
 20
275.018202
 11
213.568693
 21
275.018202
  0
ARC
  5
196
100
AcDbEntity
  8
M0
 62
     7
100
AcDbCircle
 10
206.568702
 20
280.662343
 40
0.5
100
AcDbArc
 50
90.0
 51
179.998251
  0
LINE
  5
197
100
AcDbEntity
  8
M0
 62
     7
100
AcDbLine
 10
206.068702
 20
274.162343
 11
206.068702
 21
280.662343
  0
ARC
  5
198
100
AcDbEntity
  8
M0
 62
     7
100
AcDbCircle
 10
206.568702
 20
274.162343
 40
0.5
100
AcDbArc
 50
179.998251
 51
270.0
  0
LINE
  5
199
100
AcDbEntity
  8
M0
 62
     7
100
AcDbLine
 10
209.668693
 20
273.662343
 11
206.568702
 21
273.662343
  0
LINE
  5
19A
100
AcDbEntity
  8
M0
 62
     7
100
AcDbLine
 10
210.868693
 20
271.200462
 11
213.568693
 21
271.200462
  0
LINE
  5
19B
100
AcDbEntity
  8
M0
 62
     7
100
AcDbLine
 10
210.868693
 20
271.907569
 11
213.568693
 21
271.907569
  0
LINE
  5
19C
100
AcDbEntity
  8
M0
 62
     7
100
AcDbLine
 10
210.868693
 20
269.949411
 11
213.568693
 21
269.949411
  0
LINE
  5
19D
100
AcDbEntity
  8
M0
 62
     7
100
AcDbLine
 10
209.668693
 20
269.112343
 11
213.568693
 21
269.112343
  0
LINE
  5
19E
100
AcDbEntity
  8
M0
 62
     7
100
AcDbLine
 10
210.868693
 20
269.566727
 11
213.568693
 21
269.566727
  0
LINE
  5
19F
100
AcDbEntity
  8
M0
 62
     7
100
AcDbLine
 10
215.568693
 20
270.412343
 11
213.568693
 21
270.412343
  0
LINE
  5
1A0
100
AcDbEntity
  8
M0
100
AcDbLine
 10
217.367927
 20
295.91293
 11
217.367897
 21
295.662152
  0
LINE
  5
1A1
100
AcDbEntity
  8
M0
100
AcDbLine
 10
215.767936
 20
295.9129
 11
215.767906
 21
295.662152
  0
LINE
  5
1A2
100
AcDbEntity
  8
M0
 62
     7
100
AcDbLine
 10
205.068718
 20
277.912381
 11
205.068718
 21
275.912381
  0
LINE
  5
1A3
100
AcDbEntity
  8
M0
 62
     7
100
AcDbLine
 10
206.068702
 20
277.912381
 11
204.068718
 21
277.912381
  0
ARC
  5
1A4
100
AcDbEntity
  8
M0
 62
     7
100
AcDbCircle
 10
205.068718
 20
289.412381
 40
1.0
100
AcDbArc
 50
180.0
 51
270.0
  0
LINE
  5
1A5
100
AcDbEntity
  8
M0
 62
     7
100
AcDbLine
 10
206.068702
 20
275.912381
 11
204.068718
 21
275.912381
  0
ARC
  5
1A6
100
AcDbEntity
  8
M0
 62
     7
100
AcDbCircle
 10
205.068718
 20
271.410489
 40
1.0
100
AcDbArc
 50
90.0
 51
180.0
  0
LINE
  5
1A7
100
AcDbEntity
  8
M0
 62
     7
100
AcDbLine
 10
216.568718
 20
286.412381
 11
209.568718
 21
286.412381
  0
LINE
  5
1A8
100
AcDbEntity
  8
M0
 62
     7
100
AcDbLine
 10
209.568718
 20
288.412381
 11
209.568718
 21
286.412381
  0
LINE
  5
1A9
100
AcDbEntity
  8
M0
 62
     7
100
AcDbLine
 10
214.568718
 20
289.762381
 11
216.568718
 21
289.762381
  0
LINE
  5
1AA
100
AcDbEntity
  8
M0
 62
     7
100
AcDbLine
 10
214.568718
 20
289.762381
 11
214.568718
 21
287.462381
  0
LINE
  5
1AB
100
AcDbEntity
  8
M0
 62
     7
100
AcDbLine
 10
214.568718
 20
287.462381
 11
216.568718
 21
287.462381
  0
ARC
  5
1AC
100
AcDbEntity
  8
M0
 62
   154
100
AcDbCircle
 10
81.621761
 20
291.382542
 40
9.0
100
AcDbArc
 50
121.042201
 51
161.747898
  0
ARC
  5
1AD
100
AcDbEntity
  8
M0
 62
   154
100
AcDbCircle
 10
73.854756
 20
303.748872
 40
9.0
100
AcDbArc
 50
301.042201
 51
341.747898
  0
LINE
  5
1AE
100
AcDbEntity
  8
M0
 62
   154
100
AcDbLine
 10
84.557416
 20
307.465951
 11
82.401945
 21
300.930085
  0
LINE
  5
1AF
100
AcDbEntity
  8
M0
 62
   154
100
AcDbLine
 10
76.980738
 20
299.093631
 11
78.472754
 21
299.991622
  0
LINE
  5
1B0
100
AcDbEntity
  8
M0
 62
   154
100
AcDbLine
 10
77.003763
 20
295.139793
 11
78.495779
 21
296.037783
  0
LINE
  5
1B1
100
AcDbEntity
  8
M0
 62
   154
100
AcDbLine
 10
70.919101
 20
287.665463
 11
73.074572
 21
294.20133
  0
ARC
  5
1B2
100
AcDbEntity
  8
M0
 62
   154
100
AcDbCircle
 10
77.080447
 20
302.304949
 40
2.7
100
AcDbArc
 50
301.042201
 51
352.333467
  0
ARC
  5
1B3
100
AcDbEntity
  8
M0
 62
   154
100
AcDbCircle
 10
78.39607
 20
292.826466
 40
2.7
100
AcDbArc
 50
121.042201
 51
172.333467
  0
ARC
  5
1B4
100
AcDbEntity
  8
M0
 62
   154
100
AcDbCircle
 10
79.663345
 20
307.25078
 40
0.8
100
AcDbArc
 50
352.333467
 51
451.0
  0
LINE
  5
1B5
100
AcDbEntity
  8
M0
 62
   154
100
AcDbLine
 10
80.456194
 20
307.144054
 11
79.756313
 21
301.944749
  0
LINE
  5
1B6
100
AcDbEntity
  8
M0
 62
   154
100
AcDbLine
 10
75.020323
 20
287.987361
 11
75.720204
 21
293.186665
  0
LINE
  5
1B7
100
AcDbEntity
  8
M0
 62
   154
100
AcDbLine
 10
85.489651
 20
308.1526
 11
86.179567
 21
308.164643
  0
LINE
  5
1B8
100
AcDbEntity
  8
M0
 62
   154
100
AcDbLine
 10
79.649383
 20
308.050658
 11
79.280618
 21
308.044221
  0
ARC
  5
1B9
100
AcDbEntity
  8
M0
 62
   154
100
AcDbCircle
 10
85.507104
 20
307.152752
 40
1.0
100
AcDbArc
 50
91.0
 51
161.747898
  0
ARC
  5
1BA
100
AcDbEntity
  8
M0
 62
   154
100
AcDbCircle
 10
75.813172
 20
287.880635
 40
0.8
100
AcDbArc
 50
172.333467
 51
271.0
  0
LINE
  5
1BB
100
AcDbEntity
  8
M0
 62
   154
100
AcDbLine
 10
75.827134
 20
287.080756
 11
76.195899
 21
287.087193
  0
LINE
  5
1BC
100
AcDbEntity
  8
M0
 62
   154
100
AcDbLine
 10
69.986866
 20
286.978814
 11
69.29695
 21
286.966772
  0
ARC
  5
1BD
100
AcDbEntity
  8
M0
 62
   154
100
AcDbCircle
 10
69.969413
 20
287.978662
 40
1.0
100
AcDbArc
 50
271.0
 51
341.747898
  0
ARC
  5
1BE
100
AcDbEntity
  8
M0
 62
   154
100
AcDbCircle
 10
69.314402
 20
285.966924
 40
1.0
100
AcDbArc
 50
91.0
 51
181.0
  0
ARC
  5
1BF
100
AcDbEntity
  8
M0
 62
   154
100
AcDbCircle
 10
86.162115
 20
309.16449
 40
1.0
100
AcDbArc
 50
271.0
 51
361.0
  0
LINE
  5
1C0
100
AcDbEntity
  8
M0
 62
   154
100
AcDbLine
 10
87.036305
 20
316.380846
 11
87.161962
 21
309.181943
  0
LINE
  5
1C1
100
AcDbEntity
  8
M0
 62
   154
100
AcDbLine
 10
78.637585
 20
316.234246
 11
78.771968
 21
308.535419
  0
LINE
  5
1C2
100
AcDbEntity
  8
M0
 62
   154
100
AcDbLine
 10
79.61998
 20
317.251546
 11
86.019005
 21
317.363241
  0
ARC
  5
1C3
100
AcDbEntity
  8
M0
 62
   154
100
AcDbCircle
 10
79.271892
 20
308.544145
 40
0.5
100
AcDbArc
 50
181.0
 51
271.0
  0
ARC
  5
1C4
100
AcDbEntity
  8
M0
 62
   154
100
AcDbCircle
 10
76.204625
 20
286.587269
 40
0.5
100
AcDbArc
 50
1.0
 51
91.0
  0
LINE
  5
1C5
100
AcDbEntity
  8
M0
 62
   154
100
AcDbLine
 10
76.838932
 20
278.897168
 11
76.704549
 21
286.595996
  0
LINE
  5
1C6
100
AcDbEntity
  8
M0
 62
   154
100
AcDbLine
 10
68.440212
 20
278.750568
 11
68.314554
 21
285.949472
  0
ARC
  5
1C7
100
AcDbEntity
  8
M0
 62
   154
100
AcDbCircle
 10
69.440059
 20
278.768021
 40
1.0
100
AcDbArc
 50
181.0
 51
239.326411
  0
ARC
  5
1C8
100
AcDbEntity
  8
M0
 62
   154
100
AcDbCircle
 10
75.839085
 20
278.879716
 40
1.0
100
AcDbArc
 50
271.0
 51
361.0
  0
ARC
  5
1C9
100
AcDbEntity
  8
M0
 62
   154
100
AcDbCircle
 10
79.637432
 20
316.251698
 40
1.0
100
AcDbArc
 50
91.0
 51
181.0
  0
ARC
  5
1CA
100
AcDbEntity
  8
M0
 62
   154
100
AcDbCircle
 10
86.036457
 20
316.363394
 40
1.0
100
AcDbArc
 50
1.0
 51
91.0
  0
ARC
  5
1CB
100
AcDbEntity
  8
M0
 62
   154
100
AcDbCircle
 10
69.002865
 20
291.363714
 40
9.0
100
AcDbArc
 50
122.042201
 51
162.747898
  0
ARC
  5
1CC
100
AcDbEntity
  8
M0
 62
   154
100
AcDbCircle
 10
61.02122
 20
303.592608
 40
9.0
100
AcDbArc
 50
302.042201
 51
342.747898
  0
LINE
  5
1CD
100
AcDbEntity
  8
M0
 62
   154
100
AcDbLine
 10
71.657379
 20
307.495908
 11
69.616302
 21
300.923419
  0
LINE
  5
1CE
100
AcDbEntity
  8
M0
 62
   154
100
AcDbLine
 10
64.227971
 20
298.992632
 11
65.704088
 21
299.916525
  0
LINE
  5
1CF
100
AcDbEntity
  8
M0
 62
   154
100
AcDbLine
 10
64.319997
 20
295.039797
 11
65.796114
 21
295.96369
  0
LINE
  5
1D0
100
AcDbEntity
  8
M0
 62
   154
100
AcDbLine
 10
58.366707
 20
287.460414
 11
60.407783
 21
294.032903
  0
ARC
  5
1D1
100
AcDbEntity
  8
M0
 62
   154
100
AcDbCircle
 10
64.27162
 20
302.2052
 40
2.7
100
AcDbArc
 50
302.042201
 51
353.333467
  0
ARC
  5
1D2
100
AcDbEntity
  8
M0
 62
   154
100
AcDbCircle
 10
65.752465
 20
292.751122
 40
2.7
100
AcDbArc
 50
122.042201
 51
173.333467
  0
ARC
  5
1D3
100
AcDbEntity
  8
M0
 62
   154
100
AcDbCircle
 10
66.767808
 20
307.195356
 40
0.8
100
AcDbArc
 50
353.333467
 51
452.0
  0
LINE
  5
1D4
100
AcDbEntity
  8
M0
 62
   154
100
AcDbLine
 10
67.562399
 20
307.102483
 11
66.953365
 21
301.891756
  0
LINE
  5
1D5
100
AcDbEntity
  8
M0
 62
   154
100
AcDbLine
 10
62.461686
 20
287.853839
 11
63.070721
 21
293.064566
  0
LINE
  5
1D6
100
AcDbEntity
  8
M0
 62
   154
100
AcDbLine
 10
72.577488
 20
308.198722
 11
73.267089
 21
308.222803
  0
LINE
  5
1D7
100
AcDbEntity
  8
M0
 62
   154
100
AcDbLine
 10
66.739889
 20
307.994868
 11
66.371292
 21
307.981997
  0
ARC
  5
1D8
100
AcDbEntity
  8
M0
 62
   154
100
AcDbCircle
 10
72.612388
 20
307.199331
 40
1.0
100
AcDbArc
 50
92.0
 51
162.747898
  0
ARC
  5
1D9
100
AcDbEntity
  8
M0
 62
   154
100
AcDbCircle
 10
63.256277
 20
287.760966
 40
0.8
100
AcDbArc
 50
173.333467
 51
272.0
  0
LINE
  5
1DA
100
AcDbEntity
  8
M0
 62
   154
100
AcDbLine
 10
63.284197
 20
286.961454
 11
63.652793
 21
286.974325
  0
LINE
  5
1DB
100
AcDbEntity
  8
M0
 62
   154
100
AcDbLine
 10
57.446597
 20
286.7576
 11
56.756997
 21
286.733519
  0
ARC
  5
1DC
100
AcDbEntity
  8
M0
 62
   154
100
AcDbCircle
 10
57.411698
 20
287.756991
 40
1.0
100
AcDbArc
 50
272.0
 51
342.747898
  0
ARC
  5
1DD
100
AcDbEntity
  8
M0
 62
   154
100
AcDbCircle
 10
56.791896
 20
285.734128
 40
1.0
100
AcDbArc
 50
92.0
 51
182.0
  0
ARC
  5
1DE
100
AcDbEntity
  8
M0
 62
   154
100
AcDbCircle
 10
73.232189
 20
309.222194
 40
1.0
100
AcDbArc
 50
272.0
 51
362.0
  0
LINE
  5
1DF
100
AcDbEntity
  8
M0
 62
   154
100
AcDbLine
 10
73.980304
 20
316.452708
 11
74.23158
 21
309.257094
  0
LINE
  5
1E0
100
AcDbEntity
  8
M0
 62
   154
100
AcDbLine
 10
65.585421
 20
316.159552
 11
65.854147
 21
308.464242
  0
LINE
  5
1E1
100
AcDbEntity
  8
M0
 62
   154
100
AcDbLine
 10
66.549912
 20
317.193842
 11
72.946013
 21
317.417199
  0
ARC
  5
1E2
100
AcDbEntity
  8
M0
 62
   154
100
AcDbCircle
 10
66.353842
 20
308.481692
 40
0.5
100
AcDbArc
 50
182.0
 51
272.0
  0
ARC
  5
1E3
100
AcDbEntity
  8
M0
 62
   154
100
AcDbCircle
 10
63.670243
 20
286.47463
 40
0.5
100
AcDbArc
 50
2.0
 51
92.0
  0
LINE
  5
1E4
100
AcDbEntity
  8
M0
 62
   154
100
AcDbLine
 10
64.438665
 20
278.79677
 11
64.169938
 21
286.49208
  0
LINE
  5
1E5
100
AcDbEntity
  8
M0
 62
   154
100
AcDbLine
 10
56.043782
 20
278.503614
 11
55.792505
 21
285.699228
  0
ARC
  5
1E6
100
AcDbEntity
  8
M0
 62
   154
100
AcDbCircle
 10
57.043172
 20
278.538514
 40
1.0
100
AcDbArc
 50
182.0
 51
219.089724
  0
ARC
  5
1E7
100
AcDbEntity
  8
M0
 62
   154
100
AcDbCircle
 10
63.439274
 20
278.761871
 40
1.0
100
AcDbArc
 50
312.028533
 51
362.0
  0
ARC
  5
1E8
100
AcDbEntity
  8
M0
 62
   154
100
AcDbCircle
 10
66.584812
 20
316.194451
 40
1.0
100
AcDbArc
 50
92.0
 51
182.0
  0
ARC
  5
1E9
100
AcDbEntity
  8
M0
 62
   154
100
AcDbCircle
 10
72.980913
 20
316.417808
 40
1.0
100
AcDbArc
 50
2.0
 51
92.0
  0
ARC
  5
1EA
100
AcDbEntity
  8
M0
 62
   234
100
AcDbCircle
 10
265.168183
 20
310.508017
 40
1.5
100
AcDbArc
 50
90.0
 51
180.0
  0
ARC
  5
1EB
100
AcDbEntity
  8
M0
 62
   234
100
AcDbCircle
 10
269.668183
 20
306.608017
 40
1.0
100
AcDbArc
 50
90.0
 51
180.0
  0
ARC
  5
1EC
100
AcDbEntity
  8
M0
 62
   234
100
AcDbCircle
 10
278.568183
 20
263.908017
 40
1.7
100
AcDbArc
 50
287.113266
 51
360.0
  0
ARC
  5
1ED
100
AcDbEntity
  8
M0
 62
   234
100
AcDbCircle
 10
265.168183
 20
293.908017
 40
1.5
100
AcDbArc
 50
180.0
 51
270.0
  0
LINE
  5
1EE
100
AcDbEntity
  8
M0
 62
   234
100
AcDbLine
 10
280.268183
 20
292.408017
 11
279.068183
 21
292.408017
  0
LINE
  5
1EF
100
AcDbEntity
  8
M0
 62
   234
100
AcDbLine
 10
268.668183
 20
306.608017
 11
268.668183
 21
302.408017
  0
LINE
  5
1F0
100
AcDbEntity
  8
M0
 62
   234
100
AcDbLine
 10
269.668183
 20
301.408017
 11
280.268183
 21
301.408017
  0
LINE
  5
1F1
100
AcDbEntity
  8
M0
 62
   234
100
AcDbLine
 10
265.168183
 20
312.008017
 11
269.668183
 21
312.008017
  0
LINE
  5
1F2
100
AcDbEntity
  8
M0
 62
   234
100
AcDbLine
 10
280.268183
 20
301.408017
 11
280.268183
 21
263.908017
  0
LINE
  5
1F3
100
AcDbEntity
  8
M0
 62
   234
100
AcDbLine
 10
280.268183
 20
265.608017
 11
279.068183
 21
265.608017
  0
ARC
  5
1F4
100
AcDbEntity
  8
M0
 62
   234
100
AcDbCircle
 10
269.668183
 20
302.408017
 40
1.0
100
AcDbArc
 50
180.0
 51
270.0
  0
LINE
  5
1F5
100
AcDbEntity
  8
M0
 62
   234
100
AcDbLine
 10
263.668183
 20
293.908017
 11
263.668183
 21
310.508017
  0
LINE
  5
1F6
100
AcDbEntity
  8
M0
 62
   234
100
AcDbLine
 10
279.068183
 20
292.408017
 11
279.068183
 21
263.908017
  0
LINE
  5
1F7
100
AcDbEntity
  8
M0
 62
   234
100
AcDbLine
 10
276.071983
 20
292.408017
 11
265.168183
 21
292.408017
  0
LINE
  5
1F8
100
AcDbEntity
  8
M0
  6
DASHDOT
100
AcDbLine
 10
204.990695
 20
246.408018
 11
222.541037
 21
246.408018
  0
LINE
  5
1F9
100
AcDbEntity
  8
M0
100
AcDbLine
 10
209.468768
 20
241.907987
 11
209.468768
 21
250.907987
  0
ARC
  5
1FA
100
AcDbEntity
  8
M0
100
AcDbCircle
 10
218.168716
 20
246.408018
 40
11.999989
100
AcDbArc
 50
182.868824
 51
195.493471
  0
LINE
  5
1FB
100
AcDbEntity
  8
M0
100
AcDbLine
 10
209.468768
 20
241.907285
 11
208.007281
 21
242.035459
  0
LINE
  5
1FC
100
AcDbEntity
  8
M0
100
AcDbLine
 10
209.468463
 20
250.907529
 11
208.007281
 21
250.779356
  0
ARC
  5
1FD
100
AcDbEntity
  8
M0
100
AcDbCircle
 10
208.146746
 20
243.629697
 40
1.599998
100
AcDbArc
 50
195.486076
 51
265.000475
  0
ARC
  5
1FE
100
AcDbEntity
  8
M0
100
AcDbCircle
 10
208.146746
 20
249.186338
 40
1.599998
100
AcDbArc
 50
95.003433
 51
164.513933
  0
LINE
  5
1FF
100
AcDbEntity
  8
M0
100
AcDbLine
 10
207.968524
 20
245.807432
 11
207.968524
 21
247.007383
  0
LINE
  5
200
100
AcDbEntity
  8
M0
100
AcDbLine
 10
206.168902
 20
245.807432
 11
207.968524
 21
245.807432
  0
LINE
  5
201
100
AcDbEntity
  8
M0
100
AcDbLine
 10
206.183856
 20
247.007383
 11
207.968524
 21
247.007383
  0
LINE
  5
202
100
AcDbEntity
  8
M0
100
AcDbLine
 10
210.768512
 20
241.408018
 11
210.768512
 21
251.408018
  0
ARC
  5
203
100
AcDbEntity
  8
M0
100
AcDbCircle
 10
218.168716
 20
246.408018
 40
11.999989
100
AcDbArc
 50
164.506548
 51
177.137039
  0
LINE
  5
204
100
AcDbEntity
  8
M0
100
AcDbLine
 10
209.468768
 20
246.408018
 11
210.768512
 21
245.457285
  0
LINE
  5
205
100
AcDbEntity
  8
M0
100
AcDbLine
 10
209.468768
 20
247.357529
 11
210.768512
 21
246.408018
  0
LINE
  5
206
100
AcDbEntity
  8
M0
100
AcDbLine
 10
209.468524
 20
250.907987
 11
210.768512
 21
250.907987
  0
LINE
  5
207
100
AcDbEntity
  8
M0
100
AcDbLine
 10
209.468524
 20
241.907987
 11
210.768512
 21
241.907987
  0
LINE
  5
208
100
AcDbEntity
  8
M0
100
AcDbLine
 10
221.468768
 20
248.907987
 11
221.468768
 21
243.907987
  0
LINE
  5
209
100
AcDbEntity
  8
M0
100
AcDbLine
 10
214.068511
 20
244.308134
 11
221.468768
 21
244.308134
  0
LINE
  5
20A
100
AcDbEntity
  8
M0
100
AcDbLine
 10
214.068511
 20
243.908018
 11
221.468768
 21
243.908018
  0
LINE
  5
20B
100
AcDbEntity
  8
M0
100
AcDbLine
 10
214.068511
 20
248.508085
 11
221.468768
 21
248.508085
  0
LINE
  5
20C
100
AcDbEntity
  8
M0
100
AcDbLine
 10
214.068511
 20
248.908018
 11
221.468768
 21
248.908018
  0
LINE
  5
20D
100
AcDbEntity
  8
M0
100
AcDbLine
 10
210.768512
 20
241.408018
 11
211.768512
 21
241.408018
  0
LINE
  5
20E
100
AcDbEntity
  8
M0
100
AcDbLine
 10
210.768512
 20
251.408018
 11
211.768512
 21
251.408018
  0
LINE
  5
20F
100
AcDbEntity
  8
M0
100
AcDbLine
 10
210.418455
 20
257.208111
 11
210.418458
 21
251.908108
  0
LINE
  5
210
100
AcDbEntity
  8
M0
100
AcDbLine
 10
214.418456
 20
254.908111
 11
214.068526
 21
254.90811
  0
LINE
  5
211
100
AcDbEntity
  8
M0
100
AcDbLine
 10
214.418458
 20
252.908111
 11
212.918458
 21
252.90811
  0
LINE
  5
212
100
AcDbEntity
  8
M0
100
AcDbLine
 10
238.418456
 20
254.908126
 11
238.418458
 21
251.908126
  0
LINE
  5
213
100
AcDbEntity
  8
M0
100
AcDbLine
 10
224.268464
 20
251.908117
 11
224.268465
 21
250.408117
  0
LINE
  5
214
100
AcDbEntity
  8
M0
100
AcDbLine
 10
224.268465
 20
250.408117
 11
214.418459
 21
250.408111
  0
LINE
  5
215
100
AcDbEntity
  8
M0
100
AcDbLine
 10
238.418456
 20
254.908126
 11
226.768462
 21
254.908118
  0
LINE
  5
216
100
AcDbEntity
  8
M0
100
AcDbLine
 10
226.768461
 20
256.412396
 11
226.768462
 21
254.908118
  0
LINE
  5
217
100
AcDbEntity
  8
M0
100
AcDbLine
 10
235.418455
 20
256.412396
 11
235.418456
 21
254.908124
  0
LINE
  5
218
100
AcDbEntity
  8
M0
100
AcDbLine
 10
214.418456
 20
255.908111
 11
214.418459
 21
250.408111
  0
LINE
  5
219
100
AcDbEntity
  8
M0
100
AcDbLine
 10
226.768462
 20
255.908118
 11
214.418456
 21
255.908111
  0
LINE
  5
21A
100
AcDbEntity
  8
M0
100
AcDbLine
 10
214.418457
 20
254.408111
 11
215.918456
 21
255.908111
  0
LINE
  5
21B
100
AcDbEntity
  8
M0
100
AcDbLine
 10
238.418458
 20
251.908126
 11
224.268464
 21
251.908117
  0
LINE
  5
21C
100
AcDbEntity
  8
M0
100
AcDbLine
 10
214.418458
 20
251.908111
 11
214.068528
 21
251.90811
  0
LINE
  5
21D
100
AcDbEntity
  8
M0
100
AcDbLine
 10
235.418456
 20
255.908124
 11
230.268462
 21
255.90812
  0
LINE
  5
21E
100
AcDbEntity
  8
M0
100
AcDbLine
 10
230.268461
 20
256.412396
 11
230.268462
 21
255.90812
  0
LINE
  5
21F
100
AcDbEntity
  8
M0
100
AcDbLine
 10
212.702192
 20
257.208113
 11
210.418455
 21
257.208111
  0
LINE
  5
220
100
AcDbEntity
  8
M0
100
AcDbLine
 10
211.768525
 20
251.908109
 11
210.418458
 21
251.908108
  0
LINE
  5
221
100
AcDbEntity
  8
M0
100
AcDbLine
 10
211.768539
 20
254.908109
 11
210.418456
 21
254.908108
  0
ARC
  5
222
100
AcDbEntity
  8
M0
100
AcDbCircle
 10
215.068511
 20
254.908018
 40
1.0
100
AcDbArc
 50
90.0
 51
180.0
  0
LINE
  5
223
100
AcDbEntity
  8
M0
100
AcDbLine
 10
215.068511
 20
255.908018
 11
222.768503
 21
255.908018
  0
ARC
  5
224
100
AcDbEntity
  8
M0
100
AcDbCircle
 10
222.768503
 20
259.208021
 40
3.299999
100
AcDbArc
 50
270.0
 51
302.095981
  0
LINE
  5
225
100
AcDbEntity
  8
M0
100
AcDbLine
 10
211.768512
 20
240.408018
 11
214.068511
 21
240.408018
  0
LINE
  5
226
100
AcDbEntity
  8
M0
100
AcDbLine
 10
215.068511
 20
258.208021
 11
215.28289
 21
258.208021
  0
ARC
  5
227
100
AcDbEntity
  8
M0
100
AcDbCircle
 10
215.068511
 20
254.908018
 40
3.299999
100
AcDbArc
 50
90.0
 51
180.0
  0
LINE
  5
228
100
AcDbEntity
  8
M0
100
AcDbLine
 10
221.268503
 20
255.908018
 11
221.268503
 21
257.3933
  0
LINE
  5
229
100
AcDbEntity
  8
M0
100
AcDbLine
 10
222.268503
 20
255.908018
 11
222.268503
 21
256.67115
  0
LINE
  5
22A
100
AcDbEntity
  8
M0
100
AcDbLine
 10
211.768512
 20
251.408018
 11
214.068511
 21
251.408018
  0
LINE
  5
22B
100
AcDbEntity
  8
M0
100
AcDbLine
 10
211.768512
 20
252.908018
 11
214.068511
 21
252.908018
  0
LINE
  5
22C
100
AcDbEntity
  8
M0
100
AcDbLine
 10
214.068511
 20
240.408018
 11
214.068511
 21
254.908018
  0
LINE
  5
22D
100
AcDbEntity
  8
M0
100
AcDbLine
 10
211.768512
 20
240.408018
 11
211.768512
 21
254.908018
  0
ARC
  5
22E
100
AcDbEntity
  8
M0
100
AcDbCircle
 10
234.768504
 20
254.908018
 40
1.0
100
AcDbArc
 50
0.0
 51
49.464273
  0
LINE
  5
22F
100
AcDbEntity
  8
M0
100
AcDbLine
 10
238.068491
 20
240.408018
 11
235.768503
 21
240.408018
  0
ARC
  5
230
100
AcDbEntity
  8
M0
100
AcDbCircle
 10
234.768504
 20
254.908018
 40
3.299999
100
AcDbArc
 50
0.0
 51
27.121076
  0
LINE
  5
231
100
AcDbEntity
  8
M0
100
AcDbLine
 10
238.068491
 20
251.408018
 11
235.768503
 21
251.408018
  0
LINE
  5
232
100
AcDbEntity
  8
M0
100
AcDbLine
 10
238.068491
 20
240.408018
 11
238.068491
 21
251.90814
  0
LINE
  5
233
100
AcDbEntity
  8
M0
100
AcDbLine
 10
235.768503
 20
240.408018
 11
235.768503
 21
251.90814
  0
LINE
  5
234
100
AcDbEntity
  8
M0
  6
DASHDOT
100
AcDbLine
 10
228.990686
 20
246.408018
 11
246.541028
 21
246.408018
  0
LINE
  5
235
100
AcDbEntity
  8
M0
100
AcDbLine
 10
233.468759
 20
241.907987
 11
233.468759
 21
250.907987
  0
ARC
  5
236
100
AcDbEntity
  8
M0
100
AcDbCircle
 10
242.168708
 20
246.408018
 40
11.999989
100
AcDbArc
 50
182.868824
 51
195.493471
  0
LINE
  5
237
100
AcDbEntity
  8
M0
100
AcDbLine
 10
233.468759
 20
241.907285
 11
232.007272
 21
242.035459
  0
LINE
  5
238
100
AcDbEntity
  8
M0
100
AcDbLine
 10
233.468454
 20
250.907529
 11
232.007272
 21
250.779356
  0
ARC
  5
239
100
AcDbEntity
  8
M0
100
AcDbCircle
 10
232.146738
 20
243.629697
 40
1.599998
100
AcDbArc
 50
195.486076
 51
265.000475
  0
ARC
  5
23A
100
AcDbEntity
  8
M0
100
AcDbCircle
 10
232.146738
 20
249.186338
 40
1.599998
100
AcDbArc
 50
95.003433
 51
164.513933
  0
LINE
  5
23B
100
AcDbEntity
  8
M0
100
AcDbLine
 10
231.968515
 20
245.807432
 11
231.968515
 21
247.007383
  0
LINE
  5
23C
100
AcDbEntity
  8
M0
100
AcDbLine
 10
230.168894
 20
245.807432
 11
231.968515
 21
245.807432
  0
LINE
  5
23D
100
AcDbEntity
  8
M0
100
AcDbLine
 10
230.183847
 20
247.007383
 11
231.968515
 21
247.007383
  0
LINE
  5
23E
100
AcDbEntity
  8
M0
100
AcDbLine
 10
234.768503
 20
241.408018
 11
234.768503
 21
251.408018
  0
ARC
  5
23F
100
AcDbEntity
  8
M0
100
AcDbCircle
 10
242.168708
 20
246.408018
 40
11.999989
100
AcDbArc
 50
164.506548
 51
177.137039
  0
LINE
  5
240
100
AcDbEntity
  8
M0
100
AcDbLine
 10
233.468759
 20
246.408018
 11
234.768503
 21
245.457285
  0
LINE
  5
241
100
AcDbEntity
  8
M0
100
AcDbLine
 10
233.468759
 20
247.357529
 11
234.768503
 21
246.408018
  0
LINE
  5
242
100
AcDbEntity
  8
M0
100
AcDbLine
 10
233.468515
 20
250.907987
 11
234.768503
 21
250.907987
  0
LINE
  5
243
100
AcDbEntity
  8
M0
100
AcDbLine
 10
233.468515
 20
241.907987
 11
234.768503
 21
241.907987
  0
LINE
  5
244
100
AcDbEntity
  8
M0
100
AcDbLine
 10
245.468759
 20
248.907987
 11
245.468759
 21
243.907987
  0
LINE
  5
245
100
AcDbEntity
  8
M0
100
AcDbLine
 10
238.068502
 20
244.308134
 11
245.468759
 21
244.308134
  0
LINE
  5
246
100
AcDbEntity
  8
M0
100
AcDbLine
 10
238.068502
 20
243.908018
 11
245.468759
 21
243.908018
  0
LINE
  5
247
100
AcDbEntity
  8
M0
100
AcDbLine
 10
238.068502
 20
248.508085
 11
245.468759
 21
248.508085
  0
LINE
  5
248
100
AcDbEntity
  8
M0
100
AcDbLine
 10
238.068502
 20
248.908018
 11
245.468759
 21
248.908018
  0
LINE
  5
249
100
AcDbEntity
  8
M0
100
AcDbLine
 10
234.768503
 20
241.408018
 11
235.768503
 21
241.408018
  0
LINE
  5
24A
100
AcDbEntity
  8
M0
100
AcDbLine
 10
234.768503
 20
251.408018
 11
235.768503
 21
251.408018
  0
LINE
  5
24B
100
AcDbEntity
  8
M0
 62
   234
100
AcDbLine
 10
72.541116
 20
257.208175
 11
81.541116
 21
257.208169
  0
LINE
  5
24C
100
AcDbEntity
  8
M0
 62
   234
100
AcDbLine
 10
89.441094
 20
255.908161
 11
88.541115
 21
255.908162
  0
LINE
  5
24D
100
AcDbEntity
  8
M0
 62
   234
100
AcDbLine
 10
72.541113
 20
251.908172
 11
80.541097
 21
251.908167
  0
LINE
  5
24E
100
AcDbEntity
  8
M0
 62
   234
100
AcDbLine
 10
79.791115
 20
254.908167
 11
81.541115
 21
254.908166
  0
LINE
  5
24F
100
AcDbEntity
  8
M0
 62
   234
100
AcDbLine
 10
79.791112
 20
250.408167
 11
80.041112
 21
250.408167
  0
LINE
  5
250
100
AcDbEntity
  8
M0
 62
   234
100
AcDbLine
 10
89.441094
 20
255.908161
 11
89.441091
 21
252.008182
  0
LINE
  5
251
100
AcDbEntity
  8
M0
 62
   234
100
AcDbLine
 10
79.791116
 20
257.20817
 11
79.791115
 21
255.908167
  0
LINE
  5
252
100
AcDbEntity
  8
M0
 62
   234
100
AcDbLine
 10
79.791115
 20
254.908167
 11
79.791113
 21
251.908167
  0
LINE
  5
253
100
AcDbEntity
  8
M0
 62
   234
100
AcDbLine
 10
76.291115
 20
254.908169
 11
77.791115
 21
254.908168
  0
LINE
  5
254
100
AcDbEntity
  8
M0
 62
   234
100
AcDbLine
 10
77.791115
 20
254.908168
 11
77.791113
 21
252.908168
  0
LINE
  5
255
100
AcDbEntity
  8
M0
 62
   234
100
AcDbLine
 10
77.791113
 20
252.908168
 11
76.291113
 21
252.908169
  0
LINE
  5
256
100
AcDbEntity
  8
M0
 62
   234
100
AcDbLine
 10
76.291116
 20
257.208172
 11
76.291113
 21
252.908169
  0
LINE
  5
257
100
AcDbEntity
  8
M0
 62
   234
100
AcDbLine
 10
72.541115
 20
255.908172
 11
76.291115
 21
255.908169
  0
LINE
  5
258
100
AcDbEntity
  8
M0
 62
   234
100
AcDbLine
 10
72.541114
 20
254.408172
 11
76.291114
 21
254.408169
  0
LINE
  5
259
100
AcDbEntity
  8
M0
 62
   234
100
AcDbLine
 10
72.541116
 20
257.208175
 11
63.541116
 21
257.20818
  0
LINE
  5
25A
100
AcDbEntity
  8
M0
 62
   234
100
AcDbLine
 10
55.641121
 20
255.908182
 11
56.541115
 21
255.908182
  0
LINE
  5
25B
100
AcDbEntity
  8
M0
 62
   234
100
AcDbLine
 10
72.541113
 20
251.908172
 11
64.541097
 21
251.908177
  0
LINE
  5
25C
100
AcDbEntity
  8
M0
 62
   234
100
AcDbLine
 10
65.291115
 20
254.908176
 11
63.541115
 21
254.908177
  0
LINE
  5
25D
100
AcDbEntity
  8
M0
 62
   234
100
AcDbLine
 10
65.291112
 20
250.408176
 11
65.041112
 21
250.408176
  0
LINE
  5
25E
100
AcDbEntity
  8
M0
 62
   234
100
AcDbLine
 10
55.641121
 20
255.908182
 11
55.641119
 21
252.008188
  0
LINE
  5
25F
100
AcDbEntity
  8
M0
 62
   234
100
AcDbLine
 10
65.291116
 20
257.208179
 11
65.291115
 21
255.908176
  0
LINE
  5
260
100
AcDbEntity
  8
M0
 62
   234
100
AcDbLine
 10
65.291115
 20
254.908176
 11
65.291113
 21
251.908176
  0
LINE
  5
261
100
AcDbEntity
  8
M0
 62
   234
100
AcDbLine
 10
68.791115
 20
254.908174
 11
67.291115
 21
254.908175
  0
LINE
  5
262
100
AcDbEntity
  8
M0
 62
   234
100
AcDbLine
 10
67.291115
 20
254.908175
 11
67.291113
 21
252.908175
  0
LINE
  5
263
100
AcDbEntity
  8
M0
 62
   234
100
AcDbLine
 10
67.291113
 20
252.908175
 11
68.791113
 21
252.908174
  0
LINE
  5
264
100
AcDbEntity
  8
M0
 62
   234
100
AcDbLine
 10
68.791116
 20
257.208177
 11
68.791113
 21
252.908174
  0
LINE
  5
265
100
AcDbEntity
  8
M0
 62
   234
100
AcDbLine
 10
72.541115
 20
255.908172
 11
68.791115
 21
255.908174
  0
LINE
  5
266
100
AcDbEntity
  8
M0
 62
   234
100
AcDbLine
 10
72.541114
 20
254.408172
 11
68.791114
 21
254.408174
  0
LINE
  5
267
100
AcDbEntity
  8
M0
 62
   234
100
AcDbLine
 10
79.791113
 20
251.908167
 11
79.791112
 21
250.408167
  0
LINE
  5
268
100
AcDbEntity
  8
M0
 62
   234
100
AcDbLine
 10
65.291113
 20
251.908176
 11
65.291112
 21
250.408176
  0
LINE
  5
269
100
AcDbEntity
  8
M0
 62
   234
100
AcDbLine
 10
56.541115
 20
254.908182
 11
55.641121
 21
254.908182
  0
LINE
  5
26A
100
AcDbEntity
  8
M0
 62
   234
100
AcDbLine
 10
63.541115
 20
255.908177
 11
65.291115
 21
255.908176
  0
LINE
  5
26B
100
AcDbEntity
  8
M0
 62
   234
100
AcDbLine
 10
88.541115
 20
254.908162
 11
89.441093
 21
254.908161
  0
LINE
  5
26C
100
AcDbEntity
  8
M0
 62
   234
100
AcDbLine
 10
81.541115
 20
255.908166
 11
79.791115
 21
255.908167
  0
LINE
  5
26D
100
AcDbEntity
  8
M0
 62
   154
100
AcDbLine
 10
90.041051
 20
240.408018
 11
80.041051
 21
240.408018
  0
LINE
  5
26E
100
AcDbEntity
  8
M0
 62
   154
100
AcDbLine
 10
90.041051
 20
251.408018
 11
90.041051
 21
240.408018
  0
LINE
  5
26F
100
AcDbEntity
  8
M0
 62
   154
100
AcDbLine
 10
80.041051
 20
240.408018
 11
80.041051
 21
251.408018
  0
LINE
  5
270
100
AcDbEntity
  8
M0
 62
   154
100
AcDbLine
 10
81.541051
 20
258.208021
 11
81.541051
 21
252.908018
  0
LINE
  5
271
100
AcDbEntity
  8
M0
 62
   154
100
AcDbLine
 10
88.541051
 20
258.208021
 11
81.541051
 21
258.208021
  0
LINE
  5
272
100
AcDbEntity
  8
M0
 62
   154
100
AcDbLine
 10
88.541051
 20
258.208021
 11
88.541051
 21
252.908018
  0
LINE
  5
273
100
AcDbEntity
  8
M0
  6
DASHED
 62
   154
100
AcDbLine
 10
81.541051
 20
255.908018
 11
88.541051
 21
255.908018
  0
LINE
  5
274
100
AcDbEntity
  8
M0
 62
   154
100
AcDbLine
 10
88.541051
 20
272.408013
 11
81.541051
 21
272.408013
  0
LINE
  5
275
100
AcDbEntity
  8
M0
 62
   154
100
AcDbLine
 10
82.541051
 20
258.208021
 11
82.541051
 21
261.208021
  0
LINE
  5
276
100
AcDbEntity
  8
M0
 62
   154
100
AcDbLine
 10
87.541051
 20
258.208021
 11
87.541051
 21
261.208021
  0
LINE
  5
277
100
AcDbEntity
  8
M0
 62
   154
100
AcDbLine
 10
81.541051
 20
272.408013
 11
81.541051
 21
262.208021
  0
LINE
  5
278
100
AcDbEntity
  8
M0
 62
   154
100
AcDbLine
 10
88.541051
 20
272.408013
 11
88.541051
 21
262.208021
  0
LINE
  5
279
100
AcDbEntity
  8
M0
 62
   154
100
AcDbLine
 10
87.541051
 20
261.208021
 11
88.541051
 21
262.208021
  0
LINE
  5
27A
100
AcDbEntity
  8
M0
 62
   154
100
AcDbLine
 10
82.541051
 20
261.208021
 11
81.541051
 21
262.208021
  0
LINE
  5
27B
100
AcDbEntity
  8
M0
 62
   154
100
AcDbLine
 10
80.041051
 20
251.408018
 11
81.541051
 21
252.908018
  0
LINE
  5
27C
100
AcDbEntity
  8
M0
 62
   154
100
AcDbLine
 10
90.041051
 20
251.408018
 11
88.541051
 21
252.908018
  0
LINE
  5
27D
100
AcDbEntity
  8
M0
 62
   154
100
AcDbLine
 10
55.041052
 20
240.408018
 11
65.041051
 21
240.408018
  0
LINE
  5
27E
100
AcDbEntity
  8
M0
 62
   154
100
AcDbLine
 10
55.041052
 20
251.408018
 11
55.041052
 21
240.408018
  0
LINE
  5
27F
100
AcDbEntity
  8
M0
 62
   154
100
AcDbLine
 10
65.041051
 20
240.408018
 11
65.041051
 21
251.408018
  0
LINE
  5
280
100
AcDbEntity
  8
M0
 62
   154
100
AcDbLine
 10
63.541051
 20
258.208021
 11
63.541051
 21
252.908018
  0
LINE
  5
281
100
AcDbEntity
  8
M0
 62
   154
100
AcDbLine
 10
56.541052
 20
258.208021
 11
63.541051
 21
258.208021
  0
LINE
  5
282
100
AcDbEntity
  8
M0
 62
   154
100
AcDbLine
 10
56.541052
 20
258.208021
 11
56.541052
 21
252.908018
  0
LINE
  5
283
100
AcDbEntity
  8
M0
  6
DASHED
 62
   154
100
AcDbLine
 10
63.541051
 20
255.908018
 11
56.541052
 21
255.908018
  0
LINE
  5
284
100
AcDbEntity
  8
M0
 62
   154
100
AcDbLine
 10
56.541052
 20
272.408013
 11
63.541051
 21
272.408013
  0
LINE
  5
285
100
AcDbEntity
  8
M0
 62
   154
100
AcDbLine
 10
62.541051
 20
258.208021
 11
62.541051
 21
261.208021
  0
LINE
  5
286
100
AcDbEntity
  8
M0
 62
   154
100
AcDbLine
 10
57.541051
 20
258.208021
 11
57.541051
 21
261.208021
  0
LINE
  5
287
100
AcDbEntity
  8
M0
 62
   154
100
AcDbLine
 10
63.541051
 20
272.408013
 11
63.541051
 21
262.208021
  0
LINE
  5
288
100
AcDbEntity
  8
M0
 62
   154
100
AcDbLine
 10
56.541052
 20
272.408013
 11
56.541052
 21
262.208021
  0
LINE
  5
289
100
AcDbEntity
  8
M0
 62
   154
100
AcDbLine
 10
57.541051
 20
261.208021
 11
56.541052
 21
262.208021
  0
LINE
  5
28A
100
AcDbEntity
  8
M0
 62
   154
100
AcDbLine
 10
62.541051
 20
261.208021
 11
63.541051
 21
262.208021
  0
LINE
  5
28B
100
AcDbEntity
  8
M0
 62
   154
100
AcDbLine
 10
65.041051
 20
251.408018
 11
63.541051
 21
252.908018
  0
LINE
  5
28C
100
AcDbEntity
  8
M0
 62
   154
100
AcDbLine
 10
55.041052
 20
251.408018
 11
56.541052
 21
252.908018
  0
LINE
  5
28D
100
AcDbEntity
  8
M0
 62
   154
100
AcDbLine
 10
67.541052
 20
240.408018
 11
77.541051
 21
240.408018
  0
LINE
  5
28E
100
AcDbEntity
  8
M0
 62
   154
100
AcDbLine
 10
67.541052
 20
251.408018
 11
67.541052
 21
240.408018
  0
LINE
  5
28F
100
AcDbEntity
  8
M0
 62
   154
100
AcDbLine
 10
77.541051
 20
240.408018
 11
77.541051
 21
251.408018
  0
LINE
  5
290
100
AcDbEntity
  8
M0
 62
   154
100
AcDbLine
 10
76.041051
 20
258.208021
 11
76.041051
 21
257.208021
  0
LINE
  5
291
100
AcDbEntity
  8
M0
 62
   154
100
AcDbLine
 10
69.041052
 20
258.208021
 11
70.041051
 21
258.208021
  0
LINE
  5
292
100
AcDbEntity
  8
M0
 62
   154
100
AcDbLine
 10
69.041052
 20
258.208021
 11
69.041052
 21
257.208021
  0
LINE
  5
293
100
AcDbEntity
  8
M0
  6
DASHED
 62
   154
100
AcDbLine
 10
76.041051
 20
255.908018
 11
69.041052
 21
255.908018
  0
LINE
  5
294
100
AcDbEntity
  8
M0
 62
   154
100
AcDbLine
 10
69.041052
 20
272.408013
 11
76.041051
 21
272.408013
  0
LINE
  5
295
100
AcDbEntity
  8
M0
 62
   154
100
AcDbLine
 10
75.041051
 20
257.208021
 11
75.041051
 21
261.208021
  0
LINE
  5
296
100
AcDbEntity
  8
M0
 62
   154
100
AcDbLine
 10
70.041051
 20
257.208021
 11
70.041051
 21
261.208021
  0
LINE
  5
297
100
AcDbEntity
  8
M0
 62
   154
100
AcDbLine
 10
76.041051
 20
272.408013
 11
76.041051
 21
262.208021
  0
LINE
  5
298
100
AcDbEntity
  8
M0
 62
   154
100
AcDbLine
 10
69.041052
 20
272.408013
 11
69.041052
 21
262.208021
  0
LINE
  5
299
100
AcDbEntity
  8
M0
 62
   154
100
AcDbLine
 10
70.041051
 20
261.208021
 11
69.041052
 21
262.208021
  0
LINE
  5
29A
100
AcDbEntity
  8
M0
 62
   154
100
AcDbLine
 10
75.041051
 20
261.208021
 11
76.041051
 21
262.208021
  0
LINE
  5
29B
100
AcDbEntity
  8
M0
 62
   154
100
AcDbLine
 10
77.541051
 20
251.408018
 11
77.041051
 21
251.908018
  0
LINE
  5
29C
100
AcDbEntity
  8
M0
 62
   154
100
AcDbLine
 10
67.541052
 20
251.408018
 11
68.041053
 21
251.908018
  0
LINE
  5
29D
100
AcDbEntity
  8
M0
 62
   154
100
AcDbLine
 10
75.041051
 20
258.208021
 11
76.041051
 21
258.208021
  0
CIRCLE
  5
29E
100
AcDbEntity
  8
M0
 62
   114
100
AcDbCircle
 10
60.041051
 20
246.408018
 40
4.5
  0
CIRCLE
  5
29F
100
AcDbEntity
  8
M0
 62
   114
100
AcDbCircle
 10
60.041051
 20
246.408018
 40
5.0
  0
LINE
  5
2A0
100
AcDbEntity
  8
M0
  6
DASHDOT
 62
   114
100
AcDbLine
 10
59.541051
 20
246.408018
 11
60.541051
 21
246.408018
  0
LINE
  5
2A1
100
AcDbEntity
  8
M0
  6
DASHDOT
 62
   114
100
AcDbLine
 10
60.041051
 20
245.908018
 11
60.041051
 21
246.908018
  0
CIRCLE
  5
2A2
100
AcDbEntity
  8
M0
 62
   114
100
AcDbCircle
 10
72.541051
 20
246.408018
 40
4.5
  0
CIRCLE
  5
2A3
100
AcDbEntity
  8
M0
 62
   114
100
AcDbCircle
 10
72.541051
 20
246.408018
 40
5.0
  0
LINE
  5
2A4
100
AcDbEntity
  8
M0
  6
DASHDOT
 62
   114
100
AcDbLine
 10
72.041051
 20
246.408018
 11
73.041051
 21
246.408018
  0
LINE
  5
2A5
100
AcDbEntity
  8
M0
  6
DASHDOT
 62
   114
100
AcDbLine
 10
72.541051
 20
245.908018
 11
72.541051
 21
246.908018
  0
CIRCLE
  5
2A6
100
AcDbEntity
  8
M0
 62
   114
100
AcDbCircle
 10
85.041051
 20
246.408018
 40
4.5
  0
CIRCLE
  5
2A7
100
AcDbEntity
  8
M0
 62
   114
100
AcDbCircle
 10
85.041051
 20
246.408018
 40
5.0
  0
LINE
  5
2A8
100
AcDbEntity
  8
M0
  6
DASHDOT
 62
   114
100
AcDbLine
 10
84.541051
 20
246.408018
 11
85.541051
 21
246.408018
  0
LINE
  5
2A9
100
AcDbEntity
  8
M0
  6
DASHDOT
 62
   114
100
AcDbLine
 10
85.041051
 20
245.908018
 11
85.041051
 21
246.908018
  0
LINE
  5
2AA
100
AcDbEntity
  8
M0
  6
DASHDOT
 62
   154
100
AcDbLine
 10
60.991051
 20
380.408018
 11
60.991051
 21
381.408018
  0
CIRCLE
  5
2AB
100
AcDbEntity
  8
M0
 62
   154
100
AcDbCircle
 10
60.991051
 20
380.908018
 40
4.499996
  0
LINE
  5
2AC
100
AcDbEntity
  8
M0
  6
DASHDOT
 62
   154
100
AcDbLine
 10
60.491051
 20
380.908018
 11
61.491051
 21
380.908018
  0
LINE
  5
2AD
100
AcDbEntity
  8
M0
 62
   154
100
AcDbLine
 10
60.524147
 20
382.789153
 11
62.872124
 21
380.441161
  0
LINE
  5
2AE
100
AcDbEntity
  8
M0
 62
   154
100
AcDbLine
 10
59.109947
 20
381.374937
 11
61.457924
 21
379.026945
  0
LINE
  5
2AF
100
AcDbEntity
  8
M0
 62
   154
100
AcDbLine
 10
63.060005
 20
382.976927
 11
58.797035
 21
378.713988
  0
ARC
  5
2B0
100
AcDbEntity
  8
M0
 62
   154
100
AcDbCircle
 10
73.891051
 20
367.908018
 40
2.0
100
AcDbArc
 50
180.0
 51
270.0
  0
ARC
  5
2B1
100
AcDbEntity
  8
M0
 62
   154
100
AcDbCircle
 10
67.891051
 20
369.377106
 40
4.0
100
AcDbArc
 50
0.0
 51
31.574191
  0
LINE
  5
2B2
100
AcDbEntity
  8
M0
 62
   154
100
AcDbLine
 10
66.583199
 20
379.144523
 11
71.298902
 21
371.471514
  0
LINE
  5
2B3
100
AcDbEntity
  8
M0
 62
   154
100
AcDbLine
 10
71.891051
 20
367.908018
 11
71.891051
 21
369.377106
  0
LINE
  5
2B4
100
AcDbEntity
  8
M0
 62
   154
100
AcDbLine
 10
73.891051
 20
365.908018
 11
74.726466
 21
365.908018
  0
LINE
  5
2B5
100
AcDbEntity
  8
M0
 62
   154
100
AcDbLine
 10
64.991051
 20
386.908018
 11
56.991051
 21
386.908018
  0
LINE
  5
2B6
100
AcDbEntity
  8
M0
 62
   154
100
AcDbLine
 10
65.991051
 20
385.908018
 11
65.991051
 21
381.238931
  0
LINE
  5
2B7
100
AcDbEntity
  8
M0
 62
   154
100
AcDbLine
 10
73.891051
 20
355.608018
 11
65.891051
 21
355.608018
  0
LINE
  5
2B8
100
AcDbEntity
  8
M0
 62
   154
100
AcDbLine
 10
55.991051
 20
385.908018
 11
55.991051
 21
380.550876
  0
ARC
  5
2B9
100
AcDbEntity
  8
M0
 62
   154
100
AcDbCircle
 10
67.191051
 20
364.608018
 40
2.5
100
AcDbArc
 50
156.926082
 51
203.073918
  0
ARC
  5
2BA
100
AcDbEntity
  8
M0
 62
   154
100
AcDbCircle
 10
67.191051
 20
357.608018
 40
2.5
100
AcDbArc
 50
156.926082
 51
203.073918
  0
ARC
  5
2BB
100
AcDbEntity
  8
M0
 62
   154
100
AcDbCircle
 10
72.591051
 20
364.608018
 40
2.5
100
AcDbArc
 50
-23.073918
 51
31.332251
  0
ARC
  5
2BC
100
AcDbEntity
  8
M0
 62
   154
100
AcDbCircle
 10
72.591051
 20
357.608018
 40
2.5
100
AcDbArc
 50
-23.073918
 51
23.073918
  0
LINE
  5
2BD
100
AcDbEntity
  8
M0
 62
   154
100
AcDbLine
 10
64.891051
 20
363.628223
 11
64.891051
 21
358.587814
  0
LINE
  5
2BE
100
AcDbEntity
  8
M0
 62
   154
100
AcDbLine
 10
64.891051
 20
356.628223
 11
64.891051
 21
356.608018
  0
LINE
  5
2BF
100
AcDbEntity
  8
M0
 62
   154
100
AcDbLine
 10
74.891051
 20
363.628223
 11
74.891051
 21
358.587814
  0
LINE
  5
2C0
100
AcDbEntity
  8
M0
 62
   154
100
AcDbLine
 10
74.891051
 20
356.628223
 11
74.891051
 21
356.608018
  0
LINE
  5
2C1
100
AcDbEntity
  8
M0
 62
   154
100
AcDbLine
 10
64.891051
 20
365.587814
 11
64.891051
 21
370.908018
  0
ARC
  5
2C2
100
AcDbEntity
  8
M0
 62
   154
100
AcDbCircle
 10
60.891051
 20
370.908018
 40
4.0
100
AcDbArc
 50
0.0
 51
90.0
  0
ARC
  5
2C3
100
AcDbEntity
  8
M0
 62
   154
100
AcDbCircle
 10
65.891051
 20
356.608018
 40
1.0
100
AcDbArc
 50
180.0
 51
270.0
  0
ARC
  5
2C4
100
AcDbEntity
  8
M0
 62
   154
100
AcDbCircle
 10
73.891051
 20
356.608018
 40
1.0
100
AcDbArc
 50
270.0
 51
360.0
  0
ARC
  5
2C5
100
AcDbEntity
  8
M0
 62
   154
100
AcDbCircle
 10
56.991051
 20
385.908018
 40
1.0
100
AcDbArc
 50
90.0
 51
180.0
  0
ARC
  5
2C6
100
AcDbEntity
  8
M0
 62
   154
100
AcDbCircle
 10
64.991051
 20
385.908018
 40
1.0
100
AcDbArc
 50
0.0
 51
90.0
  0
ARC
  5
2C7
100
AcDbEntity
  8
M0
 62
   154
100
AcDbCircle
 10
59.346606
 20
375.908018
 40
1.0
100
AcDbArc
 50
211.890792
 51
270.0
  0
ARC
  5
2C8
100
AcDbEntity
  8
M0
 62
   154
100
AcDbCircle
 10
59.991051
 20
380.550876
 40
4.0
100
AcDbArc
 50
180.0
 51
211.890792
  0
LINE
  5
2C9
100
AcDbEntity
  8
M0
 62
   154
100
AcDbLine
 10
60.891051
 20
374.908018
 11
59.346606
 21
374.908018
  0
LINE
  5
2CA
100
AcDbEntity
  8
M0
 62
   154
100
AcDbLine
 10
56.594824
 20
378.437668
 11
58.49755
 21
375.379717
  0
ARC
  5
2CB
100
AcDbEntity
  8
M0
 62
   154
100
AcDbCircle
 10
69.991051
 20
381.238931
 40
4.0
100
AcDbArc
 50
180.0
 51
211.574191
  0
LINE
  5
2CC
100
AcDbEntity
  8
M0
 62
   154
100
AcDbLine
 10
79.791047
 20
366.908018
 11
79.791047
 21
373.710193
  0
LINE
  5
2CD
100
AcDbEntity
  8
M0
 62
   154
100
AcDbLine
 10
85.991047
 20
366.908018
 11
85.991047
 21
373.710193
  0
LINE
  5
2CE
100
AcDbEntity
  8
M0
 62
   154
100
AcDbLine
 10
87.891047
 20
377.307294
 11
87.891047
 21
385.908018
  0
LINE
  5
2CF
100
AcDbEntity
  8
M0
 62
   154
100
AcDbLine
 10
86.816049
 20
375.776441
 11
87.616047
 21
376.618544
  0
LINE
  5
2D0
100
AcDbEntity
  8
M0
 62
   154
100
AcDbLine
 10
87.726463
 20
365.908018
 11
86.991047
 21
365.908018
  0
LINE
  5
2D1
100
AcDbEntity
  8
M0
 62
   154
100
AcDbLine
 10
77.891047
 20
377.307294
 11
77.891047
 21
385.908018
  0
LINE
  5
2D2
100
AcDbEntity
  8
M0
 62
   154
100
AcDbLine
 10
86.891047
 20
386.908018
 11
78.891047
 21
386.908018
  0
LINE
  5
2D3
100
AcDbEntity
  8
M0
 62
   154
100
AcDbLine
 10
78.055632
 20
365.908018
 11
78.791047
 21
365.908018
  0
LINE
  5
2D4
100
AcDbEntity
  8
M0
 62
   154
100
AcDbLine
 10
86.891047
 20
355.608018
 11
78.891047
 21
355.608018
  0
LINE
  5
2D5
100
AcDbEntity
  8
M0
 62
   154
100
AcDbLine
 10
77.891047
 20
356.608018
 11
77.891047
 21
356.628223
  0
LINE
  5
2D6
100
AcDbEntity
  8
M0
 62
   154
100
AcDbLine
 10
77.891047
 20
358.587814
 11
77.891047
 21
363.628223
  0
LINE
  5
2D7
100
AcDbEntity
  8
M0
 62
   154
100
AcDbLine
 10
87.891047
 20
358.587814
 11
87.891047
 21
363.628223
  0
LINE
  5
2D8
100
AcDbEntity
  8
M0
 62
   154
100
AcDbLine
 10
87.891047
 20
356.608018
 11
87.891047
 21
356.628223
  0
ARC
  5
2D9
100
AcDbEntity
  8
M0
 62
   154
100
AcDbCircle
 10
80.191047
 20
357.608018
 40
2.5
100
AcDbArc
 50
156.926082
 51
203.073918
  0
ARC
  5
2DA
100
AcDbEntity
  8
M0
 62
   154
100
AcDbCircle
 10
78.891047
 20
356.608018
 40
1.0
100
AcDbArc
 50
180.0
 51
270.0
  0
ARC
  5
2DB
100
AcDbEntity
  8
M0
 62
   154
100
AcDbCircle
 10
86.891047
 20
356.608018
 40
1.0
100
AcDbArc
 50
270.0
 51
360.0
  0
ARC
  5
2DC
100
AcDbEntity
  8
M0
 62
   154
100
AcDbCircle
 10
86.991047
 20
366.908018
 40
1.0
100
AcDbArc
 50
180.0
 51
270.0
  0
ARC
  5
2DD
100
AcDbEntity
  8
M0
 62
   154
100
AcDbCircle
 10
78.791047
 20
366.908018
 40
1.0
100
AcDbArc
 50
270.0
 51
360.0
  0
ARC
  5
2DE
100
AcDbEntity
  8
M0
 62
   154
100
AcDbCircle
 10
80.191047
 20
364.608018
 40
2.5
100
AcDbArc
 50
148.667749
 51
203.073918
  0
ARC
  5
2DF
100
AcDbEntity
  8
M0
 62
   154
100
AcDbCircle
 10
85.591047
 20
364.608018
 40
2.5
100
AcDbArc
 50
-23.073918
 51
31.332251
  0
ARC
  5
2E0
100
AcDbEntity
  8
M0
 62
   154
100
AcDbCircle
 10
85.591047
 20
357.608018
 40
2.5
100
AcDbArc
 50
-23.073918
 51
23.073918
  0
ARC
  5
2E1
100
AcDbEntity
  8
M0
 62
   154
100
AcDbCircle
 10
78.891047
 20
385.908018
 40
1.0
100
AcDbArc
 50
90.0
 51
180.0
  0
ARC
  5
2E2
100
AcDbEntity
  8
M0
 62
   154
100
AcDbCircle
 10
78.891047
 20
377.307294
 40
1.0
100
AcDbArc
 50
180.0
 51
223.531199
  0
ARC
  5
2E3
100
AcDbEntity
  8
M0
 62
   154
100
AcDbCircle
 10
86.891047
 20
385.908018
 40
1.0
100
AcDbArc
 50
0.0
 51
90.0
  0
ARC
  5
2E4
100
AcDbEntity
  8
M0
 62
   154
100
AcDbCircle
 10
86.891047
 20
377.307294
 40
1.0
100
AcDbArc
 50
316.468801
 51
360.0
  0
ARC
  5
2E5
100
AcDbEntity
  8
M0
 62
   154
100
AcDbCircle
 10
76.791047
 20
373.710193
 40
3.0
100
AcDbArc
 50
0.0
 51
43.531199
  0
ARC
  5
2E6
100
AcDbEntity
  8
M0
 62
   154
100
AcDbCircle
 10
88.991047
 20
373.710193
 40
3.0
100
AcDbArc
 50
136.468801
 51
180.0
  0
LINE
  5
2E7
100
AcDbEntity
  8
M0
 62
   154
100
AcDbLine
 10
78.966046
 20
375.776441
 11
78.166048
 21
376.618544
  0
LINE
  5
2E8
100
AcDbEntity
  8
M0
  6
DASHDOT
 62
   154
100
AcDbLine
 10
82.891047
 20
380.408018
 11
82.891047
 21
381.408018
  0
CIRCLE
  5
2E9
100
AcDbEntity
  8
M0
 62
   154
100
AcDbCircle
 10
82.891047
 20
380.908018
 40
4.499996
  0
LINE
  5
2EA
100
AcDbEntity
  8
M0
  6
DASHDOT
 62
   154
100
AcDbLine
 10
82.391047
 20
380.908018
 11
83.391047
 21
380.908018
  0
LINE
  5
2EB
100
AcDbEntity
  8
M0
 62
   154
100
AcDbLine
 10
82.424144
 20
382.789153
 11
84.77212
 21
380.441161
  0
LINE
  5
2EC
100
AcDbEntity
  8
M0
 62
   154
100
AcDbLine
 10
81.009944
 20
381.374937
 11
83.35792
 21
379.026945
  0
LINE
  5
2ED
100
AcDbEntity
  8
M0
 62
   154
100
AcDbLine
 10
84.960002
 20
382.976927
 11
80.697032
 21
378.713988
  0
LINE
  5
2EE
100
AcDbEntity
  8
M0
 62
   154
100
AcDbLine
 10
87.110005
 20
248.476927
 11
82.847035
 21
244.213987
  0
LINE
  5
2EF
100
AcDbEntity
  8
M0
 62
   154
100
AcDbLine
 10
83.159947
 20
246.874937
 11
85.507924
 21
244.526945
  0
LINE
  5
2F0
100
AcDbEntity
  8
M0
 62
   154
100
AcDbLine
 10
84.574147
 20
248.289152
 11
86.922124
 21
245.94116
  0
LINE
  5
2F1
100
AcDbEntity
  8
M0
 62
   154
100
AcDbLine
 10
74.610005
 20
248.476927
 11
70.347035
 21
244.213987
  0
LINE
  5
2F2
100
AcDbEntity
  8
M0
 62
   154
100
AcDbLine
 10
70.659947
 20
246.874937
 11
73.007924
 21
244.526945
  0
LINE
  5
2F3
100
AcDbEntity
  8
M0
 62
   154
100
AcDbLine
 10
72.074147
 20
248.289152
 11
74.422124
 21
245.94116
  0
LINE
  5
2F4
100
AcDbEntity
  8
M0
 62
   154
100
AcDbLine
 10
62.110005
 20
248.476927
 11
57.847035
 21
244.213987
  0
LINE
  5
2F5
100
AcDbEntity
  8
M0
 62
   154
100
AcDbLine
 10
58.159947
 20
246.874937
 11
60.507924
 21
244.526945
  0
LINE
  5
2F6
100
AcDbEntity
  8
M0
 62
   154
100
AcDbLine
 10
59.574147
 20
248.289152
 11
61.922124
 21
245.94116
  0
ARC
  5
2F7
100
AcDbEntity
  8
M0
 62
   154
100
AcDbCircle
 10
91.89105
 20
367.908018
 40
2.0
100
AcDbArc
 50
-90.0
 51
0.0
  0
ARC
  5
2F8
100
AcDbEntity
  8
M0
 62
   154
100
AcDbCircle
 10
97.89105
 20
369.377106
 40
4.0
100
AcDbArc
 50
148.425809
 51
180.0
  0
LINE
  5
2F9
100
AcDbEntity
  8
M0
 62
   154
100
AcDbLine
 10
99.198902
 20
379.144523
 11
94.483199
 21
371.471514
  0
LINE
  5
2FA
100
AcDbEntity
  8
M0
 62
   154
100
AcDbLine
 10
93.89105
 20
367.908018
 11
93.89105
 21
369.377106
  0
LINE
  5
2FB
100
AcDbEntity
  8
M0
 62
   154
100
AcDbLine
 10
91.89105
 20
365.908018
 11
91.055635
 21
365.908018
  0
LINE
  5
2FC
100
AcDbEntity
  8
M0
 62
   154
100
AcDbLine
 10
100.79105
 20
386.908018
 11
108.79105
 21
386.908018
  0
LINE
  5
2FD
100
AcDbEntity
  8
M0
 62
   154
100
AcDbLine
 10
99.79105
 20
385.908018
 11
99.79105
 21
381.238931
  0
LINE
  5
2FE
100
AcDbEntity
  8
M0
 62
   154
100
AcDbLine
 10
91.89105
 20
355.608018
 11
99.89105
 21
355.608018
  0
LINE
  5
2FF
100
AcDbEntity
  8
M0
 62
   154
100
AcDbLine
 10
109.79105
 20
385.908018
 11
109.79105
 21
380.550876
  0
ARC
  5
300
100
AcDbEntity
  8
M0
 62
   154
100
AcDbCircle
 10
98.59105
 20
364.608018
 40
2.5
100
AcDbArc
 50
-23.073918
 51
23.073918
  0
ARC
  5
301
100
AcDbEntity
  8
M0
 62
   154
100
AcDbCircle
 10
98.59105
 20
357.608018
 40
2.5
100
AcDbArc
 50
-23.073918
 51
23.073918
  0
ARC
  5
302
100
AcDbEntity
  8
M0
 62
   154
100
AcDbCircle
 10
93.19105
 20
364.608018
 40
2.5
100
AcDbArc
 50
148.667749
 51
203.073918
  0
ARC
  5
303
100
AcDbEntity
  8
M0
 62
   154
100
AcDbCircle
 10
93.19105
 20
357.608018
 40
2.5
100
AcDbArc
 50
156.926082
 51
203.073918
  0
LINE
  5
304
100
AcDbEntity
  8
M0
 62
   154
100
AcDbLine
 10
100.89105
 20
363.628223
 11
100.89105
 21
358.587814
  0
LINE
  5
305
100
AcDbEntity
  8
M0
 62
   154
100
AcDbLine
 10
100.89105
 20
356.628223
 11
100.89105
 21
356.608018
  0
LINE
  5
306
100
AcDbEntity
  8
M0
 62
   154
100
AcDbLine
 10
90.89105
 20
363.628223
 11
90.89105
 21
358.587814
  0
LINE
  5
307
100
AcDbEntity
  8
M0
 62
   154
100
AcDbLine
 10
90.89105
 20
356.628223
 11
90.89105
 21
356.608018
  0
LINE
  5
308
100
AcDbEntity
  8
M0
 62
   154
100
AcDbLine
 10
100.89105
 20
365.587814
 11
100.89105
 21
370.908018
  0
ARC
  5
309
100
AcDbEntity
  8
M0
 62
   154
100
AcDbCircle
 10
104.89105
 20
370.908018
 40
4.0
100
AcDbArc
 50
90.0
 51
180.0
  0
ARC
  5
30A
100
AcDbEntity
  8
M0
 62
   154
100
AcDbCircle
 10
99.89105
 20
356.608018
 40
1.0
100
AcDbArc
 50
-90.0
 51
0.0
  0
ARC
  5
30B
100
AcDbEntity
  8
M0
 62
   154
100
AcDbCircle
 10
91.89105
 20
356.608018
 40
1.0
100
AcDbArc
 50
180.0
 51
270.0
  0
ARC
  5
30C
100
AcDbEntity
  8
M0
 62
   154
100
AcDbCircle
 10
108.79105
 20
385.908018
 40
1.0
100
AcDbArc
 50
0.0
 51
90.0
  0
ARC
  5
30D
100
AcDbEntity
  8
M0
 62
   154
100
AcDbCircle
 10
100.79105
 20
385.908018
 40
1.0
100
AcDbArc
 50
90.0
 51
180.0
  0
ARC
  5
30E
100
AcDbEntity
  8
M0
 62
   154
100
AcDbCircle
 10
106.435495
 20
375.908018
 40
1.0
100
AcDbArc
 50
270.0
 51
328.109208
  0
ARC
  5
30F
100
AcDbEntity
  8
M0
 62
   154
100
AcDbCircle
 10
105.79105
 20
380.550876
 40
4.0
100
AcDbArc
 50
-31.890792
 51
0.0
  0
LINE
  5
310
100
AcDbEntity
  8
M0
 62
   154
100
AcDbLine
 10
104.89105
 20
374.908018
 11
106.435495
 21
374.908018
  0
LINE
  5
311
100
AcDbEntity
  8
M0
 62
   154
100
AcDbLine
 10
109.187277
 20
378.437668
 11
107.284551
 21
375.379717
  0
ARC
  5
312
100
AcDbEntity
  8
M0
 62
   154
100
AcDbCircle
 10
95.79105
 20
381.238931
 40
4.0
100
AcDbArc
 50
-31.574191
 51
0.0
  0
LINE
  5
313
100
AcDbEntity
  8
M0
  6
DASHDOT
 62
   154
100
AcDbLine
 10
104.79105
 20
380.408018
 11
104.79105
 21
381.408018
  0
LINE
  5
314
100
AcDbEntity
  8
M0
  6
DASHDOT
 62
   154
100
AcDbLine
 10
104.29105
 20
380.908018
 11
105.29105
 21
380.908018
  0
LINE
  5
315
100
AcDbEntity
  8
M0
 62
   154
100
AcDbLine
 10
104.324147
 20
382.789153
 11
106.672123
 21
380.441161
  0
LINE
  5
316
100
AcDbEntity
  8
M0
 62
   154
100
AcDbLine
 10
102.909947
 20
381.374937
 11
105.257924
 21
379.026945
  0
LINE
  5
317
100
AcDbEntity
  8
M0
 62
   154
100
AcDbLine
 10
106.860005
 20
382.976927
 11
102.597035
 21
378.713988
  0
LINE
  5
318
100
AcDbEntity
  8
M0
  6
DASHED
 62
     7
100
AcDbLine
 10
168.268186
 20
338.208012
 11
168.268186
 21
335.408012
  0
LINE
  5
319
100
AcDbEntity
  8
M0
  6
DASHED
 62
     7
100
AcDbLine
 10
168.268186
 20
338.208012
 11
169.868185
 21
338.208012
  0
LINE
  5
31A
100
AcDbEntity
  8
M0
  6
DASHED
 62
     7
100
AcDbLine
 10
169.868185
 20
335.408012
 11
168.268186
 21
335.408012
  0
LINE
  5
31B
100
AcDbEntity
  8
M0
  6
DASHED
 62
     7
100
AcDbLine
 10
203.368185
 20
354.608005
 11
193.968185
 21
354.608005
  0
LINE
  5
31C
100
AcDbEntity
  8
M0
  6
DASHED
 62
     7
100
AcDbLine
 10
203.368186
 20
319.208018
 11
198.568185
 21
319.208018
  0
LINE
  5
31D
100
AcDbEntity
  8
M0
  6
DASHED
 62
     7
100
AcDbLine
 10
169.868185
 20
317.508012
 11
169.868185
 21
356.308012
  0
ARC
  5
31E
100
AcDbEntity
  8
M0
  6
DASHED
 62
     7
100
AcDbCircle
 10
173.868185
 20
317.508012
 40
4.0
100
AcDbArc
 50
180.0
 51
270.0
  0
ARC
  5
31F
100
AcDbEntity
  8
M0
  6
DASHED
 62
     7
100
AcDbCircle
 10
188.968185
 20
318.508012
 40
5.0
100
AcDbArc
 50
270.0
 51
360.0
  0
ARC
  5
320
100
AcDbEntity
  8
M0
  6
DASHED
 62
     7
100
AcDbCircle
 10
203.368185
 20
319.708018
 40
0.5
100
AcDbArc
 50
270.0
 51
360.0
  0
ARC
  5
321
100
AcDbEntity
  8
M0
  6
DASHED
 62
     7
100
AcDbCircle
 10
173.868185
 20
356.308012
 40
4.0
100
AcDbArc
 50
90.0
 51
180.0
  0
ARC
  5
322
100
AcDbEntity
  8
M0
  6
DASHED
 62
     7
100
AcDbCircle
 10
188.968185
 20
355.308012
 40
5.0
100
AcDbArc
 50
0.0
 51
90.0
  0
ARC
  5
323
100
AcDbEntity
  8
M0
  6
DASHED
 62
     7
100
AcDbCircle
 10
203.368185
 20
354.108006
 40
0.5
100
AcDbArc
 50
0.0
 51
90.0
  0
LINE
  5
324
100
AcDbEntity
  8
M0
  6
DASHED
 62
     7
100
AcDbLine
 10
193.968185
 20
354.608005
 11
193.968185
 21
355.308011
  0
LINE
  5
325
100
AcDbEntity
  8
M0
  6
DASHED
 62
     7
100
AcDbLine
 10
188.968185
 20
360.308012
 11
173.868185
 21
360.308012
  0
LINE
  5
326
100
AcDbEntity
  8
M0
  6
DASHED
 62
     7
100
AcDbLine
 10
201.768185
 20
354.608005
 11
201.768185
 21
356.608011
  0
LINE
  5
327
100
AcDbEntity
  8
M0
  6
DASHED
 62
     7
100
AcDbLine
 10
202.168185
 20
356.608011
 11
202.768187
 21
354.608005
  0
LINE
  5
328
100
AcDbEntity
  8
M0
  6
DASHED
 62
     7
100
AcDbLine
 10
201.768185
 20
356.608011
 11
202.168185
 21
356.608011
  0
LINE
  5
329
100
AcDbEntity
  8
M0
  6
DASHED
 62
     7
100
AcDbLine
 10
203.368186
 20
319.208018
 11
193.968185
 21
319.208018
  0
LINE
  5
32A
100
AcDbEntity
  8
M0
  6
DASHED
 62
     7
100
AcDbLine
 10
193.968185
 20
319.208018
 11
193.968185
 21
318.508012
  0
LINE
  5
32B
100
AcDbEntity
  8
M0
  6
DASHED
 62
     7
100
AcDbLine
 10
188.968185
 20
313.508012
 11
173.868185
 21
313.508012
  0
HATCH
  5
32C
100
AcDbEntity
  8
M0
 62
     7
100
AcDbHatch
 10
0.0
 20
0.0
210
0.0
220
0.0
230
1.0
  2
SOLID
 70
     1
 71
     0
 91
        1
 92
        1
 93
        4
 72
     1
 10
194.568183
 20
380.908018
 11
192.568183
 21
380.908018
 72
     1
 10
192.568183
 20
380.908018
 11
192.568183
 21
362.708018
 72
     1
 10
192.568183
 20
362.708018
 11
194.568183
 21
362.708018
 72
     1
 10
194.568183
 20
362.708018
 11
194.568183
 21
380.908018
 97
        0
 75
     0
 76
     1
 98
        1
 10
0.0
 20
0.0
  0
LINE
  5
32F
100
AcDbEntity
  8
M0
  6
DIVIDE
 62
     6
100
AcDbLine
 10
283.668183
 20
350.408018
 11
277.168183
 21
350.408018
  0
LINE
  5
330
100
AcDbEntity
  8
M0
  6
DIVIDE
 62
     6
100
AcDbLine
 10
283.668183
 20
323.408018
 11
277.168183
 21
323.408018
  0
LINE
  5
331
100
AcDbEntity
  8
M0
  6
DIVIDE
 62
     6
100
AcDbLine
 10
282.668183
 20
349.408018
 11
276.168183
 21
349.408018
  0
LINE
  5
332
100
AcDbEntity
  8
M0
  6
DIVIDE
 62
     6
100
AcDbLine
 10
277.168183
 20
323.408018
 11
277.168183
 21
319.408018
  0
LINE
  5
333
100
AcDbEntity
  8
M0
  6
DIVIDE
 62
     6
100
AcDbLine
 10
282.668183
 20
324.408018
 11
276.168183
 21
324.408018
  0
LINE
  5
334
100
AcDbEntity
  8
M0
  6
DIVIDE
 62
     6
100
AcDbLine
 10
276.168183
 20
324.408018
 11
276.168183
 21
319.408018
  0
LINE
  5
335
100
AcDbEntity
  8
M0
  6
DIVIDE
 62
     6
100
AcDbLine
 10
277.168183
 20
354.408018
 11
276.168183
 21
354.408018
  0
LINE
  5
336
100
AcDbEntity
  8
M0
  6
DIVIDE
 62
     6
100
AcDbLine
 10
283.668183
 20
323.408018
 11
283.668183
 21
350.408018
  0
LINE
  5
337
100
AcDbEntity
  8
M0
  6
DIVIDE
 62
     6
100
AcDbLine
 10
276.168183
 20
354.408018
 11
276.168183
 21
349.408018
  0
LINE
  5
338
100
AcDbEntity
  8
M0
  6
DIVIDE
 62
     6
100
AcDbLine
 10
277.168183
 20
354.408018
 11
277.168183
 21
350.408018
  0
LINE
  5
339
100
AcDbEntity
  8
M0
  6
DIVIDE
 62
     6
100
AcDbLine
 10
276.168183
 20
319.408018
 11
277.168183
 21
319.408018
  0
LINE
  5
33A
100
AcDbEntity
  8
M0
  6
DIVIDE
 62
     6
100
AcDbLine
 10
282.668183
 20
349.408018
 11
282.668183
 21
324.408018
  0
ARC
  5
33B
100
AcDbEntity
  8
M0
 62
     7
100
AcDbCircle
 10
70.916051
 20
305.433018
 40
0.725
100
AcDbArc
 50
256.677021
 51
270.0
  0
ARC
  5
33C
100
AcDbEntity
  8
M0
 62
     7
100
AcDbCircle
 10
70.916051
 20
303.383018
 40
0.725
100
AcDbArc
 50
90.0
 51
123.683498
  0
LINE
  5
33D
100
AcDbEntity
  8
M0
 62
     7
100
AcDbLine
 10
70.916051
 20
304.108018
 11
71.316051
 21
304.108018
  0
LINE
  5
33E
100
AcDbEntity
  8
M0
 62
     7
100
AcDbLine
 10
70.916051
 20
304.708018
 11
71.316051
 21
304.708018
  0
LINE
  5
33F
100
AcDbEntity
  8
M0
 62
     7
100
AcDbLine
 10
71.316051
 20
304.708018
 11
71.316051
 21
304.108018
  0
ARC
  5
340
100
AcDbEntity
  8
M0
 62
     7
100
AcDbCircle
 10
69.891051
 20
304.408018
 40
2.75
100
AcDbArc
 50
269.031179
 51
417.203183
  0
LINE
  5
341
100
AcDbEntity
  8
M0
 62
     7
100
AcDbLine
 10
96.191051
 20
303.008018
 11
96.191051
 21
303.404379
  0
ARC
  5
342
100
AcDbEntity
  8
M0
 62
     7
100
AcDbCircle
 10
96.916051
 20
305.433018
 40
0.725
100
AcDbArc
 50
238.778636
 51
270.0
  0
ARC
  5
343
100
AcDbEntity
  8
M0
 62
     7
100
AcDbCircle
 10
96.916051
 20
303.383018
 40
0.725
100
AcDbArc
 50
90.0
 51
180.0
  0
LINE
  5
344
100
AcDbEntity
  8
M0
 62
     7
100
AcDbLine
 10
96.916051
 20
304.108018
 11
97.316051
 21
304.108018
  0
LINE
  5
345
100
AcDbEntity
  8
M0
 62
     7
100
AcDbLine
 10
96.916051
 20
304.708018
 11
97.316051
 21
304.708018
  0
LINE
  5
346
100
AcDbEntity
  8
M0
 62
     7
100
AcDbLine
 10
95.909841
 20
303.008018
 11
96.191051
 21
303.008018
  0
LINE
  5
347
100
AcDbEntity
  8
M0
 62
     7
100
AcDbLine
 10
97.316051
 20
304.708018
 11
97.316051
 21
304.108018
  0
ARC
  5
348
100
AcDbEntity
  8
M0
 62
     7
100
AcDbCircle
 10
95.891051
 20
304.408018
 40
2.75
100
AcDbArc
 50
260.786456
 51
420.70934
  0
LINE
  5
349
100
AcDbEntity
  8
M0
 62
     7
100
AcDbLine
 10
73.581634
 20
373.917373
 11
70.399994
 21
377.099136
  0
LINE
  5
34A
100
AcDbEntity
  8
M0
 62
     7
100
AcDbLine
 10
73.404876
 20
375.861709
 11
71.637298
 21
374.094131
  0
LINE
  5
34B
100
AcDbEntity
  8
M0
 62
     7
100
AcDbLine
 10
72.34433
 20
376.922378
 11
70.576751
 21
375.154678
  0
LINE
  5
34C
100
AcDbEntity
  8
M0
 62
     7
100
AcDbLine
 10
75.31605
 20
379.333018
 11
68.66605
 21
379.333018
  0
ARC
  5
34D
100
AcDbEntity
  8
M0
 62
     7
100
AcDbCircle
 10
75.31605
 20
378.833018
 40
0.5
100
AcDbArc
 50
0.0
 51
90.0
  0
LINE
  5
34E
100
AcDbEntity
  8
M0
 62
     7
100
AcDbLine
 10
75.81605
 20
372.183018
 11
75.81605
 21
378.833018
  0
ARC
  5
34F
100
AcDbEntity
  8
M0
 62
     7
100
AcDbCircle
 10
75.31605
 20
372.183018
 40
0.5
100
AcDbArc
 50
270.0
 51
360.0
  0
LINE
  5
350
100
AcDbEntity
  8
M0
 62
     7
100
AcDbLine
 10
71.168916
 20
371.683018
 11
75.31605
 21
371.683018
  0
LINE
  5
351
100
AcDbEntity
  8
M0
 62
     7
100
AcDbLine
 10
68.16605
 20
378.833018
 11
68.16605
 21
376.569036
  0
ARC
  5
352
100
AcDbEntity
  8
M0
 62
     7
100
AcDbCircle
 10
68.66605
 20
378.833018
 40
0.5
100
AcDbArc
 50
90.0
 51
180.0
  0
ARC
  5
353
100
AcDbEntity
  8
M0
 62
     7
100
AcDbCircle
 10
71.99105
 20
375.508018
 40
3.0
100
AcDbArc
 50
237.275263
 51
545.873119
  0
LINE
  5
354
100
AcDbEntity
  8
M0
 62
     7
100
AcDbLine
 10
95.381635
 20
373.917373
 11
92.199994
 21
377.099136
  0
LINE
  5
355
100
AcDbEntity
  8
M0
 62
     7
100
AcDbLine
 10
95.204877
 20
375.861709
 11
93.437299
 21
374.094131
  0
LINE
  5
356
100
AcDbEntity
  8
M0
 62
     7
100
AcDbLine
 10
94.14433
 20
376.922378
 11
92.376752
 21
375.154678
  0
LINE
  5
357
100
AcDbEntity
  8
M0
 62
     7
100
AcDbLine
 10
97.116051
 20
379.333018
 11
90.466051
 21
379.333018
  0
ARC
  5
358
100
AcDbEntity
  8
M0
 62
     7
100
AcDbCircle
 10
97.116051
 20
378.833018
 40
0.5
100
AcDbArc
 50
0.0
 51
90.0
  0
LINE
  5
359
100
AcDbEntity
  8
M0
 62
     7
100
AcDbLine
 10
97.616051
 20
376.569036
 11
97.616051
 21
378.833018
  0
LINE
  5
35A
100
AcDbEntity
  8
M0
 62
     7
100
AcDbLine
 10
90.466051
 20
371.683018
 11
94.613186
 21
371.683018
  0
LINE
  5
35B
100
AcDbEntity
  8
M0
 62
     7
100
AcDbLine
 10
89.966051
 20
378.833018
 11
89.966051
 21
372.183018
  0
ARC
  5
35C
100
AcDbEntity
  8
M0
 62
     7
100
AcDbCircle
 10
90.466051
 20
378.833018
 40
0.5
100
AcDbArc
 50
90.0
 51
180.0
  0
ARC
  5
35D
100
AcDbEntity
  8
M0
 62
     7
100
AcDbCircle
 10
90.466051
 20
372.183018
 40
0.5
100
AcDbArc
 50
180.0
 51
270.0
  0
ARC
  5
35E
100
AcDbEntity
  8
M0
 62
     7
100
AcDbCircle
 10
93.791051
 20
375.508018
 40
3.0
100
AcDbArc
 50
354.126881
 51
662.724737
  0
CIRCLE
  5
35F
100
AcDbEntity
  8
M0
 62
     7
100
AcDbCircle
 10
108.09105
 20
357.808018
 40
3.0
  0
LINE
  5
360
100
AcDbEntity
  8
M0
 62
     7
100
AcDbLine
 10
109.681634
 20
356.217373
 11
106.499994
 21
359.399136
  0
LINE
  5
361
100
AcDbEntity
  8
M0
 62
     7
100
AcDbLine
 10
109.504876
 20
358.161709
 11
107.737298
 21
356.394131
  0
LINE
  5
362
100
AcDbEntity
  8
M0
 62
     7
100
AcDbLine
 10
108.44433
 20
359.222378
 11
106.676751
 21
357.454678
  0
LINE
  5
363
100
AcDbEntity
  8
M0
 62
     7
100
AcDbLine
 10
111.41605
 20
361.633018
 11
104.76605
 21
361.633018
  0
ARC
  5
364
100
AcDbEntity
  8
M0
 62
     7
100
AcDbCircle
 10
111.41605
 20
361.133018
 40
0.5
100
AcDbArc
 50
0.0
 51
90.0
  0
LINE
  5
365
100
AcDbEntity
  8
M0
 62
     7
100
AcDbLine
 10
111.91605
 20
354.483018
 11
111.91605
 21
361.133018
  0
ARC
  5
366
100
AcDbEntity
  8
M0
 62
     7
100
AcDbCircle
 10
111.41605
 20
354.483018
 40
0.5
100
AcDbArc
 50
270.0
 51
360.0
  0
LINE
  5
367
100
AcDbEntity
  8
M0
 62
     7
100
AcDbLine
 10
104.76605
 20
353.983018
 11
111.41605
 21
353.983018
  0
LINE
  5
368
100
AcDbEntity
  8
M0
 62
     7
100
AcDbLine
 10
104.26605
 20
361.133018
 11
104.26605
 21
354.483018
  0
ARC
  5
369
100
AcDbEntity
  8
M0
 62
     7
100
AcDbCircle
 10
104.76605
 20
361.133018
 40
0.5
100
AcDbArc
 50
90.0
 51
180.0
  0
ARC
  5
36A
100
AcDbEntity
  8
M0
 62
     7
100
AcDbCircle
 10
104.76605
 20
354.483018
 40
0.5
100
AcDbArc
 50
180.0
 51
270.0
  0
CIRCLE
  5
36B
100
AcDbEntity
  8
M0
 62
     7
100
AcDbCircle
 10
108.09105
 20
350.208018
 40
3.0
  0
LINE
  5
36C
100
AcDbEntity
  8
M0
 62
     7
100
AcDbLine
 10
109.681634
 20
348.617373
 11
106.499994
 21
351.799136
  0
LINE
  5
36D
100
AcDbEntity
  8
M0
 62
     7
100
AcDbLine
 10
109.504876
 20
350.561709
 11
107.737298
 21
348.794131
  0
LINE
  5
36E
100
AcDbEntity
  8
M0
 62
     7
100
AcDbLine
 10
108.44433
 20
351.622378
 11
106.676751
 21
349.854678
  0
LINE
  5
36F
100
AcDbEntity
  8
M0
 62
     7
100
AcDbLine
 10
111.41605
 20
354.033018
 11
104.76605
 21
354.033018
  0
ARC
  5
370
100
AcDbEntity
  8
M0
 62
     7
100
AcDbCircle
 10
111.41605
 20
353.533018
 40
0.5
100
AcDbArc
 50
0.0
 51
90.0
  0
LINE
  5
371
100
AcDbEntity
  8
M0
 62
     7
100
AcDbLine
 10
111.91605
 20
346.883018
 11
111.91605
 21
353.533018
  0
ARC
  5
372
100
AcDbEntity
  8
M0
 62
     7
100
AcDbCircle
 10
111.41605
 20
346.883018
 40
0.5
100
AcDbArc
 50
270.0
 51
360.0
  0
LINE
  5
373
100
AcDbEntity
  8
M0
 62
     7
100
AcDbLine
 10
104.76605
 20
346.383018
 11
111.41605
 21
346.383018
  0
LINE
  5
374
100
AcDbEntity
  8
M0
 62
     7
100
AcDbLine
 10
104.26605
 20
353.533018
 11
104.26605
 21
346.883018
  0
ARC
  5
375
100
AcDbEntity
  8
M0
 62
     7
100
AcDbCircle
 10
104.76605
 20
353.533018
 40
0.5
100
AcDbArc
 50
90.0
 51
180.0
  0
ARC
  5
376
100
AcDbEntity
  8
M0
 62
     7
100
AcDbCircle
 10
104.76605
 20
346.883018
 40
0.5
100
AcDbArc
 50
180.0
 51
270.0
  0
CIRCLE
  5
377
100
AcDbEntity
  8
M0
  6
DASHED
 62
     7
100
AcDbCircle
 10
57.691051
 20
357.808018
 40
3.0
  0
LINE
  5
378
100
AcDbEntity
  8
M0
  6
DASHED
 62
     7
100
AcDbLine
 10
59.281634
 20
356.217373
 11
56.099994
 21
359.399136
  0
LINE
  5
379
100
AcDbEntity
  8
M0
  6
DASHED
 62
     7
100
AcDbLine
 10
59.104877
 20
358.161709
 11
57.337299
 21
356.394131
  0
LINE
  5
37A
100
AcDbEntity
  8
M0
  6
DASHED
 62
     7
100
AcDbLine
 10
58.04433
 20
359.222378
 11
56.276752
 21
357.454678
  0
LINE
  5
37B
100
AcDbEntity
  8
M0
  6
DASHED
 62
     7
100
AcDbLine
 10
61.016051
 20
361.633018
 11
54.366051
 21
361.633018
  0
ARC
  5
37C
100
AcDbEntity
  8
M0
  6
DASHED
 62
     7
100
AcDbCircle
 10
61.016051
 20
361.133018
 40
0.5
100
AcDbArc
 50
0.0
 51
90.0
  0
LINE
  5
37D
100
AcDbEntity
  8
M0
  6
DASHED
 62
     7
100
AcDbLine
 10
61.516051
 20
354.483018
 11
61.516051
 21
361.133018
  0
ARC
  5
37E
100
AcDbEntity
  8
M0
  6
DASHED
 62
     7
100
AcDbCircle
 10
61.016051
 20
354.483018
 40
0.5
100
AcDbArc
 50
270.0
 51
360.0
  0
LINE
  5
37F
100
AcDbEntity
  8
M0
  6
DASHED
 62
     7
100
AcDbLine
 10
54.366051
 20
353.983018
 11
61.016051
 21
353.983018
  0
LINE
  5
380
100
AcDbEntity
  8
M0
  6
DASHED
 62
     7
100
AcDbLine
 10
53.866051
 20
361.133018
 11
53.866051
 21
354.483018
  0
ARC
  5
381
100
AcDbEntity
  8
M0
  6
DASHED
 62
     7
100
AcDbCircle
 10
54.366051
 20
361.133018
 40
0.5
100
AcDbArc
 50
90.0
 51
180.0
  0
ARC
  5
382
100
AcDbEntity
  8
M0
  6
DASHED
 62
     7
100
AcDbCircle
 10
54.366051
 20
354.483018
 40
0.5
100
AcDbArc
 50
180.0
 51
270.0
  0
CIRCLE
  5
383
100
AcDbEntity
  8
M0
  6
DASHED
 62
     7
100
AcDbCircle
 10
57.691051
 20
323.608018
 40
3.0
  0
LINE
  5
384
100
AcDbEntity
  8
M0
  6
DASHED
 62
     7
100
AcDbLine
 10
59.281635
 20
322.017373
 11
56.099994
 21
325.199136
  0
LINE
  5
385
100
AcDbEntity
  8
M0
  6
DASHED
 62
     7
100
AcDbLine
 10
59.104877
 20
323.961709
 11
57.337299
 21
322.194131
  0
LINE
  5
386
100
AcDbEntity
  8
M0
  6
DASHED
 62
     7
100
AcDbLine
 10
58.04433
 20
325.022378
 11
56.276752
 21
323.254678
  0
LINE
  5
387
100
AcDbEntity
  8
M0
  6
DASHED
 62
     7
100
AcDbLine
 10
61.016051
 20
327.433018
 11
54.366051
 21
327.433018
  0
ARC
  5
388
100
AcDbEntity
  8
M0
  6
DASHED
 62
     7
100
AcDbCircle
 10
61.016051
 20
326.933018
 40
0.5
100
AcDbArc
 50
0.0
 51
90.0
  0
LINE
  5
389
100
AcDbEntity
  8
M0
  6
DASHED
 62
     7
100
AcDbLine
 10
61.516051
 20
320.283018
 11
61.516051
 21
326.933018
  0
ARC
  5
38A
100
AcDbEntity
  8
M0
  6
DASHED
 62
     7
100
AcDbCircle
 10
61.016051
 20
320.283018
 40
0.5
100
AcDbArc
 50
270.0
 51
360.0
  0
LINE
  5
38B
100
AcDbEntity
  8
M0
  6
DASHED
 62
     7
100
AcDbLine
 10
54.366051
 20
319.783018
 11
61.016051
 21
319.783018
  0
LINE
  5
38C
100
AcDbEntity
  8
M0
  6
DASHED
 62
     7
100
AcDbLine
 10
53.866051
 20
326.933018
 11
53.866051
 21
320.283018
  0
ARC
  5
38D
100
AcDbEntity
  8
M0
  6
DASHED
 62
     7
100
AcDbCircle
 10
54.366051
 20
326.933018
 40
0.5
100
AcDbArc
 50
90.0
 51
180.0
  0
ARC
  5
38E
100
AcDbEntity
  8
M0
  6
DASHED
 62
     7
100
AcDbCircle
 10
54.366051
 20
320.283018
 40
0.5
100
AcDbArc
 50
180.0
 51
270.0
  0
CIRCLE
  5
38F
100
AcDbEntity
  8
M0
  6
DASHED
 62
     7
100
AcDbCircle
 10
57.691051
 20
350.208018
 40
3.0
  0
LINE
  5
390
100
AcDbEntity
  8
M0
  6
DASHED
 62
     7
100
AcDbLine
 10
59.281634
 20
348.617373
 11
56.099994
 21
351.799136
  0
LINE
  5
391
100
AcDbEntity
  8
M0
  6
DASHED
 62
     7
100
AcDbLine
 10
59.104877
 20
350.561709
 11
57.337299
 21
348.794131
  0
LINE
  5
392
100
AcDbEntity
  8
M0
  6
DASHED
 62
     7
100
AcDbLine
 10
58.04433
 20
351.622378
 11
56.276752
 21
349.854678
  0
LINE
  5
393
100
AcDbEntity
  8
M0
  6
DASHED
 62
     7
100
AcDbLine
 10
61.016051
 20
354.033018
 11
54.366051
 21
354.033018
  0
ARC
  5
394
100
AcDbEntity
  8
M0
  6
DASHED
 62
     7
100
AcDbCircle
 10
61.016051
 20
353.533018
 40
0.5
100
AcDbArc
 50
0.0
 51
90.0
  0
LINE
  5
395
100
AcDbEntity
  8
M0
  6
DASHED
 62
     7
100
AcDbLine
 10
61.516051
 20
346.883018
 11
61.516051
 21
353.533018
  0
ARC
  5
396
100
AcDbEntity
  8
M0
  6
DASHED
 62
     7
100
AcDbCircle
 10
61.016051
 20
346.883018
 40
0.5
100
AcDbArc
 50
270.0
 51
360.0
  0
LINE
  5
397
100
AcDbEntity
  8
M0
  6
DASHED
 62
     7
100
AcDbLine
 10
54.366051
 20
346.383018
 11
61.016051
 21
346.383018
  0
LINE
  5
398
100
AcDbEntity
  8
M0
  6
DASHED
 62
     7
100
AcDbLine
 10
53.866051
 20
353.533018
 11
53.866051
 21
346.883018
  0
ARC
  5
399
100
AcDbEntity
  8
M0
  6
DASHED
 62
     7
100
AcDbCircle
 10
54.366051
 20
353.533018
 40
0.5
100
AcDbArc
 50
90.0
 51
180.0
  0
ARC
  5
39A
100
AcDbEntity
  8
M0
  6
DASHED
 62
     7
100
AcDbCircle
 10
54.366051
 20
346.883018
 40
0.5
100
AcDbArc
 50
180.0
 51
270.0
  0
CIRCLE
  5
39B
100
AcDbEntity
  8
M0
 62
     7
100
AcDbCircle
 10
108.09105
 20
323.608018
 40
3.0
  0
LINE
  5
39C
100
AcDbEntity
  8
M0
 62
     7
100
AcDbLine
 10
109.681634
 20
322.017373
 11
106.499994
 21
325.199136
  0
LINE
  5
39D
100
AcDbEntity
  8
M0
 62
     7
100
AcDbLine
 10
109.504876
 20
323.961709
 11
107.737298
 21
322.194131
  0
LINE
  5
39E
100
AcDbEntity
  8
M0
 62
     7
100
AcDbLine
 10
108.44433
 20
325.022378
 11
106.676751
 21
323.254678
  0
LINE
  5
39F
100
AcDbEntity
  8
M0
 62
     7
100
AcDbLine
 10
111.41605
 20
327.433018
 11
104.76605
 21
327.433018
  0
ARC
  5
3A0
100
AcDbEntity
  8
M0
 62
     7
100
AcDbCircle
 10
111.41605
 20
326.933018
 40
0.5
100
AcDbArc
 50
0.0
 51
90.0
  0
LINE
  5
3A1
100
AcDbEntity
  8
M0
 62
     7
100
AcDbLine
 10
111.91605
 20
320.283018
 11
111.91605
 21
326.933018
  0
ARC
  5
3A2
100
AcDbEntity
  8
M0
 62
     7
100
AcDbCircle
 10
111.41605
 20
320.283018
 40
0.5
100
AcDbArc
 50
270.0
 51
360.0
  0
LINE
  5
3A3
100
AcDbEntity
  8
M0
 62
     7
100
AcDbLine
 10
104.76605
 20
319.783018
 11
111.41605
 21
319.783018
  0
LINE
  5
3A4
100
AcDbEntity
  8
M0
 62
     7
100
AcDbLine
 10
104.26605
 20
326.933018
 11
104.26605
 21
320.283018
  0
ARC
  5
3A5
100
AcDbEntity
  8
M0
 62
     7
100
AcDbCircle
 10
104.76605
 20
326.933018
 40
0.5
100
AcDbArc
 50
90.0
 51
180.0
  0
ARC
  5
3A6
100
AcDbEntity
  8
M0
 62
     7
100
AcDbCircle
 10
104.76605
 20
320.283018
 40
0.5
100
AcDbArc
 50
180.0
 51
270.0
  0
CIRCLE
  5
3A7
100
AcDbEntity
  8
M0
 62
     7
100
AcDbCircle
 10
108.09105
 20
316.008018
 40
3.0
  0
LINE
  5
3A8
100
AcDbEntity
  8
M0
 62
     7
100
AcDbLine
 10
109.681634
 20
314.417373
 11
106.499994
 21
317.599136
  0
LINE
  5
3A9
100
AcDbEntity
  8
M0
 62
     7
100
AcDbLine
 10
109.504876
 20
316.361709
 11
107.737298
 21
314.594131
  0
LINE
  5
3AA
100
AcDbEntity
  8
M0
 62
     7
100
AcDbLine
 10
108.44433
 20
317.422378
 11
106.676751
 21
315.654678
  0
LINE
  5
3AB
100
AcDbEntity
  8
M0
 62
     7
100
AcDbLine
 10
111.41605
 20
319.833018
 11
104.76605
 21
319.833018
  0
ARC
  5
3AC
100
AcDbEntity
  8
M0
 62
     7
100
AcDbCircle
 10
111.41605
 20
319.333018
 40
0.5
100
AcDbArc
 50
0.0
 51
90.0
  0
LINE
  5
3AD
100
AcDbEntity
  8
M0
 62
     7
100
AcDbLine
 10
111.91605
 20
312.683018
 11
111.91605
 21
319.333018
  0
ARC
  5
3AE
100
AcDbEntity
  8
M0
 62
     7
100
AcDbCircle
 10
111.41605
 20
312.683018
 40
0.5
100
AcDbArc
 50
270.0
 51
360.0
  0
LINE
  5
3AF
100
AcDbEntity
  8
M0
 62
     7
100
AcDbLine
 10
104.76605
 20
312.183018
 11
111.41605
 21
312.183018
  0
LINE
  5
3B0
100
AcDbEntity
  8
M0
 62
     7
100
AcDbLine
 10
104.26605
 20
319.333018
 11
104.26605
 21
312.683018
  0
ARC
  5
3B1
100
AcDbEntity
  8
M0
 62
     7
100
AcDbCircle
 10
104.76605
 20
319.333018
 40
0.5
100
AcDbArc
 50
90.0
 51
180.0
  0
ARC
  5
3B2
100
AcDbEntity
  8
M0
 62
     7
100
AcDbCircle
 10
104.76605
 20
312.683018
 40
0.5
100
AcDbArc
 50
180.0
 51
270.0
  0
LINE
  5
3B3
100
AcDbEntity
  8
M0
 62
     2
100
AcDbLine
 10
84.08019
 20
269.368864
 11
85.925038
 21
267.524031
  0
LINE
  5
3B4
100
AcDbEntity
  8
M0
 62
     2
100
AcDbLine
 10
86.051915
 20
270.125975
 11
83.476842
 21
267.550901
  0
LINE
  5
3B5
100
AcDbEntity
  8
M0
 62
     2
100
AcDbLine
 10
86.759023
 20
269.418867
 11
84.183949
 21
266.843794
  0
CIRCLE
  5
3B6
100
AcDbEntity
  8
M0
 62
     2
100
AcDbCircle
 10
85.041066
 20
268.408018
 40
3.499993
  0
LINE
  5
3B7
100
AcDbEntity
  8
M0
  6
DASHDOT
 62
     2
100
AcDbLine
 10
84.541066
 20
268.408018
 11
85.541066
 21
268.408018
  0
LINE
  5
3B8
100
AcDbEntity
  8
M0
  6
DASHDOT
 62
     2
100
AcDbLine
 10
85.041066
 20
267.908018
 11
85.041066
 21
268.908018
  0
LINE
  5
3B9
100
AcDbEntity
  8
M0
 62
     2
100
AcDbLine
 10
71.580205
 20
283.868864
 11
73.425053
 21
282.024031
  0
LINE
  5
3BA
100
AcDbEntity
  8
M0
 62
     2
100
AcDbLine
 10
73.55193
 20
284.625975
 11
70.976857
 21
282.050901
  0
LINE
  5
3BB
100
AcDbEntity
  8
M0
 62
     2
100
AcDbLine
 10
74.259038
 20
283.918867
 11
71.683965
 21
281.343794
  0
CIRCLE
  5
3BC
100
AcDbEntity
  8
M0
 62
     2
100
AcDbCircle
 10
72.541081
 20
282.908018
 40
3.499993
  0
LINE
  5
3BD
100
AcDbEntity
  8
M0
  6
DASHDOT
 62
     2
100
AcDbLine
 10
72.041081
 20
282.908018
 11
73.041081
 21
282.908018
  0
LINE
  5
3BE
100
AcDbEntity
  8
M0
  6
DASHDOT
 62
     2
100
AcDbLine
 10
72.541081
 20
282.408018
 11
72.541081
 21
283.408018
  0
CIRCLE
  5
3BF
100
AcDbEntity
  8
M0
  6
DASHED
 62
     7
100
AcDbCircle
 10
57.691051
 20
316.008018
 40
3.0
  0
LINE
  5
3C0
100
AcDbEntity
  8
M0
  6
DASHED
 62
     7
100
AcDbLine
 10
59.281635
 20
314.417373
 11
56.099994
 21
317.599136
  0
LINE
  5
3C1
100
AcDbEntity
  8
M0
  6
DASHED
 62
     7
100
AcDbLine
 10
59.104877
 20
316.361709
 11
57.337299
 21
314.594131
  0
LINE
  5
3C2
100
AcDbEntity
  8
M0
  6
DASHED
 62
     7
100
AcDbLine
 10
58.04433
 20
317.422378
 11
56.276752
 21
315.654678
  0
LINE
  5
3C3
100
AcDbEntity
  8
M0
  6
DASHED
 62
     7
100
AcDbLine
 10
61.016051
 20
319.833018
 11
54.366051
 21
319.833018
  0
ARC
  5
3C4
100
AcDbEntity
  8
M0
  6
DASHED
 62
     7
100
AcDbCircle
 10
61.016051
 20
319.333018
 40
0.5
100
AcDbArc
 50
0.0
 51
90.0
  0
LINE
  5
3C5
100
AcDbEntity
  8
M0
  6
DASHED
 62
     7
100
AcDbLine
 10
61.516051
 20
312.683018
 11
61.516051
 21
319.333018
  0
ARC
  5
3C6
100
AcDbEntity
  8
M0
  6
DASHED
 62
     7
100
AcDbCircle
 10
61.016051
 20
312.683018
 40
0.5
100
AcDbArc
 50
270.0
 51
360.0
  0
LINE
  5
3C7
100
AcDbEntity
  8
M0
  6
DASHED
 62
     7
100
AcDbLine
 10
54.366051
 20
312.183018
 11
61.016051
 21
312.183018
  0
LINE
  5
3C8
100
AcDbEntity
  8
M0
  6
DASHED
 62
     7
100
AcDbLine
 10
53.866051
 20
319.333018
 11
53.866051
 21
312.683018
  0
ARC
  5
3C9
100
AcDbEntity
  8
M0
  6
DASHED
 62
     7
100
AcDbCircle
 10
54.366051
 20
319.333018
 40
0.5
100
AcDbArc
 50
90.0
 51
180.0
  0
ARC
  5
3CA
100
AcDbEntity
  8
M0
  6
DASHED
 62
     7
100
AcDbCircle
 10
54.366051
 20
312.683018
 40
0.5
100
AcDbArc
 50
180.0
 51
270.0
  0
LINE
  5
3CB
100
AcDbEntity
  8
M0
 62
     7
100
AcDbLine
 10
204.868183
 20
334.408018
 11
204.868183
 21
333.408018
  0
LINE
  5
3CC
100
AcDbEntity
  8
M0
 62
     7
100
AcDbLine
 10
204.868183
 20
339.408018
 11
204.868183
 21
340.408018
  0
LINE
  5
3CD
100
AcDbEntity
  8
M0
 62
     7
100
AcDbLine
 10
276.868184
 20
319.908019
 11
278.368183
 21
319.908019
  0
LINE
  5
3CE
100
AcDbEntity
  8
M0
 62
     7
100
AcDbLine
 10
278.368183
 20
319.908019
 11
278.368183
 21
319.108018
  0
LINE
  5
3CF
100
AcDbEntity
  8
M0
 62
     7
100
AcDbLine
 10
280.068184
 20
301.408017
 11
270.668183
 21
301.408017
  0
LINE
  5
3D0
100
AcDbEntity
  8
M0
 62
     7
100
AcDbLine
 10
280.068184
 20
301.449762
 11
280.068184
 21
301.408017
  0
LINE
  5
3D1
100
AcDbEntity
  8
M0
 62
     7
100
AcDbLine
 10
204.868183
 20
333.408018
 11
203.868185
 21
333.408018
  0
LINE
  5
3D2
100
AcDbEntity
  8
M0
 62
     7
100
AcDbLine
 10
203.868185
 20
339.408018
 11
204.868183
 21
339.408018
  0
LINE
  5
3D3
100
AcDbEntity
  8
M0
 62
     7
100
AcDbLine
 10
204.868183
 20
333.408018
 11
205.368184
 21
333.408018
  0
LINE
  5
3D4
100
AcDbEntity
  8
M0
 62
     7
100
AcDbLine
 10
203.868185
 20
334.408018
 11
204.868183
 21
334.408018
  0
LINE
  5
3D5
100
AcDbEntity
  8
M0
 62
     7
100
AcDbLine
 10
204.868183
 20
340.408018
 11
203.868185
 21
340.408018
  0
LINE
  5
3D6
100
AcDbEntity
  8
M0
 62
     7
100
AcDbLine
 10
204.868183
 20
340.408018
 11
205.368184
 21
340.408018
  0
LINE
  5
3D7
100
AcDbEntity
  8
M0
 62
     7
100
AcDbLine
 10
205.368184
 20
334.408018
 11
204.868183
 21
334.408018
  0
ARC
  5
3D8
100
AcDbEntity
  8
M0
 62
     7
100
AcDbCircle
 10
272.868183
 20
319.19179
 40
0.3
100
AcDbArc
 50
0.0
 51
90.0
  0
ARC
  5
3D9
100
AcDbEntity
  8
M0
 62
     7
100
AcDbCircle
 10
272.868183
 20
354.624246
 40
0.3
100
AcDbArc
 50
270.0
 51
360.0
  0
ARC
  5
3DA
100
AcDbEntity
  8
M0
 62
     7
100
AcDbCircle
 10
276.868183
 20
319.408018
 40
0.5
100
AcDbArc
 50
90.0
 51
180.0
  0
ARC
  5
3DB
100
AcDbEntity
  8
M0
 62
     7
100
AcDbCircle
 10
272.868183
 20
351.147463
 40
0.3
100
AcDbArc
 50
0.0
 51
90.0
  0
ARC
  5
3DC
100
AcDbEntity
  8
M0
 62
     7
100
AcDbCircle
 10
272.868183
 20
322.668573
 40
0.3
100
AcDbArc
 50
270.0
 51
360.0
  0
LINE
  5
3DD
100
AcDbEntity
  8
M0
 62
     7
100
AcDbLine
 10
279.892714
 20
319.107417
 11
278.308184
 21
320.908017
  0
LINE
  5
3DE
100
AcDbEntity
  8
M0
 62
     7
100
AcDbLine
 10
277.168184
 20
321.408018
 11
277.868184
 21
321.408018
  0
LINE
  5
3DF
100
AcDbEntity
  8
M0
 62
     7
100
AcDbLine
 10
276.368183
 20
319.108018
 11
276.368183
 21
319.408018
  0
LINE
  5
3E0
100
AcDbEntity
  8
M0
 62
     7
100
AcDbLine
 10
280.368184
 20
318.608018
 11
280.368184
 21
301.908018
  0
LINE
  5
3E1
100
AcDbEntity
  8
M0
 62
     7
100
AcDbLine
 10
277.168184
 20
319.908019
 11
277.168184
 21
321.408018
  0
LINE
  5
3E2
100
AcDbEntity
  8
M0
 62
     7
100
AcDbLine
 10
203.868185
 20
348.908018
 11
200.568185
 21
348.908018
  0
LINE
  5
3E3
100
AcDbEntity
  8
M0
 62
     7
100
AcDbLine
 10
201.568183
 20
347.908018
 11
203.868185
 21
347.908018
  0
LINE
  5
3E4
100
AcDbEntity
  8
M0
 62
     7
100
AcDbLine
 10
203.868185
 20
324.908018
 11
201.568183
 21
324.908018
  0
ARC
  5
3E5
100
AcDbEntity
  8
M0
 62
     7
100
AcDbCircle
 10
200.068183
 20
348.408018
 40
0.5
100
AcDbArc
 50
90.0
 51
180.0
  0
ARC
  5
3E6
100
AcDbEntity
  8
M0
 62
     7
100
AcDbCircle
 10
200.068183
 20
329.908018
 40
0.5
100
AcDbArc
 50
90.0
 51
180.0
  0
LINE
  5
3E7
100
AcDbEntity
  8
M0
 62
     7
100
AcDbLine
 10
201.068182
 20
324.908018
 11
200.068184
 21
324.908018
  0
ARC
  5
3E8
100
AcDbEntity
  8
M0
 62
     7
100
AcDbCircle
 10
234.468183
 20
302.408018
 40
1.0
100
AcDbArc
 50
180.0
 51
270.0
  0
LINE
  5
3E9
100
AcDbEntity
  8
M0
 62
     7
100
AcDbLine
 10
228.568184
 20
304.408019
 11
233.468183
 21
304.408019
  0
LINE
  5
3EA
100
AcDbEntity
  8
M0
 62
     7
100
AcDbLine
 10
200.068184
 20
324.908018
 11
201.568183
 21
324.908018
  0
LINE
  5
3EB
100
AcDbEntity
  8
M0
 62
     7
100
AcDbLine
 10
201.568183
 20
324.908018
 11
201.568183
 21
325.908018
  0
LINE
  5
3EC
100
AcDbEntity
  8
M0
 62
     7
100
AcDbLine
 10
199.568183
 20
348.408018
 11
199.568183
 21
325.408018
  0
LINE
  5
3ED
100
AcDbEntity
  8
M0
 62
     7
100
AcDbLine
 10
201.568183
 20
329.408018
 11
201.568183
 21
330.408018
  0
LINE
  5
3EE
100
AcDbEntity
  8
M0
 62
     7
100
AcDbLine
 10
280.668183
 20
370.658017
 11
280.368184
 21
370.658017
  0
LINE
  5
3EF
100
AcDbEntity
  8
M0
 62
     7
100
AcDbLine
 10
280.368184
 20
361.158019
 11
280.668183
 21
361.158019
  0
LINE
  5
3F0
100
AcDbEntity
  8
M0
 62
     7
100
AcDbLine
 10
280.668183
 20
312.658017
 11
280.368184
 21
312.658017
  0
LINE
  5
3F1
100
AcDbEntity
  8
M0
 62
     7
100
AcDbLine
 10
280.368184
 20
303.158017
 11
280.668183
 21
303.158017
  0
LINE
  5
3F2
100
AcDbEntity
  8
M0
 62
     7
100
AcDbLine
 10
205.368184
 20
338.408018
 11
204.868183
 21
338.408018
  0
LINE
  5
3F3
100
AcDbEntity
  8
M0
 62
     7
100
AcDbLine
 10
205.368184
 20
339.408018
 11
204.868183
 21
339.408018
  0
LINE
  5
3F4
100
AcDbEntity
  8
M0
 62
     7
100
AcDbLine
 10
204.868183
 20
335.408018
 11
204.868183
 21
338.408018
  0
LINE
  5
3F5
100
AcDbEntity
  8
M0
 62
     7
100
AcDbLine
 10
204.868183
 20
335.408018
 11
205.368184
 21
335.408018
  0
ELLIPSE
  5
3F6
100
AcDbEntity
  8
M0
 62
     7
100
AcDbEllipse
 10
200.068183
 20
343.215125
 11
0.5
 21
0.0
210
0.0
220
0.0
230
1.0
 40
0.414214
 41
3.141592653589793
 42
4.71238898038469
  0
LINE
  5
3F7
100
AcDbEntity
  8
M0
 62
     7
100
AcDbLine
 10
257.368183
 20
354.324246
 11
272.868183
 21
354.324246
  0
ARC
  5
3F8
100
AcDbEntity
  8
M0
 62
     7
100
AcDbCircle
 10
228.568183
 20
305.408018
 40
1.0
100
AcDbArc
 50
237.247324
 51
270.0
  0
ELLIPSE
  5
3F9
100
AcDbEntity
  8
M0
 62
     7
100
AcDbEllipse
 10
200.068183
 20
341.715125
 11
0.5
 21
0.0
210
0.0
220
0.0
230
1.0
 40
0.414214
 41
3.141592653589793
 42
4.71238898038469
  0
LINE
  5
3FA
100
AcDbEntity
  8
M0
 62
     7
100
AcDbLine
 10
272.868183
 20
351.447463
 11
257.368183
 21
351.447463
  0
LINE
  5
3FB
100
AcDbEntity
  8
M0
 62
     7
100
AcDbLine
 10
257.368183
 20
322.368573
 11
272.868183
 21
322.368573
  0
LINE
  5
3FC
100
AcDbEntity
  8
M0
 62
     7
100
AcDbLine
 10
272.868183
 20
319.49179
 11
257.368183
 21
319.49179
  0
LINE
  5
3FD
100
AcDbEntity
  8
M0
 62
     7
100
AcDbLine
 10
229.668184
 20
369.908018
 11
229.668184
 21
367.908017
  0
LINE
  5
3FE
100
AcDbEntity
  8
M0
 62
     7
100
AcDbLine
 10
233.268184
 20
371.408019
 11
229.668184
 21
369.908018
  0
LINE
  5
3FF
100
AcDbEntity
  8
M0
 62
     7
100
AcDbLine
 10
233.468183
 20
370.408019
 11
230.668182
 21
369.241351
  0
LINE
  5
400
100
AcDbEntity
  8
M0
 62
     7
100
AcDbLine
 10
238.968183
 20
367.908017
 11
238.968183
 21
371.408019
  0
LINE
  5
401
100
AcDbEntity
  8
M0
 62
     7
100
AcDbLine
 10
233.268184
 20
371.408019
 11
233.268184
 21
380.408017
  0
LINE
  5
402
100
AcDbEntity
  8
M0
 62
     7
100
AcDbLine
 10
243.968183
 20
341.008018
 11
244.068183
 21
341.008018
  0
LINE
  5
403
100
AcDbEntity
  8
M0
 62
     7
100
AcDbLine
 10
238.968183
 20
371.408019
 11
233.268184
 21
371.408019
  0
LINE
  5
404
100
AcDbEntity
  8
M0
 62
     7
100
AcDbLine
 10
250.75397
 20
381.408019
 11
234.268184
 21
381.408019
  0
LINE
  5
405
100
AcDbEntity
  8
M0
 62
     7
100
AcDbLine
 10
237.968183
 20
370.408019
 11
233.468183
 21
370.408019
  0
LINE
  5
406
100
AcDbEntity
  8
M0
 62
     7
100
AcDbLine
 10
280.668183
 20
370.658017
 11
280.668183
 21
361.158019
  0
LINE
  5
407
100
AcDbEntity
  8
M0
 62
     7
100
AcDbLine
 10
230.668182
 20
368.908018
 11
237.968183
 21
368.908018
  0
LINE
  5
408
100
AcDbEntity
  8
M0
 62
     7
100
AcDbLine
 10
237.968183
 20
368.908018
 11
237.968183
 21
370.408019
  0
LINE
  5
409
100
AcDbEntity
  8
M0
 62
     7
100
AcDbLine
 10
230.668182
 20
369.241351
 11
230.668182
 21
368.908018
  0
LINE
  5
40A
100
AcDbEntity
  8
M0
 62
     7
100
AcDbLine
 10
280.368184
 20
371.908018
 11
280.368184
 21
352.508018
  0
ARC
  5
40B
100
AcDbEntity
  8
M0
 62
     7
100
AcDbCircle
 10
250.75397
 20
380.408018
 40
1.0
100
AcDbArc
 50
45.0
 51
90.0
  0
ARC
  5
40C
100
AcDbEntity
  8
M0
 62
     7
100
AcDbCircle
 10
234.268183
 20
380.408018
 40
1.0
100
AcDbArc
 50
90.0
 51
180.0
  0
ARC
  5
40D
100
AcDbEntity
  8
M0
 62
     7
100
AcDbCircle
 10
255.168183
 20
375.993805
 40
1.0
100
AcDbArc
 50
0.0
 51
45.0
  0
ARC
  5
40E
100
AcDbEntity
  8
M0
 62
     7
100
AcDbCircle
 10
236.768183
 20
378.408018
 40
3.0
100
AcDbArc
 50
90.0
 51
180.0
  0
ELLIPSE
  5
40F
100
AcDbEntity
  8
M0
 62
     7
100
AcDbEllipse
 10
255.568183
 20
351.39902
 11
0.0
 21
20.008998
210
0.0
220
0.0
230
1.0
 40
0.029987
 41
5.682730448278118
 42
6.283185307179586
  0
ARC
  5
410
100
AcDbEntity
  8
M0
 62
     7
100
AcDbCircle
 10
206.168183
 20
340.208018
 40
1.0
100
AcDbArc
 50
168.463041
 51
180.0
  0
ARC
  5
411
100
AcDbEntity
  8
M0
 62
     7
100
AcDbCircle
 10
262.468183
 20
302.408018
 40
1.0
100
AcDbArc
 50
270.0
 51
360.0
  0
LINE
  5
412
100
AcDbEntity
  8
M0
 62
     7
100
AcDbLine
 10
205.168185
 20
340.208018
 11
205.168185
 21
339.408018
  0
LINE
  5
413
100
AcDbEntity
  8
M0
 62
     7
100
AcDbLine
 10
205.168185
 20
334.408018
 11
205.168185
 21
333.408018
  0
LINE
  5
414
100
AcDbEntity
  8
M0
 62
     7
100
AcDbLine
 10
235.568183
 20
334.208018
 11
235.568183
 21
339.608018
  0
LINE
  5
415
100
AcDbEntity
  8
M0
 62
     7
100
AcDbLine
 10
232.068184
 20
339.608018
 11
232.068184
 21
334.208018
  0
ARC
  5
416
100
AcDbEntity
  8
M0
 62
     7
100
AcDbCircle
 10
280.068183
 20
352.508018
 40
0.3
100
AcDbArc
 50
270.0
 51
360.0
  0
LINE
  5
417
100
AcDbEntity
  8
M0
 62
     7
100
AcDbLine
 10
263.468184
 20
302.408019
 11
263.468184
 21
305.908018
  0
LINE
  5
418
100
AcDbEntity
  8
M0
 62
     7
100
AcDbLine
 10
245.468183
 20
302.408019
 11
245.468183
 21
301.408017
  0
LINE
  5
419
100
AcDbEntity
  8
M0
 62
     7
100
AcDbLine
 10
256.168183
 20
375.993805
 11
256.168183
 21
367.908017
  0
LINE
  5
41A
100
AcDbEntity
  8
M0
 62
     7
100
AcDbLine
 10
239.068183
 20
371.408019
 11
234.368184
 21
371.408019
  0
LINE
  5
41B
100
AcDbEntity
  8
M0
 62
     7
100
AcDbLine
 10
239.068183
 20
371.408019
 11
239.068183
 21
367.908017
  0
LINE
  5
41C
100
AcDbEntity
  8
M0
 62
     7
100
AcDbLine
 10
255.568183
 20
371.408019
 11
239.068183
 21
371.408019
  0
LINE
  5
41D
100
AcDbEntity
  8
M0
 62
     7
100
AcDbLine
 10
278.168184
 20
352.208018
 11
280.068184
 21
352.208018
  0
ARC
  5
41E
100
AcDbEntity
  8
M0
 62
     7
100
AcDbCircle
 10
279.868183
 20
318.608018
 40
0.5
100
AcDbArc
 50
0.0
 51
90.0
  0
LINE
  5
41F
100
AcDbEntity
  8
M0
 62
     7
100
AcDbLine
 10
245.468183
 20
347.008018
 11
245.468183
 21
367.908017
  0
ARC
  5
420
100
AcDbEntity
  8
M0
 62
     7
100
AcDbCircle
 10
279.868183
 20
301.908018
 40
0.5
100
AcDbArc
 50
270.0
 51
360.0
  0
ARC
  5
421
100
AcDbEntity
  8
M0
 62
     7
100
AcDbCircle
 10
279.868183
 20
355.208018
 40
0.5
100
AcDbArc
 50
270.0
 51
360.0
  0
LINE
  5
422
100
AcDbEntity
  8
M0
 62
     7
100
AcDbLine
 10
278.168184
 20
352.208018
 11
277.168184
 21
353.208018
  0
LINE
  5
423
100
AcDbEntity
  8
M0
 62
     7
100
AcDbLine
 10
277.168184
 20
353.208018
 11
277.168184
 21
354.708018
  0
ARC
  5
424
100
AcDbEntity
  8
M0
 62
     7
100
AcDbCircle
 10
200.068183
 20
325.408018
 40
0.5
100
AcDbArc
 50
180.0
 51
270.0
  0
LINE
  5
425
100
AcDbEntity
  8
M0
 62
     7
100
AcDbLine
 10
264.768183
 20
371.408019
 11
269.668183
 21
371.408019
  0
LINE
  5
426
100
AcDbEntity
  8
M0
 62
     7
100
AcDbLine
 10
256.168183
 20
375.993805
 11
256.168183
 21
373.858018
  0
LINE
  5
427
100
AcDbEntity
  8
M0
 62
     7
100
AcDbLine
 10
263.868184
 20
371.108018
 11
263.868184
 21
367.908017
  0
LINE
  5
428
100
AcDbEntity
  8
M0
 62
     7
100
AcDbLine
 10
276.168183
 20
352.208018
 11
276.168183
 21
354.708018
  0
LINE
  5
429
100
AcDbEntity
  8
M0
 62
     7
100
AcDbLine
 10
251.461076
 20
381.115125
 11
255.87529
 21
376.70091
  0
LINE
  5
42A
100
AcDbEntity
  8
M0
 62
     7
100
AcDbLine
 10
263.868184
 20
371.108018
 11
263.868184
 21
371.408019
  0
LINE
  5
42B
100
AcDbEntity
  8
M0
 62
     7
100
AcDbLine
 10
263.868184
 20
371.408019
 11
269.668183
 21
371.408019
  0
LINE
  5
42C
100
AcDbEntity
  8
M0
 62
     7
100
AcDbLine
 10
280.368184
 20
370.908018
 11
280.368184
 21
370.358018
  0
LINE
  5
42D
100
AcDbEntity
  8
M0
 62
     7
100
AcDbLine
 10
256.168183
 20
371.408019
 11
256.168183
 21
367.908017
  0
ARC
  5
42E
100
AcDbEntity
  8
M0
 62
     7
100
AcDbCircle
 10
225.768183
 20
361.608018
 40
3.0
100
AcDbArc
 50
90.0
 51
180.0
  0
ARC
  5
42F
100
AcDbEntity
  8
M0
 62
     7
100
AcDbCircle
 10
225.768183
 20
312.208018
 40
3.0
100
AcDbArc
 50
180.0
 51
270.0
  0
ARC
  5
430
100
AcDbEntity
  8
M0
 62
     7
100
AcDbCircle
 10
236.725543
 20
361.608018
 40
3.0
100
AcDbArc
 50
45.0
 51
90.0
  0
ARC
  5
431
100
AcDbEntity
  8
M0
 62
     7
100
AcDbCircle
 10
236.725543
 20
312.208018
 40
3.0
100
AcDbArc
 50
270.0
 51
315.0
  0
ARC
  5
432
100
AcDbEntity
  8
M0
 62
     7
100
AcDbCircle
 10
206.868183
 20
354.008018
 40
3.0
100
AcDbArc
 50
90.0
 51
180.0
  0
ARC
  5
433
100
AcDbEntity
  8
M0
 62
     7
100
AcDbCircle
 10
205.368183
 20
332.208018
 40
1.0
100
AcDbArc
 50
0.0
 51
90.0
  0
ARC
  5
434
100
AcDbEntity
  8
M0
 62
     7
100
AcDbCircle
 10
219.768183
 20
360.008018
 40
3.0
100
AcDbArc
 50
270.0
 51
360.0
  0
ARC
  5
435
100
AcDbEntity
  8
M0
 62
     7
100
AcDbCircle
 10
219.768183
 20
313.808018
 40
3.0
100
AcDbArc
 50
0.0
 51
90.0
  0
ARC
  5
436
100
AcDbEntity
  8
M0
 62
     7
100
AcDbCircle
 10
231.868183
 20
339.108018
 40
0.5
100
AcDbArc
 50
90.0
 51
180.0
  0
LINE
  5
437
100
AcDbEntity
  8
M0
 62
     7
100
AcDbLine
 10
205.868182
 20
316.979591
 11
205.868182
 21
304.408019
  0
ARC
  5
438
100
AcDbEntity
  8
M0
 62
     7
100
AcDbCircle
 10
231.868183
 20
334.708018
 40
0.5
100
AcDbArc
 50
180.0
 51
270.0
  0
LINE
  5
439
100
AcDbEntity
  8
M0
 62
     7
100
AcDbLine
 10
205.868182
 20
369.408019
 11
205.868182
 21
356.836445
  0
LINE
  5
43A
100
AcDbEntity
  8
M0
 62
     7
100
AcDbLine
 10
245.468183
 20
352.008018
 11
252.868183
 21
352.008018
  0
LINE
  5
43B
100
AcDbEntity
  8
M0
 62
     7
100
AcDbLine
 10
252.868183
 20
357.008017
 11
245.468183
 21
357.008017
  0
LINE
  5
43C
100
AcDbEntity
  8
M0
 62
     7
100
AcDbLine
 10
245.468183
 20
347.008018
 11
244.568183
 21
347.008018
  0
LINE
  5
43D
100
AcDbEntity
  8
M0
 62
     7
100
AcDbLine
 10
257.368183
 20
322.368573
 11
257.368183
 21
319.49179
  0
LINE
  5
43E
100
AcDbEntity
  8
M0
 62
     7
100
AcDbLine
 10
257.368183
 20
354.324246
 11
257.368183
 21
351.447463
  0
LINE
  5
43F
100
AcDbEntity
  8
M0
 62
     7
100
AcDbLine
 10
270.668183
 20
372.408019
 11
279.868183
 21
372.408019
  0
ARC
  5
440
100
AcDbEntity
  8
M0
 62
     7
100
AcDbCircle
 10
204.868183
 20
341.608018
 40
1.0
100
AcDbArc
 50
180.0
 51
270.0
  0
ARC
  5
441
100
AcDbEntity
  8
M0
 62
     7
100
AcDbCircle
 10
223.625543
 20
304.408018
 40
3.0
100
AcDbArc
 50
270.0
 51
315.0
  0
ARC
  5
442
100
AcDbEntity
  8
M0
 62
     7
100
AcDbCircle
 10
206.868183
 20
319.808018
 40
3.0
100
AcDbArc
 50
180.0
 51
270.0
  0
ARC
  5
443
100
AcDbEntity
  8
M0
 62
     7
100
AcDbCircle
 10
204.868183
 20
332.208018
 40
1.0
100
AcDbArc
 50
90.0
 51
180.0
  0
ARC
  5
444
100
AcDbEntity
  8
M0
 62
     7
100
AcDbCircle
 10
208.868183
 20
304.408018
 40
3.0
100
AcDbArc
 50
180.0
 51
270.0
  0
LINE
  5
445
100
AcDbEntity
  8
M0
 62
     7
100
AcDbLine
 10
273.168183
 20
319.108018
 11
279.868183
 21
319.108018
  0
ARC
  5
446
100
AcDbEntity
  8
M0
 62
     7
100
AcDbCircle
 10
223.625543
 20
369.408018
 40
3.0
100
AcDbArc
 50
45.0
 51
90.0
  0
ARC
  5
447
100
AcDbEntity
  8
M0
 62
     7
100
AcDbCircle
 10
208.868183
 20
369.408018
 40
3.0
100
AcDbArc
 50
90.0
 51
180.0
  0
ARC
  5
448
100
AcDbEntity
  8
M0
 62
     7
100
AcDbCircle
 10
205.368183
 20
341.608018
 40
1.0
100
AcDbArc
 50
270.0
 51
360.0
  0
LINE
  5
449
100
AcDbEntity
  8
M0
 62
     7
100
AcDbLine
 10
240.968184
 20
312.208019
 11
238.846863
 21
310.086697
  0
LINE
  5
44A
100
AcDbEntity
  8
M0
 62
     7
100
AcDbLine
 10
206.368183
 20
332.208018
 11
206.368183
 21
341.608018
  0
LINE
  5
44B
100
AcDbEntity
  8
M0
 62
     7
100
AcDbLine
 10
236.725543
 20
309.208018
 11
225.768183
 21
309.208018
  0
LINE
  5
44C
100
AcDbEntity
  8
M0
 62
     7
100
AcDbLine
 10
222.768183
 20
360.008018
 11
222.768183
 21
361.608019
  0
LINE
  5
44D
100
AcDbEntity
  8
M0
 62
     7
100
AcDbLine
 10
238.846863
 20
363.729339
 11
240.968184
 21
361.608019
  0
LINE
  5
44E
100
AcDbEntity
  8
M0
 62
     7
100
AcDbLine
 10
225.768183
 20
364.608017
 11
236.725543
 21
364.608017
  0
LINE
  5
44F
100
AcDbEntity
  8
M0
 62
     7
100
AcDbLine
 10
240.968184
 20
361.608019
 11
269.668183
 21
361.608019
  0
LINE
  5
450
100
AcDbEntity
  8
M0
 62
     7
100
AcDbLine
 10
231.368183
 20
339.108018
 11
231.368183
 21
334.708018
  0
LINE
  5
451
100
AcDbEntity
  8
M0
 62
     7
100
AcDbLine
 10
231.868184
 20
334.208018
 11
244.068183
 21
334.208018
  0
LINE
  5
452
100
AcDbEntity
  8
M0
 62
     7
100
AcDbLine
 10
244.068183
 20
339.608018
 11
231.868184
 21
339.608018
  0
LINE
  5
453
100
AcDbEntity
  8
M0
 62
     7
100
AcDbLine
 10
245.468183
 20
312.408019
 11
240.968184
 21
312.208019
  0
LINE
  5
454
100
AcDbEntity
  8
M0
 62
     7
100
AcDbLine
 10
269.668183
 20
367.908017
 11
229.368183
 21
367.908017
  0
LINE
  5
455
100
AcDbEntity
  8
M0
 62
     7
100
AcDbLine
 10
208.868184
 20
301.408017
 11
223.625543
 21
301.408017
  0
LINE
  5
456
100
AcDbEntity
  8
M0
 62
     7
100
AcDbLine
 10
223.625543
 20
372.408019
 11
208.868184
 21
372.408019
  0
LINE
  5
457
100
AcDbEntity
  8
M0
 62
     7
100
AcDbLine
 10
229.368183
 20
367.908017
 11
225.746863
 21
371.529339
  0
LINE
  5
458
100
AcDbEntity
  8
M0
 62
     7
100
AcDbLine
 10
225.746863
 20
302.286697
 11
229.368183
 21
305.908018
  0
LINE
  5
459
100
AcDbEntity
  8
M0
 62
     7
100
AcDbLine
 10
205.368184
 20
340.608018
 11
205.368184
 21
333.208018
  0
LINE
  5
45A
100
AcDbEntity
  8
M0
 62
     7
100
AcDbLine
 10
204.868183
 20
340.608018
 11
205.368184
 21
340.608018
  0
LINE
  5
45B
100
AcDbEntity
  8
M0
 62
     7
100
AcDbLine
 10
219.768184
 20
316.808019
 11
206.868184
 21
316.808019
  0
LINE
  5
45C
100
AcDbEntity
  8
M0
 62
     7
100
AcDbLine
 10
206.868184
 20
357.008017
 11
219.768184
 21
357.008017
  0
LINE
  5
45D
100
AcDbEntity
  8
M0
 62
     7
100
AcDbLine
 10
205.368184
 20
333.208018
 11
204.868183
 21
333.208018
  0
LINE
  5
45E
100
AcDbEntity
  8
M0
 62
     7
100
AcDbLine
 10
203.868185
 20
319.808017
 11
203.868185
 21
354.008018
  0
ARC
  5
45F
100
AcDbEntity
  8
M0
 62
     7
100
AcDbCircle
 10
244.568183
 20
346.508018
 40
0.5
100
AcDbArc
 50
90.0
 51
180.0
  0
ARC
  5
460
100
AcDbEntity
  8
M0
 62
     7
100
AcDbCircle
 10
275.668183
 20
323.608018
 40
0.5
100
AcDbArc
 50
270.0
 51
360.0
  0
ARC
  5
461
100
AcDbEntity
  8
M0
 62
     7
100
AcDbCircle
 10
275.668183
 20
350.208018
 40
0.5
100
AcDbArc
 50
0.0
 51
90.0
  0
ARC
  5
462
100
AcDbEntity
  8
M0
 62
     7
100
AcDbCircle
 10
244.568183
 20
327.308018
 40
0.5
100
AcDbArc
 50
180.0
 51
270.0
  0
LINE
  5
463
100
AcDbEntity
  8
M0
 62
     7
100
AcDbLine
 10
263.668183
 20
305.908018
 11
229.368183
 21
305.908018
  0
LINE
  5
464
100
AcDbEntity
  8
M0
 62
     7
100
AcDbLine
 10
268.668183
 20
305.908018
 11
268.668183
 21
306.408019
  0
LINE
  5
465
100
AcDbEntity
  8
M0
 62
     7
100
AcDbLine
 10
269.668183
 20
304.408019
 11
268.668183
 21
304.408019
  0
LINE
  5
466
100
AcDbEntity
  8
M0
 62
     7
100
AcDbLine
 10
268.668183
 20
304.908016
 11
268.668183
 21
305.908018
  0
LINE
  5
467
100
AcDbEntity
  8
M0
 62
     7
100
AcDbLine
 10
268.668183
 20
306.408019
 11
269.668183
 21
306.408019
  0
LINE
  5
468
100
AcDbEntity
  8
M0
 62
     7
100
AcDbLine
 10
280.368184
 20
363.458018
 11
280.368184
 21
361.308017
  0
LINE
  5
469
100
AcDbEntity
  8
M0
 62
     7
100
AcDbLine
 10
268.668183
 20
304.408019
 11
268.668183
 21
304.908016
  0
LINE
  5
46A
100
AcDbEntity
  8
M0
 62
     7
100
AcDbLine
 10
276.468183
 20
349.208018
 11
276.468183
 21
351.208018
  0
LINE
  5
46B
100
AcDbEntity
  8
M0
 62
     7
100
AcDbLine
 10
200.568185
 20
348.908018
 11
200.068184
 21
348.908018
  0
LINE
  5
46C
100
AcDbEntity
  8
M0
 62
     7
100
AcDbLine
 10
200.068184
 20
341.508018
 11
201.568183
 21
341.508018
  0
LINE
  5
46D
100
AcDbEntity
  8
M0
 62
     7
100
AcDbLine
 10
201.568183
 20
347.908018
 11
201.568183
 21
343.008018
  0
LINE
  5
46E
100
AcDbEntity
  8
M0
 62
     7
100
AcDbLine
 10
201.568183
 20
343.008018
 11
200.068184
 21
343.008018
  0
LINE
  5
46F
100
AcDbEntity
  8
M0
 62
     7
100
AcDbLine
 10
201.568183
 20
330.408018
 11
200.068184
 21
330.408018
  0
LINE
  5
470
100
AcDbEntity
  8
M0
 62
     7
100
AcDbLine
 10
233.768183
 20
371.408019
 11
233.768183
 21
378.408016
  0
LINE
  5
471
100
AcDbEntity
  8
M0
 62
     7
100
AcDbLine
 10
201.568183
 20
341.508018
 11
201.568183
 21
343.008018
  0
LINE
  5
472
100
AcDbEntity
  8
M0
 62
     7
100
AcDbLine
 10
201.568183
 20
329.408018
 11
201.568183
 21
325.908018
  0
LINE
  5
473
100
AcDbEntity
  8
M0
 62
     7
100
AcDbLine
 10
234.468183
 20
301.408017
 11
237.468183
 21
301.408017
  0
ARC
  5
474
100
AcDbEntity
  8
M0
 62
     7
100
AcDbCircle
 10
270.668183
 20
302.408018
 40
1.0
100
AcDbArc
 50
180.0
 51
270.0
  0
ARC
  5
475
100
AcDbEntity
  8
M0
 62
     7
100
AcDbCircle
 10
279.868183
 20
371.908018
 40
0.5
100
AcDbArc
 50
0.0
 51
90.0
  0
ARC
  5
476
100
AcDbEntity
  8
M0
 62
     7
100
AcDbCircle
 10
270.668183
 20
371.408018
 40
1.0
100
AcDbArc
 50
90.0
 51
180.0
  0
LINE
  5
477
100
AcDbEntity
  8
M0
 62
     7
100
AcDbLine
 10
245.468183
 20
301.408017
 11
245.468183
 21
326.808018
  0
LINE
  5
478
100
AcDbEntity
  8
M0
 62
     7
100
AcDbLine
 10
233.468183
 20
305.908018
 11
233.468183
 21
302.408019
  0
LINE
  5
479
100
AcDbEntity
  8
M0
 62
     7
100
AcDbLine
 10
234.468183
 20
301.408017
 11
262.468183
 21
301.408017
  0
LINE
  5
47A
100
AcDbEntity
  8
M0
 62
     7
100
AcDbLine
 10
275.668184
 20
323.108017
 11
273.168183
 21
323.108017
  0
LINE
  5
47B
100
AcDbEntity
  8
M0
 62
     7
100
AcDbLine
 10
273.168183
 20
350.708018
 11
275.668184
 21
350.708018
  0
LINE
  5
47C
100
AcDbEntity
  8
M0
 62
     7
100
AcDbLine
 10
273.168183
 20
351.147463
 11
273.168183
 21
350.708018
  0
LINE
  5
47D
100
AcDbEntity
  8
M0
 62
     7
100
AcDbLine
 10
273.168183
 20
323.108017
 11
273.168183
 21
322.668573
  0
LINE
  5
47E
100
AcDbEntity
  8
M0
 62
     7
100
AcDbLine
 10
245.468183
 20
326.808018
 11
244.568183
 21
326.808018
  0
LINE
  5
47F
100
AcDbEntity
  8
M0
 62
     7
100
AcDbLine
 10
245.468183
 20
316.808019
 11
252.868183
 21
316.808019
  0
LINE
  5
480
100
AcDbEntity
  8
M0
 62
     7
100
AcDbLine
 10
252.868183
 20
321.808018
 11
245.468183
 21
321.808018
  0
LINE
  5
481
100
AcDbEntity
  8
M0
 62
     7
100
AcDbLine
 10
244.068183
 20
346.508018
 11
244.068183
 21
327.308018
  0
LINE
  5
482
100
AcDbEntity
  8
M0
 62
     7
100
AcDbLine
 10
279.868183
 20
354.708018
 11
273.168183
 21
354.708018
  0
LINE
  5
483
100
AcDbEntity
  8
M0
 62
     7
100
AcDbLine
 10
222.768183
 20
312.208019
 11
222.768183
 21
313.808018
  0
LINE
  5
484
100
AcDbEntity
  8
M0
 62
     7
100
AcDbLine
 10
280.668183
 20
312.658017
 11
280.668183
 21
303.158017
  0
LINE
  5
485
100
AcDbEntity
  8
M0
 62
     7
100
AcDbLine
 10
276.168183
 20
348.708018
 11
276.468183
 21
349.208018
  0
LINE
  5
486
100
AcDbEntity
  8
M0
 62
     7
100
AcDbLine
 10
276.468183
 20
351.208018
 11
276.168183
 21
352.208018
  0
LINE
  5
487
100
AcDbEntity
  8
M0
 62
     7
100
AcDbLine
 10
276.168183
 20
354.708018
 11
276.168183
 21
319.108018
  0
LINE
  5
488
100
AcDbEntity
  8
M0
 62
     7
100
AcDbLine
 10
269.668183
 20
361.608019
 11
269.668183
 21
371.408018
  0
LINE
  5
489
100
AcDbEntity
  8
M0
 62
     7
100
AcDbLine
 10
252.868183
 20
352.008018
 11
252.868183
 21
357.008017
  0
LINE
  5
48A
100
AcDbEntity
  8
M0
 62
     7
100
AcDbLine
 10
252.868183
 20
316.808019
 11
252.868183
 21
321.808018
  0
LINE
  5
48B
100
AcDbEntity
  8
M0
 62
     7
100
AcDbLine
 10
269.668183
 20
312.408019
 11
245.468183
 21
312.408019
  0
LINE
  5
48C
100
AcDbEntity
  8
M0
 62
     7
100
AcDbLine
 10
269.668183
 20
302.408018
 11
269.668183
 21
312.408019
  0
LINE
  5
48D
100
AcDbEntity
  8
M0
 62
     7
100
AcDbLine
 10
277.868184
 20
321.408018
 11
277.874867
 21
321.400422
  0
LINE
  5
48E
100
AcDbEntity
  8
M0
 62
     7
100
AcDbLine
 10
277.874867
 20
321.400422
 11
277.894719
 21
321.377864
  0
LINE
  5
48F
100
AcDbEntity
  8
M0
 62
     7
100
AcDbLine
 10
277.894719
 20
321.377864
 11
277.927131
 21
321.34103
  0
LINE
  5
490
100
AcDbEntity
  8
M0
 62
     7
100
AcDbLine
 10
277.927131
 20
321.34103
 11
277.971123
 21
321.29104
  0
LINE
  5
491
100
AcDbEntity
  8
M0
 62
     7
100
AcDbLine
 10
277.971123
 20
321.29104
 11
278.025356
 21
321.229411
  0
LINE
  5
492
100
AcDbEntity
  8
M0
 62
     7
100
AcDbLine
 10
278.025356
 20
321.229411
 11
278.088183
 21
321.158018
  0
LINE
  5
493
100
AcDbEntity
  8
M0
 62
     7
100
AcDbLine
 10
278.088183
 20
321.158018
 11
278.157695
 21
321.079028
  0
LINE
  5
494
100
AcDbEntity
  8
M0
 62
     7
100
AcDbLine
 10
278.157695
 20
321.079028
 11
278.231778
 21
320.994843
  0
LINE
  5
495
100
AcDbEntity
  8
M0
 62
     7
100
AcDbLine
 10
278.231778
 20
320.994843
 11
278.308184
 21
320.908017
  0
LINE
  5
496
100
AcDbEntity
  8
M0
 62
     7
100
AcDbLine
 10
201.568183
 20
347.908018
 11
201.394536
 21
348.081666
  0
LINE
  5
497
100
AcDbEntity
  8
M0
 62
     7
100
AcDbLine
 10
201.394536
 20
348.081666
 11
201.226165
 21
348.250038
  0
LINE
  5
498
100
AcDbEntity
  8
M0
 62
     7
100
AcDbLine
 10
201.226165
 20
348.250038
 11
201.068182
 21
348.408018
  0
LINE
  5
499
100
AcDbEntity
  8
M0
 62
     7
100
AcDbLine
 10
201.068182
 20
348.408018
 11
200.925396
 21
348.550806
  0
LINE
  5
49A
100
AcDbEntity
  8
M0
 62
     7
100
AcDbLine
 10
200.925396
 20
348.550806
 11
200.802137
 21
348.674062
  0
LINE
  5
49B
100
AcDbEntity
  8
M0
 62
     7
100
AcDbLine
 10
200.802137
 20
348.674062
 11
200.702158
 21
348.774044
  0
LINE
  5
49C
100
AcDbEntity
  8
M0
 62
     7
100
AcDbLine
 10
200.702158
 20
348.774044
 11
200.62849
 21
348.84771
  0
LINE
  5
49D
100
AcDbEntity
  8
M0
 62
     7
100
AcDbLine
 10
200.62849
 20
348.84771
 11
200.583377
 21
348.892825
  0
LINE
  5
49E
100
AcDbEntity
  8
M0
 62
     7
100
AcDbLine
 10
200.583377
 20
348.892825
 11
200.568185
 21
348.908018
  0
ARC
  5
49F
100
AcDbEntity
  8
M0
 62
     7
100
AcDbCircle
 10
90.541051
 20
372.258018
 40
0.5
100
AcDbArc
 50
268.473851
 51
270.0
  0
ARC
  5
4A0
100
AcDbEntity
  8
M0
 62
     7
100
AcDbCircle
 10
55.891051
 20
366.908018
 40
2.25
100
AcDbArc
 50
0.0
 51
180.0
  0
ARC
  5
4A1
100
AcDbEntity
  8
M0
 62
     7
100
AcDbCircle
 10
55.891051
 20
364.908018
 40
2.25
100
AcDbArc
 50
180.0
 51
360.0
  0
ARC
  5
4A2
100
AcDbEntity
  8
M0
 62
     7
100
AcDbCircle
 10
56.491051
 20
306.408018
 40
5.0
100
AcDbArc
 50
180.0
 51
270.0
  0
ARC
  5
4A3
100
AcDbEntity
  8
M0
 62
     7
100
AcDbCircle
 10
56.491051
 20
367.408018
 40
5.0
100
AcDbArc
 50
90.0
 51
180.0
  0
LINE
  5
4A4
100
AcDbEntity
  8
M0
 62
     7
100
AcDbLine
 10
91.79105
 20
324.708018
 11
73.991051
 21
324.708018
  0
LINE
  5
4A5
100
AcDbEntity
  8
M0
 62
     7
100
AcDbLine
 10
73.491052
 20
325.208018
 11
73.491052
 21
348.608019
  0
LINE
  5
4A6
100
AcDbEntity
  8
M0
 62
     7
100
AcDbLine
 10
102.591051
 20
354.308018
 11
63.191051
 21
354.308018
  0
LINE
  5
4A7
100
AcDbEntity
  8
M0
 62
     7
100
AcDbLine
 10
104.391051
 20
339.408018
 11
102.591051
 21
339.408018
  0
LINE
  5
4A8
100
AcDbEntity
  8
M0
 62
     7
100
AcDbLine
 10
77.591052
 20
349.108018
 11
73.991051
 21
349.108018
  0
ARC
  5
4A9
100
AcDbEntity
  8
M0
 62
     7
100
AcDbCircle
 10
60.691051
 20
304.908018
 40
0.5
100
AcDbArc
 50
180.0
 51
270.0
  0
ARC
  5
4AA
100
AcDbEntity
  8
M0
 62
     7
100
AcDbCircle
 10
105.091051
 20
305.908018
 40
0.5
100
AcDbArc
 50
0.0
 51
90.0
  0
ARC
  5
4AB
100
AcDbEntity
  8
M0
 62
     7
100
AcDbCircle
 10
61.691051
 20
305.908018
 40
0.5
100
AcDbArc
 50
0.0
 51
36.86993
  0
ARC
  5
4AC
100
AcDbEntity
  8
M0
 62
     7
100
AcDbCircle
 10
60.691051
 20
305.908018
 40
0.5
100
AcDbArc
 50
90.0
 51
180.0
  0
CIRCLE
  5
4AD
100
AcDbEntity
  8
M0
 62
     7
100
AcDbCircle
 10
55.391051
 20
306.908018
 40
2.25
  0
CIRCLE
  5
4AE
100
AcDbEntity
  8
M0
 62
     7
100
AcDbCircle
 10
110.391051
 20
366.908018
 40
2.25
  0
ARC
  5
4AF
100
AcDbEntity
  8
M0
 62
     7
100
AcDbCircle
 10
105.091051
 20
304.908018
 40
0.5
100
AcDbArc
 50
270.0
 51
360.0
  0
ARC
  5
4B0
100
AcDbEntity
  8
M0
 62
     7
100
AcDbCircle
 10
104.091051
 20
305.908018
 40
0.5
100
AcDbArc
 50
143.130134
 51
180.0
  0
ARC
  5
4B1
100
AcDbEntity
  8
M0
 62
     7
100
AcDbCircle
 10
102.891051
 20
371.408018
 40
1.0
100
AcDbArc
 50
90.0
 51
98.626927
  0
ARC
  5
4B2
100
AcDbEntity
  8
M0
 62
     7
100
AcDbCircle
 10
109.891051
 20
306.908018
 40
2.25
100
AcDbArc
 50
180.0
 51
360.0
  0
ARC
  5
4B3
100
AcDbEntity
  8
M0
 62
     7
100
AcDbCircle
 10
62.891051
 20
371.408018
 40
1.0
100
AcDbArc
 50
81.373073
 51
90.0
  0
ARC
  5
4B4
100
AcDbEntity
  8
M0
 62
     7
100
AcDbCircle
 10
109.291051
 20
367.408018
 40
5.0
100
AcDbArc
 50
0.0
 51
90.0
  0
ARC
  5
4B5
100
AcDbEntity
  8
M0
 62
     7
100
AcDbCircle
 10
61.691051
 20
304.908018
 40
0.5
100
AcDbArc
 50
323.13007
 51
360.0
  0
ARC
  5
4B6
100
AcDbEntity
  8
M0
 62
     7
100
AcDbCircle
 10
109.891051
 20
308.908018
 40
2.25
100
AcDbArc
 50
0.0
 51
180.0
  0
ARC
  5
4B7
100
AcDbEntity
  8
M0
 62
     7
100
AcDbCircle
 10
109.291051
 20
306.408018
 40
5.0
100
AcDbArc
 50
270.0
 51
360.0
  0
LINE
  5
4B8
100
AcDbEntity
  8
M0
 62
     7
100
AcDbLine
 10
62.460281
 20
340.408018
 11
62.460281
 21
339.408018
  0
LINE
  5
4B9
100
AcDbEntity
  8
M0
 62
     7
100
AcDbLine
 10
62.19105
 20
340.408018
 11
61.591051
 21
340.408018
  0
LINE
  5
4BA
100
AcDbEntity
  8
M0
 62
     7
100
AcDbLine
 10
62.460281
 20
333.408018
 11
62.460281
 21
334.408018
  0
LINE
  5
4BB
100
AcDbEntity
  8
M0
 62
     7
100
AcDbLine
 10
62.19105
 20
333.408018
 11
61.591051
 21
333.408018
  0
LINE
  5
4BC
100
AcDbEntity
  8
M0
 62
     7
100
AcDbLine
 10
103.321818
 20
333.408018
 11
103.321818
 21
334.408018
  0
LINE
  5
4BD
100
AcDbEntity
  8
M0
 62
     7
100
AcDbLine
 10
103.591049
 20
333.408018
 11
104.191052
 21
333.408018
  0
LINE
  5
4BE
100
AcDbEntity
  8
M0
 62
     7
100
AcDbLine
 10
103.321818
 20
340.408018
 11
103.321818
 21
339.408018
  0
LINE
  5
4BF
100
AcDbEntity
  8
M0
 62
     7
100
AcDbLine
 10
103.591049
 20
340.408018
 11
104.191052
 21
340.408018
  0
LINE
  5
4C0
100
AcDbEntity
  8
M0
 62
     7
100
AcDbLine
 10
98.091049
 20
377.341914
 11
98.091049
 21
380.80802
  0
LINE
  5
4C1
100
AcDbEntity
  8
M0
 62
     7
100
AcDbLine
 10
99.008782
 20
381.408019
 11
98.691052
 21
381.408019
  0
LINE
  5
4C2
100
AcDbEntity
  8
M0
 62
     7
100
AcDbLine
 10
87.891051
 20
303.908018
 11
87.891051
 21
304.408019
  0
LINE
  5
4C3
100
AcDbEntity
  8
M0
 62
     7
100
AcDbLine
 10
87.891051
 20
301.408017
 11
82.524211
 21
301.408017
  0
LINE
  5
4C4
100
AcDbEntity
  8
M0
 62
     7
100
AcDbLine
 10
77.89105
 20
304.408019
 11
77.89105
 21
303.908018
  0
LINE
  5
4C5
100
AcDbEntity
  8
M0
 62
     7
100
AcDbLine
 10
61.39105
 20
334.408018
 11
61.39105
 21
339.408018
  0
LINE
  5
4C6
100
AcDbEntity
  8
M0
 62
     7
100
AcDbLine
 10
62.19105
 20
333.408018
 11
63.191051
 21
333.408018
  0
LINE
  5
4C7
100
AcDbEntity
  8
M0
 62
     7
100
AcDbLine
 10
62.19105
 20
302.408018
 11
62.19105
 21
333.408018
  0
LINE
  5
4C8
100
AcDbEntity
  8
M0
 62
     7
100
AcDbLine
 10
62.19105
 20
340.408018
 11
63.191051
 21
340.408018
  0
LINE
  5
4C9
100
AcDbEntity
  8
M0
 62
     7
100
AcDbLine
 10
60.891051
 20
338.408018
 11
61.39105
 21
338.408018
  0
LINE
  5
4CA
100
AcDbEntity
  8
M0
 62
     7
100
AcDbLine
 10
60.891051
 20
335.408018
 11
60.891051
 21
338.408018
  0
LINE
  5
4CB
100
AcDbEntity
  8
M0
 62
     7
100
AcDbLine
 10
78.391051
 20
303.408017
 11
79.953284
 21
303.408017
  0
LINE
  5
4CC
100
AcDbEntity
  8
M0
 62
     7
100
AcDbLine
 10
61.39105
 20
335.408018
 11
60.891051
 21
335.408018
  0
LINE
  5
4CD
100
AcDbEntity
  8
M0
 62
     7
100
AcDbLine
 10
104.891052
 20
335.408018
 11
104.891052
 21
338.408018
  0
LINE
  5
4CE
100
AcDbEntity
  8
M0
 62
     7
100
AcDbLine
 10
62.39105
 20
339.408018
 11
61.39105
 21
339.408018
  0
LINE
  5
4CF
100
AcDbEntity
  8
M0
 62
     7
100
AcDbLine
 10
104.891052
 20
338.408018
 11
104.391051
 21
338.408018
  0
ARC
  5
4D0
100
AcDbEntity
  8
M0
 62
     7
100
AcDbCircle
 10
61.391051
 20
333.608018
 40
0.5
100
AcDbArc
 50
293.578178
 51
336.421822
  0
ARC
  5
4D1
100
AcDbEntity
  8
M0
 62
     7
100
AcDbCircle
 10
104.391051
 20
333.608018
 40
0.5
100
AcDbArc
 50
203.578178
 51
246.421822
  0
LINE
  5
4D2
100
AcDbEntity
  8
M0
 62
     7
100
AcDbLine
 10
60.691051
 20
304.408019
 11
60.891051
 21
304.408019
  0
LINE
  5
4D3
100
AcDbEntity
  8
M0
 62
     7
100
AcDbLine
 10
60.891051
 20
306.408019
 11
60.691051
 21
306.408019
  0
LINE
  5
4D4
100
AcDbEntity
  8
M0
 62
     7
100
AcDbLine
 10
105.091052
 20
306.408019
 11
104.891051
 21
306.408019
  0
LINE
  5
4D5
100
AcDbEntity
  8
M0
 62
     7
100
AcDbLine
 10
60.19105
 20
305.908018
 11
60.19105
 21
304.908016
  0
ARC
  5
4D6
100
AcDbEntity
  8
M0
 62
     7
100
AcDbCircle
 10
76.991051
 20
380.908018
 40
0.5
100
AcDbArc
 50
0.0
 51
90.0
  0
ARC
  5
4D7
100
AcDbEntity
  8
M0
 62
     7
100
AcDbCircle
 10
88.791051
 20
380.908018
 40
0.5
100
AcDbArc
 50
90.0
 51
180.0
  0
ARC
  5
4D8
100
AcDbEntity
  8
M0
 62
     7
100
AcDbCircle
 10
76.991051
 20
380.408018
 40
1.0
100
AcDbArc
 50
90.0
 51
180.0
  0
LINE
  5
4D9
100
AcDbEntity
  8
M0
 62
     7
100
AcDbLine
 10
80.391051
 20
341.385485
 11
80.391051
 21
341.208018
  0
LINE
  5
4DA
100
AcDbEntity
  8
M0
 62
     7
100
AcDbLine
 10
85.39105
 20
331.908018
 11
85.39105
 21
332.008018
  0
ARC
  5
4DB
100
AcDbEntity
  8
M0
 62
     7
100
AcDbCircle
 10
88.791051
 20
380.408018
 40
1.0
100
AcDbArc
 50
0.0
 51
90.0
  0
LINE
  5
4DC
100
AcDbEntity
  8
M0
 62
     7
100
AcDbLine
 10
85.39105
 20
341.385485
 11
85.39105
 21
341.208018
  0
ARC
  5
4DD
100
AcDbEntity
  8
M0
 62
     7
100
AcDbCircle
 10
78.091051
 20
340.708018
 40
0.5
100
AcDbArc
 50
90.0
 51
180.0
  0
ARC
  5
4DE
100
AcDbEntity
  8
M0
 62
     7
100
AcDbCircle
 10
80.641051
 20
340.708018
 40
0.5
100
AcDbArc
 50
0.0
 51
90.0
  0
LINE
  5
4DF
100
AcDbEntity
  8
M0
 62
     7
100
AcDbLine
 10
105.591049
 20
304.908016
 11
105.591049
 21
305.908018
  0
ARC
  5
4E0
100
AcDbEntity
  8
M0
 62
     7
100
AcDbCircle
 10
78.091051
 20
332.508018
 40
0.5
100
AcDbArc
 50
180.0
 51
270.0
  0
ARC
  5
4E1
100
AcDbEntity
  8
M0
 62
     7
100
AcDbCircle
 10
87.691051
 20
340.708018
 40
0.5
100
AcDbArc
 50
0.0
 51
90.0
  0
ARC
  5
4E2
100
AcDbEntity
  8
M0
 62
     7
100
AcDbCircle
 10
85.141051
 20
340.708018
 40
0.5
100
AcDbArc
 50
90.0
 51
180.0
  0
ARC
  5
4E3
100
AcDbEntity
  8
M0
 62
     7
100
AcDbCircle
 10
87.691051
 20
332.508018
 40
0.5
100
AcDbArc
 50
270.0
 51
360.0
  0
LINE
  5
4E4
100
AcDbEntity
  8
M0
 62
     7
100
AcDbLine
 10
90.591052
 20
371.408019
 11
94.444982
 21
371.408019
  0
LINE
  5
4E5
100
AcDbEntity
  8
M0
 62
     7
100
AcDbLine
 10
93.92644
 20
369.908018
 11
90.591052
 21
369.908018
  0
LINE
  5
4E6
100
AcDbEntity
  8
M0
 62
     7
100
AcDbLine
 10
75.991051
 20
379.908019
 11
67.69105
 21
379.908019
  0
LINE
  5
4E7
100
AcDbEntity
  8
M0
 62
     7
100
AcDbLine
 10
98.091049
 20
379.908019
 11
89.79105
 21
379.908019
  0
LINE
  5
4E8
100
AcDbEntity
  8
M0
 62
     7
100
AcDbLine
 10
89.79105
 20
380.408017
 11
89.79105
 21
372.387813
  0
LINE
  5
4E9
100
AcDbEntity
  8
M0
 62
     7
100
AcDbLine
 10
104.391051
 20
335.408018
 11
104.891052
 21
335.408018
  0
LINE
  5
4EA
100
AcDbEntity
  8
M0
 62
     7
100
AcDbLine
 10
88.291051
 20
371.843908
 11
88.291051
 21
380.408017
  0
LINE
  5
4EB
100
AcDbEntity
  8
M0
 62
     7
100
AcDbLine
 10
75.191052
 20
369.908018
 11
71.855661
 21
369.908018
  0
LINE
  5
4EC
100
AcDbEntity
  8
M0
 62
     7
100
AcDbLine
 10
71.33712
 20
371.408019
 11
75.191052
 21
371.408019
  0
LINE
  5
4ED
100
AcDbEntity
  8
M0
 62
     7
100
AcDbLine
 10
109.291052
 20
301.408017
 11
104.891051
 21
301.408017
  0
LINE
  5
4EE
100
AcDbEntity
  8
M0
 62
     7
100
AcDbLine
 10
60.19105
 20
307.408018
 11
60.891051
 21
307.408018
  0
LINE
  5
4EF
100
AcDbEntity
  8
M0
 62
     7
100
AcDbLine
 10
60.19105
 20
311.208019
 11
60.19105
 21
307.408018
  0
LINE
  5
4F0
100
AcDbEntity
  8
M0
 62
     7
100
AcDbLine
 10
105.591049
 20
307.408018
 11
105.591049
 21
311.208019
  0
LINE
  5
4F1
100
AcDbEntity
  8
M0
 62
     7
100
AcDbLine
 10
103.591049
 20
307.408018
 11
103.691051
 21
307.408018
  0
LINE
  5
4F2
100
AcDbEntity
  8
M0
 62
     7
100
AcDbLine
 10
107.641054
 20
308.908017
 11
107.641054
 21
306.908017
  0
LINE
  5
4F3
100
AcDbEntity
  8
M0
 62
     7
100
AcDbLine
 10
112.141048
 20
306.908017
 11
112.141048
 21
308.908017
  0
LINE
  5
4F4
100
AcDbEntity
  8
M0
 62
     7
100
AcDbLine
 10
51.491051
 20
306.408019
 11
51.491051
 21
367.408018
  0
LINE
  5
4F5
100
AcDbEntity
  8
M0
 62
     7
100
AcDbLine
 10
58.141051
 20
366.908017
 11
58.141051
 21
364.908019
  0
LINE
  5
4F6
100
AcDbEntity
  8
M0
 62
     7
100
AcDbLine
 10
53.641051
 20
364.908019
 11
53.641051
 21
366.908017
  0
ARC
  5
4F7
100
AcDbEntity
  8
M0
 62
     7
100
AcDbCircle
 10
102.591051
 20
353.308018
 40
1.0
100
AcDbArc
 50
0.0
 51
90.0
  0
ARC
  5
4F8
100
AcDbEntity
  8
M0
 62
     7
100
AcDbCircle
 10
102.591051
 20
320.508018
 40
1.0
100
AcDbArc
 50
270.0
 51
360.0
  0
LINE
  5
4F9
100
AcDbEntity
  8
M0
 62
     7
100
AcDbLine
 10
102.591051
 20
333.408018
 11
102.591051
 21
334.408018
  0
LINE
  5
4FA
100
AcDbEntity
  8
M0
 62
     7
100
AcDbLine
 10
104.391051
 20
334.408018
 11
102.591051
 21
334.408018
  0
LINE
  5
4FB
100
AcDbEntity
  8
M0
 62
     7
100
AcDbLine
 10
84.09105
 20
349.108018
 11
81.691051
 21
349.108018
  0
LINE
  5
4FC
100
AcDbEntity
  8
M0
 62
     7
100
AcDbLine
 10
81.691051
 20
350.708018
 11
81.691051
 21
349.108018
  0
LINE
  5
4FD
100
AcDbEntity
  8
M0
 62
     7
100
AcDbLine
 10
62.39105
 20
339.408018
 11
63.191051
 21
339.408018
  0
LINE
  5
4FE
100
AcDbEntity
  8
M0
 62
     7
100
AcDbLine
 10
61.39105
 20
334.408018
 11
63.191051
 21
334.408018
  0
LINE
  5
4FF
100
AcDbEntity
  8
M0
 62
     7
100
AcDbLine
 10
102.591051
 20
340.408018
 11
102.591051
 21
339.408018
  0
LINE
  5
500
100
AcDbEntity
  8
M0
 62
     7
100
AcDbLine
 10
63.191051
 20
340.408018
 11
63.191051
 21
339.408018
  0
LINE
  5
501
100
AcDbEntity
  8
M0
 62
     7
100
AcDbLine
 10
87.191051
 20
348.108018
 11
78.59105
 21
348.108018
  0
LINE
  5
502
100
AcDbEntity
  8
M0
 62
     7
100
AcDbLine
 10
84.09105
 20
350.708018
 11
81.691051
 21
350.708018
  0
LINE
  5
503
100
AcDbEntity
  8
M0
 62
     7
100
AcDbLine
 10
84.09105
 20
350.708018
 11
84.09105
 21
349.108018
  0
LINE
  5
504
100
AcDbEntity
  8
M0
 62
     7
100
AcDbLine
 10
88.191049
 20
349.108018
 11
91.79105
 21
349.108018
  0
LINE
  5
505
100
AcDbEntity
  8
M0
 62
     7
100
AcDbLine
 10
92.291051
 20
325.208018
 11
92.291051
 21
348.608019
  0
LINE
  5
506
100
AcDbEntity
  8
M0
 62
     7
100
AcDbLine
 10
104.191052
 20
312.208019
 11
105.091052
 21
312.208019
  0
LINE
  5
507
100
AcDbEntity
  8
M0
 62
     7
100
AcDbLine
 10
111.091053
 20
312.208019
 11
111.991053
 21
312.208019
  0
LINE
  5
508
100
AcDbEntity
  8
M0
 62
     7
100
AcDbLine
 10
60.691051
 20
361.608019
 11
61.591051
 21
361.608019
  0
LINE
  5
509
100
AcDbEntity
  8
M0
 62
     7
100
AcDbLine
 10
105.091052
 20
361.608019
 11
104.191052
 21
361.608019
  0
LINE
  5
50A
100
AcDbEntity
  8
M0
 62
     7
100
AcDbLine
 10
113.09105
 20
309.208018
 11
112.991048
 21
309.208018
  0
LINE
  5
50B
100
AcDbEntity
  8
M0
 62
     7
100
AcDbLine
 10
111.991053
 20
361.608019
 11
111.091053
 21
361.608019
  0
LINE
  5
50C
100
AcDbEntity
  8
M0
 62
     7
100
AcDbLine
 10
113.09105
 20
364.608017
 11
112.991048
 21
364.608017
  0
LINE
  5
50D
100
AcDbEntity
  8
M0
 62
     7
100
AcDbLine
 10
53.791051
 20
361.608019
 11
54.691051
 21
361.608019
  0
ARC
  5
50E
100
AcDbEntity
  8
M0
 62
     7
100
AcDbCircle
 10
65.891051
 20
302.408018
 40
1.0
100
AcDbArc
 50
180.0
 51
270.0
  0
LINE
  5
50F
100
AcDbEntity
  8
M0
 62
     7
100
AcDbLine
 10
65.891051
 20
301.408017
 11
66.775454
 21
301.408017
  0
LINE
  5
510
100
AcDbEntity
  8
M0
 62
     7
100
AcDbLine
 10
52.691051
 20
309.208018
 11
52.79105
 21
309.208018
  0
LINE
  5
511
100
AcDbEntity
  8
M0
 62
     7
100
AcDbLine
 10
61.591051
 20
312.208019
 11
60.691051
 21
312.208019
  0
LINE
  5
512
100
AcDbEntity
  8
M0
 62
     7
100
AcDbLine
 10
54.691051
 20
312.208019
 11
53.791051
 21
312.208019
  0
ARC
  5
513
100
AcDbEntity
  8
M0
 62
     7
100
AcDbCircle
 10
88.191051
 20
348.608018
 40
0.5
100
AcDbArc
 50
90.0
 51
180.0
  0
ARC
  5
514
100
AcDbEntity
  8
M0
 62
     7
100
AcDbCircle
 10
91.791051
 20
348.608018
 40
0.5
100
AcDbArc
 50
0.0
 51
90.0
  0
ARC
  5
515
100
AcDbEntity
  8
M0
 62
     7
100
AcDbCircle
 10
78.591051
 20
348.608018
 40
0.5
100
AcDbArc
 50
180.0
 51
270.0
  0
ARC
  5
516
100
AcDbEntity
  8
M0
 62
     7
100
AcDbCircle
 10
87.191051
 20
348.608018
 40
0.5
100
AcDbArc
 50
270.0
 51
360.0
  0
LINE
  5
517
100
AcDbEntity
  8
M0
 62
     7
100
AcDbLine
 10
52.691051
 20
364.608017
 11
52.79105
 21
364.608017
  0
ARC
  5
518
100
AcDbEntity
  8
M0
 62
     7
100
AcDbCircle
 10
63.191051
 20
353.308018
 40
1.0
100
AcDbArc
 50
90.0
 51
180.0
  0
ARC
  5
519
100
AcDbEntity
  8
M0
 62
     7
100
AcDbCircle
 10
63.191051
 20
320.508018
 40
1.0
100
AcDbArc
 50
180.0
 51
270.0
  0
ARC
  5
51A
100
AcDbEntity
  8
M0
 62
     7
100
AcDbCircle
 10
87.391051
 20
303.908018
 40
0.5
100
AcDbArc
 50
270.0
 51
360.0
  0
ARC
  5
51B
100
AcDbEntity
  8
M0
 62
     7
100
AcDbCircle
 10
87.891051
 20
303.408018
 40
2.0
100
AcDbArc
 50
270.0
 51
292.57935
  0
ARC
  5
51C
100
AcDbEntity
  8
M0
 62
     7
100
AcDbCircle
 10
73.991051
 20
348.608018
 40
0.5
100
AcDbArc
 50
90.0
 51
180.0
  0
ARC
  5
51D
100
AcDbEntity
  8
M0
 62
     7
100
AcDbCircle
 10
77.591051
 20
348.608018
 40
0.5
100
AcDbArc
 50
0.0
 51
90.0
  0
ARC
  5
51E
100
AcDbEntity
  8
M0
 62
     7
100
AcDbCircle
 10
91.791051
 20
325.208018
 40
0.5
100
AcDbArc
 50
270.0
 51
360.0
  0
ARC
  5
51F
100
AcDbEntity
  8
M0
 62
     7
100
AcDbCircle
 10
73.991051
 20
325.208018
 40
0.5
100
AcDbArc
 50
180.0
 51
270.0
  0
ARC
  5
520
100
AcDbEntity
  8
M0
 62
     7
100
AcDbCircle
 10
66.773321
 20
380.808018
 40
0.6
100
AcDbArc
 50
90.0
 51
178.281642
  0
ARC
  5
521
100
AcDbEntity
  8
M0
 62
     7
100
AcDbCircle
 10
67.091051
 20
380.808018
 40
0.6
100
AcDbArc
 50
0.0
 51
90.0
  0
ARC
  5
522
100
AcDbEntity
  8
M0
 62
     7
100
AcDbCircle
 10
104.091051
 20
304.908018
 40
0.5
100
AcDbArc
 50
180.0
 51
216.869866
  0
ARC
  5
523
100
AcDbEntity
  8
M0
 62
     7
100
AcDbCircle
 10
77.891051
 20
303.408018
 40
2.0
100
AcDbArc
 50
247.42065
 51
270.0
  0
ARC
  5
524
100
AcDbEntity
  8
M0
 62
     7
100
AcDbCircle
 10
78.391051
 20
303.908018
 40
0.5
100
AcDbArc
 50
180.0
 51
270.0
  0
ARC
  5
525
100
AcDbEntity
  8
M0
 62
     7
100
AcDbCircle
 10
98.691051
 20
380.808018
 40
0.6
100
AcDbArc
 50
90.0
 51
180.0
  0
LINE
  5
526
100
AcDbEntity
  8
M0
 62
     7
100
AcDbLine
 10
67.69105
 20
380.80802
 11
67.69105
 21
377.341917
  0
LINE
  5
527
100
AcDbEntity
  8
M0
 62
     7
100
AcDbLine
 10
66.773321
 20
381.408019
 11
67.091051
 21
381.408019
  0
ARC
  5
528
100
AcDbEntity
  8
M0
 62
     7
100
AcDbCircle
 10
99.008781
 20
380.808018
 40
0.6
100
AcDbArc
 50
1.718358
 51
90.0
  0
LINE
  5
529
100
AcDbEntity
  8
M0
 62
     7
100
AcDbLine
 10
104.891051
 20
304.408019
 11
105.091052
 21
304.408019
  0
LINE
  5
52A
100
AcDbEntity
  8
M0
 62
     7
100
AcDbLine
 10
103.591049
 20
340.408018
 11
102.591051
 21
340.408018
  0
LINE
  5
52B
100
AcDbEntity
  8
M0
 62
     7
100
AcDbLine
 10
104.391051
 20
334.408018
 11
104.391051
 21
339.408018
  0
LINE
  5
52C
100
AcDbEntity
  8
M0
 62
     7
100
AcDbLine
 10
102.591051
 20
319.508018
 11
63.191051
 21
319.508018
  0
LINE
  5
52D
100
AcDbEntity
  8
M0
 62
     7
100
AcDbLine
 10
103.591049
 20
333.408018
 11
102.591051
 21
333.408018
  0
LINE
  5
52E
100
AcDbEntity
  8
M0
 62
     7
100
AcDbLine
 10
103.591049
 20
302.408018
 11
103.591049
 21
333.408018
  0
LINE
  5
52F
100
AcDbEntity
  8
M0
 62
     7
100
AcDbLine
 10
63.191051
 20
333.408018
 11
63.191051
 21
334.408018
  0
LINE
  5
530
100
AcDbEntity
  8
M0
 62
     7
100
AcDbLine
 10
88.291051
 20
380.408017
 11
88.291051
 21
380.908018
  0
LINE
  5
531
100
AcDbEntity
  8
M0
 62
     7
100
AcDbLine
 10
77.49105
 20
379.908019
 11
77.891047
 21
379.908019
  0
LINE
  5
532
100
AcDbEntity
  8
M0
 62
     7
100
AcDbLine
 10
88.191049
 20
332.508018
 11
88.191049
 21
340.708018
  0
LINE
  5
533
100
AcDbEntity
  8
M0
 62
     7
100
AcDbLine
 10
87.891047
 20
379.908019
 11
88.291051
 21
379.908019
  0
LINE
  5
534
100
AcDbEntity
  8
M0
 62
     7
100
AcDbLine
 10
77.49105
 20
380.408017
 11
77.49105
 21
371.843908
  0
LINE
  5
535
100
AcDbEntity
  8
M0
 62
     7
100
AcDbLine
 10
75.991051
 20
372.387813
 11
75.991051
 21
380.408017
  0
LINE
  5
536
100
AcDbEntity
  8
M0
 62
     7
100
AcDbLine
 10
77.49105
 20
380.908018
 11
77.49105
 21
380.408017
  0
LINE
  5
537
100
AcDbEntity
  8
M0
 62
     7
100
AcDbLine
 10
86.69105
 20
341.508018
 11
86.69105
 21
341.208018
  0
LINE
  5
538
100
AcDbEntity
  8
M0
 62
     7
100
AcDbLine
 10
88.191049
 20
340.708018
 11
88.191049
 21
341.508018
  0
LINE
  5
539
100
AcDbEntity
  8
M0
 62
     7
100
AcDbLine
 10
79.091051
 20
341.508018
 11
79.091051
 21
341.208018
  0
LINE
  5
53A
100
AcDbEntity
  8
M0
 62
     7
100
AcDbLine
 10
86.69105
 20
332.008018
 11
86.69105
 21
331.908018
  0
LINE
  5
53B
100
AcDbEntity
  8
M0
 62
     7
100
AcDbLine
 10
77.591052
 20
335.108018
 11
77.091051
 21
335.108018
  0
LINE
  5
53C
100
AcDbEntity
  8
M0
 62
     7
100
AcDbLine
 10
88.191049
 20
335.108018
 11
88.69105
 21
335.108018
  0
LINE
  5
53D
100
AcDbEntity
  8
M0
 62
     7
100
AcDbLine
 10
88.191049
 20
331.908018
 11
88.191049
 21
332.508018
  0
LINE
  5
53E
100
AcDbEntity
  8
M0
 62
     7
100
AcDbLine
 10
77.091051
 20
338.108018
 11
77.591052
 21
338.108018
  0
LINE
  5
53F
100
AcDbEntity
  8
M0
 62
     7
100
AcDbLine
 10
80.391051
 20
341.385485
 11
80.391051
 21
341.508018
  0
LINE
  5
540
100
AcDbEntity
  8
M0
 62
     7
100
AcDbLine
 10
61.591051
 20
333.108018
 11
62.19105
 21
333.108018
  0
LINE
  5
541
100
AcDbEntity
  8
M0
 62
     7
100
AcDbLine
 10
80.391051
 20
331.908018
 11
80.391051
 21
332.008018
  0
LINE
  5
542
100
AcDbEntity
  8
M0
 62
     7
100
AcDbLine
 10
85.39105
 20
341.385485
 11
85.39105
 21
341.508018
  0
LINE
  5
543
100
AcDbEntity
  8
M0
 62
     7
100
AcDbLine
 10
77.591052
 20
331.908018
 11
77.591052
 21
332.508018
  0
LINE
  5
544
100
AcDbEntity
  8
M0
 62
     7
100
AcDbLine
 10
79.091051
 20
332.008018
 11
79.091051
 21
331.908018
  0
LINE
  5
545
100
AcDbEntity
  8
M0
 62
     7
100
AcDbLine
 10
104.191052
 20
333.108018
 11
103.591049
 21
333.108018
  0
LINE
  5
546
100
AcDbEntity
  8
M0
 62
     7
100
AcDbLine
 10
84.641052
 20
340.708018
 11
84.641052
 21
333.508018
  0
LINE
  5
547
100
AcDbEntity
  8
M0
 62
     7
100
AcDbLine
 10
81.141049
 20
340.708018
 11
81.141049
 21
333.508018
  0
LINE
  5
548
100
AcDbEntity
  8
M0
 62
     7
100
AcDbLine
 10
78.091049
 20
341.208018
 11
80.641052
 21
341.208018
  0
LINE
  5
549
100
AcDbEntity
  8
M0
 62
     7
100
AcDbLine
 10
87.691052
 20
332.008018
 11
78.091049
 21
332.008018
  0
LINE
  5
54A
100
AcDbEntity
  8
M0
 62
     7
100
AcDbLine
 10
87.691052
 20
341.208018
 11
85.14105
 21
341.208018
  0
LINE
  5
54B
100
AcDbEntity
  8
M0
 62
     7
100
AcDbLine
 10
81.141049
 20
333.508018
 11
84.641052
 21
333.508018
  0
LINE
  5
54C
100
AcDbEntity
  8
M0
 62
     7
100
AcDbLine
 10
73.491052
 20
341.208018
 11
73.691051
 21
341.208018
  0
LINE
  5
54D
100
AcDbEntity
  8
M0
 62
     7
100
AcDbLine
 10
73.691051
 20
332.008018
 11
73.491052
 21
332.008018
  0
LINE
  5
54E
100
AcDbEntity
  8
M0
 62
     7
100
AcDbLine
 10
77.591052
 20
340.708018
 11
77.591052
 21
341.508018
  0
LINE
  5
54F
100
AcDbEntity
  8
M0
 62
     7
100
AcDbLine
 10
88.69105
 20
338.108018
 11
88.191049
 21
338.108018
  0
LINE
  5
550
100
AcDbEntity
  8
M0
 62
     7
100
AcDbLine
 10
78.891052
 20
341.208018
 11
86.891049
 21
341.208018
  0
LINE
  5
551
100
AcDbEntity
  8
M0
 62
     7
100
AcDbLine
 10
77.591052
 20
332.508018
 11
77.591052
 21
340.708018
  0
LINE
  5
552
100
AcDbEntity
  8
M0
 62
     7
100
AcDbLine
 10
92.291051
 20
341.208018
 11
92.091052
 21
341.208018
  0
LINE
  5
553
100
AcDbEntity
  8
M0
 62
     7
100
AcDbLine
 10
92.091052
 20
332.008018
 11
92.291051
 21
332.008018
  0
LINE
  5
554
100
AcDbEntity
  8
M0
 62
     7
100
AcDbLine
 10
113.291053
 20
357.008017
 11
112.991048
 21
357.008017
  0
ARC
  5
555
100
AcDbEntity
  8
M0
 62
     7
100
AcDbCircle
 10
76.191051
 20
371.408018
 40
1.0
100
AcDbArc
 50
90.0
 51
180.0
  0
LINE
  5
556
100
AcDbEntity
  8
M0
 62
     7
100
AcDbLine
 10
112.991048
 20
333.208018
 11
113.291053
 21
333.208018
  0
LINE
  5
557
100
AcDbEntity
  8
M0
 62
     7
100
AcDbLine
 10
113.291053
 20
340.608018
 11
112.991048
 21
340.608018
  0
ARC
  5
558
100
AcDbEntity
  8
M0
 62
     7
100
AcDbCircle
 10
89.191051
 20
371.408018
 40
1.0
100
AcDbArc
 50
90.0
 51
180.0
  0
ARC
  5
559
100
AcDbEntity
  8
M0
 62
     7
100
AcDbCircle
 10
89.191051
 20
302.408018
 40
1.0
100
AcDbArc
 50
180.0
 51
270.0
  0
ARC
  5
55A
100
AcDbEntity
  8
M0
 62
     7
100
AcDbCircle
 10
76.591051
 20
371.408018
 40
1.0
100
AcDbArc
 50
0.0
 51
90.0
  0
ARC
  5
55B
100
AcDbEntity
  8
M0
 62
     7
100
AcDbCircle
 10
76.591051
 20
302.408018
 40
1.0
100
AcDbArc
 50
270.0
 51
360.0
  0
LINE
  5
55C
100
AcDbEntity
  8
M0
 62
     7
100
AcDbLine
 10
92.091052
 20
329.408018
 11
92.091052
 21
343.008018
  0
LINE
  5
55D
100
AcDbEntity
  8
M0
 62
     7
100
AcDbLine
 10
91.09105
 20
348.908018
 11
89.59105
 21
348.908018
  0
LINE
  5
55E
100
AcDbEntity
  8
M0
 62
     7
100
AcDbLine
 10
91.09105
 20
324.908018
 11
90.591052
 21
324.908018
  0
LINE
  5
55F
100
AcDbEntity
  8
M0
 62
     7
100
AcDbLine
 10
112.991048
 20
316.808019
 11
113.291053
 21
316.808019
  0
LINE
  5
560
100
AcDbEntity
  8
M0
 62
     7
100
AcDbLine
 10
111.991053
 20
363.608018
 11
111.991053
 21
341.608018
  0
LINE
  5
561
100
AcDbEntity
  8
M0
 62
     7
100
AcDbLine
 10
76.59105
 20
301.408017
 11
76.191051
 21
301.408017
  0
LINE
  5
562
100
AcDbEntity
  8
M0
 62
     7
100
AcDbLine
 10
76.191051
 20
318.008018
 11
76.59105
 21
318.008018
  0
LINE
  5
563
100
AcDbEntity
  8
M0
 62
     7
100
AcDbLine
 10
76.59105
 20
318.008018
 11
77.591052
 21
318.008018
  0
ARC
  5
564
100
AcDbEntity
  8
M0
 62
     7
100
AcDbCircle
 10
89.591051
 20
371.408018
 40
1.0
100
AcDbArc
 50
0.0
 51
90.0
  0
ARC
  5
565
100
AcDbEntity
  8
M0
 62
     7
100
AcDbCircle
 10
102.191051
 20
371.408018
 40
1.0
100
AcDbArc
 50
90.0
 51
180.0
  0
LINE
  5
566
100
AcDbEntity
  8
M0
 62
     7
100
AcDbLine
 10
111.991053
 20
332.208018
 11
111.991053
 21
310.208018
  0
ARC
  5
567
100
AcDbEntity
  8
M0
 62
     7
100
AcDbCircle
 10
89.591051
 20
302.408018
 40
1.0
100
AcDbArc
 50
270.0
 51
360.0
  0
ARC
  5
568
100
AcDbEntity
  8
M0
 62
     7
100
AcDbCircle
 10
102.591051
 20
302.408018
 40
1.0
100
AcDbArc
 50
270.0
 51
360.0
  0
LINE
  5
569
100
AcDbEntity
  8
M0
 62
     7
100
AcDbLine
 10
76.191051
 20
372.408019
 11
76.59105
 21
372.408019
  0
ARC
  5
56A
100
AcDbEntity
  8
M0
 62
     7
100
AcDbCircle
 10
102.191051
 20
302.408018
 40
1.0
100
AcDbArc
 50
180.0
 51
270.0
  0
ARC
  5
56B
100
AcDbEntity
  8
M0
 62
     7
100
AcDbCircle
 10
102.591051
 20
371.408018
 40
1.0
100
AcDbArc
 50
0.0
 51
90.0
  0
LINE
  5
56C
100
AcDbEntity
  8
M0
 62
     7
100
AcDbLine
 10
113.291053
 20
340.608018
 11
113.291053
 21
333.208018
  0
LINE
  5
56D
100
AcDbEntity
  8
M0
 62
     7
100
AcDbLine
 10
105.591049
 20
332.908018
 11
105.591049
 21
340.908018
  0
LINE
  5
56E
100
AcDbEntity
  8
M0
 62
     7
100
AcDbLine
 10
103.591049
 20
332.908018
 11
105.591049
 21
332.908018
  0
LINE
  5
56F
100
AcDbEntity
  8
M0
 62
     7
100
AcDbLine
 10
52.491051
 20
333.208018
 11
52.79105
 21
333.208018
  0
LINE
  5
570
100
AcDbEntity
  8
M0
 62
     7
100
AcDbLine
 10
52.491051
 20
357.008017
 11
52.79105
 21
357.008017
  0
LINE
  5
571
100
AcDbEntity
  8
M0
 62
     7
100
AcDbLine
 10
111.991053
 20
340.608018
 11
111.991053
 21
333.208018
  0
LINE
  5
572
100
AcDbEntity
  8
M0
 62
     7
100
AcDbLine
 10
111.991053
 20
333.208018
 11
108.991047
 21
333.208018
  0
LINE
  5
573
100
AcDbEntity
  8
M0
 62
     7
100
AcDbLine
 10
52.491051
 20
340.608018
 11
52.491051
 21
333.208018
  0
LINE
  5
574
100
AcDbEntity
  8
M0
 62
     7
100
AcDbLine
 10
108.991047
 20
340.608018
 11
111.991053
 21
340.608018
  0
LINE
  5
575
100
AcDbEntity
  8
M0
 62
     7
100
AcDbLine
 10
102.691052
 20
340.408018
 11
102.691052
 21
339.408018
  0
LINE
  5
576
100
AcDbEntity
  8
M0
 62
     7
100
AcDbLine
 10
103.591049
 20
340.908018
 11
105.591049
 21
340.908018
  0
LINE
  5
577
100
AcDbEntity
  8
M0
 62
     7
100
AcDbLine
 10
108.991047
 20
333.208018
 11
108.991047
 21
340.608018
  0
LINE
  5
578
100
AcDbEntity
  8
M0
 62
     7
100
AcDbLine
 10
74.691051
 20
348.908018
 11
76.191051
 21
348.908018
  0
LINE
  5
579
100
AcDbEntity
  8
M0
 62
     7
100
AcDbLine
 10
73.691051
 20
329.408018
 11
73.691051
 21
343.008018
  0
LINE
  5
57A
100
AcDbEntity
  8
M0
 62
     7
100
AcDbLine
 10
74.691051
 20
324.908018
 11
75.191052
 21
324.908018
  0
LINE
  5
57B
100
AcDbEntity
  8
M0
 62
     7
100
AcDbLine
 10
77.841049
 20
347.908018
 11
87.941052
 21
347.908018
  0
LINE
  5
57C
100
AcDbEntity
  8
M0
 62
     7
100
AcDbLine
 10
88.44105
 20
341.508018
 11
77.341052
 21
341.508018
  0
LINE
  5
57D
100
AcDbEntity
  8
M0
 62
     7
100
AcDbLine
 10
77.841049
 20
343.008018
 11
87.941052
 21
343.008018
  0
LINE
  5
57E
100
AcDbEntity
  8
M0
 62
     7
100
AcDbLine
 10
87.941052
 20
346.408018
 11
77.841049
 21
346.408018
  0
LINE
  5
57F
100
AcDbEntity
  8
M0
 62
     7
100
AcDbLine
 10
52.79105
 20
340.608018
 11
52.491051
 21
340.608018
  0
LINE
  5
580
100
AcDbEntity
  8
M0
 62
     7
100
AcDbLine
 10
102.691052
 20
334.408018
 11
102.691052
 21
333.408018
  0
LINE
  5
581
100
AcDbEntity
  8
M0
 62
     7
100
AcDbLine
 10
52.79105
 20
316.808019
 11
52.491051
 21
316.808019
  0
LINE
  5
582
100
AcDbEntity
  8
M0
 62
     7
100
AcDbLine
 10
53.791051
 20
363.608018
 11
53.791051
 21
341.608018
  0
LINE
  5
583
100
AcDbEntity
  8
M0
 62
     7
100
AcDbLine
 10
104.191052
 20
333.908018
 11
104.191052
 21
332.908018
  0
LINE
  5
584
100
AcDbEntity
  8
M0
 62
     7
100
AcDbLine
 10
104.191052
 20
340.908018
 11
104.191052
 21
339.908018
  0
LINE
  5
585
100
AcDbEntity
  8
M0
 62
     7
100
AcDbLine
 10
53.791051
 20
346.208018
 11
62.19105
 21
346.208018
  0
LINE
  5
586
100
AcDbEntity
  8
M0
 62
     7
100
AcDbLine
 10
104.191052
 20
333.908018
 11
104.491049
 21
333.908018
  0
LINE
  5
587
100
AcDbEntity
  8
M0
 62
     7
100
AcDbLine
 10
104.491049
 20
339.908018
 11
104.491049
 21
338.408018
  0
LINE
  5
588
100
AcDbEntity
  8
M0
 62
     7
100
AcDbLine
 10
103.591049
 20
327.608018
 11
111.991053
 21
327.608018
  0
LINE
  5
589
100
AcDbEntity
  8
M0
 62
     7
100
AcDbLine
 10
104.491049
 20
339.908018
 11
104.191052
 21
339.908018
  0
LINE
  5
58A
100
AcDbEntity
  8
M0
 62
     7
100
AcDbLine
 10
104.491049
 20
335.408018
 11
104.491049
 21
333.908018
  0
LINE
  5
58B
100
AcDbEntity
  8
M0
 62
     7
100
AcDbLine
 10
61.29105
 20
335.408018
 11
61.29105
 21
333.908018
  0
LINE
  5
58C
100
AcDbEntity
  8
M0
 62
     7
100
AcDbLine
 10
61.29105
 20
339.908018
 11
61.29105
 21
338.408018
  0
LINE
  5
58D
100
AcDbEntity
  8
M0
 62
     7
100
AcDbLine
 10
61.591051
 20
333.908018
 11
61.29105
 21
333.908018
  0
LINE
  5
58E
100
AcDbEntity
  8
M0
 62
     7
100
AcDbLine
 10
61.591051
 20
333.908018
 11
61.591051
 21
332.908018
  0
LINE
  5
58F
100
AcDbEntity
  8
M0
 62
     7
100
AcDbLine
 10
62.19105
 20
327.608018
 11
53.791051
 21
327.608018
  0
LINE
  5
590
100
AcDbEntity
  8
M0
 62
     7
100
AcDbLine
 10
61.29105
 20
339.908018
 11
61.591051
 21
339.908018
  0
ARC
  5
591
100
AcDbEntity
  8
M0
 62
     7
100
AcDbCircle
 10
63.591051
 20
371.408018
 40
1.0
100
AcDbArc
 50
0.0
 51
90.0
  0
ARC
  5
592
100
AcDbEntity
  8
M0
 62
     7
100
AcDbCircle
 10
76.191051
 20
302.408018
 40
1.0
100
AcDbArc
 50
180.0
 51
270.0
  0
ARC
  5
593
100
AcDbEntity
  8
M0
 62
     7
100
AcDbCircle
 10
63.191051
 20
371.408018
 40
1.0
100
AcDbArc
 50
90.0
 51
180.0
  0
ARC
  5
594
100
AcDbEntity
  8
M0
 62
     7
100
AcDbCircle
 10
63.591051
 20
302.408018
 40
1.0
100
AcDbArc
 50
270.0
 51
360.0
  0
LINE
  5
595
100
AcDbEntity
  8
M0
 62
     7
100
AcDbLine
 10
63.59105
 20
301.408017
 11
63.39105
 21
301.408017
  0
LINE
  5
596
100
AcDbEntity
  8
M0
 62
     7
100
AcDbLine
 10
63.39105
 20
372.408019
 11
63.59105
 21
372.408019
  0
LINE
  5
597
100
AcDbEntity
  8
M0
 62
     7
100
AcDbLine
 10
92.291051
 20
342.208018
 11
92.091052
 21
342.208018
  0
ARC
  5
598
100
AcDbEntity
  8
M0
 62
     7
100
AcDbCircle
 10
62.191051
 20
317.408018
 40
0.6
100
AcDbArc
 50
180.0
 51
270.0
  0
LINE
  5
599
100
AcDbEntity
  8
M0
 62
     7
100
AcDbLine
 10
61.591051
 20
340.908018
 11
61.591051
 21
339.908018
  0
LINE
  5
59A
100
AcDbEntity
  8
M0
 62
     7
100
AcDbLine
 10
111.991053
 20
346.208018
 11
103.591049
 21
346.208018
  0
ARC
  5
59B
100
AcDbEntity
  8
M0
 62
     7
100
AcDbCircle
 10
103.591051
 20
317.408018
 40
0.6
100
AcDbArc
 50
270.0
 51
360.0
  0
ARC
  5
59C
100
AcDbEntity
  8
M0
 62
     7
100
AcDbCircle
 10
63.191051
 20
302.408018
 40
1.0
100
AcDbArc
 50
180.0
 51
270.0
  0
ARC
  5
59D
100
AcDbEntity
  8
M0
 62
     7
100
AcDbCircle
 10
62.191051
 20
356.408018
 40
0.6
100
AcDbArc
 50
90.0
 51
180.0
  0
ARC
  5
59E
100
AcDbEntity
  8
M0
 62
     7
100
AcDbCircle
 10
103.591051
 20
356.408018
 40
0.6
100
AcDbArc
 50
0.0
 51
90.0
  0
LINE
  5
59F
100
AcDbEntity
  8
M0
 62
     7
100
AcDbLine
 10
90.591052
 20
355.808018
 11
88.191049
 21
355.808018
  0
LINE
  5
5A0
100
AcDbEntity
  8
M0
 62
     7
100
AcDbLine
 10
90.591052
 20
318.008018
 11
89.59105
 21
318.008018
  0
LINE
  5
5A1
100
AcDbEntity
  8
M0
 62
     7
100
AcDbLine
 10
89.191051
 20
301.408017
 11
89.59105
 21
301.408017
  0
LINE
  5
5A2
100
AcDbEntity
  8
M0
 62
     7
100
AcDbLine
 10
89.191051
 20
318.008018
 11
88.191049
 21
318.008018
  0
LINE
  5
5A3
100
AcDbEntity
  8
M0
 62
     7
100
AcDbLine
 10
89.59105
 20
318.008018
 11
89.191051
 21
318.008018
  0
LINE
  5
5A4
100
AcDbEntity
  8
M0
 62
     7
100
AcDbLine
 10
109.291051
 20
372.408019
 11
102.191051
 21
372.408019
  0
LINE
  5
5A5
100
AcDbEntity
  8
M0
 62
     7
100
AcDbLine
 10
103.591049
 20
340.408018
 11
103.591049
 21
371.408019
  0
LINE
  5
5A6
100
AcDbEntity
  8
M0
 62
     7
100
AcDbLine
 10
89.59105
 20
372.408019
 11
89.191051
 21
372.408019
  0
LINE
  5
5A7
100
AcDbEntity
  8
M0
 62
     7
100
AcDbLine
 10
101.191049
 20
319.508018
 11
101.191049
 21
302.408019
  0
ARC
  5
5A8
100
AcDbEntity
  8
M0
 62
     7
100
AcDbCircle
 10
76.841051
 20
325.408018
 40
0.5
100
AcDbArc
 50
270.0
 51
360.0
  0
ARC
  5
5A9
100
AcDbEntity
  8
M0
 62
     7
100
AcDbCircle
 10
88.941051
 20
325.408018
 40
0.5
100
AcDbArc
 50
180.0
 51
270.0
  0
ARC
  5
5AA
100
AcDbEntity
  8
M0
 62
     7
100
AcDbCircle
 10
76.841051
 20
347.908018
 40
1.0
100
AcDbArc
 50
0.0
 51
90.0
  0
ARC
  5
5AB
100
AcDbEntity
  8
M0
 62
     7
100
AcDbCircle
 10
77.341051
 20
342.008018
 40
0.5
100
AcDbArc
 50
270.0
 51
360.0
  0
ARC
  5
5AC
100
AcDbEntity
  8
M0
 62
     7
100
AcDbCircle
 10
91.091051
 20
325.908018
 40
1.0
100
AcDbArc
 50
270.0
 51
360.0
  0
ARC
  5
5AD
100
AcDbEntity
  8
M0
 62
     7
100
AcDbCircle
 10
91.091051
 20
329.408018
 40
1.0
100
AcDbArc
 50
0.0
 51
90.0
  0
ARC
  5
5AE
100
AcDbEntity
  8
M0
 62
     7
100
AcDbCircle
 10
88.941051
 20
347.908018
 40
1.0
100
AcDbArc
 50
90.0
 51
180.0
  0
ARC
  5
5AF
100
AcDbEntity
  8
M0
 62
     7
100
AcDbCircle
 10
88.441051
 20
342.008018
 40
0.5
100
AcDbArc
 50
180.0
 51
270.0
  0
ARC
  5
5B0
100
AcDbEntity
  8
M0
 62
     7
100
AcDbCircle
 10
113.291051
 20
341.608018
 40
1.0
100
AcDbArc
 50
270.0
 51
360.0
  0
ARC
  5
5B1
100
AcDbEntity
  8
M0
 62
     7
100
AcDbCircle
 10
113.291051
 20
356.008018
 40
1.0
100
AcDbArc
 50
0.0
 51
90.0
  0
ARC
  5
5B2
100
AcDbEntity
  8
M0
 62
     7
100
AcDbCircle
 10
74.691051
 20
347.908018
 40
1.0
100
AcDbArc
 50
90.0
 51
180.0
  0
ARC
  5
5B3
100
AcDbEntity
  8
M0
 62
     7
100
AcDbCircle
 10
74.691051
 20
325.908018
 40
1.0
100
AcDbArc
 50
180.0
 51
270.0
  0
ARC
  5
5B4
100
AcDbEntity
  8
M0
 62
     7
100
AcDbCircle
 10
113.291051
 20
317.808018
 40
1.0
100
AcDbArc
 50
270.0
 51
360.0
  0
LINE
  5
5B5
100
AcDbEntity
  8
M0
 62
     7
100
AcDbLine
 10
88.44105
 20
330.408018
 11
77.341052
 21
330.408018
  0
LINE
  5
5B6
100
AcDbEntity
  8
M0
 62
     7
100
AcDbLine
 10
77.341052
 20
326.408018
 11
88.44105
 21
326.408018
  0
LINE
  5
5B7
100
AcDbEntity
  8
M0
 62
     7
100
AcDbLine
 10
77.341052
 20
331.908018
 11
88.44105
 21
331.908018
  0
LINE
  5
5B8
100
AcDbEntity
  8
M0
 62
     7
100
AcDbLine
 10
73.691051
 20
343.008018
 11
73.691051
 21
347.908018
  0
LINE
  5
5B9
100
AcDbEntity
  8
M0
 62
     7
100
AcDbLine
 10
75.191052
 20
341.508018
 11
73.691051
 21
343.008018
  0
LINE
  5
5BA
100
AcDbEntity
  8
M0
 62
     7
100
AcDbLine
 10
73.691051
 20
325.908018
 11
73.691051
 21
329.408018
  0
ARC
  5
5BB
100
AcDbEntity
  8
M0
 62
     7
100
AcDbCircle
 10
65.791051
 20
320.208018
 40
1.0
100
AcDbArc
 50
270.0
 51
315.572996
  0
ARC
  5
5BC
100
AcDbEntity
  8
M0
 62
     7
100
AcDbCircle
 10
73.991051
 20
320.208018
 40
1.0
100
AcDbArc
 50
224.427004
 51
270.0
  0
ARC
  5
5BD
100
AcDbEntity
  8
M0
 62
     7
100
AcDbCircle
 10
74.691051
 20
329.408018
 40
1.0
100
AcDbArc
 50
90.0
 51
180.0
  0
ARC
  5
5BE
100
AcDbEntity
  8
M0
 62
     7
100
AcDbCircle
 10
91.091051
 20
347.908018
 40
1.0
100
AcDbArc
 50
0.0
 51
90.0
  0
LINE
  5
5BF
100
AcDbEntity
  8
M0
 62
     7
100
AcDbLine
 10
114.291048
 20
367.408018
 11
114.291048
 21
306.408018
  0
ARC
  5
5C0
100
AcDbEntity
  8
M0
 62
     7
100
AcDbCircle
 10
99.991051
 20
353.608018
 40
1.0
100
AcDbArc
 50
90.0
 51
135.572996
  0
LINE
  5
5C1
100
AcDbEntity
  8
M0
 62
     7
100
AcDbLine
 10
86.991051
 20
354.608018
 11
88.191049
 21
354.608018
  0
LINE
  5
5C2
100
AcDbEntity
  8
M0
 62
     7
100
AcDbLine
 10
99.991051
 20
319.208018
 11
101.191049
 21
319.208018
  0
LINE
  5
5C3
100
AcDbEntity
  8
M0
 62
     7
100
AcDbLine
 10
91.79105
 20
319.208018
 11
90.591052
 21
319.208018
  0
LINE
  5
5C4
100
AcDbEntity
  8
M0
 62
     7
100
AcDbLine
 10
111.991053
 20
354.008018
 11
104.191052
 21
354.008018
  0
LINE
  5
5C5
100
AcDbEntity
  8
M0
 62
     7
100
AcDbLine
 10
78.79105
 20
354.608018
 11
77.591052
 21
354.608018
  0
LINE
  5
5C6
100
AcDbEntity
  8
M0
 62
     7
100
AcDbLine
 10
90.591052
 20
307.908019
 11
93.089021
 21
307.908019
  0
LINE
  5
5C7
100
AcDbEntity
  8
M0
 62
     7
100
AcDbLine
 10
88.191049
 20
365.908019
 11
87.726463
 21
365.908019
  0
ARC
  5
5C8
100
AcDbEntity
  8
M0
 62
     7
100
AcDbCircle
 10
52.791051
 20
356.008018
 40
1.0
100
AcDbArc
 50
0.0
 51
90.0
  0
ARC
  5
5C9
100
AcDbEntity
  8
M0
 62
     7
100
AcDbCircle
 10
52.791051
 20
332.208018
 40
1.0
100
AcDbArc
 50
0.0
 51
90.0
  0
ARC
  5
5CA
100
AcDbEntity
  8
M0
 62
     7
100
AcDbCircle
 10
52.491051
 20
341.608018
 40
1.0
100
AcDbArc
 50
180.0
 51
270.0
  0
ARC
  5
5CB
100
AcDbEntity
  8
M0
 62
     7
100
AcDbCircle
 10
52.491051
 20
356.008018
 40
1.0
100
AcDbArc
 50
90.0
 51
180.0
  0
ARC
  5
5CC
100
AcDbEntity
  8
M0
 62
     7
100
AcDbCircle
 10
112.991051
 20
317.808018
 40
1.0
100
AcDbArc
 50
180.0
 51
270.0
  0
ARC
  5
5CD
100
AcDbEntity
  8
M0
 62
     7
100
AcDbCircle
 10
112.991051
 20
341.608018
 40
1.0
100
AcDbArc
 50
180.0
 51
270.0
  0
ARC
  5
5CE
100
AcDbEntity
  8
M0
 62
     7
100
AcDbCircle
 10
52.791051
 20
317.808018
 40
1.0
100
AcDbArc
 50
270.0
 51
360.0
  0
ARC
  5
5CF
100
AcDbEntity
  8
M0
 62
     7
100
AcDbCircle
 10
52.791051
 20
341.608018
 40
1.0
100
AcDbArc
 50
270.0
 51
360.0
  0
ARC
  5
5D0
100
AcDbEntity
  8
M0
 62
     7
100
AcDbCircle
 10
52.491051
 20
332.208018
 40
1.0
100
AcDbArc
 50
90.0
 51
180.0
  0
ARC
  5
5D1
100
AcDbEntity
  8
M0
 62
     7
100
AcDbCircle
 10
52.491051
 20
317.808018
 40
1.0
100
AcDbArc
 50
180.0
 51
270.0
  0
LINE
  5
5D2
100
AcDbEntity
  8
M0
 62
     7
100
AcDbLine
 10
99.991051
 20
354.608018
 11
101.191049
 21
354.608018
  0
LINE
  5
5D3
100
AcDbEntity
  8
M0
 62
     7
100
AcDbLine
 10
53.791051
 20
340.608018
 11
53.791051
 21
333.208018
  0
LINE
  5
5D4
100
AcDbEntity
  8
M0
 62
     7
100
AcDbLine
 10
63.091051
 20
334.408018
 11
63.091051
 21
333.408018
  0
LINE
  5
5D5
100
AcDbEntity
  8
M0
 62
     7
100
AcDbLine
 10
56.791051
 20
333.208018
 11
56.791051
 21
340.608018
  0
LINE
  5
5D6
100
AcDbEntity
  8
M0
 62
     7
100
AcDbLine
 10
53.791051
 20
333.208018
 11
56.791051
 21
333.208018
  0
LINE
  5
5D7
100
AcDbEntity
  8
M0
 62
     7
100
AcDbLine
 10
60.19105
 20
332.908018
 11
60.19105
 21
340.908018
  0
LINE
  5
5D8
100
AcDbEntity
  8
M0
 62
     7
100
AcDbLine
 10
62.19105
 20
340.908018
 11
60.19105
 21
340.908018
  0
LINE
  5
5D9
100
AcDbEntity
  8
M0
 62
     7
100
AcDbLine
 10
63.091051
 20
340.408018
 11
63.091051
 21
339.408018
  0
LINE
  5
5DA
100
AcDbEntity
  8
M0
 62
     7
100
AcDbLine
 10
62.19105
 20
332.908018
 11
60.19105
 21
332.908018
  0
ARC
  5
5DB
100
AcDbEntity
  8
M0
 62
     7
100
AcDbCircle
 10
112.991051
 20
356.008018
 40
1.0
100
AcDbArc
 50
90.0
 51
180.0
  0
ARC
  5
5DC
100
AcDbEntity
  8
M0
 62
     7
100
AcDbCircle
 10
113.291051
 20
332.208018
 40
1.0
100
AcDbArc
 50
0.0
 51
90.0
  0
LINE
  5
5DD
100
AcDbEntity
  8
M0
 62
     7
100
AcDbLine
 10
101.191049
 20
365.908019
 11
100.89105
 21
365.908019
  0
ARC
  5
5DE
100
AcDbEntity
  8
M0
 62
     7
100
AcDbCircle
 10
112.991051
 20
332.208018
 40
1.0
100
AcDbArc
 50
90.0
 51
180.0
  0
LINE
  5
5DF
100
AcDbEntity
  8
M0
 62
     7
100
AcDbLine
 10
73.491052
 20
342.208018
 11
73.691051
 21
342.208018
  0
LINE
  5
5E0
100
AcDbEntity
  8
M0
 62
     7
100
AcDbLine
 10
56.791051
 20
340.608018
 11
53.791051
 21
340.608018
  0
LINE
  5
5E1
100
AcDbEntity
  8
M0
 62
     7
100
AcDbLine
 10
92.291051
 20
331.608018
 11
92.091052
 21
331.608018
  0
LINE
  5
5E2
100
AcDbEntity
  8
M0
 62
     7
100
AcDbLine
 10
73.491052
 20
331.608018
 11
73.691051
 21
331.608018
  0
LINE
  5
5E3
100
AcDbEntity
  8
M0
 62
     7
100
AcDbLine
 10
77.841049
 20
347.908018
 11
77.841049
 21
342.008018
  0
LINE
  5
5E4
100
AcDbEntity
  8
M0
 62
     7
100
AcDbLine
 10
87.941052
 20
347.908018
 11
87.941052
 21
342.008018
  0
LINE
  5
5E5
100
AcDbEntity
  8
M0
 62
     7
100
AcDbLine
 10
77.341052
 20
333.658018
 11
77.341052
 21
325.408018
  0
LINE
  5
5E6
100
AcDbEntity
  8
M0
 62
     7
100
AcDbLine
 10
77.091051
 20
334.158018
 11
77.341052
 21
333.658018
  0
LINE
  5
5E7
100
AcDbEntity
  8
M0
 62
     7
100
AcDbLine
 10
88.69105
 20
334.158018
 11
88.44105
 21
333.658018
  0
LINE
  5
5E8
100
AcDbEntity
  8
M0
 62
     7
100
AcDbLine
 10
88.69105
 20
339.658018
 11
88.69105
 21
334.158018
  0
LINE
  5
5E9
100
AcDbEntity
  8
M0
 62
     7
100
AcDbLine
 10
88.44105
 20
341.508018
 11
88.44105
 21
340.158018
  0
LINE
  5
5EA
100
AcDbEntity
  8
M0
 62
     7
100
AcDbLine
 10
88.44105
 20
333.658018
 11
88.44105
 21
325.408018
  0
LINE
  5
5EB
100
AcDbEntity
  8
M0
 62
     7
100
AcDbLine
 10
74.691051
 20
330.408018
 11
75.191052
 21
330.408018
  0
LINE
  5
5EC
100
AcDbEntity
  8
M0
 62
     7
100
AcDbLine
 10
77.091051
 20
339.658018
 11
77.091051
 21
334.158018
  0
LINE
  5
5ED
100
AcDbEntity
  8
M0
 62
     7
100
AcDbLine
 10
75.191052
 20
330.408018
 11
75.191052
 21
341.508018
  0
LINE
  5
5EE
100
AcDbEntity
  8
M0
 62
     7
100
AcDbLine
 10
77.341052
 20
340.158018
 11
77.091051
 21
339.658018
  0
LINE
  5
5EF
100
AcDbEntity
  8
M0
 62
     7
100
AcDbLine
 10
77.341052
 20
341.508018
 11
77.341052
 21
340.158018
  0
LINE
  5
5F0
100
AcDbEntity
  8
M0
 62
     7
100
AcDbLine
 10
64.59105
 20
307.908019
 11
67.130092
 21
307.908019
  0
LINE
  5
5F1
100
AcDbEntity
  8
M0
 62
     7
100
AcDbLine
 10
73.991051
 20
319.208018
 11
75.191052
 21
319.208018
  0
LINE
  5
5F2
100
AcDbEntity
  8
M0
 62
     7
100
AcDbLine
 10
92.091052
 20
325.908018
 11
92.091052
 21
329.408018
  0
LINE
  5
5F3
100
AcDbEntity
  8
M0
 62
     7
100
AcDbLine
 10
65.79105
 20
319.208018
 11
64.59105
 21
319.208018
  0
LINE
  5
5F4
100
AcDbEntity
  8
M0
 62
     7
100
AcDbLine
 10
91.09105
 20
330.408018
 11
90.591052
 21
330.408018
  0
LINE
  5
5F5
100
AcDbEntity
  8
M0
 62
     7
100
AcDbLine
 10
90.591052
 20
330.408018
 11
90.591052
 21
341.508018
  0
LINE
  5
5F6
100
AcDbEntity
  8
M0
 62
     7
100
AcDbLine
 10
74.691051
 20
348.908018
 11
76.841051
 21
348.908018
  0
LINE
  5
5F7
100
AcDbEntity
  8
M0
 62
     7
100
AcDbLine
 10
88.44105
 20
340.158018
 11
88.69105
 21
339.658018
  0
LINE
  5
5F8
100
AcDbEntity
  8
M0
 62
     7
100
AcDbLine
 10
92.091052
 20
343.008018
 11
92.091052
 21
347.908018
  0
LINE
  5
5F9
100
AcDbEntity
  8
M0
 62
     7
100
AcDbLine
 10
90.591052
 20
341.508018
 11
92.091052
 21
343.008018
  0
LINE
  5
5FA
100
AcDbEntity
  8
M0
 62
     7
100
AcDbLine
 10
74.691051
 20
324.908018
 11
91.09105
 21
324.908018
  0
LINE
  5
5FB
100
AcDbEntity
  8
M0
 62
     7
100
AcDbLine
 10
91.09105
 20
348.908018
 11
88.941051
 21
348.908018
  0
ELLIPSE
  5
5FC
100
AcDbEntity
  8
M0
 62
     7
100
AcDbEllipse
 10
78.591051
 20
371.824685
 11
1.0
 21
0.0
210
0.0
220
0.0
230
1.0
 40
0.416667
 41
3.141592653589793
 42
4.71238898038469
  0
ELLIPSE
  5
5FD
100
AcDbEntity
  8
M0
 62
     7
100
AcDbEllipse
 10
87.191051
 20
371.824685
 11
1.0
 21
0.0
210
0.0
220
0.0
230
1.0
 40
0.416667
 41
4.71238898038469
 42
6.283185307179586
  0
LINE
  5
5FE
100
AcDbEntity
  8
M0
 62
     7
100
AcDbLine
 10
87.191051
 20
371.408019
 11
85.991047
 21
371.408019
  0
LINE
  5
5FF
100
AcDbEntity
  8
M0
 62
     7
100
AcDbLine
 10
64.59105
 20
367.908017
 11
64.891051
 21
367.908017
  0
LINE
  5
600
100
AcDbEntity
  8
M0
 62
     7
100
AcDbLine
 10
77.591052
 20
367.908017
 11
79.791047
 21
367.908017
  0
LINE
  5
601
100
AcDbEntity
  8
M0
 62
     7
100
AcDbLine
 10
77.591052
 20
378.908018
 11
77.591052
 21
354.308018
  0
LINE
  5
602
100
AcDbEntity
  8
M0
 62
     7
100
AcDbLine
 10
88.191049
 20
369.908018
 11
85.991047
 21
369.908018
  0
LINE
  5
603
100
AcDbEntity
  8
M0
 62
     7
100
AcDbLine
 10
99.141052
 20
304.408019
 11
99.141052
 21
302.408019
  0
LINE
  5
604
100
AcDbEntity
  8
M0
 62
     7
100
AcDbLine
 10
91.891052
 20
301.408017
 11
99.891051
 21
301.408017
  0
LINE
  5
605
100
AcDbEntity
  8
M0
 62
     7
100
AcDbLine
 10
92.64105
 20
302.408019
 11
92.64105
 21
304.408019
  0
LINE
  5
606
100
AcDbEntity
  8
M0
 62
     7
100
AcDbLine
 10
100.891052
 20
302.408019
 11
100.891052
 21
305.908018
  0
LINE
  5
607
100
AcDbEntity
  8
M0
 62
     7
100
AcDbLine
 10
100.891052
 20
305.908018
 11
101.191049
 21
305.908018
  0
LINE
  5
608
100
AcDbEntity
  8
M0
 62
     7
100
AcDbLine
 10
52.79105
 20
309.208018
 11
52.491051
 21
309.208018
  0
LINE
  5
609
100
AcDbEntity
  8
M0
 62
     7
100
AcDbLine
 10
64.891051
 20
305.908018
 11
64.59105
 21
305.908018
  0
LINE
  5
60A
100
AcDbEntity
  8
M0
 62
     7
100
AcDbLine
 10
99.89105
 20
307.908019
 11
99.89105
 21
306.908017
  0
LINE
  5
60B
100
AcDbEntity
  8
M0
 62
     7
100
AcDbLine
 10
52.491051
 20
364.608017
 11
52.79105
 21
364.608017
  0
LINE
  5
60C
100
AcDbEntity
  8
M0
 62
     7
100
AcDbLine
 10
73.891051
 20
305.408017
 11
73.891051
 21
307.908019
  0
LINE
  5
60D
100
AcDbEntity
  8
M0
 62
     7
100
AcDbLine
 10
75.191052
 20
304.408019
 11
74.891051
 21
304.408019
  0
LINE
  5
60E
100
AcDbEntity
  8
M0
 62
     7
100
AcDbLine
 10
99.141052
 20
302.408019
 11
99.141052
 21
301.908018
  0
LINE
  5
60F
100
AcDbEntity
  8
M0
 62
     7
100
AcDbLine
 10
101.191049
 20
367.908017
 11
100.89105
 21
367.908017
  0
LINE
  5
610
100
AcDbEntity
  8
M0
 62
     7
100
AcDbLine
 10
91.891052
 20
305.408017
 11
91.891052
 21
307.908019
  0
LINE
  5
611
100
AcDbEntity
  8
M0
 62
     7
100
AcDbLine
 10
65.891052
 20
307.908019
 11
65.891052
 21
306.908017
  0
LINE
  5
612
100
AcDbEntity
  8
M0
 62
     7
100
AcDbLine
 10
88.191049
 20
304.408019
 11
83.523465
 21
304.408019
  0
LINE
  5
613
100
AcDbEntity
  8
M0
 62
     7
100
AcDbLine
 10
90.89105
 20
304.408019
 11
90.591052
 21
304.408019
  0
ARC
  5
614
100
AcDbEntity
  8
M0
 62
     7
100
AcDbCircle
 10
99.641051
 20
301.908018
 40
0.5
100
AcDbArc
 50
180.0
 51
270.0
  0
ARC
  5
615
100
AcDbEntity
  8
M0
 62
     7
100
AcDbCircle
 10
92.141051
 20
301.908018
 40
0.5
100
AcDbArc
 50
270.0
 51
306.017821
  0
ARC
  5
616
100
AcDbEntity
  8
M0
 62
     7
100
AcDbCircle
 10
95.891051
 20
304.408018
 40
3.25
100
AcDbArc
 50
145.699618
 51
180.0
  0
ARC
  5
617
100
AcDbEntity
  8
M0
 62
     7
100
AcDbCircle
 10
78.591051
 20
378.908018
 40
1.0
100
AcDbArc
 50
134.427281
 51
180.0
  0
ARC
  5
618
100
AcDbEntity
  8
M0
 62
     7
100
AcDbCircle
 10
87.191051
 20
378.908018
 40
1.0
100
AcDbArc
 50
0.0
 51
45.573273
  0
ARC
  5
619
100
AcDbEntity
  8
M0
 62
     7
100
AcDbCircle
 10
99.891051
 20
302.408018
 40
1.0
100
AcDbArc
 50
270.0
 51
360.0
  0
ARC
  5
61A
100
AcDbEntity
  8
M0
 62
     7
100
AcDbCircle
 10
66.141051
 20
301.908018
 40
0.5
100
AcDbArc
 50
270.0
 51
360.0
  0
ARC
  5
61B
100
AcDbEntity
  8
M0
 62
     7
100
AcDbCircle
 10
73.891051
 20
302.408018
 40
1.0
100
AcDbArc
 50
270.0
 51
360.0
  0
ARC
  5
61C
100
AcDbEntity
  8
M0
 62
     7
100
AcDbCircle
 10
91.891051
 20
302.408018
 40
1.0
100
AcDbArc
 50
180.0
 51
270.0
  0
ARC
  5
61D
100
AcDbEntity
  8
M0
 62
     7
100
AcDbCircle
 10
69.891051
 20
304.408018
 40
3.25
100
AcDbArc
 50
0.0
 51
59.586094
  0
LINE
  5
61E
100
AcDbEntity
  8
M0
 62
     7
100
AcDbLine
 10
66.641051
 20
304.408018
 11
66.641051
 21
301.908018
  0
LINE
  5
61F
100
AcDbEntity
  8
M0
 62
     7
100
AcDbLine
 10
74.891051
 20
304.408019
 11
74.891051
 21
302.408019
  0
LINE
  5
620
100
AcDbEntity
  8
M0
 62
     7
100
AcDbLine
 10
90.89105
 20
304.408019
 11
90.89105
 21
302.408019
  0
LINE
  5
621
100
AcDbEntity
  8
M0
 62
     7
100
AcDbLine
 10
73.141051
 20
301.908018
 11
73.141051
 21
304.408018
  0
ARC
  5
622
100
AcDbEntity
  8
M0
 62
     7
100
AcDbCircle
 10
90.891051
 20
305.408018
 40
1.0
100
AcDbArc
 50
270.0
 51
360.0
  0
ARC
  5
623
100
AcDbEntity
  8
M0
 62
     7
100
AcDbCircle
 10
64.891051
 20
306.908018
 40
1.0
100
AcDbArc
 50
270.0
 51
360.0
  0
ARC
  5
624
100
AcDbEntity
  8
M0
 62
     7
100
AcDbCircle
 10
73.641051
 20
301.908018
 40
0.5
100
AcDbArc
 50
180.0
 51
270.0
  0
ARC
  5
625
100
AcDbEntity
  8
M0
 62
     7
100
AcDbCircle
 10
74.891051
 20
305.408018
 40
1.0
100
AcDbArc
 50
180.0
 51
270.0
  0
LINE
  5
626
100
AcDbEntity
  8
M0
 62
     7
100
AcDbLine
 10
64.891051
 20
302.408019
 11
64.891051
 21
305.908018
  0
ARC
  5
627
100
AcDbEntity
  8
M0
 62
     7
100
AcDbCircle
 10
100.891051
 20
306.908018
 40
1.0
100
AcDbArc
 50
180.0
 51
270.0
  0
ARC
  5
628
100
AcDbEntity
  8
M0
 62
     7
100
AcDbCircle
 10
52.491051
 20
363.608018
 40
1.0
100
AcDbArc
 50
90.0
 51
180.0
  0
LINE
  5
629
100
AcDbEntity
  8
M0
 62
     7
100
AcDbLine
 10
63.59105
 20
301.408017
 11
62.091051
 21
301.408017
  0
LINE
  5
62A
100
AcDbEntity
  8
M0
 62
     7
100
AcDbLine
 10
56.491051
 20
372.408019
 11
63.59105
 21
372.408019
  0
LINE
  5
62B
100
AcDbEntity
  8
M0
 62
     7
100
AcDbLine
 10
62.19105
 20
371.408018
 11
62.19105
 21
340.408018
  0
LINE
  5
62C
100
AcDbEntity
  8
M0
 62
     7
100
AcDbLine
 10
104.191052
 20
309.808018
 11
104.191052
 21
327.608018
  0
LINE
  5
62D
100
AcDbEntity
  8
M0
 62
     7
100
AcDbLine
 10
104.191052
 20
346.208018
 11
104.191052
 21
364.008018
  0
ARC
  5
62E
100
AcDbEntity
  8
M0
 62
     7
100
AcDbCircle
 10
52.491051
 20
310.208018
 40
1.0
100
AcDbArc
 50
180.0
 51
270.0
  0
ARC
  5
62F
100
AcDbEntity
  8
M0
 62
     7
100
AcDbCircle
 10
52.791051
 20
310.208018
 40
1.0
100
AcDbArc
 50
270.0
 51
360.0
  0
LINE
  5
630
100
AcDbEntity
  8
M0
 62
     7
100
AcDbLine
 10
75.191052
 20
355.808018
 11
77.591052
 21
355.808018
  0
ARC
  5
631
100
AcDbEntity
  8
M0
 62
     7
100
AcDbCircle
 10
62.191051
 20
309.808018
 40
0.6
100
AcDbArc
 50
180.0
 51
270.0
  0
ARC
  5
632
100
AcDbEntity
  8
M0
 62
     7
100
AcDbCircle
 10
103.591051
 20
364.008018
 40
0.6
100
AcDbArc
 50
0.0
 51
90.0
  0
ARC
  5
633
100
AcDbEntity
  8
M0
 62
     7
100
AcDbCircle
 10
52.791051
 20
363.608018
 40
1.0
100
AcDbArc
 50
0.0
 51
90.0
  0
ARC
  5
634
100
AcDbEntity
  8
M0
 62
     7
100
AcDbCircle
 10
62.191051
 20
364.008018
 40
0.6
100
AcDbArc
 50
90.0
 51
180.0
  0
LINE
  5
635
100
AcDbEntity
  8
M0
 62
     7
100
AcDbLine
 10
64.59105
 20
319.508018
 11
64.59105
 21
302.408019
  0
LINE
  5
636
100
AcDbEntity
  8
M0
 62
     7
100
AcDbLine
 10
75.191052
 20
302.408019
 11
75.191052
 21
319.508018
  0
LINE
  5
637
100
AcDbEntity
  8
M0
 62
     7
100
AcDbLine
 10
75.191052
 20
318.008018
 11
76.191051
 21
318.008018
  0
LINE
  5
638
100
AcDbEntity
  8
M0
 62
     7
100
AcDbLine
 10
102.391051
 20
372.408019
 11
102.191051
 21
372.408019
  0
LINE
  5
639
100
AcDbEntity
  8
M0
 62
     7
100
AcDbLine
 10
101.191049
 20
371.408019
 11
101.191049
 21
354.308018
  0
LINE
  5
63A
100
AcDbEntity
  8
M0
 62
     7
100
AcDbLine
 10
77.591052
 20
302.408018
 11
77.591052
 21
319.508018
  0
LINE
  5
63B
100
AcDbEntity
  8
M0
 62
     7
100
AcDbLine
 10
75.191052
 20
371.408018
 11
75.191052
 21
354.308018
  0
LINE
  5
63C
100
AcDbEntity
  8
M0
 62
     7
100
AcDbLine
 10
90.591052
 20
319.508018
 11
90.591052
 21
302.408018
  0
LINE
  5
63D
100
AcDbEntity
  8
M0
 62
     7
100
AcDbLine
 10
88.191049
 20
302.408018
 11
88.191049
 21
319.508018
  0
LINE
  5
63E
100
AcDbEntity
  8
M0
 62
     7
100
AcDbLine
 10
90.591052
 20
371.408018
 11
90.591052
 21
354.308018
  0
LINE
  5
63F
100
AcDbEntity
  8
M0
 62
     7
100
AcDbLine
 10
88.191049
 20
354.308018
 11
88.191049
 21
378.908018
  0
LINE
  5
640
100
AcDbEntity
  8
M0
 62
     7
100
AcDbLine
 10
88.191049
 20
304.408019
 11
88.191049
 21
305.408017
  0
LINE
  5
641
100
AcDbEntity
  8
M0
 62
     7
100
AcDbLine
 10
88.191049
 20
369.408019
 11
88.191049
 21
368.408018
  0
LINE
  5
642
100
AcDbEntity
  8
M0
 62
     7
100
AcDbLine
 10
112.991048
 20
309.208018
 11
113.291053
 21
309.208018
  0
LINE
  5
643
100
AcDbEntity
  8
M0
 62
     7
100
AcDbLine
 10
113.291053
 20
364.608017
 11
112.991048
 21
364.608017
  0
LINE
  5
644
100
AcDbEntity
  8
M0
 62
     7
100
AcDbLine
 10
113.09105
 20
357.008017
 11
112.991048
 21
357.008017
  0
LINE
  5
645
100
AcDbEntity
  8
M0
 62
     7
100
AcDbLine
 10
64.59105
 20
371.408019
 11
64.59105
 21
354.308018
  0
LINE
  5
646
100
AcDbEntity
  8
M0
 62
     7
100
AcDbLine
 10
52.691051
 20
357.008017
 11
52.79105
 21
357.008017
  0
LINE
  5
647
100
AcDbEntity
  8
M0
 62
     7
100
AcDbLine
 10
113.09105
 20
316.808019
 11
112.991048
 21
316.808019
  0
LINE
  5
648
100
AcDbEntity
  8
M0
 62
     7
100
AcDbLine
 10
52.691051
 20
316.808019
 11
52.79105
 21
316.808019
  0
ARC
  5
649
100
AcDbEntity
  8
M0
 62
     7
100
AcDbCircle
 10
112.991051
 20
310.208018
 40
1.0
100
AcDbArc
 50
180.0
 51
270.0
  0
ARC
  5
64A
100
AcDbEntity
  8
M0
 62
     7
100
AcDbCircle
 10
112.991051
 20
363.608018
 40
1.0
100
AcDbArc
 50
90.0
 51
180.0
  0
ARC
  5
64B
100
AcDbEntity
  8
M0
 62
     7
100
AcDbCircle
 10
103.591051
 20
309.808018
 40
0.6
100
AcDbArc
 50
270.0
 51
360.0
  0
ARC
  5
64C
100
AcDbEntity
  8
M0
 62
     7
100
AcDbCircle
 10
113.291051
 20
363.608018
 40
1.0
100
AcDbArc
 50
0.0
 51
90.0
  0
LINE
  5
64D
100
AcDbEntity
  8
M0
 62
     7
100
AcDbLine
 10
61.591051
 20
309.808017
 11
61.591051
 21
327.608018
  0
LINE
  5
64E
100
AcDbEntity
  8
M0
 62
     7
100
AcDbLine
 10
61.591051
 20
346.208018
 11
61.591051
 21
364.008018
  0
ARC
  5
64F
100
AcDbEntity
  8
M0
 62
     7
100
AcDbCircle
 10
113.291051
 20
310.208018
 40
1.0
100
AcDbArc
 50
270.0
 51
360.0
  0
LINE
  5
650
100
AcDbEntity
  8
M0
 62
     7
100
AcDbLine
 10
53.791051
 20
332.208018
 11
53.791051
 21
310.208019
  0
LINE
  5
651
100
AcDbEntity
  8
M0
 62
     7
100
AcDbLine
 10
105.091052
 20
311.208019
 11
105.091052
 21
312.208019
  0
LINE
  5
652
100
AcDbEntity
  8
M0
 62
     7
100
AcDbLine
 10
111.091053
 20
311.208019
 11
105.091052
 21
311.208019
  0
LINE
  5
653
100
AcDbEntity
  8
M0
 62
     7
100
AcDbLine
 10
111.091053
 20
312.208019
 11
111.091053
 21
311.208019
  0
LINE
  5
654
100
AcDbEntity
  8
M0
 62
     7
100
AcDbLine
 10
61.591051
 20
354.008018
 11
53.791051
 21
354.008018
  0
LINE
  5
655
100
AcDbEntity
  8
M0
 62
     7
100
AcDbLine
 10
105.091052
 20
362.608019
 11
111.091053
 21
362.608019
  0
LINE
  5
656
100
AcDbEntity
  8
M0
 62
     7
100
AcDbLine
 10
105.091052
 20
361.608019
 11
105.091052
 21
362.608019
  0
LINE
  5
657
100
AcDbEntity
  8
M0
 62
     7
100
AcDbLine
 10
111.091053
 20
362.608019
 11
111.091053
 21
361.608019
  0
LINE
  5
658
100
AcDbEntity
  8
M0
 62
     7
100
AcDbLine
 10
53.791051
 20
319.808017
 11
61.591051
 21
319.808017
  0
LINE
  5
659
100
AcDbEntity
  8
M0
 62
     7
100
AcDbLine
 10
104.191052
 20
319.808017
 11
111.991053
 21
319.808017
  0
LINE
  5
65A
100
AcDbEntity
  8
M0
 62
     7
100
AcDbLine
 10
65.79105
 20
354.608018
 11
64.59105
 21
354.608018
  0
LINE
  5
65B
100
AcDbEntity
  8
M0
 62
     7
100
AcDbLine
 10
73.991051
 20
354.608018
 11
75.191052
 21
354.608018
  0
LINE
  5
65C
100
AcDbEntity
  8
M0
 62
     7
100
AcDbLine
 10
75.191052
 20
365.908019
 11
73.891051
 21
365.908019
  0
ARC
  5
65D
100
AcDbEntity
  8
M0
 62
     7
100
AcDbCircle
 10
78.791051
 20
353.608018
 40
1.0
100
AcDbArc
 50
44.427004
 51
90.0
  0
LINE
  5
65E
100
AcDbEntity
  8
M0
 62
     7
100
AcDbLine
 10
91.79105
 20
354.608018
 11
90.591052
 21
354.608018
  0
ARC
  5
65F
100
AcDbEntity
  8
M0
 62
     7
100
AcDbCircle
 10
99.991051
 20
320.208018
 40
1.0
100
AcDbArc
 50
224.427004
 51
270.0
  0
ARC
  5
660
100
AcDbEntity
  8
M0
 62
     7
100
AcDbCircle
 10
86.991051
 20
353.608018
 40
1.0
100
AcDbArc
 50
90.0
 51
135.572996
  0
LINE
  5
661
100
AcDbEntity
  8
M0
 62
     7
100
AcDbLine
 10
86.991051
 20
319.208018
 11
88.191049
 21
319.208018
  0
LINE
  5
662
100
AcDbEntity
  8
M0
 62
     7
100
AcDbLine
 10
78.79105
 20
319.208018
 11
77.591052
 21
319.208018
  0
LINE
  5
663
100
AcDbEntity
  8
M0
 62
     7
100
AcDbLine
 10
77.591052
 20
307.908019
 11
80.115333
 21
307.908019
  0
LINE
  5
664
100
AcDbEntity
  8
M0
 62
     7
100
AcDbLine
 10
54.691051
 20
362.608019
 11
60.691051
 21
362.608019
  0
LINE
  5
665
100
AcDbEntity
  8
M0
 62
     7
100
AcDbLine
 10
54.691051
 20
361.608019
 11
54.691051
 21
362.608019
  0
LINE
  5
666
100
AcDbEntity
  8
M0
 62
     7
100
AcDbLine
 10
60.691051
 20
362.608019
 11
60.691051
 21
361.608019
  0
ARC
  5
667
100
AcDbEntity
  8
M0
 62
     7
100
AcDbCircle
 10
91.791051
 20
353.608018
 40
1.0
100
AcDbArc
 50
44.427004
 51
90.0
  0
ARC
  5
668
100
AcDbEntity
  8
M0
 62
     7
100
AcDbCircle
 10
73.991051
 20
353.608018
 40
1.0
100
AcDbArc
 50
90.0
 51
135.572996
  0
ARC
  5
669
100
AcDbEntity
  8
M0
 62
     7
100
AcDbCircle
 10
86.991051
 20
320.208018
 40
1.0
100
AcDbArc
 50
224.427004
 51
270.0
  0
ARC
  5
66A
100
AcDbEntity
  8
M0
 62
     7
100
AcDbCircle
 10
91.791051
 20
320.208018
 40
1.0
100
AcDbArc
 50
270.0
 51
315.572996
  0
ARC
  5
66B
100
AcDbEntity
  8
M0
 62
     7
100
AcDbCircle
 10
65.791051
 20
353.608018
 40
1.0
100
AcDbArc
 50
44.427004
 51
90.0
  0
ARC
  5
66C
100
AcDbEntity
  8
M0
 62
     7
100
AcDbCircle
 10
78.791051
 20
320.208018
 40
1.0
100
AcDbArc
 50
270.0
 51
315.572996
  0
LINE
  5
66D
100
AcDbEntity
  8
M0
 62
     7
100
AcDbLine
 10
60.691051
 20
311.208019
 11
54.691051
 21
311.208019
  0
LINE
  5
66E
100
AcDbEntity
  8
M0
 62
     7
100
AcDbLine
 10
60.691051
 20
312.208019
 11
60.691051
 21
311.208019
  0
LINE
  5
66F
100
AcDbEntity
  8
M0
 62
     7
100
AcDbLine
 10
54.691051
 20
311.208019
 11
54.691051
 21
312.208019
  0
LINE
  5
670
100
AcDbEntity
  8
M0
 62
     7
100
AcDbLine
 10
99.608512
 20
380.826009
 11
99.609604
 21
380.78955
  0
LINE
  5
671
100
AcDbEntity
  8
M0
 62
     7
100
AcDbLine
 10
99.609604
 20
380.78955
 11
99.612852
 21
380.68127
  0
LINE
  5
672
100
AcDbEntity
  8
M0
 62
     7
100
AcDbLine
 10
99.612852
 20
380.68127
 11
99.618157
 21
380.504472
  0
LINE
  5
673
100
AcDbEntity
  8
M0
 62
     7
100
AcDbLine
 10
99.618157
 20
380.504472
 11
99.625354
 21
380.264519
  0
LINE
  5
674
100
AcDbEntity
  8
M0
 62
     7
100
AcDbLine
 10
99.625354
 20
380.264519
 11
99.629847
 21
380.114814
  0
LINE
  5
675
100
AcDbEntity
  8
M0
 62
     7
100
AcDbLine
 10
66.152254
 20
380.114814
 11
66.161455
 21
380.421536
  0
LINE
  5
676
100
AcDbEntity
  8
M0
 62
     7
100
AcDbLine
 10
66.161455
 20
380.421536
 11
66.168111
 21
380.643321
  0
LINE
  5
677
100
AcDbEntity
  8
M0
 62
     7
100
AcDbLine
 10
66.168111
 20
380.643321
 11
66.172207
 21
380.779894
  0
LINE
  5
678
100
AcDbEntity
  8
M0
 62
     7
100
AcDbLine
 10
66.172207
 20
380.779894
 11
66.173591
 21
380.826009
  0
LINE
  5
679
100
AcDbEntity
  8
M0
  6
DASHDOT
 62
     7
100
AcDbLine
 10
69.391051
 20
313.208018
 11
70.391051
 21
313.208018
  0
LINE
  5
67A
100
AcDbEntity
  8
M0
  6
DASHDOT
 62
     7
100
AcDbLine
 10
69.891051
 20
312.708018
 11
69.891051
 21
313.708018
  0
LINE
  5
67B
100
AcDbEntity
  8
M0
  6
DASHDOT
 62
     7
100
AcDbLine
 10
82.891047
 20
312.708018
 11
82.891047
 21
313.708018
  0
LINE
  5
67C
100
AcDbEntity
  8
M0
  6
DASHDOT
 62
     7
100
AcDbLine
 10
82.391047
 20
313.208018
 11
83.391047
 21
313.208018
  0
LINE
  5
67D
100
AcDbEntity
  8
M0
  6
DASHDOT
 62
     7
100
AcDbLine
 10
95.891048
 20
312.708018
 11
95.891048
 21
313.708018
  0
LINE
  5
67E
100
AcDbEntity
  8
M0
  6
DASHDOT
 62
     7
100
AcDbLine
 10
95.391048
 20
313.208018
 11
96.391048
 21
313.208018
  0
LINE
  5
67F
100
AcDbEntity
  8
M0
  6
DASHDOT
 62
     7
100
AcDbLine
 10
95.891048
 20
361.108018
 11
95.891048
 21
360.108018
  0
LINE
  5
680
100
AcDbEntity
  8
M0
  6
DASHDOT
 62
     7
100
AcDbLine
 10
95.391048
 20
360.608018
 11
96.391048
 21
360.608018
  0
LINE
  5
681
100
AcDbEntity
  8
M0
  6
DASHDOT
 62
     7
100
AcDbLine
 10
82.391047
 20
360.608018
 11
83.391047
 21
360.608018
  0
LINE
  5
682
100
AcDbEntity
  8
M0
  6
DASHDOT
 62
     7
100
AcDbLine
 10
69.891051
 20
361.108018
 11
69.891051
 21
360.108018
  0
LINE
  5
683
100
AcDbEntity
  8
M0
  6
DASHDOT
 62
     7
100
AcDbLine
 10
82.891047
 20
361.108018
 11
82.891047
 21
360.108018
  0
LINE
  5
684
100
AcDbEntity
  8
M0
  6
DASHDOT
 62
     7
100
AcDbLine
 10
69.391051
 20
360.608018
 11
70.391051
 21
360.608018
  0
LINE
  5
685
100
AcDbEntity
  8
M0
  6
DASHDOT
 62
     7
100
AcDbLine
 10
108.59105
 20
357.808018
 11
107.59105
 21
357.808018
  0
LINE
  5
686
100
AcDbEntity
  8
M0
  6
DASHDOT
 62
     7
100
AcDbLine
 10
108.09105
 20
357.308018
 11
108.09105
 21
358.308018
  0
LINE
  5
687
100
AcDbEntity
  8
M0
  6
DASHDOT
 62
     7
100
AcDbLine
 10
108.59105
 20
350.208018
 11
107.59105
 21
350.208018
  0
LINE
  5
688
100
AcDbEntity
  8
M0
  6
DASHDOT
 62
     7
100
AcDbLine
 10
108.09105
 20
349.708018
 11
108.09105
 21
350.708018
  0
LINE
  5
689
100
AcDbEntity
  8
M0
  6
DASHDOT
 62
     7
100
AcDbLine
 10
108.59105
 20
323.608018
 11
107.59105
 21
323.608018
  0
LINE
  5
68A
100
AcDbEntity
  8
M0
  6
DASHDOT
 62
     7
100
AcDbLine
 10
108.09105
 20
323.108018
 11
108.09105
 21
324.108018
  0
LINE
  5
68B
100
AcDbEntity
  8
M0
  6
DASHDOT
 62
     7
100
AcDbLine
 10
108.59105
 20
316.008018
 11
107.59105
 21
316.008018
  0
LINE
  5
68C
100
AcDbEntity
  8
M0
  6
DASHDOT
 62
     7
100
AcDbLine
 10
108.09105
 20
315.508018
 11
108.09105
 21
316.508018
  0
LINE
  5
68D
100
AcDbEntity
  8
M0
  6
DASHDOT
 62
     7
100
AcDbLine
 10
57.191051
 20
350.208018
 11
58.191051
 21
350.208018
  0
LINE
  5
68E
100
AcDbEntity
  8
M0
  6
DASHDOT
 62
     7
100
AcDbLine
 10
57.691051
 20
349.708018
 11
57.691051
 21
350.708018
  0
LINE
  5
68F
100
AcDbEntity
  8
M0
  6
DASHDOT
 62
     7
100
AcDbLine
 10
57.191051
 20
357.808018
 11
58.191051
 21
357.808018
  0
LINE
  5
690
100
AcDbEntity
  8
M0
  6
DASHDOT
 62
     7
100
AcDbLine
 10
57.691051
 20
357.308018
 11
57.691051
 21
358.308018
  0
LINE
  5
691
100
AcDbEntity
  8
M0
  6
DASHDOT
 62
     7
100
AcDbLine
 10
57.191051
 20
316.008018
 11
58.191051
 21
316.008018
  0
LINE
  5
692
100
AcDbEntity
  8
M0
  6
DASHDOT
 62
     7
100
AcDbLine
 10
57.691051
 20
315.508018
 11
57.691051
 21
316.508018
  0
LINE
  5
693
100
AcDbEntity
  8
M0
  6
DASHDOT
 62
     7
100
AcDbLine
 10
57.191051
 20
323.608018
 11
58.191051
 21
323.608018
  0
LINE
  5
694
100
AcDbEntity
  8
M0
  6
DASHDOT
 62
     7
100
AcDbLine
 10
57.691051
 20
323.108018
 11
57.691051
 21
324.108018
  0
LINE
  5
695
100
AcDbEntity
  8
M0
  6
DASHDOT
 62
     7
100
AcDbLine
 10
69.891051
 20
303.908018
 11
69.891051
 21
304.908018
  0
LINE
  5
696
100
AcDbEntity
  8
M0
  6
DASHDOT
 62
     7
100
AcDbLine
 10
93.291051
 20
375.508018
 11
94.291051
 21
375.508018
  0
LINE
  5
697
100
AcDbEntity
  8
M0
  6
DASHDOT
 62
     7
100
AcDbLine
 10
93.791051
 20
375.008018
 11
93.791051
 21
376.008018
  0
LINE
  5
698
100
AcDbEntity
  8
M0
  6
DASHDOT
 62
     7
100
AcDbLine
 10
72.49105
 20
375.508018
 11
71.49105
 21
375.508018
  0
LINE
  5
699
100
AcDbEntity
  8
M0
  6
DASHDOT
 62
     7
100
AcDbLine
 10
71.99105
 20
375.008018
 11
71.99105
 21
376.008018
  0
LINE
  5
69A
100
AcDbEntity
  8
M0
 62
     7
100
AcDbLine
 10
104.891051
 20
307.408018
 11
105.591049
 21
307.408018
  0
LINE
  5
69B
100
AcDbEntity
  8
M0
 62
     7
100
AcDbLine
 10
97.801031
 20
307.908019
 11
101.191049
 21
307.908019
  0
LINE
  5
69C
100
AcDbEntity
  8
M0
 62
     7
100
AcDbLine
 10
79.588638
 20
301.408017
 11
77.89105
 21
301.408017
  0
LINE
  5
69D
100
AcDbEntity
  8
M0
 62
     7
100
AcDbLine
 10
83.219145
 20
303.408017
 11
87.39105
 21
303.408017
  0
LINE
  5
69E
100
AcDbEntity
  8
M0
 62
     7
100
AcDbLine
 10
80.06065
 20
304.408019
 11
77.591052
 21
304.408019
  0
LINE
  5
69F
100
AcDbEntity
  8
M0
 62
     7
100
AcDbLine
 10
84.842733
 20
307.908019
 11
88.191049
 21
307.908019
  0
ARC
  5
6A0
100
AcDbEntity
  8
M0
 62
     7
100
AcDbCircle
 10
69.891051
 20
304.408018
 40
3.25
100
AcDbArc
 50
138.466946
 51
180.0
  0
LINE
  5
6A1
100
AcDbEntity
  8
M0
 62
     7
100
AcDbLine
 10
71.887651
 20
307.908019
 11
75.191052
 21
307.908019
  0
LINE
  5
6A2
100
AcDbEntity
  8
M0
 62
     7
100
AcDbLine
 10
69.766793
 20
301.408017
 11
73.891051
 21
301.408017
  0
LINE
  5
6A3
100
AcDbEntity
  8
M0
 62
     7
100
AcDbLine
 10
62.091051
 20
307.408018
 11
62.19105
 21
307.408018
  0
LINE
  5
6A4
100
AcDbEntity
  8
M0
 62
     7
100
AcDbLine
 10
60.891051
 20
301.408017
 11
56.491051
 21
301.408017
  0
LINE
  5
6A5
100
AcDbEntity
  8
M0
 62
     7
100
AcDbLine
 10
103.691051
 20
301.408017
 11
102.191051
 21
301.408017
  0
LINE
  5
6A6
100
AcDbEntity
  8
M0
 62
     7
100
AcDbLine
 10
64.891051
 20
365.908019
 11
64.59105
 21
365.908019
  0
LINE
  5
6A7
100
AcDbEntity
  8
M0
 62
     7
100
AcDbLine
 10
71.891051
 20
367.908017
 11
75.191052
 21
367.908017
  0
LINE
  5
6A8
100
AcDbEntity
  8
M0
 62
     7
100
AcDbLine
 10
79.791047
 20
371.408019
 11
78.59105
 21
371.408019
  0
LINE
  5
6A9
100
AcDbEntity
  8
M0
 62
     7
100
AcDbLine
 10
79.791047
 20
369.908018
 11
77.591052
 21
369.908018
  0
LINE
  5
6AA
100
AcDbEntity
  8
M0
 62
     7
100
AcDbLine
 10
85.991047
 20
367.908017
 11
88.191049
 21
367.908017
  0
LINE
  5
6AB
100
AcDbEntity
  8
M0
 62
     7
100
AcDbLine
 10
78.055632
 20
365.908019
 11
77.591052
 21
365.908019
  0
LINE
  5
6AC
100
AcDbEntity
  8
M0
 62
     7
100
AcDbLine
 10
91.055635
 20
365.908019
 11
90.591052
 21
365.908019
  0
LINE
  5
6AD
100
AcDbEntity
  8
M0
 62
     7
100
AcDbLine
 10
93.89105
 20
367.908017
 11
90.591052
 21
367.908017
  0
CIRCLE
  5
6AE
100
AcDbEntity
  8
M0
 62
     7
100
AcDbCircle
 10
69.891051
 20
360.608018
 40
3.5
  0
LINE
  5
6AF
100
AcDbEntity
  8
M0
 62
     7
100
AcDbLine
 10
70.901922
 20
362.325975
 11
68.326849
 21
359.750902
  0
LINE
  5
6B0
100
AcDbEntity
  8
M0
 62
     7
100
AcDbLine
 10
71.60903
 20
361.618867
 11
69.033957
 21
359.043794
  0
LINE
  5
6B1
100
AcDbEntity
  8
M0
 62
     7
100
AcDbLine
 10
68.930197
 20
361.568864
 11
70.775045
 21
359.724031
  0
CIRCLE
  5
6B2
100
AcDbEntity
  8
M0
 62
     7
100
AcDbCircle
 10
82.891047
 20
360.608018
 40
3.5
  0
LINE
  5
6B3
100
AcDbEntity
  8
M0
 62
     7
100
AcDbLine
 10
83.901919
 20
362.325975
 11
81.326846
 21
359.750902
  0
LINE
  5
6B4
100
AcDbEntity
  8
M0
 62
     7
100
AcDbLine
 10
84.609026
 20
361.618867
 11
82.033953
 21
359.043794
  0
LINE
  5
6B5
100
AcDbEntity
  8
M0
 62
     7
100
AcDbLine
 10
81.930193
 20
361.568864
 11
83.775042
 21
359.724031
  0
CIRCLE
  5
6B6
100
AcDbEntity
  8
M0
 62
     7
100
AcDbCircle
 10
95.891048
 20
360.608018
 40
3.5
  0
LINE
  5
6B7
100
AcDbEntity
  8
M0
 62
     7
100
AcDbLine
 10
96.901919
 20
362.325975
 11
94.326846
 21
359.750902
  0
LINE
  5
6B8
100
AcDbEntity
  8
M0
 62
     7
100
AcDbLine
 10
97.609027
 20
361.618867
 11
95.033953
 21
359.043794
  0
LINE
  5
6B9
100
AcDbEntity
  8
M0
 62
     7
100
AcDbLine
 10
94.930194
 20
361.568864
 11
96.775042
 21
359.724031
  0
CIRCLE
  5
6BA
100
AcDbEntity
  8
M0
 62
     7
100
AcDbCircle
 10
95.891048
 20
313.208018
 40
3.5
  0
LINE
  5
6BB
100
AcDbEntity
  8
M0
 62
     7
100
AcDbLine
 10
96.901919
 20
314.925975
 11
94.326846
 21
312.350901
  0
LINE
  5
6BC
100
AcDbEntity
  8
M0
 62
     7
100
AcDbLine
 10
97.609027
 20
314.218867
 11
95.033953
 21
311.643794
  0
LINE
  5
6BD
100
AcDbEntity
  8
M0
 62
     7
100
AcDbLine
 10
94.930194
 20
314.168864
 11
96.775042
 21
312.324031
  0
CIRCLE
  5
6BE
100
AcDbEntity
  8
M0
 62
     7
100
AcDbCircle
 10
82.891047
 20
313.208018
 40
3.5
  0
LINE
  5
6BF
100
AcDbEntity
  8
M0
 62
     7
100
AcDbLine
 10
83.901919
 20
314.925975
 11
81.326846
 21
312.350901
  0
LINE
  5
6C0
100
AcDbEntity
  8
M0
 62
     7
100
AcDbLine
 10
84.609026
 20
314.218867
 11
82.033953
 21
311.643794
  0
LINE
  5
6C1
100
AcDbEntity
  8
M0
 62
     7
100
AcDbLine
 10
81.930193
 20
314.168864
 11
83.775042
 21
312.324031
  0
CIRCLE
  5
6C2
100
AcDbEntity
  8
M0
 62
     7
100
AcDbCircle
 10
69.891051
 20
313.208018
 40
3.5
  0
LINE
  5
6C3
100
AcDbEntity
  8
M0
 62
     7
100
AcDbLine
 10
70.901922
 20
314.925975
 11
68.326849
 21
312.350901
  0
LINE
  5
6C4
100
AcDbEntity
  8
M0
 62
     7
100
AcDbLine
 10
71.60903
 20
314.218867
 11
69.033957
 21
311.643794
  0
LINE
  5
6C5
100
AcDbEntity
  8
M0
 62
     7
100
AcDbLine
 10
68.930197
 20
314.168864
 11
70.775045
 21
312.324031
  0
CIRCLE
  5
6C6
100
AcDbEntity
  8
M0
 62
     6
100
AcDbCircle
 10
96.541081
 20
265.407774
 40
2.999997
  0
LINE
  5
6C7
100
AcDbEntity
  8
M0
 62
     6
100
AcDbLine
 10
93.69069
 20
269.707396
 11
92.765935
 21
266.707823
  0
LINE
  5
6C8
100
AcDbEntity
  8
M0
 62
     6
100
AcDbLine
 10
93.582097
 20
261.460524
 11
92.765935
 21
264.107847
  0
LINE
  5
6C9
100
AcDbEntity
  8
M0
 62
     6
100
AcDbLine
 10
99.485923
 20
269.39928
 11
100.315984
 21
266.707823
  0
LINE
  5
6CA
100
AcDbEntity
  8
M0
 62
     6
100
AcDbLine
 10
99.499577
 20
261.460508
 11
100.315984
 21
264.107847
  0
LINE
  5
6CB
100
AcDbEntity
  8
M0
 62
     6
100
AcDbLine
 10
94.060124
 20
261.107847
 11
99.021794
 21
261.107847
  0
LINE
  5
6CC
100
AcDbEntity
  8
M0
 62
     6
100
AcDbLine
 10
100.315984
 20
264.107847
 11
100.315984
 21
266.707823
  0
LINE
  5
6CD
100
AcDbEntity
  8
M0
 62
     6
100
AcDbLine
 10
92.765935
 20
266.707823
 11
92.765935
 21
264.107847
  0
LINE
  5
6CE
100
AcDbEntity
  8
M0
 62
     6
100
AcDbLine
 10
98.131657
 20
263.816954
 11
94.950017
 21
266.998716
  0
LINE
  5
6CF
100
AcDbEntity
  8
M0
 62
     6
100
AcDbLine
 10
96.894353
 20
266.821959
 11
95.126775
 21
265.054258
  0
LINE
  5
6D0
100
AcDbEntity
  8
M0
 62
     6
100
AcDbLine
 10
97.9549
 20
265.76129
 11
96.187321
 21
263.993711
  0
ARC
  5
6D1
100
AcDbEntity
  8
M0
 62
     6
100
AcDbCircle
 10
94.060124
 20
261.607847
 40
0.5
100
AcDbArc
 50
197.128737
 51
270.0
  0
ARC
  5
6D2
100
AcDbEntity
  8
M0
 62
     6
100
AcDbCircle
 10
99.021794
 20
261.607847
 40
0.5
100
AcDbArc
 50
270.0
 51
342.861308
  0
LINE
  5
6D3
100
AcDbEntity
  8
M0
  6
DASHDOT
 62
     6
100
AcDbLine
 10
96.041081
 20
265.407774
 11
97.041081
 21
265.407774
  0
LINE
  5
6D4
100
AcDbEntity
  8
M0
  6
DASHDOT
 62
     6
100
AcDbLine
 10
96.541081
 20
264.907774
 11
96.541081
 21
265.907774
  0
CIRCLE
  5
6D5
100
AcDbEntity
  8
M0
 62
     6
100
AcDbCircle
 10
107.541081
 20
265.407774
 40
2.999997
  0
LINE
  5
6D6
100
AcDbEntity
  8
M0
 62
     6
100
AcDbLine
 10
104.626027
 20
269.497802
 11
103.765935
 21
266.707823
  0
LINE
  5
6D7
100
AcDbEntity
  8
M0
 62
     6
100
AcDbLine
 10
104.582097
 20
261.460524
 11
103.765935
 21
264.107847
  0
LINE
  5
6D8
100
AcDbEntity
  8
M0
 62
     6
100
AcDbLine
 10
110.534001
 20
269.243477
 11
111.315984
 21
266.707823
  0
LINE
  5
6D9
100
AcDbEntity
  8
M0
 62
     6
100
AcDbLine
 10
110.499577
 20
261.460508
 11
111.315984
 21
264.107847
  0
LINE
  5
6DA
100
AcDbEntity
  8
M0
 62
     6
100
AcDbLine
 10
105.060124
 20
261.107847
 11
110.021794
 21
261.107847
  0
LINE
  5
6DB
100
AcDbEntity
  8
M0
 62
     6
100
AcDbLine
 10
111.315984
 20
264.107847
 11
111.315984
 21
266.707823
  0
LINE
  5
6DC
100
AcDbEntity
  8
M0
 62
     6
100
AcDbLine
 10
103.765935
 20
266.707823
 11
103.765935
 21
264.107847
  0
LINE
  5
6DD
100
AcDbEntity
  8
M0
 62
     6
100
AcDbLine
 10
109.131657
 20
263.816954
 11
105.950017
 21
266.998716
  0
LINE
  5
6DE
100
AcDbEntity
  8
M0
 62
     6
100
AcDbLine
 10
107.894353
 20
266.821959
 11
106.126775
 21
265.054258
  0
LINE
  5
6DF
100
AcDbEntity
  8
M0
 62
     6
100
AcDbLine
 10
108.9549
 20
265.76129
 11
107.187321
 21
263.993711
  0
ARC
  5
6E0
100
AcDbEntity
  8
M0
 62
     6
100
AcDbCircle
 10
105.060124
 20
261.607847
 40
0.5
100
AcDbArc
 50
197.128737
 51
270.0
  0
ARC
  5
6E1
100
AcDbEntity
  8
M0
 62
     6
100
AcDbCircle
 10
110.021794
 20
261.607847
 40
0.5
100
AcDbArc
 50
270.0
 51
342.861308
  0
LINE
  5
6E2
100
AcDbEntity
  8
M0
  6
DASHDOT
 62
     6
100
AcDbLine
 10
107.041081
 20
265.407774
 11
108.041081
 21
265.407774
  0
LINE
  5
6E3
100
AcDbEntity
  8
M0
  6
DASHDOT
 62
     6
100
AcDbLine
 10
107.541081
 20
264.907774
 11
107.541081
 21
265.907774
  0
LINE
  5
6E4
100
AcDbEntity
  8
M0
  6
DASHDOT
 62
     4
100
AcDbLine
 10
92.700536
 20
263.408018
 11
81.381673
 21
263.408018
  0
ARC
  5
6E5
100
AcDbEntity
  8
M0
 62
     4
100
AcDbCircle
 10
102.542104
 20
250.407816
 40
1.0
100
AcDbArc
 50
179.9998
 51
270.0
  0
ARC
  5
6E6
100
AcDbEntity
  8
M0
 62
     4
100
AcDbCircle
 10
102.542104
 20
250.407816
 40
1.0
100
AcDbArc
 50
270.0
 51
359.9998
  0
LINE
  5
6E7
100
AcDbEntity
  8
M0
 62
     4
100
AcDbLine
 10
93.542135
 20
250.407847
 11
90.542135
 21
250.407858
  0
ARC
  5
6E8
100
AcDbEntity
  8
M0
 62
     4
100
AcDbCircle
 10
70.792283
 20
292.707914
 40
1.0
100
AcDbArc
 50
0.0
 51
89.998926
  0
LINE
  5
6E9
100
AcDbEntity
  8
M0
 62
     4
100
AcDbLine
 10
114.54223
 20
290.907774
 11
87.88304
 21
290.90776
  0
LINE
  5
6EA
100
AcDbEntity
  8
M0
 62
     4
100
AcDbLine
 10
52.042266
 20
292.207698
 11
52.042142
 21
256.9079
  0
LINE
  5
6EB
100
AcDbEntity
  8
M0
 62
     4
100
AcDbLine
 10
93.542134
 20
254.407847
 11
94.59943
 21
254.407844
  0
LINE
  5
6EC
100
AcDbEntity
  8
M0
 62
     4
100
AcDbLine
 10
114.54211
 20
251.907774
 11
114.542256
 21
293.907774
  0
LINE
  5
6ED
100
AcDbEntity
  8
M0
 62
     4
100
AcDbLine
 10
110.687234
 20
286.407787
 11
99.393636
 21
286.407827
  0
LINE
  5
6EE
100
AcDbEntity
  8
M0
 62
     4
100
AcDbLine
 10
77.542166
 20
259.407903
 11
77.542283
 21
292.907903
  0
LINE
  5
6EF
100
AcDbEntity
  8
M0
 62
     4
100
AcDbLine
 10
80.042166
 20
259.407894
 11
80.042283
 21
292.907894
  0
LINE
  5
6F0
100
AcDbEntity
  8
M0
 62
     4
100
AcDbLine
 10
67.542166
 20
259.407938
 11
67.542283
 21
292.907938
  0
LINE
  5
6F1
100
AcDbEntity
  8
M0
 62
     4
100
AcDbLine
 10
65.042166
 20
259.407947
 11
65.042283
 21
292.907947
  0
LINE
  5
6F2
100
AcDbEntity
  8
M0
 62
     4
100
AcDbLine
 10
79.042287
 20
293.907898
 11
78.542287
 21
293.9079
  0
ARC
  5
6F3
100
AcDbEntity
  8
M0
 62
     4
100
AcDbCircle
 10
79.042283
 20
292.907898
 40
1.0
100
AcDbArc
 50
359.9998
 51
449.998926
  0
LINE
  5
6F4
100
AcDbEntity
  8
M0
 62
     4
100
AcDbLine
 10
70.792271
 20
293.707927
 11
67.142216
 21
293.707913
  0
ARC
  5
6F5
100
AcDbEntity
  8
M0
 62
     4
100
AcDbCircle
 10
78.542283
 20
292.9079
 40
1.0
100
AcDbArc
 50
89.998926
 51
179.9998
  0
LINE
  5
6F6
100
AcDbEntity
  8
M0
 62
     4
100
AcDbLine
 10
88.542215
 20
273.407865
 11
81.542215
 21
273.407889
  0
LINE
  5
6F7
100
AcDbEntity
  8
M0
 62
     4
100
AcDbLine
 10
88.542231
 20
277.907865
 11
81.542231
 21
277.907889
  0
LINE
  5
6F8
100
AcDbEntity
  8
M0
 62
     4
100
AcDbLine
 10
88.542224
 20
275.907865
 11
81.542224
 21
275.907889
  0
LINE
  5
6F9
100
AcDbEntity
  8
M0
 62
     4
100
AcDbLine
 10
82.042231
 20
277.907887
 11
82.042231
 21
278.008018
  0
LINE
  5
6FA
100
AcDbEntity
  8
M0
 62
     4
100
AcDbLine
 10
88.042231
 20
277.907866
 11
88.042231
 21
278.008018
  0
LINE
  5
6FB
100
AcDbEntity
  8
M0
 62
     4
100
AcDbLine
 10
82.542263
 20
287.208018
 11
82.542276
 21
290.907886
  0
LINE
  5
6FC
100
AcDbEntity
  8
M0
 62
     4
100
AcDbLine
 10
70.042263
 20
286.981319
 11
70.042276
 21
290.907929
  0
LINE
  5
6FD
100
AcDbEntity
  8
M0
 62
     4
100
AcDbLine
 10
57.542262
 20
286.765551
 11
57.542276
 21
290.907973
  0
LINE
  5
6FE
100
AcDbEntity
  8
M0
 62
     4
100
AcDbLine
 10
62.542264
 20
287.400154
 11
62.542268
 21
288.543273
  0
LINE
  5
6FF
100
AcDbEntity
  8
M0
 62
     4
100
AcDbLine
 10
82.542276
 20
290.907886
 11
80.042276
 21
290.907894
  0
LINE
  5
700
100
AcDbEntity
  8
M0
 62
     4
100
AcDbLine
 10
70.042276
 20
290.907929
 11
67.542276
 21
290.907938
  0
LINE
  5
701
100
AcDbEntity
  8
M0
 62
     4
100
AcDbLine
 10
57.542276
 20
290.907973
 11
55.042276
 21
290.907982
  0
LINE
  5
702
100
AcDbEntity
  8
M0
 62
     4
100
AcDbLine
 10
76.042231
 20
277.907908
 11
69.042231
 21
277.907933
  0
LINE
  5
703
100
AcDbEntity
  8
M0
 62
     4
100
AcDbLine
 10
63.542231
 20
277.907952
 11
56.542231
 21
277.907976
  0
LINE
  5
704
100
AcDbEntity
  8
M0
 62
     4
100
AcDbLine
 10
89.542234
 20
278.907861
 11
89.542273
 21
289.907861
  0
LINE
  5
705
100
AcDbEntity
  8
M0
 62
     4
100
AcDbLine
 10
80.542234
 20
278.907893
 11
80.542273
 21
289.907893
  0
LINE
  5
706
100
AcDbEntity
  8
M0
 62
     4
100
AcDbLine
 10
77.042234
 20
278.907905
 11
77.042273
 21
289.907905
  0
LINE
  5
707
100
AcDbEntity
  8
M0
 62
     4
100
AcDbLine
 10
68.042234
 20
278.907936
 11
68.042273
 21
289.907936
  0
LINE
  5
708
100
AcDbEntity
  8
M0
 62
     4
100
AcDbLine
 10
64.542234
 20
278.907948
 11
64.542273
 21
289.907948
  0
LINE
  5
709
100
AcDbEntity
  8
M0
 62
     4
100
AcDbLine
 10
55.542234
 20
278.90798
 11
55.542273
 21
289.90798
  0
LINE
  5
70A
100
AcDbEntity
  8
M0
 62
     4
100
AcDbLine
 10
77.542276
 20
290.907903
 11
75.344261
 21
290.907889
  0
LINE
  5
70B
100
AcDbEntity
  8
M0
 62
     4
100
AcDbLine
 10
65.042276
 20
290.907947
 11
62.818652
 21
290.907934
  0
LINE
  5
70C
100
AcDbEntity
  8
M0
 62
     4
100
AcDbLine
 10
90.042154
 20
255.907859
 11
90.042168
 21
268.707786
  0
ARC
  5
70D
100
AcDbEntity
  8
M0
 62
     4
100
AcDbCircle
 10
90.542273
 20
289.907858
 40
1.0
100
AcDbArc
 50
119.999001
 51
179.9998
  0
ARC
  5
70E
100
AcDbEntity
  8
M0
 62
     4
100
AcDbCircle
 10
78.042273
 20
289.907901
 40
1.0
100
AcDbArc
 50
119.999001
 51
179.9998
  0
ARC
  5
70F
100
AcDbEntity
  8
M0
 62
     4
100
AcDbCircle
 10
65.542273
 20
289.907945
 40
1.0
100
AcDbArc
 50
119.999001
 51
179.9998
  0
ARC
  5
710
100
AcDbEntity
  8
M0
 62
     4
100
AcDbCircle
 10
79.542273
 20
289.907896
 40
1.0
100
AcDbArc
 50
359.9998
 51
419.999842
  0
ARC
  5
711
100
AcDbEntity
  8
M0
 62
     4
100
AcDbCircle
 10
67.042273
 20
289.90794
 40
1.0
100
AcDbArc
 50
359.9998
 51
419.999842
  0
LINE
  5
712
100
AcDbEntity
  8
M0
 62
     4
100
AcDbLine
 10
55.042234
 20
278.907982
 11
55.042276
 21
290.907982
  0
ARC
  5
713
100
AcDbEntity
  8
M0
 62
     4
100
AcDbCircle
 10
54.542273
 20
289.907983
 40
1.0
100
AcDbArc
 50
359.9998
 51
419.999842
  0
ARC
  5
714
100
AcDbEntity
  8
M0
 62
     4
100
AcDbCircle
 10
63.292298
 20
292.707953
 40
1.0
100
AcDbArc
 50
89.998926
 51
93.750712
  0
ARC
  5
715
100
AcDbEntity
  8
M0
 62
     4
100
AcDbCircle
 10
66.542283
 20
292.907941
 40
1.0
100
AcDbArc
 50
359.9998
 51
449.998926
  0
ARC
  5
716
100
AcDbEntity
  8
M0
 62
     4
100
AcDbCircle
 10
66.042283
 20
292.907943
 40
1.0
100
AcDbArc
 50
89.998926
 51
179.9998
  0
LINE
  5
717
100
AcDbEntity
  8
M0
 62
     4
100
AcDbLine
 10
65.042296
 20
292.207673
 11
62.970565
 21
292.207662
  0
LINE
  5
718
100
AcDbEntity
  8
M0
 62
     4
100
AcDbLine
 10
63.542224
 20
275.907952
 11
52.042193
 21
275.907992
  0
LINE
  5
719
100
AcDbEntity
  8
M0
 62
     4
100
AcDbLine
 10
76.042224
 20
275.907908
 11
69.042224
 21
275.907933
  0
ARC
  5
71A
100
AcDbEntity
  8
M0
 62
     4
100
AcDbCircle
 10
76.042236
 20
279.407908
 40
1.499996
100
AcDbArc
 50
270.0
 51
359.9998
  0
ARC
  5
71B
100
AcDbEntity
  8
M0
 62
     4
100
AcDbCircle
 10
63.542236
 20
279.407952
 40
1.499996
100
AcDbArc
 50
270.0
 51
359.9998
  0
ARC
  5
71C
100
AcDbEntity
  8
M0
 62
     4
100
AcDbCircle
 10
63.542234
 20
278.907952
 40
1.0
100
AcDbArc
 50
270.0
 51
359.9998
  0
ARC
  5
71D
100
AcDbEntity
  8
M0
 62
     4
100
AcDbCircle
 10
76.042234
 20
278.907908
 40
1.0
100
AcDbArc
 50
270.0
 51
359.9998
  0
ARC
  5
71E
100
AcDbEntity
  8
M0
 62
     4
100
AcDbCircle
 10
88.542236
 20
279.407865
 40
1.499996
100
AcDbArc
 50
270.0
 51
359.9998
  0
ARC
  5
71F
100
AcDbEntity
  8
M0
 62
     4
100
AcDbCircle
 10
88.542234
 20
278.907865
 40
1.0
100
AcDbArc
 50
270.0
 51
359.9998
  0
ARC
  5
720
100
AcDbEntity
  8
M0
 62
     4
100
AcDbCircle
 10
81.542236
 20
279.407889
 40
1.499996
100
AcDbArc
 50
179.9998
 51
270.0
  0
ARC
  5
721
100
AcDbEntity
  8
M0
 62
     4
100
AcDbCircle
 10
69.042236
 20
279.407933
 40
1.499996
100
AcDbArc
 50
179.9998
 51
270.0
  0
ARC
  5
722
100
AcDbEntity
  8
M0
 62
     4
100
AcDbCircle
 10
81.542234
 20
278.907889
 40
1.0
100
AcDbArc
 50
179.9998
 51
270.0
  0
ARC
  5
723
100
AcDbEntity
  8
M0
 62
     4
100
AcDbCircle
 10
69.042234
 20
278.907933
 40
1.0
100
AcDbArc
 50
179.9998
 51
270.0
  0
ARC
  5
724
100
AcDbEntity
  8
M0
 62
     4
100
AcDbCircle
 10
56.542234
 20
278.907976
 40
1.0
100
AcDbArc
 50
179.9998
 51
270.0
  0
ARC
  5
725
100
AcDbEntity
  8
M0
 62
     4
100
AcDbCircle
 10
56.542236
 20
279.407976
 40
1.499996
100
AcDbArc
 50
179.9998
 51
270.0
  0
ARC
  5
726
100
AcDbEntity
  8
M0
 62
     4
100
AcDbCircle
 10
54.042234
 20
278.907985
 40
1.0
100
AcDbArc
 50
270.0
 51
359.9998
  0
LINE
  5
727
100
AcDbEntity
  8
M0
 62
     4
100
AcDbLine
 10
54.042231
 20
277.907985
 11
52.0422
 21
277.907992
  0
LINE
  5
728
100
AcDbEntity
  8
M0
 62
     4
100
AcDbLine
 10
90.04218
 20
263.407859
 11
80.04218
 21
263.407894
  0
LINE
  5
729
100
AcDbEntity
  8
M0
 62
     4
100
AcDbLine
 10
90.042236
 20
279.407859
 11
90.042276
 21
290.907859
  0
ARC
  5
72A
100
AcDbEntity
  8
M0
 62
     4
100
AcDbCircle
 10
81.542219
 20
274.407889
 40
1.499996
100
AcDbArc
 50
89.999217
 51
179.9998
  0
ARC
  5
72B
100
AcDbEntity
  8
M0
 62
     4
100
AcDbCircle
 10
88.542219
 20
274.407865
 40
1.499996
100
AcDbArc
 50
359.9998
 51
449.999217
  0
ARC
  5
72C
100
AcDbEntity
  8
M0
 62
     4
100
AcDbCircle
 10
76.042219
 20
274.407908
 40
1.499996
100
AcDbArc
 50
359.9998
 51
449.999217
  0
ARC
  5
72D
100
AcDbEntity
  8
M0
 62
     4
100
AcDbCircle
 10
69.042219
 20
274.407933
 40
1.499996
100
AcDbArc
 50
89.999217
 51
179.9998
  0
ARC
  5
72E
100
AcDbEntity
  8
M0
 62
     4
100
AcDbCircle
 10
63.542219
 20
274.407952
 40
1.499996
100
AcDbArc
 50
359.9998
 51
449.999217
  0
LINE
  5
72F
100
AcDbEntity
  8
M0
 62
     4
100
AcDbLine
 10
55.042179
 20
262.907982
 11
55.04222
 21
274.907982
  0
ARC
  5
730
100
AcDbEntity
  8
M0
 62
     4
100
AcDbCircle
 10
56.542219
 20
274.407976
 40
1.499996
100
AcDbArc
 50
89.999217
 51
179.9998
  0
ARC
  5
731
100
AcDbEntity
  8
M0
 62
     4
100
AcDbCircle
 10
54.04222
 20
274.907985
 40
1.0
100
AcDbArc
 50
359.9998
 51
449.998926
  0
LINE
  5
732
100
AcDbEntity
  8
M0
 62
     4
100
AcDbLine
 10
77.54218
 20
263.407903
 11
76.041051
 21
263.407908
  0
LINE
  5
733
100
AcDbEntity
  8
M0
 62
     4
100
AcDbLine
 10
65.04218
 20
263.407947
 11
55.04218
 21
263.407982
  0
ARC
  5
734
100
AcDbEntity
  8
M0
 62
     4
100
AcDbCircle
 10
88.54221
 20
271.907865
 40
1.499996
100
AcDbArc
 50
359.9998
 51
449.999217
  0
LINE
  5
735
100
AcDbEntity
  8
M0
 62
     4
100
AcDbLine
 10
76.042215
 20
273.407908
 11
69.042215
 21
273.407933
  0
LINE
  5
736
100
AcDbEntity
  8
M0
 62
     4
100
AcDbLine
 10
63.542215
 20
273.407952
 11
56.542215
 21
273.407976
  0
ARC
  5
737
100
AcDbEntity
  8
M0
 62
     4
100
AcDbCircle
 10
81.54221
 20
271.907889
 40
1.499996
100
AcDbArc
 50
89.999217
 51
179.9998
  0
ARC
  5
738
100
AcDbEntity
  8
M0
 62
     4
100
AcDbCircle
 10
69.04221
 20
271.907933
 40
1.499996
100
AcDbArc
 50
89.999217
 51
179.9998
  0
ARC
  5
739
100
AcDbEntity
  8
M0
 62
     4
100
AcDbCircle
 10
56.54221
 20
271.907976
 40
1.499996
100
AcDbArc
 50
89.999217
 51
179.9998
  0
ARC
  5
73A
100
AcDbEntity
  8
M0
 62
     4
100
AcDbCircle
 10
76.04221
 20
271.907908
 40
1.499996
100
AcDbArc
 50
359.9998
 51
449.999217
  0
ARC
  5
73B
100
AcDbEntity
  8
M0
 62
     4
100
AcDbCircle
 10
63.54221
 20
271.907952
 40
1.499996
100
AcDbArc
 50
359.9998
 51
449.999217
  0
LINE
  5
73C
100
AcDbEntity
  8
M0
 62
     4
100
AcDbLine
 10
89.542184
 20
264.407861
 11
89.542212
 21
272.407861
  0
LINE
  5
73D
100
AcDbEntity
  8
M0
 62
     4
100
AcDbLine
 10
80.542184
 20
264.407893
 11
80.542212
 21
272.407893
  0
LINE
  5
73E
100
AcDbEntity
  8
M0
 62
     4
100
AcDbLine
 10
77.042184
 20
264.407905
 11
77.042212
 21
272.407905
  0
LINE
  5
73F
100
AcDbEntity
  8
M0
 62
     4
100
AcDbLine
 10
68.042184
 20
264.407936
 11
68.042212
 21
272.407936
  0
LINE
  5
740
100
AcDbEntity
  8
M0
 62
     4
100
AcDbLine
 10
64.542184
 20
264.407948
 11
64.542212
 21
272.407948
  0
LINE
  5
741
100
AcDbEntity
  8
M0
 62
     4
100
AcDbLine
 10
55.542184
 20
264.40798
 11
55.542212
 21
272.40798
  0
ARC
  5
742
100
AcDbEntity
  8
M0
 62
     4
100
AcDbCircle
 10
88.542212
 20
272.407865
 40
1.0
100
AcDbArc
 50
359.9998
 51
449.998926
  0
ARC
  5
743
100
AcDbEntity
  8
M0
 62
     4
100
AcDbCircle
 10
76.042212
 20
272.407908
 40
1.0
100
AcDbArc
 50
359.9998
 51
449.998926
  0
ARC
  5
744
100
AcDbEntity
  8
M0
 62
     4
100
AcDbCircle
 10
63.542212
 20
272.407952
 40
1.0
100
AcDbArc
 50
359.9998
 51
449.998926
  0
ARC
  5
745
100
AcDbEntity
  8
M0
 62
     4
100
AcDbCircle
 10
81.542212
 20
272.407889
 40
1.0
100
AcDbArc
 50
89.998926
 51
179.9998
  0
ARC
  5
746
100
AcDbEntity
  8
M0
 62
     4
100
AcDbCircle
 10
69.042212
 20
272.407933
 40
1.0
100
AcDbArc
 50
89.998926
 51
179.9998
  0
ARC
  5
747
100
AcDbEntity
  8
M0
 62
     4
100
AcDbCircle
 10
56.542212
 20
272.407976
 40
1.0
100
AcDbArc
 50
89.998926
 51
179.9998
  0
ARC
  5
748
100
AcDbEntity
  8
M0
 62
     4
100
AcDbCircle
 10
90.542184
 20
264.407858
 40
1.0
100
AcDbArc
 50
179.9998
 51
239.999433
  0
ARC
  5
749
100
AcDbEntity
  8
M0
 62
     4
100
AcDbCircle
 10
78.042184
 20
264.407901
 40
1.0
100
AcDbArc
 50
179.9998
 51
239.999433
  0
ARC
  5
74A
100
AcDbEntity
  8
M0
 62
     4
100
AcDbCircle
 10
65.542184
 20
264.407945
 40
1.0
100
AcDbArc
 50
179.9998
 51
239.999433
  0
ARC
  5
74B
100
AcDbEntity
  8
M0
 62
     4
100
AcDbCircle
 10
54.542184
 20
264.407983
 40
1.0
100
AcDbArc
 50
300.000925
 51
359.9998
  0
ARC
  5
74C
100
AcDbEntity
  8
M0
 62
     4
100
AcDbCircle
 10
67.042184
 20
264.40794
 40
1.0
100
AcDbArc
 50
300.000925
 51
359.9998
  0
ARC
  5
74D
100
AcDbEntity
  8
M0
 62
     4
100
AcDbCircle
 10
79.542184
 20
264.407896
 40
1.0
100
AcDbArc
 50
300.000925
 51
359.9998
  0
LINE
  5
74E
100
AcDbEntity
  8
M0
 62
     4
100
AcDbLine
 10
79.042163
 20
258.407898
 11
78.542163
 21
258.4079
  0
LINE
  5
74F
100
AcDbEntity
  8
M0
 62
     4
100
AcDbLine
 10
66.542163
 20
258.407941
 11
66.042163
 21
258.407943
  0
ARC
  5
750
100
AcDbEntity
  8
M0
 62
     4
100
AcDbCircle
 10
66.042166
 20
259.407943
 40
1.0
100
AcDbArc
 50
179.9998
 51
270.0
  0
ARC
  5
751
100
AcDbEntity
  8
M0
 62
     4
100
AcDbCircle
 10
66.542166
 20
259.407941
 40
1.0
100
AcDbArc
 50
270.0
 51
359.9998
  0
ARC
  5
752
100
AcDbEntity
  8
M0
 62
     4
100
AcDbCircle
 10
78.542166
 20
259.4079
 40
1.0
100
AcDbArc
 50
179.9998
 51
270.0
  0
ARC
  5
753
100
AcDbEntity
  8
M0
 62
     4
100
AcDbCircle
 10
79.042166
 20
259.407898
 40
1.0
100
AcDbArc
 50
270.0
 51
359.9998
  0
LINE
  5
754
100
AcDbEntity
  8
M0
 62
     4
100
AcDbLine
 10
90.042158
 20
256.907859
 11
88.541051
 21
256.907865
  0
LINE
  5
755
100
AcDbEntity
  8
M0
 62
     4
100
AcDbLine
 10
63.792159
 20
257.20818
 11
63.79218
 21
263.407951
  0
LINE
  5
756
100
AcDbEntity
  8
M0
 62
     4
100
AcDbLine
 10
88.792158
 20
256.907864
 11
88.79218
 21
263.407864
  0
LINE
  5
757
100
AcDbEntity
  8
M0
 62
     4
100
AcDbLine
 10
54.042175
 20
261.907985
 11
52.042145
 21
261.907992
  0
ARC
  5
758
100
AcDbEntity
  8
M0
 62
     4
100
AcDbCircle
 10
54.042179
 20
262.907985
 40
1.0
100
AcDbArc
 50
270.0
 51
359.9998
  0
LINE
  5
759
100
AcDbEntity
  8
M0
 62
     4
100
AcDbLine
 10
111.542104
 20
252.4078
 11
111.542104
 21
268.707787
  0
LINE
  5
75A
100
AcDbEntity
  8
M0
 62
     4
100
AcDbLine
 10
114.042124
 20
260.407776
 11
112.542124
 21
260.407781
  0
ARC
  5
75B
100
AcDbEntity
  8
M0
 62
     4
100
AcDbCircle
 10
114.042126
 20
260.907776
 40
0.5
100
AcDbArc
 50
270.0
 51
359.9998
  0
ARC
  5
75C
100
AcDbEntity
  8
M0
 62
     4
100
AcDbCircle
 10
112.542128
 20
261.407781
 40
1.0
100
AcDbArc
 50
179.9998
 51
270.0
  0
LINE
  5
75D
100
AcDbEntity
  8
M0
 62
     4
100
AcDbLine
 10
114.042115
 20
253.407776
 11
112.542115
 21
253.407781
  0
LINE
  5
75E
100
AcDbEntity
  8
M0
 62
     4
100
AcDbLine
 10
114.042108
 20
251.407776
 11
112.542108
 21
251.407781
  0
ARC
  5
75F
100
AcDbEntity
  8
M0
 62
     4
100
AcDbCircle
 10
114.04211
 20
251.907776
 40
0.5
100
AcDbArc
 50
270.0
 51
359.9998
  0
ARC
  5
760
100
AcDbEntity
  8
M0
 62
     4
100
AcDbCircle
 10
112.542111
 20
252.407781
 40
1.0
100
AcDbArc
 50
179.9998
 51
270.0
  0
ARC
  5
761
100
AcDbEntity
  8
M0
 62
     4
100
AcDbCircle
 10
114.042117
 20
253.907776
 40
0.5
100
AcDbArc
 50
270.0
 51
359.9998
  0
ARC
  5
762
100
AcDbEntity
  8
M0
 62
     4
100
AcDbCircle
 10
112.542118
 20
254.407781
 40
1.0
100
AcDbArc
 50
179.9998
 51
270.0
  0
LINE
  5
763
100
AcDbEntity
  8
M0
 62
     4
100
AcDbLine
 10
114.042132
 20
258.407776
 11
112.542132
 21
258.407781
  0
ARC
  5
764
100
AcDbEntity
  8
M0
 62
     4
100
AcDbCircle
 10
112.542136
 20
259.407781
 40
1.0
100
AcDbArc
 50
179.9998
 51
270.0
  0
ARC
  5
765
100
AcDbEntity
  8
M0
 62
     4
100
AcDbCircle
 10
114.042134
 20
258.907776
 40
0.5
100
AcDbArc
 50
270.0
 51
359.9998
  0
LINE
  5
766
100
AcDbEntity
  8
M0
 62
     4
100
AcDbLine
 10
103.542104
 20
250.407828
 11
103.542104
 21
268.669049
  0
LINE
  5
767
100
AcDbEntity
  8
M0
 62
     4
100
AcDbLine
 10
110.484379
 20
254.407788
 11
111.542088
 21
254.407784
  0
LINE
  5
768
100
AcDbEntity
  8
M0
 62
     4
100
AcDbLine
 10
111.542112
 20
261.407784
 11
110.792799
 21
261.407543
  0
LINE
  5
769
100
AcDbEntity
  8
M0
 62
     4
100
AcDbLine
 10
104.291181
 20
261.407566
 11
103.542112
 21
261.407812
  0
LINE
  5
76A
100
AcDbEntity
  8
M0
 62
     4
100
AcDbLine
 10
100.542089
 20
257.407838
 11
100.542088
 21
268.474409
  0
LINE
  5
76B
100
AcDbEntity
  8
M0
 62
     4
100
AcDbLine
 10
102.542125
 20
256.407816
 11
101.542125
 21
256.407819
  0
ARC
  5
76C
100
AcDbEntity
  8
M0
 62
     4
100
AcDbCircle
 10
102.542129
 20
257.407816
 40
1.0
100
AcDbArc
 50
270.0
 51
359.9998
  0
ARC
  5
76D
100
AcDbEntity
  8
M0
 62
     4
100
AcDbCircle
 10
101.542129
 20
257.407819
 40
1.0
100
AcDbArc
 50
179.9998
 51
270.0
  0
LINE
  5
76E
100
AcDbEntity
  8
M0
 62
     4
100
AcDbLine
 10
92.542165
 20
258.907881
 11
92.542168
 21
268.707777
  0
LINE
  5
76F
100
AcDbEntity
  8
M0
 62
     4
100
AcDbLine
 10
99.483198
 20
261.407826
 11
100.542143
 21
261.407823
  0
LINE
  5
770
100
AcDbEntity
  8
M0
 62
     4
100
AcDbLine
 10
94.542134
 20
254.407844
 11
94.542134
 21
254.593635
  0
LINE
  5
771
100
AcDbEntity
  8
M0
 62
     4
100
AcDbLine
 10
93.542135
 20
250.407847
 11
93.542159
 21
261.589732
  0
LINE
  5
772
100
AcDbEntity
  8
M0
 62
     4
100
AcDbLine
 10
101.542104
 20
250.407819
 11
101.542125
 21
256.407819
  0
LINE
  5
773
100
AcDbEntity
  8
M0
 62
     4
100
AcDbLine
 10
103.542088
 20
254.407812
 11
104.599415
 21
254.407809
  0
LINE
  5
774
100
AcDbEntity
  8
M0
 62
     4
100
AcDbLine
 10
93.542154
 20
255.907847
 11
90.042154
 21
255.907859
  0
LINE
  5
775
100
AcDbEntity
  8
M0
 62
     4
100
AcDbLine
 10
93.542161
 20
257.907847
 11
90.042161
 21
257.907859
  0
LINE
  5
776
100
AcDbEntity
  8
M0
 62
     4
100
AcDbLine
 10
92.542166
 20
259.407851
 11
92.542203
 21
269.907851
  0
ARC
  5
777
100
AcDbEntity
  8
M0
 62
     4
100
AcDbCircle
 10
91.042165
 20
258.907856
 40
1.0
100
AcDbArc
 50
179.9998
 51
270.0
  0
ARC
  5
778
100
AcDbEntity
  8
M0
 62
     4
100
AcDbCircle
 10
91.542165
 20
258.907854
 40
1.0
100
AcDbArc
 50
270.0
 51
359.9998
  0
LINE
  5
779
100
AcDbEntity
  8
M0
 62
     4
100
AcDbLine
 10
90.542135
 20
250.407858
 11
90.542154
 21
255.907858
  0
LINE
  5
77A
100
AcDbEntity
  8
M0
 62
     4
100
AcDbLine
 10
92.392205
 20
277.407851
 11
90.892199
 21
275.907872
  0
LINE
  5
77B
100
AcDbEntity
  8
M0
 62
     4
100
AcDbLine
 10
92.392205
 20
277.407851
 11
90.89221
 21
278.907856
  0
LINE
  5
77C
100
AcDbEntity
  8
M0
 62
     4
100
AcDbLine
 10
90.042224
 20
275.907859
 11
90.042236
 21
279.407859
  0
LINE
  5
77D
100
AcDbEntity
  8
M0
 62
     4
100
AcDbLine
 10
110.687234
 20
286.407787
 11
110.68725
 21
290.907787
  0
LINE
  5
77E
100
AcDbEntity
  8
M0
 62
     4
100
AcDbLine
 10
92.392267
 20
290.907817
 11
92.39223
 21
275.907577
  0
LINE
  5
77F
100
AcDbEntity
  8
M0
 62
     4
100
AcDbLine
 10
90.892199
 20
275.907582
 11
90.042239
 21
275.907829
  0
LINE
  5
780
100
AcDbEntity
  8
M0
 62
     4
100
AcDbLine
 10
90.892225
 20
278.907575
 11
90.04225
 21
278.907821
  0
LINE
  5
781
100
AcDbEntity
  8
M0
 62
     4
100
AcDbLine
 10
92.392193
 20
274.157851
 11
90.042218
 21
274.157859
  0
LINE
  5
782
100
AcDbEntity
  8
M0
 62
     4
100
AcDbLine
 10
92.392216
 20
280.657851
 11
90.04224
 21
280.657859
  0
LINE
  5
783
100
AcDbEntity
  8
M0
 62
     4
100
AcDbLine
 10
76.542224
 20
275.822122
 11
76.542231
 21
277.993707
  0
LINE
  5
784
100
AcDbEntity
  8
M0
 62
     4
100
AcDbLine
 10
81.042224
 20
275.822106
 11
81.042231
 21
277.993691
  0
LINE
  5
785
100
AcDbEntity
  8
M0
 62
     4
100
AcDbLine
 10
87.042224
 20
275.90787
 11
87.042231
 21
277.90787
  0
LINE
  5
786
100
AcDbEntity
  8
M0
 62
     4
100
AcDbLine
 10
100.484394
 20
254.407823
 11
101.542088
 21
254.407819
  0
LINE
  5
787
100
AcDbEntity
  8
M0
 62
     4
100
AcDbLine
 10
80.292158
 20
256.907893
 11
80.292173
 21
261.407893
  0
LINE
  5
788
100
AcDbEntity
  8
M0
 62
     4
100
AcDbLine
 10
56.541052
 20
256.907976
 11
52.042127
 21
256.907992
  0
LINE
  5
789
100
AcDbEntity
  8
M0
 62
     4
100
AcDbLine
 10
77.542177
 20
262.407903
 11
76.042177
 21
262.407908
  0
ARC
  5
78A
100
AcDbEntity
  8
M0
 62
     4
100
AcDbCircle
 10
79.292173
 20
261.407897
 40
1.0
100
AcDbArc
 50
359.9998
 51
401.408851
  0
LINE
  5
78B
100
AcDbEntity
  8
M0
 62
     4
100
AcDbLine
 10
54.04228
 20
291.907985
 11
52.042249
 21
291.907992
  0
ARC
  5
78C
100
AcDbEntity
  8
M0
 62
     4
100
AcDbCircle
 10
54.042276
 20
290.907985
 40
1.0
100
AcDbArc
 50
359.9998
 51
449.998926
  0
LINE
  5
78D
100
AcDbEntity
  8
M0
 62
     4
100
AcDbLine
 10
114.542256
 20
293.907774
 11
106.042256
 21
293.907804
  0
LINE
  5
78E
100
AcDbEntity
  8
M0
 62
     4
100
AcDbLine
 10
105.04225
 20
292.107819
 11
105.042253
 21
292.907807
  0
LINE
  5
78F
100
AcDbEntity
  8
M0
 62
     4
100
AcDbLine
 10
89.591199
 20
291.907805
 11
88.035471
 21
291.907805
  0
ARC
  5
790
100
AcDbEntity
  8
M0
 62
     4
100
AcDbCircle
 10
106.042253
 20
292.907804
 40
1.0
100
AcDbArc
 50
90.0
 51
179.9998
  0
LINE
  5
791
100
AcDbEntity
  8
M0
 62
     4
100
AcDbLine
 10
77.542295
 20
291.907854
 11
75.481887
 21
291.907843
  0
LINE
  5
792
100
AcDbEntity
  8
M0
 62
     4
100
AcDbLine
 10
91.542145
 20
253.407854
 11
91.542154
 21
255.907854
  0
LINE
  5
793
100
AcDbEntity
  8
M0
 62
     4
100
AcDbLine
 10
93.542157
 20
252.407847
 11
90.542142
 21
252.407858
  0
ARC
  5
794
100
AcDbEntity
  8
M0
 62
     4
100
AcDbCircle
 10
92.542145
 20
253.407851
 40
1.0
100
AcDbArc
 50
179.9998
 51
270.0
  0
ARC
  5
795
100
AcDbEntity
  8
M0
 62
     4
100
AcDbCircle
 10
92.542145
 20
253.407851
 40
1.0
100
AcDbArc
 50
270.0
 51
359.9998
  0
TEXT
  5
796
100
AcDbEntity
  8
M0
 62
     4
100
AcDbText
 10
59.392441
 20
273.258338
 40
2.800003
  1
２
 50
359.999819
 41
0.535719
  7
STANDARD
100
AcDbText
  0
TEXT
  5
797
100
AcDbEntity
  8
M0
 62
     4
100
AcDbText
 10
71.892441
 20
273.258295
 40
2.800003
  1
４
 50
359.999819
 41
0.535719
  7
STANDARD
100
AcDbText
  0
TEXT
  5
798
100
AcDbEntity
  8
M0
 62
     4
100
AcDbText
 10
84.392275
 20
273.258251
 40
2.800003
  1
６
 50
359.999819
 41
0.535719
  7
STANDARD
100
AcDbText
  0
LINE
  5
799
100
AcDbEntity
  8
M0
 62
     4
100
AcDbLine
 10
95.042622
 20
293.903155
 11
91.042622
 21
293.903169
  0
ARC
  5
79A
100
AcDbEntity
  8
M0
 62
     4
100
AcDbCircle
 10
91.042619
 20
292.903169
 40
1.0
100
AcDbArc
 50
89.998926
 51
179.9998
  0
ARC
  5
79B
100
AcDbEntity
  8
M0
 62
     4
100
AcDbCircle
 10
95.042619
 20
292.903155
 40
1.0
100
AcDbArc
 50
359.9998
 51
449.998926
  0
LINE
  5
79C
100
AcDbEntity
  8
M0
 62
     4
100
AcDbLine
 10
90.042634
 20
292.903166
 11
90.042631
 21
291.906295
  0
LINE
  5
79D
100
AcDbEntity
  8
M0
 62
     4
100
AcDbLine
 10
96.042634
 20
292.903151
 11
96.042631
 21
291.906295
  0
LINE
  5
79E
100
AcDbEntity
  8
M0
 62
     4
100
AcDbLine
 10
66.042302
 20
293.907866
 11
66.542302
 21
293.907865
  0
LINE
  5
79F
100
AcDbEntity
  8
M0
 62
     4
100
AcDbLine
 10
65.442341
 20
293.707916
 11
63.292301
 21
293.707953
  0
LINE
  5
7A0
100
AcDbEntity
  8
M0
 62
     4
100
AcDbLine
 10
92.39223
 20
275.907577
 11
92.3922
 21
272.407821
  0
LINE
  5
7A1
100
AcDbEntity
  8
M0
 62
     4
100
AcDbLine
 10
90.042227
 20
272.407814
 11
93.600041
 21
272.407824
  0
LINE
  5
7A2
100
AcDbEntity
  8
M0
 62
     4
100
AcDbLine
 10
90.042298
 20
288.407775
 11
92.392289
 21
288.407774
  0
LINE
  5
7A3
100
AcDbEntity
  8
M0
 62
     4
100
AcDbLine
 10
59.840953
 20
292.207648
 11
52.042266
 21
292.207698
  0
LINE
  5
7A4
100
AcDbEntity
  8
M0
 62
     4
100
AcDbLine
 10
59.437381
 20
290.908103
 11
57.542276
 21
290.907729
  0
LINE
  5
7A5
100
AcDbEntity
  8
M0
 62
     4
100
AcDbLine
 10
72.244589
 20
291.907895
 11
67.54228
 21
291.907645
  0
LINE
  5
7A6
100
AcDbEntity
  8
M0
 62
     4
100
AcDbLine
 10
71.911556
 20
290.908049
 11
70.042276
 21
290.907685
  0
LINE
  5
7A7
100
AcDbEntity
  8
M0
 62
     4
100
AcDbLine
 10
84.603068
 20
291.907777
 11
80.042295
 21
291.907907
  0
LINE
  5
7A8
100
AcDbEntity
  8
M0
 62
     4
100
AcDbLine
 10
84.253834
 20
290.907842
 11
82.542276
 21
290.907641
  0
LINE
  5
7A9
100
AcDbEntity
  8
M0
 62
     4
100
AcDbLine
 10
90.042172
 20
269.907798
 11
90.042219
 21
274.407859
  0
ARC
  5
7AA
100
AcDbEntity
  8
M0
 62
     4
100
AcDbCircle
 10
61.542173
 20
261.407959
 40
2.249995
100
AcDbArc
 50
335.590346
 51
359.9998
  0
ARC
  5
7AB
100
AcDbEntity
  8
M0
 62
     4
100
AcDbCircle
 10
86.542173
 20
261.407872
 40
2.249995
100
AcDbArc
 50
335.590346
 51
359.9998
  0
LINE
  5
7AC
100
AcDbEntity
  8
M0
 62
     4
100
AcDbLine
 10
71.79228
 20
291.907871
 11
71.792283
 21
292.707914
  0
LINE
  5
7AD
100
AcDbEntity
  8
M0
 62
     4
100
AcDbLine
 10
81.541051
 20
256.907889
 11
80.292158
 21
256.907893
  0
LINE
  5
7AE
100
AcDbEntity
  8
M0
 62
     4
100
AcDbLine
 10
69.041052
 20
263.407933
 11
67.54218
 21
263.407938
  0
ARC
  5
7AF
100
AcDbEntity
  8
M0
 62
     6
100
AcDbCircle
 10
97.542302
 20
258.407774
 40
2.999997
100
AcDbArc
 50
115.844051
 51
424.156194
  0
LINE
  5
7B0
100
AcDbEntity
  8
M0
 62
     6
100
AcDbLine
 10
94.198781
 20
261.107725
 11
93.767155
 21
259.707823
  0
LINE
  5
7B1
100
AcDbEntity
  8
M0
 62
     6
100
AcDbLine
 10
94.583318
 20
254.460524
 11
93.767155
 21
257.107847
  0
LINE
  5
7B2
100
AcDbEntity
  8
M0
 62
     6
100
AcDbLine
 10
100.500798
 20
254.460508
 11
101.128972
 21
256.497374
  0
LINE
  5
7B3
100
AcDbEntity
  8
M0
 62
     6
100
AcDbLine
 10
95.061345
 20
254.107847
 11
100.023015
 21
254.107847
  0
LINE
  5
7B4
100
AcDbEntity
  8
M0
 62
     6
100
AcDbLine
 10
93.767155
 20
259.707823
 11
93.767155
 21
257.107847
  0
LINE
  5
7B5
100
AcDbEntity
  8
M0
 62
     6
100
AcDbLine
 10
99.132878
 20
256.816954
 11
95.951238
 21
259.998716
  0
LINE
  5
7B6
100
AcDbEntity
  8
M0
 62
     6
100
AcDbLine
 10
97.895573
 20
259.821959
 11
96.127995
 21
258.054258
  0
LINE
  5
7B7
100
AcDbEntity
  8
M0
 62
     6
100
AcDbLine
 10
98.95612
 20
258.76129
 11
97.188542
 21
256.993711
  0
ARC
  5
7B8
100
AcDbEntity
  8
M0
 62
     6
100
AcDbCircle
 10
95.061345
 20
254.607847
 40
0.5
100
AcDbArc
 50
197.128737
 51
270.0
  0
ARC
  5
7B9
100
AcDbEntity
  8
M0
 62
     6
100
AcDbCircle
 10
100.023015
 20
254.607847
 40
0.5
100
AcDbArc
 50
270.0
 51
342.861308
  0
LINE
  5
7BA
100
AcDbEntity
  8
M0
  6
DASHDOT
 62
     6
100
AcDbLine
 10
97.042302
 20
258.407774
 11
98.042302
 21
258.407774
  0
LINE
  5
7BB
100
AcDbEntity
  8
M0
  6
DASHDOT
 62
     6
100
AcDbLine
 10
97.542302
 20
257.907774
 11
97.542302
 21
258.907774
  0
ARC
  5
7BC
100
AcDbEntity
  8
M0
 62
     6
100
AcDbCircle
 10
107.542287
 20
258.407774
 40
2.999997
100
AcDbArc
 50
115.844051
 51
424.156194
  0
LINE
  5
7BD
100
AcDbEntity
  8
M0
 62
     6
100
AcDbLine
 10
104.444798
 20
261.905577
 11
103.76714
 21
259.707823
  0
LINE
  5
7BE
100
AcDbEntity
  8
M0
 62
     6
100
AcDbLine
 10
104.583302
 20
254.460524
 11
103.76714
 21
257.107847
  0
LINE
  5
7BF
100
AcDbEntity
  8
M0
 62
     6
100
AcDbLine
 10
110.638112
 20
261.909727
 11
111.317189
 21
259.707823
  0
LINE
  5
7C0
100
AcDbEntity
  8
M0
 62
     6
100
AcDbLine
 10
110.500783
 20
254.460508
 11
111.317189
 21
257.107847
  0
LINE
  5
7C1
100
AcDbEntity
  8
M0
 62
     6
100
AcDbLine
 10
105.06133
 20
254.107847
 11
110.023
 21
254.107847
  0
LINE
  5
7C2
100
AcDbEntity
  8
M0
 62
     6
100
AcDbLine
 10
111.317189
 20
257.107847
 11
111.317189
 21
259.707823
  0
LINE
  5
7C3
100
AcDbEntity
  8
M0
 62
     6
100
AcDbLine
 10
103.76714
 20
259.707823
 11
103.76714
 21
257.107847
  0
LINE
  5
7C4
100
AcDbEntity
  8
M0
 62
     6
100
AcDbLine
 10
109.132863
 20
256.816954
 11
105.951222
 21
259.998716
  0
LINE
  5
7C5
100
AcDbEntity
  8
M0
 62
     6
100
AcDbLine
 10
107.895558
 20
259.821959
 11
106.12798
 21
258.054258
  0
LINE
  5
7C6
100
AcDbEntity
  8
M0
 62
     6
100
AcDbLine
 10
108.956105
 20
258.76129
 11
107.188527
 21
256.993711
  0
ARC
  5
7C7
100
AcDbEntity
  8
M0
 62
     6
100
AcDbCircle
 10
105.06133
 20
254.607847
 40
0.5
100
AcDbArc
 50
197.128737
 51
270.0
  0
ARC
  5
7C8
100
AcDbEntity
  8
M0
 62
     6
100
AcDbCircle
 10
110.023
 20
254.607847
 40
0.5
100
AcDbArc
 50
270.0
 51
342.861308
  0
LINE
  5
7C9
100
AcDbEntity
  8
M0
  6
DASHDOT
 62
     6
100
AcDbLine
 10
107.042287
 20
258.407774
 11
108.042287
 21
258.407774
  0
LINE
  5
7CA
100
AcDbEntity
  8
M0
  6
DASHDOT
 62
     6
100
AcDbLine
 10
107.542287
 20
257.907774
 11
107.542287
 21
258.907774
  0
LINE
  5
7CB
100
AcDbEntity
  8
M0
100
AcDbLine
 10
102.891164
 20
287.258018
 11
106.891164
 21
287.258018
  0
LINE
  5
7CC
100
AcDbEntity
  8
M0
100
AcDbLine
 10
106.891164
 20
287.258018
 11
106.891164
 21
290.058018
  0
LINE
  5
7CD
100
AcDbEntity
  8
M0
100
AcDbLine
 10
106.891164
 20
290.058018
 11
102.891164
 21
290.058018
  0
LINE
  5
7CE
100
AcDbEntity
  8
M0
100
AcDbLine
 10
102.891164
 20
290.058018
 11
102.891164
 21
287.258018
  0
LINE
  5
7CF
100
AcDbEntity
  8
M0
 62
     2
100
AcDbLine
 10
59.08022
 20
283.868864
 11
60.925069
 21
282.024031
  0
LINE
  5
7D0
100
AcDbEntity
  8
M0
 62
     2
100
AcDbLine
 10
61.051946
 20
284.625975
 11
58.476872
 21
282.050901
  0
LINE
  5
7D1
100
AcDbEntity
  8
M0
 62
     2
100
AcDbLine
 10
61.759053
 20
283.918867
 11
59.18398
 21
281.343794
  0
CIRCLE
  5
7D2
100
AcDbEntity
  8
M0
 62
     2
100
AcDbCircle
 10
60.041097
 20
282.908018
 40
3.499993
  0
LINE
  5
7D3
100
AcDbEntity
  8
M0
  6
DASHDOT
 62
     2
100
AcDbLine
 10
59.541097
 20
282.908018
 11
60.541097
 21
282.908018
  0
LINE
  5
7D4
100
AcDbEntity
  8
M0
  6
DASHDOT
 62
     2
100
AcDbLine
 10
60.041097
 20
282.408018
 11
60.041097
 21
283.408018
  0
LINE
  5
7D5
100
AcDbEntity
  8
M0
 62
     2
100
AcDbLine
 10
71.58022
 20
269.368864
 11
73.425069
 21
267.524031
  0
LINE
  5
7D6
100
AcDbEntity
  8
M0
 62
     2
100
AcDbLine
 10
73.551946
 20
270.125975
 11
70.976872
 21
267.550901
  0
LINE
  5
7D7
100
AcDbEntity
  8
M0
 62
     2
100
AcDbLine
 10
74.259053
 20
269.418867
 11
71.68398
 21
266.843794
  0
CIRCLE
  5
7D8
100
AcDbEntity
  8
M0
 62
     2
100
AcDbCircle
 10
72.541097
 20
268.408018
 40
3.499993
  0
LINE
  5
7D9
100
AcDbEntity
  8
M0
  6
DASHDOT
 62
     2
100
AcDbLine
 10
72.041097
 20
268.408018
 11
73.041097
 21
268.408018
  0
LINE
  5
7DA
100
AcDbEntity
  8
M0
  6
DASHDOT
 62
     2
100
AcDbLine
 10
72.541097
 20
267.908018
 11
72.541097
 21
268.908018
  0
LINE
  5
7DB
100
AcDbEntity
  8
M0
 62
     2
100
AcDbLine
 10
59.08022
 20
269.368864
 11
60.925069
 21
267.524031
  0
LINE
  5
7DC
100
AcDbEntity
  8
M0
 62
     2
100
AcDbLine
 10
61.051946
 20
270.125975
 11
58.476872
 21
267.550901
  0
LINE
  5
7DD
100
AcDbEntity
  8
M0
 62
     2
100
AcDbLine
 10
61.759053
 20
269.418867
 11
59.18398
 21
266.843794
  0
CIRCLE
  5
7DE
100
AcDbEntity
  8
M0
 62
     2
100
AcDbCircle
 10
60.041097
 20
268.408018
 40
3.499993
  0
LINE
  5
7DF
100
AcDbEntity
  8
M0
  6
DASHDOT
 62
     2
100
AcDbLine
 10
59.541097
 20
268.408018
 11
60.541097
 21
268.408018
  0
LINE
  5
7E0
100
AcDbEntity
  8
M0
  6
DASHDOT
 62
     2
100
AcDbLine
 10
60.041097
 20
267.908018
 11
60.041097
 21
268.908018
  0
LINE
  5
7E1
100
AcDbEntity
  8
M0
 62
     7
100
AcDbLine
 10
114.542249
 20
291.906295
 11
88.035241
 21
291.906295
  0
LINE
  5
7E2
100
AcDbEntity
  8
M0
 62
     7
100
AcDbLine
 10
83.635476
 20
291.906295
 11
80.04228
 21
291.906295
  0
LINE
  5
7E3
100
AcDbEntity
  8
M0
 62
     7
100
AcDbLine
 10
96.193636
 20
290.906297
 11
96.193636
 21
288.606297
  0
LINE
  5
7E4
100
AcDbEntity
  8
M0
 62
     7
100
AcDbLine
 10
99.393636
 20
288.606297
 11
96.193636
 21
288.606297
  0
LINE
  5
7E5
100
AcDbEntity
  8
M0
 62
     7
100
AcDbLine
 10
99.393636
 20
288.606297
 11
99.393636
 21
286.406297
  0
ARC
  5
7E6
100
AcDbEntity
  8
M0
 62
   234
100
AcDbCircle
 10
101.891051
 20
291.408017
 40
1.0
100
AcDbArc
 50
90.0
 51
150.113814
  0
ARC
  5
7E7
100
AcDbEntity
  8
M0
 62
   234
100
AcDbCircle
 10
87.591051
 20
259.208017
 40
1.0
100
AcDbArc
 50
270.0
 51
360.0
  0
LINE
  5
7E8
100
AcDbEntity
  8
M0
 62
   234
100
AcDbLine
 10
63.591051
 20
263.407952
 11
63.591051
 21
259.208017
  0
ARC
  5
7E9
100
AcDbEntity
  8
M0
 62
   234
100
AcDbCircle
 10
72.891051
 20
300.408017
 40
1.0
100
AcDbArc
 50
0.0
 51
90.0
  0
ARC
  5
7EA
100
AcDbEntity
  8
M0
 62
   234
100
AcDbCircle
 10
62.591051
 20
259.208017
 40
1.0
100
AcDbArc
 50
270.0
 51
360.0
  0
LINE
  5
7EB
100
AcDbEntity
  8
M0
 62
   234
100
AcDbLine
 10
95.336859
 20
301.408017
 11
103.691051
 21
301.408017
  0
ARC
  5
7EC
100
AcDbEntity
  8
M0
 62
   234
100
AcDbCircle
 10
74.891051
 20
298.408017
 40
1.0
100
AcDbArc
 50
180.0
 51
270.0
  0
ARC
  5
7ED
100
AcDbEntity
  8
M0
 62
   234
100
AcDbCircle
 10
92.891051
 20
300.408017
 40
1.0
100
AcDbArc
 50
124.824371
 51
167.795457
  0
LINE
  5
7EE
100
AcDbEntity
  8
M0
 62
   234
100
AcDbLine
 10
62.091051
 20
309.21641
 11
62.091051
 21
297.285593
  0
LINE
  5
7EF
100
AcDbEntity
  8
M0
 62
   234
100
AcDbLine
 10
104.891051
 20
312.008017
 11
104.891051
 21
292.408017
  0
LINE
  5
7F0
100
AcDbEntity
  8
M0
 62
   234
100
AcDbLine
 10
104.191052
 20
312.008017
 11
104.891051
 21
312.008017
  0
LINE
  5
7F1
100
AcDbEntity
  8
M0
 62
   234
100
AcDbLine
 10
60.891051
 20
312.008017
 11
61.591051
 21
312.008017
  0
LINE
  5
7F2
100
AcDbEntity
  8
M0
 62
   234
100
AcDbLine
 10
88.591051
 20
259.208017
 11
88.591051
 21
263.407864
  0
LINE
  5
7F3
100
AcDbEntity
  8
M0
 62
   234
100
AcDbLine
 10
60.891051
 20
295.526822
 11
60.891051
 21
312.008017
  0
LINE
  5
7F4
100
AcDbEntity
  8
M0
 62
   234
100
AcDbLine
 10
87.591051
 20
258.208017
 11
85.591051
 21
258.208017
  0
LINE
  5
7F5
100
AcDbEntity
  8
M0
 62
   234
100
AcDbLine
 10
103.691051
 20
292.408017
 11
103.691051
 21
309.21641
  0
LINE
  5
7F6
100
AcDbEntity
  8
M0
 62
   234
100
AcDbLine
 10
72.891051
 20
301.408017
 11
69.766793
 21
301.408017
  0
LINE
  5
7F7
100
AcDbEntity
  8
M0
 62
   234
100
AcDbLine
 10
104.891051
 20
292.408017
 11
101.891051
 21
292.408017
  0
LINE
  5
7F8
100
AcDbEntity
  8
M0
 62
   234
100
AcDbLine
 10
73.891051
 20
300.408017
 11
73.891051
 21
298.408017
  0
LINE
  5
7F9
100
AcDbEntity
  8
M0
 62
   234
100
AcDbLine
 10
80.186945
 20
297.408017
 11
87.532846
 21
297.408017
  0
LINE
  5
7FA
100
AcDbEntity
  8
M0
 62
   234
100
AcDbLine
 10
66.851252
 20
301.408017
 11
62.091051
 21
301.408017
  0
LINE
  5
7FB
100
AcDbEntity
  8
M0
 62
     2
100
AcDbLine
 10
84.080174
 20
283.868864
 11
85.925023
 21
282.024031
  0
LINE
  5
7FC
100
AcDbEntity
  8
M0
 62
     2
100
AcDbLine
 10
86.0519
 20
284.625975
 11
83.476826
 21
282.050901
  0
LINE
  5
7FD
100
AcDbEntity
  8
M0
 62
     2
100
AcDbLine
 10
86.759007
 20
283.918867
 11
84.183934
 21
281.343794
  0
CIRCLE
  5
7FE
100
AcDbEntity
  8
M0
 62
     2
100
AcDbCircle
 10
85.041051
 20
282.908018
 40
3.499993
  0
LINE
  5
7FF
100
AcDbEntity
  8
M0
  6
DASHDOT
 62
     2
100
AcDbLine
 10
84.541051
 20
282.908018
 11
85.541051
 21
282.908018
  0
LINE
  5
800
100
AcDbEntity
  8
M0
  6
DASHDOT
 62
     2
100
AcDbLine
 10
85.041051
 20
282.408018
 11
85.041051
 21
283.408018
  0
LINE
  5
801
100
AcDbEntity
  8
M0
  6
DASHDOT
 62
     4
100
AcDbLine
 10
102.393636
 20
268.196264
 11
102.393636
 21
286.287344
  0
LINE
  5
802
100
AcDbEntity
  8
M0
  6
DASHDOT
 62
     4
100
AcDbLine
 10
92.181752
 20
277.406279
 11
112.255284
 21
277.406314
  0
CIRCLE
  5
803
100
AcDbEntity
  8
M0
 62
     7
100
AcDbCircle
 10
102.393636
 20
277.406297
 40
3.75
  0
CIRCLE
  5
804
100
AcDbEntity
  8
M0
 62
     7
100
AcDbCircle
 10
102.393636
 20
277.406297
 40
8.3
  0
LINE
  5
805
100
AcDbEntity
  8
M0
 62
     7
100
AcDbLine
 10
106.784277
 20
283.374945
 11
106.171442
 21
282.860715
  0
LINE
  5
806
100
AcDbEntity
  8
M0
 62
     7
100
AcDbLine
 10
108.421198
 20
280.179559
 11
109.034034
 21
280.69379
  0
LINE
  5
807
100
AcDbEntity
  8
M0
 62
     7
100
AcDbLine
 10
109.034034
 20
280.69379
 11
106.784277
 21
283.374945
  0
LINE
  5
808
100
AcDbEntity
  8
M0
 62
     7
100
AcDbLine
 10
106.171442
 20
282.860715
 11
108.421198
 21
280.179559
  0
LINE
  5
809
100
AcDbEntity
  8
M0
 62
     7
100
AcDbLine
 10
107.194691
 20
284.176811
 11
107.194692
 21
284.856122
  0
LINE
  5
80A
100
AcDbEntity
  8
M0
 62
     7
100
AcDbLine
 10
107.194693
 20
285.356122
 11
107.194695
 21
286.260846
  0
LINE
  5
80B
100
AcDbEntity
  8
M0
 62
     7
100
AcDbLine
 10
107.194693
 20
285.356122
 11
105.694693
 21
285.356124
  0
LINE
  5
80C
100
AcDbEntity
  8
M0
 62
     7
100
AcDbLine
 10
109.194723
 20
285.106134
 11
107.367281
 21
284.051058
  0
LINE
  5
80D
100
AcDbEntity
  8
M0
 62
     7
100
AcDbLine
 10
105.694693
 20
285.021612
 11
105.694693
 21
285.356124
  0
LINE
  5
80E
100
AcDbEntity
  8
M0
 62
     7
100
AcDbLine
 10
107.194692
 20
284.856122
 11
106.052881
 21
284.856124
  0
LINE
  5
80F
100
AcDbEntity
  8
M0
 62
     7
100
AcDbLine
 10
109.194723
 20
285.106134
 11
107.194695
 21
286.260846
  0
TEXT
  5
810
100
AcDbEntity
  8
M0
 62
     7
100
AcDbText
 10
113.892596
 20
284.731651
 40
2.0
  1
ＴＲＩＰ
 50
90.000563
 41
0.625
  7
STANDARD
100
AcDbText
  0
TEXT
  5
811
100
AcDbEntity
  8
M0
 62
     7
100
AcDbText
 10
113.893641
 20
270.723118
 40
2.0
  1
ＡＵＴＯ
 50
90.000556
 41
0.583333
  7
STANDARD
100
AcDbText
  0
CIRCLE
  5
812
100
AcDbEntity
  8
M0
 62
     7
100
AcDbCircle
 10
112.843636
 20
277.406297
 40
0.75
  0
LINE
  5
813
100
AcDbEntity
  8
M0
 62
     7
100
AcDbLine
 10
102.993636
 20
279.906297
 11
102.993636
 21
274.906297
  0
LINE
  5
814
100
AcDbEntity
  8
M0
 62
     7
100
AcDbLine
 10
102.993636
 20
279.906297
 11
101.793636
 21
279.906297
  0
LINE
  5
815
100
AcDbEntity
  8
M0
 62
     7
100
AcDbLine
 10
101.793636
 20
279.906297
 11
101.793636
 21
274.906297
  0
LINE
  5
816
100
AcDbEntity
  8
M0
 62
     7
100
AcDbLine
 10
102.993636
 20
274.906297
 11
101.793636
 21
274.906297
  0
LINE
  5
817
100
AcDbEntity
  8
M0
 62
     7
100
AcDbLine
 10
95.08354
 20
281.626782
 11
92.393636
 21
283.179799
  0
ARC
  5
818
100
AcDbEntity
  8
M0
 62
     7
100
AcDbCircle
 10
93.693636
 20
271.906297
 40
0.5
100
AcDbArc
 50
0.0
 51
90.0
  0
LINE
  5
819
100
AcDbEntity
  8
M0
 62
     7
100
AcDbLine
 10
94.193636
 20
269.906297
 11
94.193636
 21
271.906297
  0
LINE
  5
81A
100
AcDbEntity
  8
M0
 62
     7
100
AcDbLine
 10
98.838358
 20
269.906297
 11
89.543636
 21
269.906297
  0
LINE
  5
81B
100
AcDbEntity
  8
M0
 62
     7
100
AcDbLine
 10
114.543636
 20
269.906297
 11
105.948913
 21
269.906297
  0
ARC
  5
81C
100
AcDbEntity
  8
M0
 62
     7
100
AcDbCircle
 10
99.043636
 20
268.406297
 40
1.5
100
AcDbArc
 50
0.0
 51
42.204142
  0
ARC
  5
81D
100
AcDbEntity
  8
M0
 62
     7
100
AcDbCircle
 10
105.043636
 20
268.406297
 40
1.5
100
AcDbArc
 50
146.969284
 51
180.0
  0
LINE
  5
81E
100
AcDbEntity
  8
M0
 62
     7
100
AcDbLine
 10
110.024547
 20
269.707413
 11
105.062679
 21
269.707398
  0
ARC
  5
81F
100
AcDbEntity
  8
M0
 62
     7
100
AcDbCircle
 10
110.024547
 20
269.207398
 40
0.5
100
AcDbArc
 50
17.13596
 51
90.0
  0
ARC
  5
820
100
AcDbEntity
  8
M0
 62
     7
100
AcDbCircle
 10
99.024547
 20
269.207398
 40
0.5
100
AcDbArc
 50
17.13596
 51
90.0
  0
LINE
  5
821
100
AcDbEntity
  8
M0
 62
     7
100
AcDbLine
 10
99.024547
 20
269.707413
 11
94.062679
 21
269.707398
  0
ARC
  5
822
100
AcDbEntity
  8
M0
 62
     7
100
AcDbCircle
 10
105.062679
 20
269.207398
 40
0.5
100
AcDbArc
 50
90.0
 51
162.865076
  0
ARC
  5
823
100
AcDbEntity
  8
M0
 62
     7
100
AcDbCircle
 10
94.062679
 20
269.207398
 40
0.5
100
AcDbArc
 50
90.0
 51
162.865076
  0
ARC
  5
824
100
AcDbEntity
  8
M0
 62
     7
100
AcDbCircle
 10
94.043636
 20
268.406297
 40
1.5
100
AcDbArc
 50
90.0
 51
180.0
  0
ARC
  5
825
100
AcDbEntity
  8
M0
 62
     7
100
AcDbCircle
 10
110.043636
 20
268.406297
 40
1.5
100
AcDbArc
 50
0.0
 51
90.0
  0
LINE
  5
826
100
AcDbEntity
  8
M0
  6
DASHDOT
100
AcDbLine
 10
59.988454
 20
178.871174
 11
51.793645
 21
178.871174
  0
LINE
  5
827
100
AcDbEntity
  8
M0
  6
DASHDOT
100
AcDbLine
 10
55.891042
 20
182.968571
 11
55.891057
 21
174.773762
  0
LINE
  5
828
100
AcDbEntity
  8
M0
  6
DASHDOT
100
AcDbLine
 10
114.488456
 20
119.871174
 11
105.293647
 21
119.871174
  0
LINE
  5
829
100
AcDbEntity
  8
M0
  6
DASHDOT
100
AcDbLine
 10
109.891043
 20
124.468571
 11
109.891059
 21
114.773762
  0
LINE
  5
82A
100
AcDbEntity
  8
M0
  6
DIVIDE
100
AcDbLine
 10
114.291047
 20
52.371156
 11
51.491051
 21
52.371192
  0
ARC
  5
82B
100
AcDbEntity
  8
M0
  6
DIVIDE
100
AcDbCircle
 10
62.891051
 20
183.371181
 40
1.0
100
AcDbArc
 50
81.373073
 51
90.0
  0
LINE
  5
82C
100
AcDbEntity
  8
M0
  6
DIVIDE
100
AcDbLine
 10
114.291047
 20
184.371182
 11
114.291047
 21
52.371156
  0
LINE
  5
82D
100
AcDbEntity
  8
M0
  6
DIVIDE
100
AcDbLine
 10
99.86105
 20
184.371182
 11
114.291047
 21
184.371182
  0
LINE
  5
82E
100
AcDbEntity
  8
M0
  6
DIVIDE
100
AcDbLine
 10
51.491051
 20
184.371182
 11
65.921051
 21
184.371182
  0
LINE
  5
82F
100
AcDbEntity
  8
M0
  6
DIVIDE
100
AcDbLine
 10
51.491051
 20
52.371192
 11
51.491051
 21
184.371182
  0
LINE
  5
830
100
AcDbEntity
  8
M0
  6
DIVIDE
100
AcDbLine
 10
102.591051
 20
184.371182
 11
102.191051
 21
184.371182
  0
LINE
  5
831
100
AcDbEntity
  8
M0
  6
DIVIDE
100
AcDbLine
 10
63.19105
 20
184.371182
 11
63.59105
 21
184.371182
  0
LINE
  5
832
100
AcDbEntity
  8
M0
  6
DIVIDE
100
AcDbLine
 10
102.391051
 20
184.371182
 11
102.191051
 21
184.371182
  0
CIRCLE
  5
833
100
AcDbEntity
  8
M0
100
AcDbCircle
 10
109.891051
 20
119.871174
 40
2.0
  0
CIRCLE
  5
834
100
AcDbEntity
  8
M0
100
AcDbCircle
 10
109.891051
 20
119.871174
 40
1.7
  0
CIRCLE
  5
835
100
AcDbEntity
  8
M0
100
AcDbCircle
 10
55.891049
 20
178.871174
 40
2.0
  0
CIRCLE
  5
836
100
AcDbEntity
  8
M0
100
AcDbCircle
 10
55.891049
 20
178.871174
 40
1.7
  0
LINE
  5
837
100
AcDbEntity
  8
M0
  6
DIVIDE
100
AcDbLine
 10
99.86105
 20
198.871174
 11
65.921051
 21
198.871174
  0
LINE
  5
838
100
AcDbEntity
  8
M0
  6
DIVIDE
100
AcDbLine
 10
65.921051
 20
198.871174
 11
65.921051
 21
184.371182
  0
LINE
  5
839
100
AcDbEntity
  8
M0
  6
DIVIDE
100
AcDbLine
 10
99.86105
 20
198.871174
 11
99.86105
 21
184.371182
  0
LINE
  5
83A
100
AcDbEntity
  8
M0
  6
DASHDOT
100
AcDbLine
 10
82.891049
 20
206.296266
 11
82.891049
 21
43.518105
  0
LINE
  5
83B
100
AcDbEntity
  8
M3
 62
     2
100
AcDbLine
 10
300.003268
 20
60.895184
 11
149.85312
 21
60.895184
  0
LINE
  5
83C
100
AcDbEntity
  8
M3
 62
     2
100
AcDbLine
 10
14.717987
 20
15.85014
 11
14.717987
 21
428.763047
  0
LINE
  5
83D
100
AcDbEntity
  8
M3
 62
     2
100
AcDbLine
 10
300.003268
 20
15.85014
 11
14.717987
 21
15.85014
  0
LINE
  5
83E
100
AcDbEntity
  8
M3
 62
     2
100
AcDbLine
 10
300.003268
 20
30.865154
 11
149.85312
 21
30.865154
  0
TEXT
  5
83F
100
AcDbEntity
  8
M3
 62
     2
100
AcDbText
 10
153.106369
 20
34.618908
 40
7.507507
  1
形　式；
 41
1.0
  7
STANDARD
100
AcDbText
  0
LINE
  5
840
100
AcDbEntity
  8
M3
 62
     2
100
AcDbLine
 10
300.003268
 20
45.880169
 11
149.85312
 21
45.880169
  0
TEXT
  5
841
100
AcDbEntity
  8
M3
 62
     2
100
AcDbText
 10
153.106369
 20
49.633923
 40
7.507507
  1
登録名：
 41
1.0
  7
STANDARD
100
AcDbText
  0
LINE
  5
842
100
AcDbEntity
  8
M3
 62
     2
100
AcDbLine
 10
149.85312
 20
15.85014
 11
149.85312
 21
60.895184
  0
TEXT
  5
843
100
AcDbEntity
  8
M3
 62
     2
100
AcDbText
 10
153.106369
 20
19.603893
 40
7.507507
  1
適　用；
 41
1.0
  7
STANDARD
100
AcDbText
  0
LINE
  5
844
100
AcDbEntity
  8
M3
 62
     2
100
AcDbLine
 10
14.717987
 20
428.763047
 11
300.003268
 21
428.763047
  0
LINE
  5
845
100
AcDbEntity
  8
M3
 62
     2
100
AcDbLine
 10
300.003268
 20
428.763047
 11
300.003268
 21
15.85014
  0
TEXT
  5
846
100
AcDbEntity
  8
M3
 62
     2
100
AcDbText
 10
189.392663
 20
49.633923
 40
7.507507
  1
ＤＭＨＳ２５ＴＲ００
 41
0.5
  7
STANDARD
100
AcDbText
  0
TEXT
  5
847
100
AcDbEntity
  8
M3
 62
     2
100
AcDbText
 10
189.392663
 20
34.618908
 40
7.507507
  1
ＨＳ２５－Ｔ，ＨＳ２５－ＴＫ
 41
0.5
  7
STANDARD
100
AcDbText
  0
LINE
  5
848
100
AcDbEntity
  8
DN0
100
AcDbLine
 10
73.050864
 20
32.893864
 11
97.420239
 21
32.893864
  0
TEXT
  5
849
100
AcDbEntity
  8
DN0
100
AcDbText
 10
73.724037
 20
33.494465
 40
6.006006
  1
せん孔図
 41
0.833333
  7
STANDARD
100
AcDbText
  0
ENDSEC
  0
SECTION
  2
OBJECTS
  0
DICTIONARY
  5
C
100
AcDbDictionary
  3
ACAD_GROUP
350
D
  3
ACAD_MLINESTYLE
350
E
  3
ACDBVARIABLEDICTIONARY
350
32D
  0
DICTIONARY
  5
D
102
{ACAD_REACTORS
330
C
102
}
100
AcDbDictionary
  0
DICTIONARY
  5
E
102
{ACAD_REACTORS
330
C
102
}
100
AcDbDictionary
  3
STANDARD
350
13
  0
DICTIONARY
  5
32D
102
{ACAD_REACTORS
330
C
102
}
100
AcDbDictionary
  3
SORTENTS
350
32E
  0
MLINESTYLE
  5
13
102
{ACAD_REACTORS
330
E
102
}
100
AcDbMlineStyle
  2
STANDARD
 70
     0
  3

 62
     0
 51
90.0
 52
90.0
 71
     2
 49
0.5
 62
   256
  6
BYLAYER
 49
-0.5
 62
   256
  6
BYLAYER
  0
DICTIONARYVAR
  5
32E
102
{ACAD_REACTORS
330
32D
102
}
100
DictionaryVariables
280
     0
  1
96
  0
ENDSEC
  0
EOF
