  0
SECTION
  2
HEADER
  9
$ACADVER
  1
AC1014
  9
$INSBASE
 10
0.000000
 20
0.000000
 30
0.0
  9
$VIEWCTR
 10
7.531722
 20
4.5
  9
$VIEWSIZE
 40
9.0
  9
$SNAPMODE
 70
     0
  9
$SNAPUNIT
 10
1.0
 20
1.0
  9
$SNAPBASE
 10
0.0
 20
0.0
  9
$SNAPANG
 50
0.0
  9
$SNAPSTYLE
 70
     0
  9
$SNAPISOPAIR
 70
     0
  9
$GRIDMODE
 70
     0
  9
$GRIDUNIT
 10
0.0
 20
0.0
  9
$ORTHOMODE
 70
     0
  9
$REGENMODE
 70
     1
  9
$FILLMODE
 70
     1
  9
$QTEXTMODE
 70
     0
  9
$DRAGMODE
 70
     2
  9
$LTSCALE
  40
     1.000000
  9
$OSMODE
 70
     0
  9
$ATTMODE
 70
     1
  9
$TEXTSIZE
 40
0.2
  9
$TRACEWID
 40
0.05
  9
$TEXTSTYLE
  7
STANDARD
  9
$CELTYPE
  6
BYLAYER
  9
$CECOLOR
 62
   256
  9
$DIMSCALE
 40
1.0
  9
$DIMASZ
 40
0.18
  9
$DIMEXO
 40
0.0625
  9
$DIMDLI
 40
0.38
  9
$DIMRND
 40
0.0
  9
$DIMDLE
 40
0.0
  9
$DIMEXE
 40
0.18
  9
$DIMTP
 40
0.0
  9
$DIMTM
 40
0.0
  9
$DIMTXT
 40
0.18
  9
$DIMCEN
 40
0.09
  9
$DIMTSZ
 40
0.0
  9
$DIMTOL
 70
     0
  9
$DIMLIM
 70
     0
  9
$DIMTIH
 70
     1
  9
$DIMTOH
 70
     1
  9
$DIMSE1
 70
     0
  9
$DIMSE2
 70
     0
  9
$DIMTAD
 70
     0
  9
$DIMZIN
 70
     0
  9
$DIMBLK
  1

  9
$LUNITS
 70
     2
  9
$LUPREC
 70
     4
  9
$AXISMODE
 70
     0
  9
$AXISUNIT
 10
0.0
 20
0.0
  9
$SKETCHINC
 40
0.1
  9
$FILLETRAD
 40
0.0
  9
$AUNITS
 70
     0
  9
$AUPREC
 70
     0
  9
$MENU
  1
ACAD
  9
$ELEVATION
 40
0.0
  9
$THICKNESS
 40
0.0
  9
$VIEWDIR
 10
0.0
 20
0.0
 30
1.0
  9
$LIMCHECK
 70
     0
  9
$BLIPMODE
 70
     1
  9
$CHAMFERA
 40
0.0
  9
$CHAMFERB
 40
0.0
  9
$FASTZOOM
 70
     1
  9
$SKPOLY
 70
     0
  9
$TDCREATE
 40
0000000.0000000000
  9
$TDUPDATE
 40
0000000.0000000000
  9
$TDINDWG
 40
0.0000000000
  9
$TDUSRTIMER
 40
0.0000000000
  9
$USRTIMER
 70
     1
  9
$ANGBASE
 50
0.0
  9
$ANGDIR
 70
     0
  9
$PDMODE
 70
     0
  9
$PDSIZE
 40
0.0
  9
$PLINEWID
 40
0.0
  9
$COORDS
 70
     0
  9
$USERI1
 70
     0
  9
$USERI2
 70
     0
  9
$USERI3
 70
     0
  9
$USERI4
 70
     0
  9
$USERI5
 70
     0
  9
$USERR1
 40
0.0
  9
$USERR2
 40
0.0
  9
$USERR3
 40
0.0
  9
$USERR4
 40
0.0
  9
$USERR5
 40
0.0
  9
$CLAYER
  8
M0
  9
$EXTMIN
 10
15.384616
 20
15.384616
  9
$EXTMAX
 10
307.692319
 20
438.461555
  9
$LIMMIN
 10
0.0
 20
0.0
  9
$LIMMAX
 10
210.0
 20
297.0
  9
$HANDSEED
  5
5CE
  0
ENDSEC
  0
SECTION
  2
CLASSES
  0
CLASS
  1
LWPOLYLINE
  2
AcDbPolyline
  3
"AutoCAD"
 90
        0
280
     0
281
     1
  0
CLASS
  1
DICTIONARYVAR
  2
AcDbDictionaryVar
  3
"AutoCAD"
 90
        0
280
     0
281
     0
  0
CLASS
  1
HATCH
  2
AcDbHatch
  3
"ACAD_SEDONA"
 90
        0
280
     0
281
     1
  0
ENDSEC
  0
SECTION
  2
TABLES
  0
TABLE
  2
VPORT
  5
8
100
AcDbSymbolTable
 70
     2
  0
VPORT
  5
14
100
AcDbSymbolTableRecord
100
AcDbViewportTableRecord
  2
*ACTIVE
 70
     0
 10
0.0
 20
0.0
 11
1.0
 21
1.0
 12
484.0
 22
297.0
 13
0.0
 23
0.0
 14
1.0
 24
1.0
 15
0.0
 25
0.0
 16
0.0
 26
0.0
 36
1.0
 17
0.0
 27
0.0
 37
0.0
 40
594.0
 41
2.0
 42
50.0
 43
0.0
 44
0.0
 50
0.0
 51
0.0
 71
     0
 72
   100
 73
     1
 74
     1
 75
     0
 76
     0
 77
     0
 78
     0
  0
ENDTAB
  0
TABLE
  2
LTYPE
  5
5
100
AcDbSymbolTable
 70
     5
  0
LTYPE
  5
15
100
AcDbSymbolTableRecord
100
AcDbLinetypeTableRecord
  2
BYBLOCK
 70
     0
  3

 72
    65
 73
     0
 40
0.0
  0
LTYPE
  5
16
100
AcDbSymbolTableRecord
100
AcDbLinetypeTableRecord
  2
BYLAYER
 70
     0
  3

 72
    65
 73
     0
 40
0.0
  0
LTYPE
  5
17
100
AcDbSymbolTableRecord
100
AcDbLinetypeTableRecord
  2
CONTINUOUS
 70
    64
  3
Solid line
 72
    65
 73
     0
 40
0.0
  0
LTYPE
  5
18
100
AcDbSymbolTableRecord
100
AcDbLinetypeTableRecord
  2
DASHED
 70
    64
  3
__ __ __ __ __ __ __ __ __ __ __ __ __ __ __ __
 72
    65
 73
     2
 40
0.75
 49
0.5
 74
     0
 49
-0.25
 74
     0
  0
LTYPE
  5
19
100
AcDbSymbolTableRecord
100
AcDbLinetypeTableRecord
  2
DASHDOT
 70
    64
  3
__ . __ . __ . __ . __ . __ . __ . __ . __ . __
 72
    65
 73
     4
 40
1.0
 49
0.5
 74
     0
 49
-0.25
 74
     0
 49
0.0
 74
     0
 49
-0.25
 74
     0
  0
LTYPE
  5
1A
100
AcDbSymbolTableRecord
100
AcDbLinetypeTableRecord
  2
DIVIDE
 70
    64
  3
____ . . ____ . . ____ . . ____ . . ____ . . __
 72
    65
 73
     6
 40
1.25
 49
0.5
 74
     0
 49
-0.25
 74
     0
 49
0.0
 74
     0
 49
-0.25
 74
     0
 49
0.0
 74
     0
 49
-0.25
 74
     0
  0
LTYPE
  5
1B
100
AcDbSymbolTableRecord
100
AcDbLinetypeTableRecord
  2
DOT
 70
    64
  3
. . . . . . . . . . . . . . . . . . . . . . . .
 72
    65
 73
     2
 40
0.25
 49
0.0
 74
     0
 49
-0.25
 74
     0
  0
ENDTAB
  0
TABLE
  2
LAYER
  5
2
100
AcDbSymbolTable
 70
   102
  0
LAYER
  5
F
100
AcDbSymbolTableRecord
100
AcDbLayerTableRecord
  2
0
 70
     0
 62
     7
  6
CONTINUOUS
  0
LAYER
  5
1C
100
AcDbSymbolTableRecord
100
AcDbLayerTableRecord
  2
DEFPOINTS
 70
     0
 62
     7
  6
CONTINUOUS
  0
LAYER
  5
1D
100
AcDbSymbolTableRecord
100
AcDbLayerTableRecord
  2
M0
 70
     0
 62
     3
  6
CONTINUOUS
  0
LAYER
  5
1E
100
AcDbSymbolTableRecord
100
AcDbLayerTableRecord
  2
M1
 70
     0
 62
     3
  6
CONTINUOUS
  0
LAYER
  5
1F
100
AcDbSymbolTableRecord
100
AcDbLayerTableRecord
  2
DD0
 70
     0
 62
     4
  6
CONTINUOUS
  0
LAYER
  5
20
100
AcDbSymbolTableRecord
100
AcDbLayerTableRecord
  2
DN0
 70
     0
 62
     2
  6
CONTINUOUS
  0
ENDTAB
  0
TABLE
  2
STYLE
  5
3
100
AcDbSymbolTable
 70
     2
  0
STYLE
  5
10
100
AcDbSymbolTableRecord
100
AcDbTextStyleTableRecord
  2
STANDARD
 70
     0
 40
0.0
 41
1.0
 50
0.0
 71
     0
 42
0.2
  3
txt
  4
BIGFONT
  0
ENDTAB
  0
TABLE
  2
VIEW
  5
6
100
AcDbSymbolTable
 70
     0
  0
ENDTAB
  0
TABLE
  2
UCS
  5
7
100
AcDbSymbolTable
 70
     0
  0
ENDTAB
  0
TABLE
  2
APPID
  5
9
100
AcDbSymbolTable
 70
     1
  0
APPID
  5
11
100
AcDbSymbolTableRecord
100
AcDbRegAppTableRecord
  2
ACAD
 70
     0
  0
ENDTAB
  0
TABLE
  2
DIMSTYLE
  5
A
100
AcDbSymbolTable
 70
     2
  0
DIMSTYLE
105
27
100
AcDbSymbolTableRecord
100
AcDbDimStyleTableRecord
  2
STANDARD
 70
     0
  3

  4

  5

  6
_OPEN
  7
_OPEN
 40
1.0
 41
4.615385
 42
1.0
 43
8.0
 44
1.0
 45
0.0
 46
0.0
 47
0.0
 48
0.0
140
4.846154
141
0.09
142
0.0
143
0.03937
144
1.0
145
0.0
146
1.0
147
0.6
 71
     0
 72
     0
 73
     1
 74
     1
 75
     0
 76
     0
 77
     3
 78
     8
170
     0
171
     2
172
     0
173
     1
174
     0
175
     0
176
     0
177
     0
178
     0
270
     2
271
     2
272
     4
273
     2
274
     2
340
10
275
     0
280
     0
281
     0
282
     0
283
     1
284
     0
285
     0
286
     0
287
     3
288
     0
  0
DIMSTYLE
105
28
100
AcDbSymbolTableRecord
100
AcDbDimStyleTableRecord
  2
LEADSTYL
 70
     0
  3

  4

  5

  6
_OPEN
  7
_OPEN
 40
1.0
 41
4.615385
 42
0.0625
 43
0.38
 44
0.18
 45
0.0
 46
0.0
 47
0.0
 48
0.0
140
4.846154
141
0.09
142
0.0
143
25.4
144
1.0
145
0.0
146
1.0
147
0.6
 71
     0
 72
     0
 73
     1
 74
     1
 75
     0
 76
     0
 77
     0
 78
     0
170
     0
171
     2
172
     0
173
     1
174
     0
175
     0
176
     0
177
     0
178
     0
270
     2
271
     4
272
     4
273
     2
274
     2
340
10
275
     0
280
     0
281
     0
282
     0
283
     1
284
     0
285
     0
286
     0
287
     3
288
     0
  0
ENDTAB
  0
TABLE
  2
BLOCK_RECORD
  5
1
100
AcDbSymbolTable
 70
    22
  0
BLOCK_RECORD
  5
21
100
AcDbSymbolTableRecord
100
AcDbBlockTableRecord
  2
*MODEL_SPACE
  0
BLOCK_RECORD
  5
24
100
AcDbSymbolTableRecord
100
AcDbBlockTableRecord
  2
*PAPER_SPACE
  0
BLOCK_RECORD
  5
29
100
AcDbSymbolTableRecord
100
AcDbBlockTableRecord
  2
_NONE
  0
BLOCK_RECORD
  5
2D
100
AcDbSymbolTableRecord
100
AcDbBlockTableRecord
  2
_OPEN
  0
BLOCK_RECORD
  5
33
100
AcDbSymbolTableRecord
100
AcDbBlockTableRecord
  2
_CLOSED
  0
BLOCK_RECORD
  5
3A
100
AcDbSymbolTableRecord
100
AcDbBlockTableRecord
  2
_ORIGIN
  0
BLOCK_RECORD
  5
3F
100
AcDbSymbolTableRecord
100
AcDbBlockTableRecord
  2
_DOT
  0
BLOCK_RECORD
  5
47
100
AcDbSymbolTableRecord
100
AcDbBlockTableRecord
  2
_OBLIQUE
  0
BLOCK_RECORD
  5
4B
100
AcDbSymbolTableRecord
100
AcDbBlockTableRecord
  2
DIMS0
  0
BLOCK_RECORD
  5
58
100
AcDbSymbolTableRecord
100
AcDbBlockTableRecord
  2
DIMS1
  0
BLOCK_RECORD
  5
64
100
AcDbSymbolTableRecord
100
AcDbBlockTableRecord
  2
DIMS2
  0
BLOCK_RECORD
  5
70
100
AcDbSymbolTableRecord
100
AcDbBlockTableRecord
  2
DIMS3
  0
BLOCK_RECORD
  5
7C
100
AcDbSymbolTableRecord
100
AcDbBlockTableRecord
  2
DIMS4
  0
BLOCK_RECORD
  5
88
100
AcDbSymbolTableRecord
100
AcDbBlockTableRecord
  2
DIMS5
  0
BLOCK_RECORD
  5
94
100
AcDbSymbolTableRecord
100
AcDbBlockTableRecord
  2
DIMS6
  0
BLOCK_RECORD
  5
99
100
AcDbSymbolTableRecord
100
AcDbBlockTableRecord
  2
DIMS7
  0
BLOCK_RECORD
  5
9E
100
AcDbSymbolTableRecord
100
AcDbBlockTableRecord
  2
DIMS8
  0
BLOCK_RECORD
  5
A9
100
AcDbSymbolTableRecord
100
AcDbBlockTableRecord
  2
DIMS9
  0
BLOCK_RECORD
  5
B4
100
AcDbSymbolTableRecord
100
AcDbBlockTableRecord
  2
DIMS10
  0
BLOCK_RECORD
  5
BF
100
AcDbSymbolTableRecord
100
AcDbBlockTableRecord
  2
DIMS11
  0
BLOCK_RECORD
  5
CA
100
AcDbSymbolTableRecord
100
AcDbBlockTableRecord
  2
DIMS12
  0
BLOCK_RECORD
  5
D5
100
AcDbSymbolTableRecord
100
AcDbBlockTableRecord
  2
DIMS13
  0
BLOCK_RECORD
  5
DD
100
AcDbSymbolTableRecord
100
AcDbBlockTableRecord
  2
DIMS14
  0
BLOCK_RECORD
  5
E9
100
AcDbSymbolTableRecord
100
AcDbBlockTableRecord
  2
DIMS15
  0
ENDTAB
  0
ENDSEC
  0
SECTION
  2
BLOCKS
  0
BLOCK
  5
22
100
AcDbEntity
  8
0
100
AcDbBlockBegin
  2
*MODEL_SPACE
 70
     0
 10
0.0
 20
0.0
 30
0.0
  3
*MODEL_SPACE
  1

  0
ENDBLK
  5
23
100
AcDbEntity
  8
0
100
AcDbBlockEnd
  0
BLOCK
  5
25
100
AcDbEntity
 67
     1
  8
0
100
AcDbBlockBegin
  2
*PAPER_SPACE
 70
     0
 10
0.0
 20
0.0
 30
0.0
  3
*PAPER_SPACE
  1

  0
ENDBLK
  5
26
100
AcDbEntity
 67
     1
  8
0
100
AcDbBlockEnd
  0
BLOCK
  5
2A
100
AcDbEntity
  8
0
100
AcDbBlockBegin
  2
_NONE
 70
     0
 10
0.0
 20
0.0
  0
CIRCLE
  5
2B
100
AcDbEntity
  8
0
 62
     0
100
AcDbCircle
 10
0.0
 20
0.0
 40
0.25
  0
ENDBLK
  5
2C
100
AcDbEntity
  8
0
100
AcDbBlockEnd
  0
BLOCK
  5
2E
100
AcDbEntity
  8
0
100
AcDbBlockBegin
  2
_OPEN
 70
     0
 10
0.0
 20
0.0
  0
LINE
  5
2F
100
AcDbEntity
  8
0
 62
     0
100
AcDbLine
 10
-0.965926
 20
0.258819
 11
0.0
 21
0.0
  0
LINE
  5
30
100
AcDbEntity
  8
0
 62
     0
100
AcDbLine
 10
0.0
 20
0.0
 11
-0.965926
 21
-0.258819
  0
LINE
  5
31
100
AcDbEntity
  8
0
 62
     0
100
AcDbLine
 10
0.0
 20
0.0
 11
-1.0
 21
0.0
  0
ENDBLK
  5
32
100
AcDbEntity
  8
0
100
AcDbBlockEnd
  0
BLOCK
  5
34
100
AcDbEntity
  8
0
100
AcDbBlockBegin
  2
_CLOSED
 70
     0
 10
0.0
 20
0.0
  0
LINE
  5
35
100
AcDbEntity
  8
0
 62
     0
100
AcDbLine
 10
-0.965926
 20
0.258819
 11
0.0
 21
0.0
  0
LINE
  5
36
100
AcDbEntity
  8
0
 62
     0
100
AcDbLine
 10
0.0
 20
0.0
 11
-0.965926
 21
-0.258819
  0
LINE
  5
37
100
AcDbEntity
  8
0
 62
     0
100
AcDbLine
 10
-0.965926
 20
0.258819
 11
-0.965926
 21
-0.258819
  0
LINE
  5
38
100
AcDbEntity
  8
0
 62
     0
100
AcDbLine
 10
0.0
 20
0.0
 11
-1.0
 21
0.0
  0
ENDBLK
  5
39
100
AcDbEntity
  8
0
100
AcDbBlockEnd
  0
BLOCK
  5
3B
100
AcDbEntity
  8
0
100
AcDbBlockBegin
  2
_ORIGIN
 70
     0
 10
0.0
 20
0.0
  0
CIRCLE
  5
3C
100
AcDbEntity
  8
0
 62
     0
100
AcDbCircle
 10
0.0
 20
0.0
 40
0.5
  0
LINE
  5
3D
100
AcDbEntity
  8
0
 62
     0
100
AcDbLine
 10
0.0
 20
0.0
 11
-1.0
 21
0.0
  0
ENDBLK
  5
3E
100
AcDbEntity
  8
0
100
AcDbBlockEnd
  0
BLOCK
  5
40
100
AcDbEntity
  8
0
100
AcDbBlockBegin
  2
_DOT
 70
     0
 10
0.0
 20
0.0
  0
POLYLINE
  5
41
100
AcDbEntity
  8
0
 62
     0
100
AcDb2dPolyline
 66
     1
 70
     1
 40
0.5
 41
0.5
  0
VERTEX
  5
42
100
AcDbEntity
  8
0
 62
     0
100
AcDbVertex
100
AcDb2dVertex
 10
-0.25
 20
0.0
 42
1.0
  0
VERTEX
  5
43
100
AcDbEntity
  8
0
 62
     0
100
AcDbVertex
100
AcDb2dVertex
 10
0.25
 20
0.0
 42
1.0
  0
SEQEND
  5
44
100
AcDbEntity
  8
0
 62
     0
  0
LINE
  5
45
100
AcDbEntity
  8
0
 62
     0
100
AcDbLine
 10
-0.5
 20
0.0
 11
-1.0
 21
0.0
  0
ENDBLK
  5
46
100
AcDbEntity
  8
0
100
AcDbBlockEnd
  0
BLOCK
  5
48
100
AcDbEntity
  8
0
100
AcDbBlockBegin
  2
_OBLIQUE
 70
     0
 10
0.0
 20
0.0
  0
LINE
  5
49
100
AcDbEntity
  8
0
 62
     0
100
AcDbLine
 10
-0.353553
 20
-0.353553
 11
0.353553
 21
0.353553
  0
ENDBLK
  5
4A
100
AcDbEntity
  8
0
100
AcDbBlockEnd
  0
BLOCK
  5
4C
100
AcDbEntity
  8
DD0
100
AcDbBlockBegin
  2
DIMS0
 70
     0
 10
0.0
 20
0.0
  0
LINE
  5
4D
100
AcDbEntity
  8
DD0
100
AcDbLine
 10
35.855972
 20
361.255694
 11
35.855972
 21
403.751282
  0
LINE
  5
4E
100
AcDbEntity
  8
DD0
100
AcDbLine
 10
123.655963
 20
361.255694
 11
123.655963
 21
403.751282
  0
LINE
  5
4F
100
AcDbEntity
  8
DD0
100
AcDbLine
 10
40.314092
 20
403.40737
 11
35.855972
 21
402.212821
  0
LINE
  5
50
100
AcDbEntity
  8
DD0
100
AcDbLine
 10
35.855972
 20
402.212821
 11
40.314092
 21
401.018271
  0
LINE
  5
51
100
AcDbEntity
  8
DD0
100
AcDbLine
 10
119.197844
 20
401.018271
 11
123.655963
 21
402.212821
  0
LINE
  5
52
100
AcDbEntity
  8
DD0
100
AcDbLine
 10
123.655963
 20
402.212821
 11
119.197844
 21
403.40737
  0
LINE
  5
53
100
AcDbEntity
  8
DD0
100
AcDbLine
 10
35.855972
 20
402.212821
 11
123.655963
 21
402.212821
  0
TEXT
  5
54
100
AcDbEntity
  8
DD0
100
AcDbText
 10
76.94315
 20
403.135907
 40
3.846154
  1
８８
 41
0.666667
  7
STANDARD
100
AcDbText
  0
TEXT
  5
55
100
AcDbEntity
  8
DD0
100
AcDbText
 10
47.712379
 20
397.135916
 40
3.846154
  1
（補助接点サイドオンユニットを付けた場合）
 41
0.666667
  7
STANDARD
100
AcDbText
  0
ENDBLK
  5
56
100
AcDbEntity
  8
DD0
100
AcDbBlockEnd
  0
BLOCK
  5
59
100
AcDbEntity
  8
DD0
100
AcDbBlockBegin
  2
DIMS1
 70
     0
 10
0.0
 20
0.0
  0
LINE
  5
5A
100
AcDbEntity
  8
DD0
100
AcDbLine
 10
79.755968
 20
277.24871
 11
79.755968
 21
267.517992
  0
LINE
  5
5B
100
AcDbEntity
  8
DD0
100
AcDbLine
 10
57.855972
 20
283.978775
 11
57.855972
 21
267.517992
  0
LINE
  5
5C
100
AcDbEntity
  8
DD0
100
AcDbLine
 10
75.297849
 20
267.861904
 11
79.755968
 21
269.056453
  0
LINE
  5
5D
100
AcDbEntity
  8
DD0
100
AcDbLine
 10
79.755968
 20
269.056453
 11
75.297849
 21
270.251003
  0
LINE
  5
5E
100
AcDbEntity
  8
DD0
100
AcDbLine
 10
62.314091
 20
270.251003
 11
57.855972
 21
269.056453
  0
LINE
  5
5F
100
AcDbEntity
  8
DD0
100
AcDbLine
 10
57.855972
 20
269.056453
 11
62.314091
 21
267.861904
  0
LINE
  5
60
100
AcDbEntity
  8
DD0
100
AcDbLine
 10
79.755968
 20
269.056453
 11
57.855972
 21
269.056453
  0
TEXT
  5
61
100
AcDbEntity
  8
DD0
100
AcDbText
 10
65.993149
 20
269.97954
 40
3.846154
  1
２２
 41
0.666667
  7
STANDARD
100
AcDbText
  0
ENDBLK
  5
62
100
AcDbEntity
  8
DD0
100
AcDbBlockEnd
  0
BLOCK
  5
65
100
AcDbEntity
  8
DD0
100
AcDbBlockBegin
  2
DIMS2
 70
     0
 10
0.0
 20
0.0
  0
LINE
  5
66
100
AcDbEntity
  8
DD0
100
AcDbLine
 10
48.35597
 20
362.055701
 11
48.35597
 21
390.136193
  0
LINE
  5
67
100
AcDbEntity
  8
DD0
100
AcDbLine
 10
111.155963
 20
362.055701
 11
111.155963
 21
390.136193
  0
LINE
  5
68
100
AcDbEntity
  8
DD0
100
AcDbLine
 10
52.814089
 20
389.792281
 11
48.35597
 21
388.597732
  0
LINE
  5
69
100
AcDbEntity
  8
DD0
100
AcDbLine
 10
48.35597
 20
388.597732
 11
52.814089
 21
387.403182
  0
LINE
  5
6A
100
AcDbEntity
  8
DD0
100
AcDbLine
 10
106.697844
 20
387.403182
 11
111.155963
 21
388.597732
  0
LINE
  5
6B
100
AcDbEntity
  8
DD0
100
AcDbLine
 10
111.155963
 20
388.597732
 11
106.697844
 21
389.792281
  0
LINE
  5
6C
100
AcDbEntity
  8
DD0
100
AcDbLine
 10
48.35597
 20
388.597732
 11
111.155963
 21
388.597732
  0
TEXT
  5
6D
100
AcDbEntity
  8
DD0
100
AcDbText
 10
76.94315
 20
389.520818
 40
3.846154
  1
６３
 41
0.666667
  7
STANDARD
100
AcDbText
  0
ENDBLK
  5
6E
100
AcDbEntity
  8
DD0
100
AcDbBlockEnd
  0
BLOCK
  5
71
100
AcDbEntity
  8
DD0
100
AcDbBlockBegin
  2
DIMS3
 70
     0
 10
0.0
 20
0.0
  0
LINE
  5
72
100
AcDbEntity
  8
DD0
100
AcDbLine
 10
107.194429
 20
380.017245
 11
136.019022
 21
380.017245
  0
LINE
  5
73
100
AcDbEntity
  8
DD0
100
AcDbLine
 10
107.194429
 20
280.017241
 11
136.019022
 21
280.017241
  0
LINE
  5
74
100
AcDbEntity
  8
DD0
100
AcDbLine
 10
135.67511
 20
375.559125
 11
134.480561
 21
380.017245
  0
LINE
  5
75
100
AcDbEntity
  8
DD0
100
AcDbLine
 10
134.480561
 20
380.017245
 11
133.286011
 21
375.559125
  0
LINE
  5
76
100
AcDbEntity
  8
DD0
100
AcDbLine
 10
133.286011
 20
284.47536
 11
134.480561
 21
280.017241
  0
LINE
  5
77
100
AcDbEntity
  8
DD0
100
AcDbLine
 10
134.480561
 20
280.017241
 11
135.67511
 21
284.47536
  0
LINE
  5
78
100
AcDbEntity
  8
DD0
100
AcDbLine
 10
134.480561
 20
380.017245
 11
134.480561
 21
280.017241
  0
TEXT
  5
79
100
AcDbEntity
  8
DD0
100
AcDbText
 10
133.557486
 20
325.665951
 40
3.846154
  1
１００
 50
90.000003
 41
0.666667
  7
STANDARD
100
AcDbText
  0
ENDBLK
  5
7A
100
AcDbEntity
  8
DD0
100
AcDbBlockEnd
  0
BLOCK
  5
7D
100
AcDbEntity
  8
DD0
100
AcDbBlockBegin
  2
DIMS4
 70
     0
 10
0.0
 20
0.0
  0
LINE
  5
7E
100
AcDbEntity
  8
DD0
100
AcDbLine
 10
162.290984
 20
347.555696
 11
162.290984
 21
403.751329
  0
LINE
  5
7F
100
AcDbEntity
  8
DD0
100
AcDbLine
 10
157.290984
 20
347.555696
 11
157.290984
 21
403.751329
  0
LINE
  5
80
100
AcDbEntity
  8
DD0
100
AcDbLine
 10
166.749103
 20
403.407417
 11
162.290984
 21
402.212868
  0
LINE
  5
81
100
AcDbEntity
  8
DD0
100
AcDbLine
 10
162.290984
 20
402.212868
 11
166.749103
 21
401.018318
  0
LINE
  5
82
100
AcDbEntity
  8
DD0
100
AcDbLine
 10
152.832864
 20
401.018318
 11
157.290984
 21
402.212868
  0
LINE
  5
83
100
AcDbEntity
  8
DD0
100
AcDbLine
 10
157.290984
 20
402.212868
 11
152.832864
 21
403.407417
  0
LINE
  5
84
100
AcDbEntity
  8
DD0
100
AcDbLine
 10
167.367907
 20
402.212868
 11
147.598675
 21
402.212868
  0
TEXT
  5
85
100
AcDbEntity
  8
DD0
100
AcDbText
 10
148.955082
 20
403.135954
 40
3.846154
  1
５
 41
0.666667
  7
STANDARD
100
AcDbText
  0
ENDBLK
  5
86
100
AcDbEntity
  8
DD0
100
AcDbBlockEnd
  0
BLOCK
  5
89
100
AcDbEntity
  8
DD0
100
AcDbBlockBegin
  2
DIMS5
 70
     0
 10
0.0
 20
0.0
  0
LINE
  5
8A
100
AcDbEntity
  8
DD0
100
AcDbLine
 10
162.290984
 20
347.555696
 11
162.290984
 21
403.751329
  0
LINE
  5
8B
100
AcDbEntity
  8
DD0
100
AcDbLine
 10
292.090981
 20
364.305692
 11
292.090981
 21
403.751329
  0
LINE
  5
8C
100
AcDbEntity
  8
DD0
100
AcDbLine
 10
166.749103
 20
403.407417
 11
162.290984
 21
402.212868
  0
LINE
  5
8D
100
AcDbEntity
  8
DD0
100
AcDbLine
 10
162.290984
 20
402.212868
 11
166.749103
 21
401.018318
  0
LINE
  5
8E
100
AcDbEntity
  8
DD0
100
AcDbLine
 10
287.632862
 20
401.018318
 11
292.090981
 21
402.212868
  0
LINE
  5
8F
100
AcDbEntity
  8
DD0
100
AcDbLine
 10
292.090981
 20
402.212868
 11
287.632862
 21
403.407417
  0
LINE
  5
90
100
AcDbEntity
  8
DD0
100
AcDbLine
 10
162.290984
 20
402.212868
 11
292.090981
 21
402.212868
  0
TEXT
  5
91
100
AcDbEntity
  8
DD0
100
AcDbText
 10
222.839691
 20
403.135954
 40
3.846154
  1
１３０
 41
0.666667
  7
STANDARD
100
AcDbText
  0
ENDBLK
  5
92
100
AcDbEntity
  8
DD0
100
AcDbBlockEnd
  0
BLOCK
  5
95
100
AcDbEntity
  8
DD0
100
AcDbBlockBegin
  2
DIMS6
 70
     0
 10
0.0
 20
0.0
  0
TEXT
  5
96
100
AcDbEntity
  8
DD0
100
AcDbText
 10
121.085944
 20
284.703285
 40
3.846154
  1
　
 50
311.037854
 41
0.666667
  7
STANDARD
100
AcDbText
  0
ENDBLK
  5
97
100
AcDbEntity
  8
DD0
100
AcDbBlockEnd
  0
BLOCK
  5
9A
100
AcDbEntity
  8
DD0
100
AcDbBlockBegin
  2
DIMS7
 70
     0
 10
0.0
 20
0.0
  0
TEXT
  5
9B
100
AcDbEntity
  8
DD0
100
AcDbText
 10
114.516754
 20
388.321079
 40
3.846154
  1
　
 50
43.422562
 41
0.666667
  7
STANDARD
100
AcDbText
  0
ENDBLK
  5
9C
100
AcDbEntity
  8
DD0
100
AcDbBlockEnd
  0
BLOCK
  5
9F
100
AcDbEntity
  8
DD0
100
AcDbBlockBegin
  2
DIMS8
 70
     0
 10
0.0
 20
0.0
  0
LINE
  5
A0
100
AcDbEntity
  8
DD0
100
AcDbLine
 10
281.09099
 20
365.055696
 11
281.09099
 21
390.136193
  0
LINE
  5
A1
100
AcDbEntity
  8
DD0
100
AcDbLine
 10
296.549101
 20
389.792281
 11
292.090981
 21
388.597732
  0
LINE
  5
A2
100
AcDbEntity
  8
DD0
100
AcDbLine
 10
292.090981
 20
388.597732
 11
296.549101
 21
387.403182
  0
LINE
  5
A3
100
AcDbEntity
  8
DD0
100
AcDbLine
 10
276.632871
 20
387.403182
 11
281.09099
 21
388.597732
  0
LINE
  5
A4
100
AcDbEntity
  8
DD0
100
AcDbLine
 10
281.09099
 20
388.597732
 11
276.632871
 21
389.792281
  0
LINE
  5
A5
100
AcDbEntity
  8
DD0
100
AcDbLine
 10
297.167904
 20
388.597732
 11
276.014067
 21
388.597732
  0
TEXT
  5
A6
100
AcDbEntity
  8
DD0
100
AcDbText
 10
283.778156
 20
389.520818
 40
3.846154
  1
１１
 41
0.666667
  7
STANDARD
100
AcDbText
  0
ENDBLK
  5
A7
100
AcDbEntity
  8
DD0
100
AcDbBlockEnd
  0
BLOCK
  5
AA
100
AcDbEntity
  8
DD0
100
AcDbBlockBegin
  2
DIMS9
 70
     0
 10
0.0
 20
0.0
  0
LINE
  5
AB
100
AcDbEntity
  8
DD0
100
AcDbLine
 10
58.391837
 20
191.269374
 11
136.019022
 21
191.269374
  0
LINE
  5
AC
100
AcDbEntity
  8
DD0
100
AcDbLine
 10
106.794426
 20
211.269375
 11
136.019022
 21
211.269375
  0
LWPOLYLINE
  5
AD
100
AcDbEntity
  8
DD0
100
AcDbPolyline
 90
        2
 70
     1
 43
0.769231
 10
134.095945
 20
191.269374
 42
1.0
 10
134.865176
 20
191.269374
 42
1.0
  0
LINE
  5
AE
100
AcDbEntity
  8
DD0
100
AcDbLine
 10
135.67511
 20
206.811255
 11
134.480561
 21
211.269375
  0
LINE
  5
AF
100
AcDbEntity
  8
DD0
100
AcDbLine
 10
134.480561
 20
211.269375
 11
133.286011
 21
206.811255
  0
LINE
  5
B0
100
AcDbEntity
  8
DD0
100
AcDbLine
 10
134.480561
 20
191.269374
 11
134.480561
 21
211.269375
  0
TEXT
  5
B1
100
AcDbEntity
  8
DD0
100
AcDbText
 10
133.557486
 20
198.456544
 40
3.846154
  1
２０
 50
90.000003
 41
0.666667
  7
STANDARD
100
AcDbText
  0
ENDBLK
  5
B2
100
AcDbEntity
  8
DD0
100
AcDbBlockEnd
  0
BLOCK
  5
B5
100
AcDbEntity
  8
DD0
100
AcDbBlockBegin
  2
DIMS10
 70
     0
 10
0.0
 20
0.0
  0
LINE
  5
B6
100
AcDbEntity
  8
DD0
100
AcDbLine
 10
52.755962
 20
196.905231
 11
52.755962
 21
229.259417
  0
LINE
  5
B7
100
AcDbEntity
  8
DD0
100
AcDbLine
 10
48.355973
 20
198.307831
 11
48.355973
 21
229.259417
  0
LWPOLYLINE
  5
B8
100
AcDbEntity
  8
DD0
100
AcDbPolyline
 90
        2
 70
     1
 43
0.769231
 10
52.371347
 20
227.720956
 42
1.0
 10
53.140578
 20
227.720956
 42
1.0
  0
LINE
  5
B9
100
AcDbEntity
  8
DD0
100
AcDbLine
 10
43.897854
 20
226.526406
 11
48.355973
 21
227.720956
  0
LINE
  5
BA
100
AcDbEntity
  8
DD0
100
AcDbLine
 10
48.355973
 20
227.720956
 11
43.897854
 21
228.915505
  0
LINE
  5
BB
100
AcDbEntity
  8
DD0
100
AcDbLine
 10
52.755962
 20
227.720956
 11
32.509818
 21
227.720956
  0
TEXT
  5
BC
100
AcDbEntity
  8
DD0
100
AcDbText
 10
33.866231
 20
228.644042
 40
3.846154
  1
４．５
 41
0.666667
  7
STANDARD
100
AcDbText
  0
ENDBLK
  5
BD
100
AcDbEntity
  8
DD0
100
AcDbBlockEnd
  0
BLOCK
  5
C0
100
AcDbEntity
  8
DD0
100
AcDbBlockBegin
  2
DIMS11
 70
     0
 10
0.0
 20
0.0
  0
LINE
  5
C1
100
AcDbEntity
  8
DD0
100
AcDbLine
 10
58.391837
 20
191.269374
 11
136.019022
 21
191.269374
  0
LINE
  5
C2
100
AcDbEntity
  8
DD0
100
AcDbLine
 10
112.391831
 20
132.269374
 11
136.019022
 21
132.269374
  0
LWPOLYLINE
  5
C3
100
AcDbEntity
  8
DD0
100
AcDbPolyline
 90
        2
 70
     1
 43
0.769231
 10
134.095945
 20
191.269374
 42
1.0
 10
134.865176
 20
191.269374
 42
1.0
  0
LINE
  5
C4
100
AcDbEntity
  8
DD0
100
AcDbLine
 10
133.286011
 20
136.727493
 11
134.480561
 21
132.269374
  0
LINE
  5
C5
100
AcDbEntity
  8
DD0
100
AcDbLine
 10
134.480561
 20
132.269374
 11
135.67511
 21
136.727493
  0
LINE
  5
C6
100
AcDbEntity
  8
DD0
100
AcDbLine
 10
134.480561
 20
191.269374
 11
134.480561
 21
132.269374
  0
TEXT
  5
C7
100
AcDbEntity
  8
DD0
100
AcDbText
 10
133.557486
 20
158.95655
 40
3.846154
  1
５９
 50
90.000003
 41
0.666667
  7
STANDARD
100
AcDbText
  0
ENDBLK
  5
C8
100
AcDbEntity
  8
DD0
100
AcDbBlockEnd
  0
BLOCK
  5
CB
100
AcDbEntity
  8
DD0
100
AcDbBlockBegin
  2
DIMS12
 70
     0
 10
0.0
 20
0.0
  0
LINE
  5
CC
100
AcDbEntity
  8
DD0
100
AcDbLine
 10
52.755962
 20
196.905231
 11
52.755962
 21
229.259417
  0
LINE
  5
CD
100
AcDbEntity
  8
DD0
100
AcDbLine
 10
106.755962
 20
137.905232
 11
106.755962
 21
229.259417
  0
LWPOLYLINE
  5
CE
100
AcDbEntity
  8
DD0
100
AcDbPolyline
 90
        2
 70
     1
 43
0.769231
 10
52.371347
 20
227.720956
 42
1.0
 10
53.140578
 20
227.720956
 42
1.0
  0
LINE
  5
CF
100
AcDbEntity
  8
DD0
100
AcDbLine
 10
102.297843
 20
226.526406
 11
106.755962
 21
227.720956
  0
LINE
  5
D0
100
AcDbEntity
  8
DD0
100
AcDbLine
 10
106.755962
 20
227.720956
 11
102.297843
 21
228.915505
  0
LINE
  5
D1
100
AcDbEntity
  8
DD0
100
AcDbLine
 10
52.755962
 20
227.720956
 11
106.755962
 21
227.720956
  0
TEXT
  5
D2
100
AcDbEntity
  8
DD0
100
AcDbText
 10
76.943144
 20
228.644042
 40
3.846154
  1
５４
 41
0.666667
  7
STANDARD
100
AcDbText
  0
ENDBLK
  5
D3
100
AcDbEntity
  8
DD0
100
AcDbBlockEnd
  0
BLOCK
  5
D6
100
AcDbEntity
  8
DD0
100
AcDbBlockBegin
  2
DIMS13
 70
     0
 10
0.0
 20
0.0
  0
TEXT
  5
D7
100
AcDbEntity
  8
DD0
100
AcDbText
 10
112.142736
 20
106.353693
 40
3.846154
  1
２－Ｍ４ねじ穴
 41
0.666667
  7
STANDARD
100
AcDbText
  0
LINE
  5
D8
100
AcDbEntity
  8
DD0
100
AcDbLine
 10
111.462745
 20
127.624455
 11
108.118478
 21
130.805282
  0
LINE
  5
D9
100
AcDbEntity
  8
DD0
100
AcDbLine
 10
108.118478
 20
130.805282
 11
109.424285
 21
126.378472
  0
LINE
  5
DA
100
AcDbEntity
  8
DD0
100
AcDbLine
 10
108.118478
 20
130.805282
 11
117.83524
 21
114.908416
  0
ENDBLK
  5
DB
100
AcDbEntity
  8
DD0
100
AcDbBlockEnd
  0
BLOCK
  5
DE
100
AcDbEntity
  8
DD0
100
AcDbBlockBegin
  2
DIMS14
 70
     0
 10
0.0
 20
0.0
  0
LINE
  5
DF
100
AcDbEntity
  8
DD0
100
AcDbLine
 10
52.317507
 20
380.017245
 11
26.29046
 21
380.017245
  0
LINE
  5
E0
100
AcDbEntity
  8
DD0
100
AcDbLine
 10
56.31751
 20
374.01723
 11
26.29046
 21
374.01723
  0
LINE
  5
E1
100
AcDbEntity
  8
DD0
100
AcDbLine
 10
26.634372
 20
384.475364
 11
27.828922
 21
380.017245
  0
LINE
  5
E2
100
AcDbEntity
  8
DD0
100
AcDbLine
 10
27.828922
 20
380.017245
 11
29.023471
 21
384.475364
  0
LINE
  5
E3
100
AcDbEntity
  8
DD0
100
AcDbLine
 10
29.023471
 20
369.559111
 11
27.828922
 21
374.01723
  0
LINE
  5
E4
100
AcDbEntity
  8
DD0
100
AcDbLine
 10
27.828922
 20
374.01723
 11
26.634372
 21
369.559111
  0
LINE
  5
E5
100
AcDbEntity
  8
DD0
100
AcDbLine
 10
27.828922
 20
385.094168
 11
27.828922
 21
368.940307
  0
TEXT
  5
E6
100
AcDbEntity
  8
DD0
100
AcDbText
 10
26.905844
 20
375.742857
 40
3.846154
  1
６
 50
90.000003
 41
0.666667
  7
STANDARD
100
AcDbText
  0
ENDBLK
  5
E7
100
AcDbEntity
  8
DD0
100
AcDbBlockEnd
  0
BLOCK
  5
EA
100
AcDbEntity
  8
DD0
100
AcDbBlockBegin
  2
DIMS15
 70
     0
 10
0.0
 20
0.0
  0
LINE
  5
EB
100
AcDbEntity
  8
DD0
100
AcDbLine
 10
56.31751
 20
286.017232
 11
26.29046
 21
286.017232
  0
LINE
  5
EC
100
AcDbEntity
  8
DD0
100
AcDbLine
 10
56.31751
 20
374.01723
 11
26.29046
 21
374.01723
  0
LINE
  5
ED
100
AcDbEntity
  8
DD0
100
AcDbLine
 10
26.634372
 20
290.475351
 11
27.828922
 21
286.017232
  0
LINE
  5
EE
100
AcDbEntity
  8
DD0
100
AcDbLine
 10
27.828922
 20
286.017232
 11
29.023471
 21
290.475351
  0
LINE
  5
EF
100
AcDbEntity
  8
DD0
100
AcDbLine
 10
29.023471
 20
369.559111
 11
27.828922
 21
374.01723
  0
LINE
  5
F0
100
AcDbEntity
  8
DD0
100
AcDbLine
 10
27.828922
 20
374.01723
 11
26.634372
 21
369.559111
  0
LINE
  5
F1
100
AcDbEntity
  8
DD0
100
AcDbLine
 10
27.828922
 20
286.017232
 11
27.828922
 21
374.01723
  0
TEXT
  5
F2
100
AcDbEntity
  8
DD0
100
AcDbText
 10
26.905844
 20
327.204413
 40
3.846154
  1
８８
 50
90.000003
 41
0.666667
  7
STANDARD
100
AcDbText
  0
ENDBLK
  5
F3
100
AcDbEntity
  8
DD0
100
AcDbBlockEnd
  0
ENDSEC
  0
SECTION
  2
ENTITIES
  0
INSERT
  5
57
100
AcDbEntity
  8
DD0
100
AcDbBlockReference
  2
DIMS0
 10
0.0
 20
0.0
  0
INSERT
  5
63
100
AcDbEntity
  8
DD0
100
AcDbBlockReference
  2
DIMS1
 10
0.0
 20
0.0
  0
INSERT
  5
6F
100
AcDbEntity
  8
DD0
100
AcDbBlockReference
  2
DIMS2
 10
0.0
 20
0.0
  0
INSERT
  5
7B
100
AcDbEntity
  8
DD0
100
AcDbBlockReference
  2
DIMS3
 10
0.0
 20
0.0
  0
INSERT
  5
87
100
AcDbEntity
  8
DD0
100
AcDbBlockReference
  2
DIMS4
 10
0.0
 20
0.0
  0
INSERT
  5
93
100
AcDbEntity
  8
DD0
100
AcDbBlockReference
  2
DIMS5
 10
0.0
 20
0.0
  0
INSERT
  5
98
100
AcDbEntity
  8
DD0
100
AcDbBlockReference
  2
DIMS6
 10
0.0
 20
0.0
  0
INSERT
  5
9D
100
AcDbEntity
  8
DD0
100
AcDbBlockReference
  2
DIMS7
 10
0.0
 20
0.0
  0
INSERT
  5
A8
100
AcDbEntity
  8
DD0
100
AcDbBlockReference
  2
DIMS8
 10
0.0
 20
0.0
  0
INSERT
  5
B3
100
AcDbEntity
  8
DD0
100
AcDbBlockReference
  2
DIMS9
 10
0.0
 20
0.0
  0
INSERT
  5
BE
100
AcDbEntity
  8
DD0
100
AcDbBlockReference
  2
DIMS10
 10
0.0
 20
0.0
  0
INSERT
  5
C9
100
AcDbEntity
  8
DD0
100
AcDbBlockReference
  2
DIMS11
 10
0.0
 20
0.0
  0
INSERT
  5
D4
100
AcDbEntity
  8
DD0
100
AcDbBlockReference
  2
DIMS12
 10
0.0
 20
0.0
  0
INSERT
  5
DC
100
AcDbEntity
  8
DD0
100
AcDbBlockReference
  2
DIMS13
 10
0.0
 20
0.0
  0
INSERT
  5
E8
100
AcDbEntity
  8
DD0
100
AcDbBlockReference
  2
DIMS14
 10
0.0
 20
0.0
  0
INSERT
  5
F4
100
AcDbEntity
  8
DD0
100
AcDbBlockReference
  2
DIMS15
 10
0.0
 20
0.0
  0
CIRCLE
  5
F5
100
AcDbEntity
  8
M0
 62
     7
100
AcDbCircle
 10
57.855939
 20
374.017241
 40
5.0
  0
CIRCLE
  5
F6
100
AcDbEntity
  8
M0
 62
     7
100
AcDbCircle
 10
79.755966
 20
374.017241
 40
5.0
  0
LINE
  5
F7
100
AcDbEntity
  8
M0
 62
     7
100
AcDbLine
 10
231.090982
 20
287.016801
 11
238.790982
 21
287.016801
  0
LINE
  5
F8
100
AcDbEntity
  8
M0
 62
     7
100
AcDbLine
 10
238.791001
 20
283.016865
 11
231.091001
 21
283.017154
  0
CIRCLE
  5
F9
100
AcDbEntity
  8
M0
 62
     7
100
AcDbCircle
 10
79.755966
 20
286.017241
 40
5.0
  0
CIRCLE
  5
FA
100
AcDbEntity
  8
M0
 62
     7
100
AcDbCircle
 10
101.655969
 20
286.017241
 40
5.0
  0
CIRCLE
  5
FB
100
AcDbEntity
  8
M0
 62
     7
100
AcDbCircle
 10
101.655969
 20
374.017241
 40
5.0
  0
CIRCLE
  5
FC
100
AcDbEntity
  8
M0
 62
     7
100
AcDbCircle
 10
57.85597
 20
286.017241
 40
5.0
  0
LINE
  5
FD
100
AcDbEntity
  8
M0
  6
DASHED
 62
     7
100
AcDbLine
 10
35.855973
 20
359.717241
 11
48.355973
 21
359.717241
  0
LINE
  5
FE
100
AcDbEntity
  8
M0
  6
DASHED
 62
     7
100
AcDbLine
 10
35.855973
 20
359.717241
 11
35.855973
 21
300.317241
  0
LINE
  5
FF
100
AcDbEntity
  8
M0
  6
DASHED
 62
     7
100
AcDbLine
 10
123.655966
 20
359.717241
 11
111.155966
 21
359.717241
  0
LINE
  5
100
100
AcDbEntity
  8
M0
  6
DASHED
 62
     7
100
AcDbLine
 10
123.655966
 20
300.317241
 11
111.155966
 21
300.317241
  0
LINE
  5
101
100
AcDbEntity
  8
M0
 62
     7
100
AcDbLine
 10
238.791001
 20
375.017617
 11
231.091001
 21
375.017327
  0
LINE
  5
102
100
AcDbEntity
  8
M0
 62
     7
100
AcDbLine
 10
238.790982
 20
371.01768
 11
231.090982
 21
371.01768
  0
LINE
  5
103
100
AcDbEntity
  8
M0
  6
DASHED
 62
     7
100
AcDbLine
 10
35.855973
 20
300.317241
 11
48.355973
 21
300.317241
  0
LINE
  5
104
100
AcDbEntity
  8
M0
  6
DASHDOT
 62
     7
100
AcDbLine
 10
33.855973
 20
330.017241
 11
125.655966
 21
330.017241
  0
LINE
  5
105
100
AcDbEntity
  8
M0
  6
DASHED
 62
     7
100
AcDbLine
 10
123.655966
 20
359.717241
 11
123.655966
 21
300.317241
  0
ARC
  5
106
100
AcDbEntity
  8
M0
 62
     7
100
AcDbCircle
 10
92.75597
 20
297.517241
 40
2.75
100
AcDbArc
 50
137.622878
 51
245.572882
  0
LINE
  5
107
100
AcDbEntity
  8
M0
  6
DASHDOT
 62
     7
100
AcDbLine
 10
101.655969
 20
373.517241
 11
101.655969
 21
374.517241
  0
CIRCLE
  5
108
100
AcDbEntity
  8
M0
 62
     7
100
AcDbCircle
 10
101.655969
 20
374.017241
 40
4.499996
  0
LINE
  5
109
100
AcDbEntity
  8
M0
  6
DASHDOT
 62
     7
100
AcDbLine
 10
101.155969
 20
374.017241
 11
102.155969
 21
374.017241
  0
LINE
  5
10A
100
AcDbEntity
  8
M0
 62
     7
100
AcDbLine
 10
102.122873
 20
375.898375
 11
99.774896
 21
373.550383
  0
LINE
  5
10B
100
AcDbEntity
  8
M0
 62
     7
100
AcDbLine
 10
103.537073
 20
374.48416
 11
101.189096
 21
372.136168
  0
LINE
  5
10C
100
AcDbEntity
  8
M0
 62
     7
100
AcDbLine
 10
99.587015
 20
376.08615
 11
103.849985
 21
371.82321
  0
CIRCLE
  5
10D
100
AcDbEntity
  8
M0
 62
     7
100
AcDbCircle
 10
104.955969
 20
309.117241
 40
3.0
  0
LINE
  5
10E
100
AcDbEntity
  8
M0
 62
     7
100
AcDbLine
 10
106.546553
 20
307.526596
 11
103.364912
 21
310.708358
  0
LINE
  5
10F
100
AcDbEntity
  8
M0
 62
     7
100
AcDbLine
 10
106.369795
 20
309.470932
 11
104.602217
 21
307.703354
  0
LINE
  5
110
100
AcDbEntity
  8
M0
 62
     7
100
AcDbLine
 10
105.309248
 20
310.531601
 11
103.54167
 21
308.7639
  0
LINE
  5
111
100
AcDbEntity
  8
M0
 62
     7
100
AcDbLine
 10
108.280969
 20
312.942241
 11
103.753153
 21
312.942241
  0
ARC
  5
112
100
AcDbEntity
  8
M0
 62
     7
100
AcDbCircle
 10
108.280969
 20
312.442241
 40
0.5
100
AcDbArc
 50
0.0
 51
90.0
  0
LINE
  5
113
100
AcDbEntity
  8
M0
 62
     7
100
AcDbLine
 10
108.780969
 20
305.792241
 11
108.780969
 21
312.442241
  0
ARC
  5
114
100
AcDbEntity
  8
M0
 62
     7
100
AcDbCircle
 10
108.280969
 20
305.792241
 40
0.5
100
AcDbArc
 50
270.0
 51
360.0
  0
LINE
  5
115
100
AcDbEntity
  8
M0
 62
     7
100
AcDbLine
 10
101.630969
 20
305.292241
 11
108.280969
 21
305.292241
  0
LINE
  5
116
100
AcDbEntity
  8
M0
 62
     7
100
AcDbLine
 10
101.130969
 20
312.017242
 11
101.130969
 21
305.792241
  0
ARC
  5
117
100
AcDbEntity
  8
M0
 62
     7
100
AcDbCircle
 10
101.630969
 20
305.792241
 40
0.5
100
AcDbArc
 50
180.0
 51
270.0
  0
LINE
  5
118
100
AcDbEntity
  8
M0
 62
     7
100
AcDbLine
 10
70.446553
 20
367.026596
 11
67.264912
 21
370.208358
  0
LINE
  5
119
100
AcDbEntity
  8
M0
 62
     7
100
AcDbLine
 10
70.269795
 20
368.970932
 11
68.502217
 21
367.203354
  0
LINE
  5
11A
100
AcDbEntity
  8
M0
 62
     7
100
AcDbLine
 10
69.209248
 20
370.031601
 11
67.44167
 21
368.2639
  0
LINE
  5
11B
100
AcDbEntity
  8
M0
 62
     7
100
AcDbLine
 10
72.180969
 20
372.442241
 11
65.530963
 21
372.442241
  0
ARC
  5
11C
100
AcDbEntity
  8
M0
 62
     7
100
AcDbCircle
 10
72.180969
 20
371.942241
 40
0.5
100
AcDbArc
 50
0.0
 51
90.0
  0
LINE
  5
11D
100
AcDbEntity
  8
M0
 62
     7
100
AcDbLine
 10
72.680969
 20
365.292241
 11
72.680969
 21
371.942241
  0
ARC
  5
11E
100
AcDbEntity
  8
M0
 62
     7
100
AcDbCircle
 10
72.180969
 20
365.292241
 40
0.5
100
AcDbArc
 50
270.0
 51
360.0
  0
LINE
  5
11F
100
AcDbEntity
  8
M0
 62
     7
100
AcDbLine
 10
68.02442
 20
364.792241
 11
72.180969
 21
364.792241
  0
ARC
  5
120
100
AcDbEntity
  8
M0
 62
     7
100
AcDbCircle
 10
68.855969
 20
368.617241
 40
3.0
100
AcDbArc
 50
237.275263
 51
545.873119
  0
CIRCLE
  5
121
100
AcDbEntity
  8
M0
 62
     7
100
AcDbCircle
 10
104.955969
 20
350.917241
 40
3.0
  0
LINE
  5
122
100
AcDbEntity
  8
M0
 62
     7
100
AcDbLine
 10
106.546553
 20
349.326596
 11
103.364913
 21
352.508358
  0
LINE
  5
123
100
AcDbEntity
  8
M0
 62
     7
100
AcDbLine
 10
106.369795
 20
351.270932
 11
104.602217
 21
349.503354
  0
LINE
  5
124
100
AcDbEntity
  8
M0
 62
     7
100
AcDbLine
 10
105.309248
 20
352.331601
 11
103.54167
 21
350.5639
  0
LINE
  5
125
100
AcDbEntity
  8
M0
 62
     7
100
AcDbLine
 10
108.280969
 20
354.742241
 11
101.630969
 21
354.742241
  0
ARC
  5
126
100
AcDbEntity
  8
M0
 62
     7
100
AcDbCircle
 10
108.280969
 20
354.242241
 40
0.5
100
AcDbArc
 50
0.0
 51
90.0
  0
LINE
  5
127
100
AcDbEntity
  8
M0
 62
     7
100
AcDbLine
 10
108.780969
 20
347.592241
 11
108.780969
 21
354.242241
  0
ARC
  5
128
100
AcDbEntity
  8
M0
 62
     7
100
AcDbCircle
 10
108.280969
 20
347.592241
 40
0.5
100
AcDbArc
 50
270.0
 51
360.0
  0
LINE
  5
129
100
AcDbEntity
  8
M0
 62
     7
100
AcDbLine
 10
103.753153
 20
347.092241
 11
108.280969
 21
347.092241
  0
LINE
  5
12A
100
AcDbEntity
  8
M0
 62
     7
100
AcDbLine
 10
101.130969
 20
354.242241
 11
101.130969
 21
348.017241
  0
ARC
  5
12B
100
AcDbEntity
  8
M0
 62
     7
100
AcDbCircle
 10
101.630969
 20
354.242241
 40
0.5
100
AcDbArc
 50
90.0
 51
180.0
  0
LINE
  5
12C
100
AcDbEntity
  8
M0
  6
DASHDOT
 62
     7
100
AcDbLine
 10
79.755969
 20
381.510214
 11
79.755969
 21
278.787163
  0
ARC
  5
12D
100
AcDbEntity
  8
M0
 62
     7
100
AcDbCircle
 10
87.40597
 20
365.367241
 40
0.5
100
AcDbArc
 50
268.473851
 51
270.0
  0
ARC
  5
12E
100
AcDbEntity
  8
M0
 62
     7
100
AcDbCircle
 10
52.75597
 20
360.017241
 40
2.25
100
AcDbArc
 50
0.0
 51
180.0
  0
ARC
  5
12F
100
AcDbEntity
  8
M0
 62
     7
100
AcDbCircle
 10
52.75597
 20
358.017241
 40
2.25
100
AcDbArc
 50
180.0
 51
360.0
  0
ARC
  5
130
100
AcDbEntity
  8
M0
 62
     7
100
AcDbCircle
 10
53.35597
 20
299.517241
 40
5.0
100
AcDbArc
 50
180.0
 51
270.0
  0
ARC
  5
131
100
AcDbEntity
  8
M0
 62
     7
100
AcDbCircle
 10
53.35597
 20
360.517241
 40
5.0
100
AcDbArc
 50
90.0
 51
180.0
  0
ARC
  5
132
100
AcDbEntity
  8
M0
 62
     7
100
AcDbCircle
 10
57.55597
 20
298.017241
 40
0.5
100
AcDbArc
 50
180.0
 51
270.0
  0
ARC
  5
133
100
AcDbEntity
  8
M0
 62
     7
100
AcDbCircle
 10
101.95597
 20
299.017241
 40
0.5
100
AcDbArc
 50
0.0
 51
90.0
  0
ARC
  5
134
100
AcDbEntity
  8
M0
 62
     7
100
AcDbCircle
 10
58.55597
 20
299.017241
 40
0.5
100
AcDbArc
 50
0.0
 51
90.0
  0
ARC
  5
135
100
AcDbEntity
  8
M0
 62
     7
100
AcDbCircle
 10
57.55597
 20
299.017241
 40
0.5
100
AcDbArc
 50
90.0
 51
180.0
  0
CIRCLE
  5
136
100
AcDbEntity
  8
M0
 62
     7
100
AcDbCircle
 10
52.25597
 20
300.017241
 40
2.25
  0
CIRCLE
  5
137
100
AcDbEntity
  8
M0
 62
     7
100
AcDbCircle
 10
107.25597
 20
360.017241
 40
2.25
  0
ARC
  5
138
100
AcDbEntity
  8
M0
 62
     7
100
AcDbCircle
 10
101.95597
 20
298.017241
 40
0.5
100
AcDbArc
 50
270.0
 51
360.0
  0
ARC
  5
139
100
AcDbEntity
  8
M0
 62
     7
100
AcDbCircle
 10
100.95597
 20
299.017241
 40
0.5
100
AcDbArc
 50
90.0
 51
180.0
  0
ARC
  5
13A
100
AcDbEntity
  8
M0
 62
     7
100
AcDbCircle
 10
99.75597
 20
364.517241
 40
1.0
100
AcDbArc
 50
90.0
 51
98.626927
  0
ARC
  5
13B
100
AcDbEntity
  8
M0
 62
     7
100
AcDbCircle
 10
106.75597
 20
300.017241
 40
2.25
100
AcDbArc
 50
180.0
 51
360.0
  0
ARC
  5
13C
100
AcDbEntity
  8
M0
 62
     7
100
AcDbCircle
 10
59.75597
 20
364.517241
 40
1.0
100
AcDbArc
 50
81.373073
 51
90.0
  0
ARC
  5
13D
100
AcDbEntity
  8
M0
 62
     7
100
AcDbCircle
 10
106.15597
 20
360.517241
 40
5.0
100
AcDbArc
 50
0.0
 51
90.0
  0
ARC
  5
13E
100
AcDbEntity
  8
M0
 62
     7
100
AcDbCircle
 10
58.55597
 20
298.017241
 40
0.5
100
AcDbArc
 50
270.0
 51
360.0
  0
ARC
  5
13F
100
AcDbEntity
  8
M0
 62
     7
100
AcDbCircle
 10
106.75597
 20
302.017241
 40
2.25
100
AcDbArc
 50
0.0
 51
180.0
  0
ARC
  5
140
100
AcDbEntity
  8
M0
 62
     7
100
AcDbCircle
 10
106.15597
 20
299.517241
 40
5.0
100
AcDbArc
 50
270.0
 51
360.0
  0
LINE
  5
141
100
AcDbEntity
  8
M0
 62
     7
100
AcDbLine
 10
84.75597
 20
297.017241
 11
84.75597
 21
297.517242
  0
LINE
  5
142
100
AcDbEntity
  8
M0
 62
     7
100
AcDbLine
 10
84.75597
 20
294.517239
 11
82.855966
 21
294.517239
  0
LINE
  5
143
100
AcDbEntity
  8
M0
 62
     7
100
AcDbLine
 10
74.755969
 20
297.517242
 11
74.755969
 21
297.017241
  0
LINE
  5
144
100
AcDbEntity
  8
M0
 62
     7
100
AcDbLine
 10
59.055969
 20
295.517241
 11
59.055969
 21
312.017242
  0
LINE
  5
145
100
AcDbEntity
  8
M0
 62
     7
100
AcDbLine
 10
75.25597
 20
296.51724
 11
76.655966
 21
296.51724
  0
LINE
  5
146
100
AcDbEntity
  8
M0
 62
     7
100
AcDbLine
 10
57.55597
 20
297.517242
 11
58.55597
 21
297.517242
  0
LINE
  5
147
100
AcDbEntity
  8
M0
 62
     7
100
AcDbLine
 10
58.55597
 20
299.517242
 11
57.55597
 21
299.517242
  0
LINE
  5
148
100
AcDbEntity
  8
M0
 62
     7
100
AcDbLine
 10
101.955971
 20
299.517242
 11
100.955969
 21
299.517242
  0
LINE
  5
149
100
AcDbEntity
  8
M0
 62
     7
100
AcDbLine
 10
57.055969
 20
299.017241
 11
57.055969
 21
298.017239
  0
ARC
  5
14A
100
AcDbEntity
  8
M0
 62
     7
100
AcDbCircle
 10
73.85597
 20
374.017241
 40
0.5
100
AcDbArc
 50
0.0
 51
90.0
  0
ARC
  5
14B
100
AcDbEntity
  8
M0
 62
     7
100
AcDbCircle
 10
85.65597
 20
374.017241
 40
0.5
100
AcDbArc
 50
90.0
 51
180.0
  0
ARC
  5
14C
100
AcDbEntity
  8
M0
 62
     7
100
AcDbCircle
 10
73.85597
 20
373.517241
 40
1.0
100
AcDbArc
 50
90.0
 51
180.0
  0
ARC
  5
14D
100
AcDbEntity
  8
M0
 62
     7
100
AcDbCircle
 10
85.65597
 20
373.517241
 40
1.0
100
AcDbArc
 50
0.0
 51
90.0
  0
LINE
  5
14E
100
AcDbEntity
  8
M0
 62
     7
100
AcDbLine
 10
102.455968
 20
298.017239
 11
102.455968
 21
299.017241
  0
LINE
  5
14F
100
AcDbEntity
  8
M0
 62
     7
100
AcDbLine
 10
87.455971
 20
364.517241
 11
91.309095
 21
364.517241
  0
LINE
  5
150
100
AcDbEntity
  8
M0
 62
     7
100
AcDbLine
 10
90.755969
 20
363.01724
 11
87.455971
 21
363.01724
  0
LINE
  5
151
100
AcDbEntity
  8
M0
 62
     7
100
AcDbLine
 10
72.85597
 20
373.017242
 11
64.855962
 21
373.017242
  0
LINE
  5
152
100
AcDbEntity
  8
M0
 62
     7
100
AcDbLine
 10
94.65597
 20
373.017242
 11
86.655969
 21
373.017242
  0
LINE
  5
153
100
AcDbEntity
  8
M0
 62
     7
100
AcDbLine
 10
86.655969
 20
373.517239
 11
86.655969
 21
365.497036
  0
LINE
  5
154
100
AcDbEntity
  8
M0
 62
     7
100
AcDbLine
 10
85.15597
 20
364.95313
 11
85.15597
 21
373.517239
  0
LINE
  5
155
100
AcDbEntity
  8
M0
 62
     7
100
AcDbLine
 10
72.055971
 20
363.01724
 11
68.72058
 21
363.01724
  0
LINE
  5
156
100
AcDbEntity
  8
M0
 62
     7
100
AcDbLine
 10
68.202039
 20
364.517241
 11
72.055971
 21
364.517241
  0
LINE
  5
157
100
AcDbEntity
  8
M0
 62
     7
100
AcDbLine
 10
106.155971
 20
294.517239
 11
99.05597
 21
294.517239
  0
LINE
  5
158
100
AcDbEntity
  8
M0
 62
     7
100
AcDbLine
 10
57.055969
 20
300.51724
 11
59.055969
 21
300.51724
  0
LINE
  5
159
100
AcDbEntity
  8
M0
 62
     7
100
AcDbLine
 10
57.055969
 20
304.317241
 11
57.055969
 21
300.51724
  0
LINE
  5
15A
100
AcDbEntity
  8
M0
 62
     7
100
AcDbLine
 10
102.455968
 20
300.51724
 11
102.455968
 21
304.317241
  0
LINE
  5
15B
100
AcDbEntity
  8
M0
 62
     7
100
AcDbLine
 10
100.455968
 20
300.51724
 11
102.455968
 21
300.51724
  0
LINE
  5
15C
100
AcDbEntity
  8
M0
 62
     7
100
AcDbLine
 10
104.505973
 20
302.01724
 11
104.505973
 21
300.017239
  0
LINE
  5
15D
100
AcDbEntity
  8
M0
 62
     7
100
AcDbLine
 10
109.005967
 20
300.017239
 11
109.005967
 21
302.01724
  0
LINE
  5
15E
100
AcDbEntity
  8
M0
 62
     7
100
AcDbLine
 10
48.35597
 20
299.517242
 11
48.35597
 21
360.517241
  0
LINE
  5
15F
100
AcDbEntity
  8
M0
 62
     7
100
AcDbLine
 10
55.00597
 20
360.01724
 11
55.00597
 21
358.017241
  0
LINE
  5
160
100
AcDbEntity
  8
M0
 62
     7
100
AcDbLine
 10
50.50597
 20
358.017241
 11
50.50597
 21
360.01724
  0
LINE
  5
161
100
AcDbEntity
  8
M0
 62
     7
100
AcDbLine
 10
101.055971
 20
305.317241
 11
101.955971
 21
305.317241
  0
LINE
  5
162
100
AcDbEntity
  8
M0
 62
     7
100
AcDbLine
 10
107.955972
 20
305.317241
 11
108.855972
 21
305.317241
  0
LINE
  5
163
100
AcDbEntity
  8
M0
 62
     7
100
AcDbLine
 10
57.55597
 20
354.717241
 11
58.45597
 21
354.717241
  0
LINE
  5
164
100
AcDbEntity
  8
M0
 62
     7
100
AcDbLine
 10
101.955971
 20
354.717241
 11
101.055971
 21
354.717241
  0
LINE
  5
165
100
AcDbEntity
  8
M0
 62
     7
100
AcDbLine
 10
109.955968
 20
302.317241
 11
109.855967
 21
302.317241
  0
LINE
  5
166
100
AcDbEntity
  8
M0
 62
     7
100
AcDbLine
 10
108.855972
 20
354.717241
 11
107.955972
 21
354.717241
  0
LINE
  5
167
100
AcDbEntity
  8
M0
 62
     7
100
AcDbLine
 10
109.955968
 20
357.71724
 11
109.855967
 21
357.71724
  0
LINE
  5
168
100
AcDbEntity
  8
M0
 62
     7
100
AcDbLine
 10
50.65597
 20
354.717241
 11
51.55597
 21
354.717241
  0
LINE
  5
169
100
AcDbEntity
  8
M0
 62
     7
100
AcDbLine
 10
67.588261
 20
294.517239
 11
70.75597
 21
294.517239
  0
LINE
  5
16A
100
AcDbEntity
  8
M0
 62
     7
100
AcDbLine
 10
49.55597
 20
302.317241
 11
49.655969
 21
302.317241
  0
LINE
  5
16B
100
AcDbEntity
  8
M0
 62
     7
100
AcDbLine
 10
58.45597
 20
305.317241
 11
57.55597
 21
305.317241
  0
LINE
  5
16C
100
AcDbEntity
  8
M0
 62
     7
100
AcDbLine
 10
51.55597
 20
305.317241
 11
50.65597
 21
305.317241
  0
LINE
  5
16D
100
AcDbEntity
  8
M0
 62
     7
100
AcDbLine
 10
49.55597
 20
357.71724
 11
49.655969
 21
357.71724
  0
ARC
  5
16E
100
AcDbEntity
  8
M0
 62
     7
100
AcDbCircle
 10
84.25597
 20
297.017241
 40
0.5
100
AcDbArc
 50
270.0
 51
360.0
  0
ARC
  5
16F
100
AcDbEntity
  8
M0
 62
     7
100
AcDbCircle
 10
84.75597
 20
296.517241
 40
2.0
100
AcDbArc
 50
270.0
 51
292.57935
  0
ARC
  5
170
100
AcDbEntity
  8
M0
 62
     7
100
AcDbCircle
 10
100.95597
 20
298.017241
 40
0.5
100
AcDbArc
 50
180.0
 51
270.0
  0
ARC
  5
171
100
AcDbEntity
  8
M0
 62
     7
100
AcDbCircle
 10
74.75597
 20
296.517241
 40
2.0
100
AcDbArc
 50
247.42065
 51
270.0
  0
ARC
  5
172
100
AcDbEntity
  8
M0
 62
     7
100
AcDbCircle
 10
75.25597
 20
297.017241
 40
0.5
100
AcDbArc
 50
180.0
 51
270.0
  0
LINE
  5
173
100
AcDbEntity
  8
M0
 62
     7
100
AcDbLine
 10
100.955969
 20
297.517242
 11
101.955971
 21
297.517242
  0
LINE
  5
174
100
AcDbEntity
  8
M0
 62
     7
100
AcDbLine
 10
100.455968
 20
295.517241
 11
100.455968
 21
312.017242
  0
LINE
  5
175
100
AcDbEntity
  8
M0
 62
     7
100
AcDbLine
 10
85.15597
 20
373.517239
 11
85.15597
 21
374.01724
  0
LINE
  5
176
100
AcDbEntity
  8
M0
 62
     7
100
AcDbLine
 10
74.355969
 20
373.017242
 11
74.755966
 21
373.017242
  0
LINE
  5
177
100
AcDbEntity
  8
M0
 62
     7
100
AcDbLine
 10
84.755966
 20
373.017242
 11
85.15597
 21
373.017242
  0
LINE
  5
178
100
AcDbEntity
  8
M0
 62
     7
100
AcDbLine
 10
74.355969
 20
373.517239
 11
74.355969
 21
364.95313
  0
LINE
  5
179
100
AcDbEntity
  8
M0
 62
     7
100
AcDbLine
 10
72.85597
 20
365.497036
 11
72.85597
 21
373.517239
  0
LINE
  5
17A
100
AcDbEntity
  8
M0
 62
     7
100
AcDbLine
 10
74.355969
 20
374.01724
 11
74.355969
 21
373.517239
  0
LINE
  5
17B
100
AcDbEntity
  8
M0
 62
     7
100
AcDbLine
 10
110.155972
 20
350.11724
 11
109.855967
 21
350.11724
  0
ARC
  5
17C
100
AcDbEntity
  8
M0
 62
     7
100
AcDbCircle
 10
73.05597
 20
364.517241
 40
1.0
100
AcDbArc
 50
90.0
 51
180.0
  0
LINE
  5
17D
100
AcDbEntity
  8
M0
 62
     7
100
AcDbLine
 10
109.855967
 20
326.317241
 11
110.155972
 21
326.317241
  0
LINE
  5
17E
100
AcDbEntity
  8
M0
 62
     7
100
AcDbLine
 10
110.155972
 20
333.717241
 11
109.855967
 21
333.717241
  0
ARC
  5
17F
100
AcDbEntity
  8
M0
 62
     7
100
AcDbCircle
 10
86.05597
 20
364.517241
 40
1.0
100
AcDbArc
 50
90.0
 51
180.0
  0
ARC
  5
180
100
AcDbEntity
  8
M0
 62
     7
100
AcDbCircle
 10
86.05597
 20
295.517241
 40
1.0
100
AcDbArc
 50
180.0
 51
270.0
  0
ARC
  5
181
100
AcDbEntity
  8
M0
 62
     7
100
AcDbCircle
 10
73.45597
 20
364.517241
 40
1.0
100
AcDbArc
 50
0.0
 51
90.0
  0
ARC
  5
182
100
AcDbEntity
  8
M0
 62
     7
100
AcDbCircle
 10
73.45597
 20
295.517241
 40
1.0
100
AcDbArc
 50
270.0
 51
360.0
  0
LINE
  5
183
100
AcDbEntity
  8
M0
 62
     7
100
AcDbLine
 10
109.855967
 20
309.917241
 11
110.155972
 21
309.917241
  0
LINE
  5
184
100
AcDbEntity
  8
M0
 62
     7
100
AcDbLine
 10
108.855972
 20
356.717241
 11
108.855972
 21
334.717241
  0
LINE
  5
185
100
AcDbEntity
  8
M0
 62
     7
100
AcDbLine
 10
73.455969
 20
294.517239
 11
73.05597
 21
294.517239
  0
LINE
  5
186
100
AcDbEntity
  8
M0
 62
     7
100
AcDbLine
 10
73.05597
 20
311.117241
 11
73.455969
 21
311.117241
  0
LINE
  5
187
100
AcDbEntity
  8
M0
 62
     7
100
AcDbLine
 10
73.455969
 20
311.117241
 11
74.455971
 21
311.117241
  0
ARC
  5
188
100
AcDbEntity
  8
M0
 62
     7
100
AcDbCircle
 10
86.45597
 20
364.517241
 40
1.0
100
AcDbArc
 50
0.0
 51
90.0
  0
ARC
  5
189
100
AcDbEntity
  8
M0
 62
     7
100
AcDbCircle
 10
99.05597
 20
364.517241
 40
1.0
100
AcDbArc
 50
90.0
 51
180.0
  0
LINE
  5
18A
100
AcDbEntity
  8
M0
 62
     7
100
AcDbLine
 10
108.855972
 20
325.317241
 11
108.855972
 21
303.317241
  0
ARC
  5
18B
100
AcDbEntity
  8
M0
 62
     7
100
AcDbCircle
 10
86.45597
 20
295.517241
 40
1.0
100
AcDbArc
 50
270.0
 51
360.0
  0
ARC
  5
18C
100
AcDbEntity
  8
M0
 62
     7
100
AcDbCircle
 10
99.45597
 20
295.517241
 40
1.0
100
AcDbArc
 50
270.0
 51
360.0
  0
LINE
  5
18D
100
AcDbEntity
  8
M0
 62
     7
100
AcDbLine
 10
73.05597
 20
365.517242
 11
73.455969
 21
365.517242
  0
ARC
  5
18E
100
AcDbEntity
  8
M0
 62
     7
100
AcDbCircle
 10
99.05597
 20
295.517241
 40
1.0
100
AcDbArc
 50
180.0
 51
270.0
  0
ARC
  5
18F
100
AcDbEntity
  8
M0
 62
     7
100
AcDbCircle
 10
99.45597
 20
364.517241
 40
1.0
100
AcDbArc
 50
0.0
 51
90.0
  0
LINE
  5
190
100
AcDbEntity
  8
M0
 62
     7
100
AcDbLine
 10
110.155972
 20
333.717241
 11
110.155972
 21
326.317241
  0
LINE
  5
191
100
AcDbEntity
  8
M0
 62
     7
100
AcDbLine
 10
49.35597
 20
326.317241
 11
49.655969
 21
326.317241
  0
LINE
  5
192
100
AcDbEntity
  8
M0
 62
     7
100
AcDbLine
 10
49.35597
 20
350.11724
 11
49.655969
 21
350.11724
  0
LINE
  5
193
100
AcDbEntity
  8
M0
 62
     7
100
AcDbLine
 10
108.855972
 20
333.717241
 11
108.855972
 21
326.317241
  0
LINE
  5
194
100
AcDbEntity
  8
M0
 62
     7
100
AcDbLine
 10
108.855972
 20
326.317241
 11
105.855966
 21
326.317241
  0
LINE
  5
195
100
AcDbEntity
  8
M0
 62
     7
100
AcDbLine
 10
49.35597
 20
333.717241
 11
49.35597
 21
326.317241
  0
LINE
  5
196
100
AcDbEntity
  8
M0
 62
     7
100
AcDbLine
 10
105.855966
 20
333.717241
 11
108.855972
 21
333.717241
  0
LINE
  5
197
100
AcDbEntity
  8
M0
 62
     7
100
AcDbLine
 10
105.855966
 20
326.317241
 11
105.855966
 21
333.717241
  0
LINE
  5
198
100
AcDbEntity
  8
M0
 62
     7
100
AcDbLine
 10
49.655969
 20
333.717241
 11
49.35597
 21
333.717241
  0
LINE
  5
199
100
AcDbEntity
  8
M0
 62
     7
100
AcDbLine
 10
49.655969
 20
309.917241
 11
49.35597
 21
309.917241
  0
LINE
  5
19A
100
AcDbEntity
  8
M0
 62
     7
100
AcDbLine
 10
50.65597
 20
356.717241
 11
50.65597
 21
334.717241
  0
LINE
  5
19B
100
AcDbEntity
  8
M0
 62
     7
100
AcDbLine
 10
50.65597
 20
339.31724
 11
55.755969
 21
339.31724
  0
LINE
  5
19C
100
AcDbEntity
  8
M0
 62
     7
100
AcDbLine
 10
103.75597
 20
320.71724
 11
108.855972
 21
320.71724
  0
LINE
  5
19D
100
AcDbEntity
  8
M0
 62
     7
100
AcDbLine
 10
55.755969
 20
320.71724
 11
50.65597
 21
320.71724
  0
ARC
  5
19E
100
AcDbEntity
  8
M0
 62
     7
100
AcDbCircle
 10
60.45597
 20
364.517241
 40
1.0
100
AcDbArc
 50
0.0
 51
90.0
  0
ARC
  5
19F
100
AcDbEntity
  8
M0
 62
     7
100
AcDbCircle
 10
73.05597
 20
295.517241
 40
1.0
100
AcDbArc
 50
180.0
 51
270.0
  0
ARC
  5
1A0
100
AcDbEntity
  8
M0
 62
     7
100
AcDbCircle
 10
60.05597
 20
364.517241
 40
1.0
100
AcDbArc
 50
90.0
 51
180.0
  0
ARC
  5
1A1
100
AcDbEntity
  8
M0
 62
     7
100
AcDbCircle
 10
60.45597
 20
295.517241
 40
1.0
100
AcDbArc
 50
270.0
 51
360.0
  0
LINE
  5
1A2
100
AcDbEntity
  8
M0
 62
     7
100
AcDbLine
 10
60.455969
 20
294.517239
 11
60.255969
 21
294.517239
  0
LINE
  5
1A3
100
AcDbEntity
  8
M0
 62
     7
100
AcDbLine
 10
60.255969
 20
365.517242
 11
60.455969
 21
365.517242
  0
ARC
  5
1A4
100
AcDbEntity
  8
M0
 62
     7
100
AcDbCircle
 10
59.05597
 20
310.517241
 40
0.6
100
AcDbArc
 50
180.0
 51
270.0
  0
LINE
  5
1A5
100
AcDbEntity
  8
M0
 62
     7
100
AcDbLine
 10
108.855972
 20
339.31724
 11
103.75597
 21
339.31724
  0
ARC
  5
1A6
100
AcDbEntity
  8
M0
 62
     7
100
AcDbCircle
 10
100.45597
 20
310.517241
 40
0.6
100
AcDbArc
 50
270.0
 51
360.0
  0
ARC
  5
1A7
100
AcDbEntity
  8
M0
 62
     7
100
AcDbCircle
 10
60.05597
 20
295.517241
 40
1.0
100
AcDbArc
 50
180.0
 51
270.0
  0
ARC
  5
1A8
100
AcDbEntity
  8
M0
 62
     7
100
AcDbCircle
 10
59.05597
 20
349.517241
 40
0.6
100
AcDbArc
 50
90.0
 51
180.0
  0
ARC
  5
1A9
100
AcDbEntity
  8
M0
 62
     7
100
AcDbCircle
 10
100.45597
 20
349.517241
 40
0.6
100
AcDbArc
 50
0.0
 51
90.0
  0
LINE
  5
1AA
100
AcDbEntity
  8
M0
 62
     7
100
AcDbLine
 10
87.455971
 20
348.917241
 11
85.055968
 21
348.917241
  0
LINE
  5
1AB
100
AcDbEntity
  8
M0
 62
     7
100
AcDbLine
 10
87.455971
 20
311.117241
 11
86.455969
 21
311.117241
  0
LINE
  5
1AC
100
AcDbEntity
  8
M0
 62
     7
100
AcDbLine
 10
86.05597
 20
294.517239
 11
86.455969
 21
294.517239
  0
LINE
  5
1AD
100
AcDbEntity
  8
M0
 62
     7
100
AcDbLine
 10
86.05597
 20
311.117241
 11
85.055968
 21
311.117241
  0
LINE
  5
1AE
100
AcDbEntity
  8
M0
 62
     7
100
AcDbLine
 10
86.455969
 20
311.117241
 11
86.05597
 21
311.117241
  0
LINE
  5
1AF
100
AcDbEntity
  8
M0
 62
     7
100
AcDbLine
 10
106.15597
 20
365.517242
 11
99.05597
 21
365.517242
  0
LINE
  5
1B0
100
AcDbEntity
  8
M0
 62
     7
100
AcDbLine
 10
100.455968
 20
348.017241
 11
100.455968
 21
364.517241
  0
LINE
  5
1B1
100
AcDbEntity
  8
M0
 62
     7
100
AcDbLine
 10
86.455969
 20
365.517242
 11
86.05597
 21
365.517242
  0
LINE
  5
1B2
100
AcDbEntity
  8
M0
 62
     7
100
AcDbLine
 10
98.055968
 20
312.017242
 11
98.055968
 21
295.517241
  0
ARC
  5
1B3
100
AcDbEntity
  8
M0
 62
     7
100
AcDbCircle
 10
110.15597
 20
334.717241
 40
1.0
100
AcDbArc
 50
270.0
 51
360.0
  0
ARC
  5
1B4
100
AcDbEntity
  8
M0
 62
     7
100
AcDbCircle
 10
110.15597
 20
349.117241
 40
1.0
100
AcDbArc
 50
0.0
 51
90.0
  0
ARC
  5
1B5
100
AcDbEntity
  8
M0
 62
     7
100
AcDbCircle
 10
110.15597
 20
310.917241
 40
1.0
100
AcDbArc
 50
270.0
 51
360.0
  0
LINE
  5
1B6
100
AcDbEntity
  8
M0
 62
     7
100
AcDbLine
 10
111.155966
 20
360.517241
 11
111.155966
 21
299.517241
  0
LINE
  5
1B7
100
AcDbEntity
  8
M0
 62
     7
100
AcDbLine
 10
108.855972
 20
347.11724
 11
103.750957
 21
347.11724
  0
LINE
  5
1B8
100
AcDbEntity
  8
M0
 62
     7
100
AcDbLine
 10
87.455971
 20
301.017241
 11
88.655969
 21
301.017241
  0
LINE
  5
1B9
100
AcDbEntity
  8
M0
 62
     7
100
AcDbLine
 10
85.055968
 20
359.017241
 11
83.855966
 21
359.017241
  0
ARC
  5
1BA
100
AcDbEntity
  8
M0
 62
     7
100
AcDbCircle
 10
49.65597
 20
349.117241
 40
1.0
100
AcDbArc
 50
0.0
 51
90.0
  0
ARC
  5
1BB
100
AcDbEntity
  8
M0
 62
     7
100
AcDbCircle
 10
49.65597
 20
325.317241
 40
1.0
100
AcDbArc
 50
0.0
 51
90.0
  0
ARC
  5
1BC
100
AcDbEntity
  8
M0
 62
     7
100
AcDbCircle
 10
49.35597
 20
334.717241
 40
1.0
100
AcDbArc
 50
180.0
 51
270.0
  0
ARC
  5
1BD
100
AcDbEntity
  8
M0
 62
     7
100
AcDbCircle
 10
49.35597
 20
349.117241
 40
1.0
100
AcDbArc
 50
90.0
 51
180.0
  0
ARC
  5
1BE
100
AcDbEntity
  8
M0
 62
     7
100
AcDbCircle
 10
109.85597
 20
310.917241
 40
1.0
100
AcDbArc
 50
180.0
 51
270.0
  0
ARC
  5
1BF
100
AcDbEntity
  8
M0
 62
     7
100
AcDbCircle
 10
109.85597
 20
334.717241
 40
1.0
100
AcDbArc
 50
180.0
 51
270.0
  0
ARC
  5
1C0
100
AcDbEntity
  8
M0
 62
     7
100
AcDbCircle
 10
49.65597
 20
310.917241
 40
1.0
100
AcDbArc
 50
270.0
 51
360.0
  0
ARC
  5
1C1
100
AcDbEntity
  8
M0
 62
     7
100
AcDbCircle
 10
49.65597
 20
334.717241
 40
1.0
100
AcDbArc
 50
270.0
 51
360.0
  0
ARC
  5
1C2
100
AcDbEntity
  8
M0
 62
     7
100
AcDbCircle
 10
49.35597
 20
325.317241
 40
1.0
100
AcDbArc
 50
90.0
 51
180.0
  0
ARC
  5
1C3
100
AcDbEntity
  8
M0
 62
     7
100
AcDbCircle
 10
49.35597
 20
310.917241
 40
1.0
100
AcDbArc
 50
180.0
 51
270.0
  0
LINE
  5
1C4
100
AcDbEntity
  8
M0
 62
     7
100
AcDbLine
 10
50.65597
 20
333.717241
 11
50.65597
 21
326.317241
  0
LINE
  5
1C5
100
AcDbEntity
  8
M0
 62
     7
100
AcDbLine
 10
53.65597
 20
326.317241
 11
53.65597
 21
333.717241
  0
LINE
  5
1C6
100
AcDbEntity
  8
M0
 62
     7
100
AcDbLine
 10
50.65597
 20
326.317241
 11
53.65597
 21
326.317241
  0
ARC
  5
1C7
100
AcDbEntity
  8
M0
 62
     7
100
AcDbCircle
 10
109.85597
 20
349.117241
 40
1.0
100
AcDbArc
 50
90.0
 51
180.0
  0
ARC
  5
1C8
100
AcDbEntity
  8
M0
 62
     7
100
AcDbCircle
 10
110.15597
 20
325.317241
 40
1.0
100
AcDbArc
 50
0.0
 51
90.0
  0
LINE
  5
1C9
100
AcDbEntity
  8
M0
 62
     7
100
AcDbLine
 10
98.055968
 20
359.017241
 11
97.855969
 21
359.017241
  0
ARC
  5
1CA
100
AcDbEntity
  8
M0
 62
     7
100
AcDbCircle
 10
109.85597
 20
325.317241
 40
1.0
100
AcDbArc
 50
90.0
 51
180.0
  0
LINE
  5
1CB
100
AcDbEntity
  8
M0
 62
     7
100
AcDbLine
 10
53.65597
 20
333.717241
 11
50.65597
 21
333.717241
  0
LINE
  5
1CC
100
AcDbEntity
  8
M0
 62
     7
100
AcDbLine
 10
61.455969
 20
301.017241
 11
61.65597
 21
301.017241
  0
ELLIPSE
  5
1CD
100
AcDbEntity
  8
M0
 62
     7
100
AcDbEllipse
 10
75.45597
 20
364.933907
 11
1.0
 21
0.0
210
0.0
220
0.0
230
1.0
 40
0.416667
 41
3.141592653589793
 42
4.71238898038469
  0
ELLIPSE
  5
1CE
100
AcDbEntity
  8
M0
 62
     7
100
AcDbEllipse
 10
84.05597
 20
364.933907
 11
1.0
 21
0.0
210
0.0
220
0.0
230
1.0
 40
0.416667
 41
4.71238898038469
 42
6.283185307179586
  0
LINE
  5
1CF
100
AcDbEntity
  8
M0
 62
     7
100
AcDbLine
 10
84.05597
 20
364.517241
 11
82.855966
 21
364.517241
  0
LINE
  5
1D0
100
AcDbEntity
  8
M0
 62
     7
100
AcDbLine
 10
61.455969
 20
361.01724
 11
61.65597
 21
361.01724
  0
LINE
  5
1D1
100
AcDbEntity
  8
M0
 62
     7
100
AcDbLine
 10
74.455971
 20
361.01724
 11
76.655966
 21
361.01724
  0
LINE
  5
1D2
100
AcDbEntity
  8
M0
 62
     7
100
AcDbLine
 10
74.455971
 20
372.017241
 11
74.455971
 21
348.017241
  0
LINE
  5
1D3
100
AcDbEntity
  8
M0
 62
     7
100
AcDbLine
 10
85.055968
 20
363.01724
 11
82.855966
 21
363.01724
  0
LINE
  5
1D4
100
AcDbEntity
  8
M0
 62
     7
100
AcDbLine
 10
89.505969
 20
295.01724
 11
89.505969
 21
295.517241
  0
LINE
  5
1D5
100
AcDbEntity
  8
M0
 62
     7
100
AcDbLine
 10
88.755971
 20
294.517239
 11
91.923678
 21
294.517239
  0
LINE
  5
1D6
100
AcDbEntity
  8
M0
 62
     7
100
AcDbLine
 10
89.505969
 20
295.517241
 11
89.505969
 21
297.517242
  0
LINE
  5
1D7
100
AcDbEntity
  8
M0
 62
     7
100
AcDbLine
 10
97.855969
 20
299.017241
 11
98.055968
 21
299.017241
  0
LINE
  5
1D8
100
AcDbEntity
  8
M0
 62
     7
100
AcDbLine
 10
49.655969
 20
302.317241
 11
49.35597
 21
302.317241
  0
LINE
  5
1D9
100
AcDbEntity
  8
M0
 62
     7
100
AcDbLine
 10
61.65597
 20
299.017241
 11
61.455969
 21
299.017241
  0
LINE
  5
1DA
100
AcDbEntity
  8
M0
 62
     7
100
AcDbLine
 10
49.35597
 20
357.71724
 11
49.655969
 21
357.71724
  0
LINE
  5
1DB
100
AcDbEntity
  8
M0
 62
     7
100
AcDbLine
 10
70.75597
 20
298.51724
 11
70.75597
 21
301.017241
  0
LINE
  5
1DC
100
AcDbEntity
  8
M0
 62
     7
100
AcDbLine
 10
72.055971
 20
297.517242
 11
71.75597
 21
297.517242
  0
LINE
  5
1DD
100
AcDbEntity
  8
M0
 62
     7
100
AcDbLine
 10
98.055968
 20
361.01724
 11
97.855969
 21
361.01724
  0
LINE
  5
1DE
100
AcDbEntity
  8
M0
 62
     7
100
AcDbLine
 10
88.755971
 20
298.51724
 11
88.755971
 21
301.017241
  0
LINE
  5
1DF
100
AcDbEntity
  8
M0
 62
     7
100
AcDbLine
 10
85.055968
 20
297.517242
 11
82.855966
 21
297.517242
  0
LINE
  5
1E0
100
AcDbEntity
  8
M0
 62
     7
100
AcDbLine
 10
87.755969
 20
297.517242
 11
87.455971
 21
297.517242
  0
ARC
  5
1E1
100
AcDbEntity
  8
M0
 62
     7
100
AcDbCircle
 10
89.00597
 20
295.017241
 40
0.5
100
AcDbArc
 50
270.0
 51
360.0
  0
ARC
  5
1E2
100
AcDbEntity
  8
M0
 62
     7
100
AcDbCircle
 10
92.75597
 20
297.517241
 40
3.25
100
AcDbArc
 50
132.76855
 51
180.0
  0
ARC
  5
1E3
100
AcDbEntity
  8
M0
 62
     7
100
AcDbCircle
 10
75.45597
 20
372.017241
 40
1.0
100
AcDbArc
 50
134.427281
 51
180.0
  0
ARC
  5
1E4
100
AcDbEntity
  8
M0
 62
     7
100
AcDbCircle
 10
84.05597
 20
372.017241
 40
1.0
100
AcDbArc
 50
0.0
 51
45.573273
  0
ARC
  5
1E5
100
AcDbEntity
  8
M0
 62
     7
100
AcDbCircle
 10
70.75597
 20
295.517241
 40
1.0
100
AcDbArc
 50
270.0
 51
360.0
  0
ARC
  5
1E6
100
AcDbEntity
  8
M0
 62
     7
100
AcDbCircle
 10
88.75597
 20
295.517241
 40
1.0
100
AcDbArc
 50
180.0
 51
270.0
  0
ARC
  5
1E7
100
AcDbEntity
  8
M0
 62
     7
100
AcDbCircle
 10
66.75597
 20
297.517241
 40
3.25
100
AcDbArc
 50
0.0
 51
47.231455
  0
LINE
  5
1E8
100
AcDbEntity
  8
M0
 62
     7
100
AcDbLine
 10
71.75597
 20
297.517242
 11
71.75597
 21
295.517241
  0
LINE
  5
1E9
100
AcDbEntity
  8
M0
 62
     7
100
AcDbLine
 10
87.755969
 20
297.517242
 11
87.755969
 21
295.517241
  0
LINE
  5
1EA
100
AcDbEntity
  8
M0
 62
     7
100
AcDbLine
 10
70.00597
 20
295.01724
 11
70.00597
 21
297.517241
  0
ARC
  5
1EB
100
AcDbEntity
  8
M0
 62
     7
100
AcDbCircle
 10
87.75597
 20
298.517241
 40
1.0
100
AcDbArc
 50
270.0
 51
360.0
  0
ARC
  5
1EC
100
AcDbEntity
  8
M0
 62
     7
100
AcDbCircle
 10
70.50597
 20
295.017241
 40
0.5
100
AcDbArc
 50
180.0
 51
270.0
  0
ARC
  5
1ED
100
AcDbEntity
  8
M0
 62
     7
100
AcDbCircle
 10
71.75597
 20
298.517241
 40
1.0
100
AcDbArc
 50
180.0
 51
270.0
  0
ARC
  5
1EE
100
AcDbEntity
  8
M0
 62
     7
100
AcDbCircle
 10
49.35597
 20
356.717241
 40
1.0
100
AcDbArc
 50
90.0
 51
180.0
  0
LINE
  5
1EF
100
AcDbEntity
  8
M0
 62
     7
100
AcDbLine
 10
60.455969
 20
294.517239
 11
53.35597
 21
294.517239
  0
LINE
  5
1F0
100
AcDbEntity
  8
M0
 62
     7
100
AcDbLine
 10
53.35597
 20
365.517242
 11
60.455969
 21
365.517242
  0
LINE
  5
1F1
100
AcDbEntity
  8
M0
 62
     7
100
AcDbLine
 10
59.055969
 20
364.517241
 11
59.055969
 21
348.017241
  0
LINE
  5
1F2
100
AcDbEntity
  8
M0
 62
     7
100
AcDbLine
 10
101.055971
 20
302.917241
 11
101.055971
 21
312.017242
  0
LINE
  5
1F3
100
AcDbEntity
  8
M0
 62
     7
100
AcDbLine
 10
101.055971
 20
348.017241
 11
101.055971
 21
357.117241
  0
ARC
  5
1F4
100
AcDbEntity
  8
M0
 62
     7
100
AcDbCircle
 10
49.35597
 20
303.317241
 40
1.0
100
AcDbArc
 50
180.0
 51
270.0
  0
ARC
  5
1F5
100
AcDbEntity
  8
M0
 62
     7
100
AcDbCircle
 10
49.65597
 20
303.317241
 40
1.0
100
AcDbArc
 50
270.0
 51
360.0
  0
LINE
  5
1F6
100
AcDbEntity
  8
M0
 62
     7
100
AcDbLine
 10
72.055971
 20
348.917241
 11
74.455971
 21
348.917241
  0
ARC
  5
1F7
100
AcDbEntity
  8
M0
 62
     7
100
AcDbCircle
 10
59.05597
 20
302.917241
 40
0.6
100
AcDbArc
 50
180.0
 51
270.0
  0
ARC
  5
1F8
100
AcDbEntity
  8
M0
 62
     7
100
AcDbCircle
 10
100.45597
 20
357.117241
 40
0.6
100
AcDbArc
 50
0.0
 51
90.0
  0
ARC
  5
1F9
100
AcDbEntity
  8
M0
 62
     7
100
AcDbCircle
 10
49.65597
 20
356.717241
 40
1.0
100
AcDbArc
 50
0.0
 51
90.0
  0
ARC
  5
1FA
100
AcDbEntity
  8
M0
 62
     7
100
AcDbCircle
 10
59.05597
 20
357.117241
 40
0.6
100
AcDbArc
 50
90.0
 51
180.0
  0
LINE
  5
1FB
100
AcDbEntity
  8
M0
 62
     7
100
AcDbLine
 10
61.455969
 20
312.017242
 11
61.455969
 21
295.517241
  0
LINE
  5
1FC
100
AcDbEntity
  8
M0
 62
     7
100
AcDbLine
 10
72.055971
 20
295.517241
 11
72.055971
 21
312.017242
  0
LINE
  5
1FD
100
AcDbEntity
  8
M0
 62
     7
100
AcDbLine
 10
72.055971
 20
311.117241
 11
73.05597
 21
311.117241
  0
LINE
  5
1FE
100
AcDbEntity
  8
M0
 62
     7
100
AcDbLine
 10
99.25597
 20
365.517242
 11
99.05597
 21
365.517242
  0
LINE
  5
1FF
100
AcDbEntity
  8
M0
 62
     7
100
AcDbLine
 10
98.055968
 20
364.517241
 11
98.055968
 21
348.017241
  0
LINE
  5
200
100
AcDbEntity
  8
M0
 62
     7
100
AcDbLine
 10
74.455971
 20
295.517241
 11
74.455971
 21
312.017242
  0
LINE
  5
201
100
AcDbEntity
  8
M0
 62
     7
100
AcDbLine
 10
72.055971
 20
364.517241
 11
72.055971
 21
348.017241
  0
LINE
  5
202
100
AcDbEntity
  8
M0
 62
     7
100
AcDbLine
 10
87.455971
 20
312.017242
 11
87.455971
 21
295.517241
  0
LINE
  5
203
100
AcDbEntity
  8
M0
 62
     7
100
AcDbLine
 10
85.055968
 20
295.517241
 11
85.055968
 21
312.017242
  0
LINE
  5
204
100
AcDbEntity
  8
M0
 62
     7
100
AcDbLine
 10
87.455971
 20
364.517241
 11
87.455971
 21
348.017241
  0
LINE
  5
205
100
AcDbEntity
  8
M0
 62
     7
100
AcDbLine
 10
85.055968
 20
348.017241
 11
85.055968
 21
372.017241
  0
LINE
  5
206
100
AcDbEntity
  8
M0
 62
     7
100
AcDbLine
 10
85.055968
 20
297.517242
 11
85.055968
 21
298.51724
  0
LINE
  5
207
100
AcDbEntity
  8
M0
 62
     7
100
AcDbLine
 10
85.055968
 20
362.517241
 11
85.055968
 21
361.517241
  0
LINE
  5
208
100
AcDbEntity
  8
M0
 62
     7
100
AcDbLine
 10
109.855967
 20
302.317241
 11
110.155972
 21
302.317241
  0
LINE
  5
209
100
AcDbEntity
  8
M0
 62
     7
100
AcDbLine
 10
110.155972
 20
357.71724
 11
109.855967
 21
357.71724
  0
LINE
  5
20A
100
AcDbEntity
  8
M0
 62
     7
100
AcDbLine
 10
109.955968
 20
350.11724
 11
109.855967
 21
350.11724
  0
LINE
  5
20B
100
AcDbEntity
  8
M0
 62
     7
100
AcDbLine
 10
61.455969
 20
364.517241
 11
61.455969
 21
348.017241
  0
LINE
  5
20C
100
AcDbEntity
  8
M0
 62
     7
100
AcDbLine
 10
49.55597
 20
350.11724
 11
49.655969
 21
350.11724
  0
LINE
  5
20D
100
AcDbEntity
  8
M0
 62
     7
100
AcDbLine
 10
109.955968
 20
309.917241
 11
109.855967
 21
309.917241
  0
LINE
  5
20E
100
AcDbEntity
  8
M0
 62
     7
100
AcDbLine
 10
49.55597
 20
309.917241
 11
49.655969
 21
309.917241
  0
ARC
  5
20F
100
AcDbEntity
  8
M0
 62
     7
100
AcDbCircle
 10
109.85597
 20
303.317241
 40
1.0
100
AcDbArc
 50
180.0
 51
270.0
  0
ARC
  5
210
100
AcDbEntity
  8
M0
 62
     7
100
AcDbCircle
 10
109.85597
 20
356.717241
 40
1.0
100
AcDbArc
 50
90.0
 51
180.0
  0
ARC
  5
211
100
AcDbEntity
  8
M0
 62
     7
100
AcDbCircle
 10
100.45597
 20
302.917241
 40
0.6
100
AcDbArc
 50
270.0
 51
360.0
  0
ARC
  5
212
100
AcDbEntity
  8
M0
 62
     7
100
AcDbCircle
 10
110.15597
 20
356.717241
 40
1.0
100
AcDbArc
 50
0.0
 51
90.0
  0
LINE
  5
213
100
AcDbEntity
  8
M0
 62
     7
100
AcDbLine
 10
58.45597
 20
302.91724
 11
58.45597
 21
312.017242
  0
LINE
  5
214
100
AcDbEntity
  8
M0
 62
     7
100
AcDbLine
 10
58.45597
 20
348.017241
 11
58.45597
 21
357.117241
  0
ARC
  5
215
100
AcDbEntity
  8
M0
 62
     7
100
AcDbCircle
 10
110.15597
 20
303.317241
 40
1.0
100
AcDbArc
 50
270.0
 51
360.0
  0
LINE
  5
216
100
AcDbEntity
  8
M0
 62
     7
100
AcDbLine
 10
50.65597
 20
325.317241
 11
50.65597
 21
303.317241
  0
LINE
  5
217
100
AcDbEntity
  8
M0
 62
     7
100
AcDbLine
 10
101.955971
 20
304.317241
 11
101.955971
 21
305.317241
  0
LINE
  5
218
100
AcDbEntity
  8
M0
 62
     7
100
AcDbLine
 10
107.955972
 20
304.317241
 11
101.955971
 21
304.317241
  0
LINE
  5
219
100
AcDbEntity
  8
M0
 62
     7
100
AcDbLine
 10
107.955972
 20
305.317241
 11
107.955972
 21
304.317241
  0
LINE
  5
21A
100
AcDbEntity
  8
M0
 62
     7
100
AcDbLine
 10
55.760982
 20
347.11724
 11
50.65597
 21
347.11724
  0
LINE
  5
21B
100
AcDbEntity
  8
M0
 62
     7
100
AcDbLine
 10
101.955971
 20
355.717241
 11
107.955972
 21
355.717241
  0
LINE
  5
21C
100
AcDbEntity
  8
M0
 62
     7
100
AcDbLine
 10
101.955971
 20
354.717241
 11
101.955971
 21
355.717241
  0
LINE
  5
21D
100
AcDbEntity
  8
M0
 62
     7
100
AcDbLine
 10
107.955972
 20
355.717241
 11
107.955972
 21
354.717241
  0
LINE
  5
21E
100
AcDbEntity
  8
M0
 62
     7
100
AcDbLine
 10
50.65597
 20
312.91724
 11
55.760982
 21
312.91724
  0
LINE
  5
21F
100
AcDbEntity
  8
M0
 62
     7
100
AcDbLine
 10
103.750957
 20
312.91724
 11
108.855972
 21
312.91724
  0
LINE
  5
220
100
AcDbEntity
  8
M0
 62
     7
100
AcDbLine
 10
72.055971
 20
359.017241
 11
70.85597
 21
359.017241
  0
LINE
  5
221
100
AcDbEntity
  8
M0
 62
     7
100
AcDbLine
 10
74.455971
 20
301.017241
 11
75.655966
 21
301.017241
  0
LINE
  5
222
100
AcDbEntity
  8
M0
 62
     7
100
AcDbLine
 10
51.55597
 20
355.717241
 11
57.55597
 21
355.717241
  0
LINE
  5
223
100
AcDbEntity
  8
M0
 62
     7
100
AcDbLine
 10
51.55597
 20
354.717241
 11
51.55597
 21
355.717241
  0
LINE
  5
224
100
AcDbEntity
  8
M0
 62
     7
100
AcDbLine
 10
57.55597
 20
355.717241
 11
57.55597
 21
354.717241
  0
LINE
  5
225
100
AcDbEntity
  8
M0
 62
     7
100
AcDbLine
 10
57.55597
 20
304.317241
 11
51.55597
 21
304.317241
  0
LINE
  5
226
100
AcDbEntity
  8
M0
 62
     7
100
AcDbLine
 10
57.55597
 20
305.317241
 11
57.55597
 21
304.317241
  0
LINE
  5
227
100
AcDbEntity
  8
M0
 62
     7
100
AcDbLine
 10
51.55597
 20
304.317241
 11
51.55597
 21
305.317241
  0
LINE
  5
228
100
AcDbEntity
  8
M0
  6
DASHDOT
 62
     7
100
AcDbLine
 10
66.25597
 20
306.317241
 11
67.25597
 21
306.317241
  0
LINE
  5
229
100
AcDbEntity
  8
M0
  6
DASHDOT
 62
     7
100
AcDbLine
 10
66.75597
 20
305.817241
 11
66.75597
 21
306.817241
  0
LINE
  5
22A
100
AcDbEntity
  8
M0
  6
DASHDOT
 62
     7
100
AcDbLine
 10
79.755966
 20
305.817241
 11
79.755966
 21
306.817241
  0
LINE
  5
22B
100
AcDbEntity
  8
M0
  6
DASHDOT
 62
     7
100
AcDbLine
 10
79.255966
 20
306.317241
 11
80.255966
 21
306.317241
  0
LINE
  5
22C
100
AcDbEntity
  8
M0
  6
DASHDOT
 62
     7
100
AcDbLine
 10
92.755966
 20
305.817241
 11
92.755966
 21
306.817241
  0
LINE
  5
22D
100
AcDbEntity
  8
M0
  6
DASHDOT
 62
     7
100
AcDbLine
 10
92.255966
 20
306.317241
 11
93.255966
 21
306.317241
  0
LINE
  5
22E
100
AcDbEntity
  8
M0
  6
DASHDOT
 62
     7
100
AcDbLine
 10
92.755966
 20
354.217241
 11
92.755966
 21
353.217241
  0
LINE
  5
22F
100
AcDbEntity
  8
M0
  6
DASHDOT
 62
     7
100
AcDbLine
 10
92.255966
 20
353.717241
 11
93.255966
 21
353.717241
  0
LINE
  5
230
100
AcDbEntity
  8
M0
  6
DASHDOT
 62
     7
100
AcDbLine
 10
79.255966
 20
353.717241
 11
80.255966
 21
353.717241
  0
LINE
  5
231
100
AcDbEntity
  8
M0
  6
DASHDOT
 62
     7
100
AcDbLine
 10
66.75597
 20
354.217241
 11
66.75597
 21
353.217241
  0
LINE
  5
232
100
AcDbEntity
  8
M0
  6
DASHDOT
 62
     7
100
AcDbLine
 10
79.755966
 20
354.217241
 11
79.755966
 21
353.217241
  0
LINE
  5
233
100
AcDbEntity
  8
M0
  6
DASHDOT
 62
     7
100
AcDbLine
 10
66.25597
 20
353.717241
 11
67.25597
 21
353.717241
  0
LINE
  5
234
100
AcDbEntity
  8
M0
  6
DASHDOT
 62
     7
100
AcDbLine
 10
105.455969
 20
350.917241
 11
104.455969
 21
350.917241
  0
LINE
  5
235
100
AcDbEntity
  8
M0
  6
DASHDOT
 62
     7
100
AcDbLine
 10
104.955969
 20
350.417241
 11
104.955969
 21
351.417241
  0
LINE
  5
236
100
AcDbEntity
  8
M0
  6
DASHDOT
 62
     7
100
AcDbLine
 10
105.455969
 20
343.317241
 11
104.455969
 21
343.317241
  0
LINE
  5
237
100
AcDbEntity
  8
M0
  6
DASHDOT
 62
     7
100
AcDbLine
 10
104.955969
 20
342.817241
 11
104.955969
 21
343.817241
  0
LINE
  5
238
100
AcDbEntity
  8
M0
  6
DASHDOT
 62
     7
100
AcDbLine
 10
105.455969
 20
316.717241
 11
104.455969
 21
316.717241
  0
LINE
  5
239
100
AcDbEntity
  8
M0
  6
DASHDOT
 62
     7
100
AcDbLine
 10
104.955969
 20
316.217241
 11
104.955969
 21
317.217241
  0
LINE
  5
23A
100
AcDbEntity
  8
M0
  6
DASHDOT
 62
     7
100
AcDbLine
 10
105.455969
 20
309.117241
 11
104.455969
 21
309.117241
  0
LINE
  5
23B
100
AcDbEntity
  8
M0
  6
DASHDOT
 62
     7
100
AcDbLine
 10
104.955969
 20
308.617241
 11
104.955969
 21
309.617241
  0
LINE
  5
23C
100
AcDbEntity
  8
M0
  6
DASHDOT
 62
     7
100
AcDbLine
 10
54.05597
 20
343.317241
 11
55.05597
 21
343.317241
  0
LINE
  5
23D
100
AcDbEntity
  8
M0
  6
DASHDOT
 62
     7
100
AcDbLine
 10
54.55597
 20
342.817241
 11
54.55597
 21
343.817241
  0
LINE
  5
23E
100
AcDbEntity
  8
M0
  6
DASHDOT
 62
     7
100
AcDbLine
 10
54.05597
 20
350.917241
 11
55.05597
 21
350.917241
  0
LINE
  5
23F
100
AcDbEntity
  8
M0
  6
DASHDOT
 62
     7
100
AcDbLine
 10
54.55597
 20
350.417241
 11
54.55597
 21
351.417241
  0
LINE
  5
240
100
AcDbEntity
  8
M0
  6
DASHDOT
 62
     7
100
AcDbLine
 10
54.05597
 20
309.117241
 11
55.05597
 21
309.117241
  0
LINE
  5
241
100
AcDbEntity
  8
M0
  6
DASHDOT
 62
     7
100
AcDbLine
 10
54.55597
 20
308.617241
 11
54.55597
 21
309.617241
  0
LINE
  5
242
100
AcDbEntity
  8
M0
  6
DASHDOT
 62
     7
100
AcDbLine
 10
54.05597
 20
316.717241
 11
55.05597
 21
316.717241
  0
LINE
  5
243
100
AcDbEntity
  8
M0
  6
DASHDOT
 62
     7
100
AcDbLine
 10
54.55597
 20
316.217241
 11
54.55597
 21
317.217241
  0
LINE
  5
244
100
AcDbEntity
  8
M0
  6
DASHDOT
 62
     7
100
AcDbLine
 10
90.15597
 20
368.617241
 11
91.15597
 21
368.617241
  0
LINE
  5
245
100
AcDbEntity
  8
M0
  6
DASHDOT
 62
     7
100
AcDbLine
 10
90.65597
 20
368.117241
 11
90.65597
 21
369.117241
  0
LINE
  5
246
100
AcDbEntity
  8
M0
  6
DASHDOT
 62
     7
100
AcDbLine
 10
69.355969
 20
368.617241
 11
68.355969
 21
368.617241
  0
LINE
  5
247
100
AcDbEntity
  8
M0
  6
DASHDOT
 62
     7
100
AcDbLine
 10
68.855969
 20
368.117241
 11
68.855969
 21
369.117241
  0
LINE
  5
248
100
AcDbEntity
  8
M0
 62
     7
100
AcDbLine
 10
75.655966
 20
359.017241
 11
74.455971
 21
359.017241
  0
LINE
  5
249
100
AcDbEntity
  8
M0
 62
     7
100
AcDbLine
 10
82.855966
 20
361.01724
 11
85.055968
 21
361.01724
  0
LINE
  5
24A
100
AcDbEntity
  8
M0
 62
     7
100
AcDbLine
 10
76.655966
 20
363.01724
 11
74.455971
 21
363.01724
  0
LINE
  5
24B
100
AcDbEntity
  8
M0
 62
     7
100
AcDbLine
 10
76.655966
 20
364.517241
 11
75.455969
 21
364.517241
  0
LINE
  5
24C
100
AcDbEntity
  8
M0
 62
     7
100
AcDbLine
 10
61.65597
 20
359.017241
 11
61.455969
 21
359.017241
  0
LINE
  5
24D
100
AcDbEntity
  8
M0
 62
     7
100
AcDbLine
 10
68.75597
 20
361.01724
 11
72.055971
 21
361.01724
  0
LINE
  5
24E
100
AcDbEntity
  8
M0
 62
     7
100
AcDbLine
 10
88.655969
 20
359.017241
 11
87.455971
 21
359.017241
  0
LINE
  5
24F
100
AcDbEntity
  8
M0
 62
     7
100
AcDbLine
 10
90.755969
 20
361.01724
 11
87.455971
 21
361.01724
  0
LINE
  5
250
100
AcDbEntity
  8
M0
 62
     7
100
AcDbLine
 10
70.85597
 20
301.017241
 11
72.055971
 21
301.017241
  0
LINE
  5
251
100
AcDbEntity
  8
M0
 62
     7
100
AcDbLine
 10
83.855966
 20
301.017241
 11
85.055968
 21
301.017241
  0
LINE
  5
252
100
AcDbEntity
  8
M0
 62
     7
100
AcDbLine
 10
76.655966
 20
297.517242
 11
74.455971
 21
297.517242
  0
LINE
  5
253
100
AcDbEntity
  8
M0
 62
     7
100
AcDbLine
 10
82.855966
 20
296.51724
 11
84.255969
 21
296.51724
  0
LINE
  5
254
100
AcDbEntity
  8
M0
 62
     7
100
AcDbLine
 10
76.655966
 20
294.517239
 11
74.755969
 21
294.517239
  0
LINE
  5
255
100
AcDbEntity
  8
M0
 62
     7
100
AcDbLine
 10
97.855969
 20
301.017241
 11
98.055968
 21
301.017241
  0
LINE
  5
256
100
AcDbEntity
  8
M0
 62
     7
100
AcDbLine
 10
94.65597
 20
373.517239
 11
94.65597
 21
369.963005
  0
LINE
  5
257
100
AcDbEntity
  8
M0
 62
     7
100
AcDbLine
 10
96.15597
 20
372.403682
 11
96.15597
 21
373.517239
  0
LINE
  5
258
100
AcDbEntity
  8
M0
 62
     7
100
AcDbLine
 10
96.15597
 20
373.517239
 11
96.15597
 21
374.01724
  0
ARC
  5
259
100
AcDbEntity
  8
M0
 62
     7
100
AcDbCircle
 10
95.65597
 20
374.017241
 40
0.5
100
AcDbArc
 50
0.0
 51
90.0
  0
ARC
  5
25A
100
AcDbEntity
  8
M0
 62
     7
100
AcDbCircle
 10
95.65597
 20
373.517241
 40
1.0
100
AcDbArc
 50
90.0
 51
180.0
  0
LINE
  5
25B
100
AcDbEntity
  8
M0
 62
     7
100
AcDbLine
 10
63.355963
 20
372.403682
 11
63.355963
 21
373.517239
  0
ARC
  5
25C
100
AcDbEntity
  8
M0
 62
     7
100
AcDbCircle
 10
63.855963
 20
374.017241
 40
0.5
100
AcDbArc
 50
90.0
 51
180.0
  0
ARC
  5
25D
100
AcDbEntity
  8
M0
 62
     7
100
AcDbCircle
 10
63.855963
 20
373.517241
 40
1.0
100
AcDbArc
 50
0.0
 51
90.0
  0
LINE
  5
25E
100
AcDbEntity
  8
M0
 62
     7
100
AcDbLine
 10
63.355963
 20
373.517239
 11
63.355963
 21
374.01724
  0
LINE
  5
25F
100
AcDbEntity
  8
M0
 62
     7
100
AcDbLine
 10
64.855962
 20
373.517239
 11
64.855962
 21
369.963005
  0
LINE
  5
260
100
AcDbEntity
  8
M0
  6
DIVIDE
 62
     7
100
AcDbLine
 10
295.090982
 20
342.51724
 11
288.590982
 21
342.51724
  0
LINE
  5
261
100
AcDbEntity
  8
M0
  6
DIVIDE
 62
     7
100
AcDbLine
 10
295.090982
 20
315.51724
 11
288.590982
 21
315.51724
  0
LINE
  5
262
100
AcDbEntity
  8
M0
  6
DIVIDE
 62
     7
100
AcDbLine
 10
294.090982
 20
341.51724
 11
287.590982
 21
341.51724
  0
LINE
  5
263
100
AcDbEntity
  8
M0
  6
DIVIDE
 62
     7
100
AcDbLine
 10
288.590982
 20
315.51724
 11
288.590982
 21
311.51724
  0
LINE
  5
264
100
AcDbEntity
  8
M0
  6
DIVIDE
 62
     7
100
AcDbLine
 10
294.090982
 20
316.51724
 11
287.590982
 21
316.51724
  0
LINE
  5
265
100
AcDbEntity
  8
M0
  6
DIVIDE
 62
     7
100
AcDbLine
 10
287.590982
 20
316.51724
 11
287.590982
 21
311.51724
  0
LINE
  5
266
100
AcDbEntity
  8
M0
  6
DIVIDE
 62
     7
100
AcDbLine
 10
288.590982
 20
346.51724
 11
287.590982
 21
346.51724
  0
LINE
  5
267
100
AcDbEntity
  8
M0
  6
DIVIDE
 62
     7
100
AcDbLine
 10
295.090982
 20
315.51724
 11
295.090982
 21
342.51724
  0
LINE
  5
268
100
AcDbEntity
  8
M0
  6
DIVIDE
 62
     7
100
AcDbLine
 10
287.590982
 20
346.51724
 11
287.590982
 21
341.51724
  0
LINE
  5
269
100
AcDbEntity
  8
M0
  6
DIVIDE
 62
     7
100
AcDbLine
 10
288.590982
 20
346.51724
 11
288.590982
 21
342.51724
  0
LINE
  5
26A
100
AcDbEntity
  8
M0
  6
DIVIDE
 62
     7
100
AcDbLine
 10
287.590982
 20
311.51724
 11
288.590982
 21
311.51724
  0
LINE
  5
26B
100
AcDbEntity
  8
M0
  6
DIVIDE
 62
     7
100
AcDbLine
 10
294.090982
 20
341.51724
 11
294.090982
 21
316.51724
  0
LINE
  5
26C
100
AcDbEntity
  8
M0
  6
DASHDOT
 62
     7
100
AcDbLine
 10
57.85597
 20
373.517241
 11
57.85597
 21
374.517241
  0
CIRCLE
  5
26D
100
AcDbEntity
  8
M0
 62
     7
100
AcDbCircle
 10
57.85597
 20
374.017241
 40
4.499996
  0
LINE
  5
26E
100
AcDbEntity
  8
M0
  6
DASHDOT
 62
     7
100
AcDbLine
 10
57.35597
 20
374.017241
 11
58.35597
 21
374.017241
  0
LINE
  5
26F
100
AcDbEntity
  8
M0
 62
     7
100
AcDbLine
 10
58.322873
 20
375.898375
 11
55.974897
 21
373.550383
  0
LINE
  5
270
100
AcDbEntity
  8
M0
 62
     7
100
AcDbLine
 10
59.737073
 20
374.48416
 11
57.389096
 21
372.136168
  0
LINE
  5
271
100
AcDbEntity
  8
M0
 62
     7
100
AcDbLine
 10
55.787015
 20
376.08615
 11
60.049985
 21
371.82321
  0
ARC
  5
272
100
AcDbEntity
  8
M0
 62
   154
100
AcDbCircle
 10
88.755969
 20
299.017241
 40
2.0
100
AcDbArc
 50
0.0
 51
90.0
  0
ARC
  5
273
100
AcDbEntity
  8
M0
 62
   154
100
AcDbCircle
 10
94.755969
 20
297.548154
 40
4.0
100
AcDbArc
 50
180.0
 51
211.574191
  0
LINE
  5
274
100
AcDbEntity
  8
M0
 62
   154
100
AcDbLine
 10
96.063821
 20
287.780736
 11
91.348118
 21
295.453745
  0
LINE
  5
275
100
AcDbEntity
  8
M0
 62
   154
100
AcDbLine
 10
90.755969
 20
299.017241
 11
90.755969
 21
297.548154
  0
LINE
  5
276
100
AcDbEntity
  8
M0
 62
   154
100
AcDbLine
 10
88.755969
 20
301.017241
 11
87.920554
 21
301.017241
  0
LINE
  5
277
100
AcDbEntity
  8
M0
 62
   154
100
AcDbLine
 10
97.655969
 20
280.017241
 11
105.655969
 21
280.017241
  0
LINE
  5
278
100
AcDbEntity
  8
M0
 62
   154
100
AcDbLine
 10
96.655969
 20
281.017241
 11
96.655969
 21
285.686328
  0
LINE
  5
279
100
AcDbEntity
  8
M0
 62
   154
100
AcDbLine
 10
88.755969
 20
311.317241
 11
96.755969
 21
311.317241
  0
LINE
  5
27A
100
AcDbEntity
  8
M0
 62
   154
100
AcDbLine
 10
106.655969
 20
281.017241
 11
106.655969
 21
286.374383
  0
ARC
  5
27B
100
AcDbEntity
  8
M0
 62
   154
100
AcDbCircle
 10
95.455969
 20
302.317241
 40
2.5
100
AcDbArc
 50
336.926082
 51
383.073918
  0
ARC
  5
27C
100
AcDbEntity
  8
M0
 62
   154
100
AcDbCircle
 10
95.455969
 20
309.317241
 40
2.5
100
AcDbArc
 50
336.926082
 51
383.073918
  0
ARC
  5
27D
100
AcDbEntity
  8
M0
 62
   154
100
AcDbCircle
 10
90.055969
 20
302.317241
 40
2.5
100
AcDbArc
 50
156.926082
 51
211.332251
  0
ARC
  5
27E
100
AcDbEntity
  8
M0
 62
   154
100
AcDbCircle
 10
90.055969
 20
309.317241
 40
2.5
100
AcDbArc
 50
156.926082
 51
203.073918
  0
LINE
  5
27F
100
AcDbEntity
  8
M0
 62
   154
100
AcDbLine
 10
97.755969
 20
303.297036
 11
97.755969
 21
308.337445
  0
LINE
  5
280
100
AcDbEntity
  8
M0
 62
   154
100
AcDbLine
 10
97.755969
 20
310.297036
 11
97.755969
 21
310.317241
  0
LINE
  5
281
100
AcDbEntity
  8
M0
 62
   154
100
AcDbLine
 10
87.755969
 20
303.297036
 11
87.755969
 21
308.337445
  0
LINE
  5
282
100
AcDbEntity
  8
M0
 62
   154
100
AcDbLine
 10
87.755969
 20
310.297036
 11
87.755969
 21
310.317241
  0
LINE
  5
283
100
AcDbEntity
  8
M0
 62
   154
100
AcDbLine
 10
97.755969
 20
301.337445
 11
97.755969
 21
296.017241
  0
ARC
  5
284
100
AcDbEntity
  8
M0
 62
   154
100
AcDbCircle
 10
101.755969
 20
296.017241
 40
4.0
100
AcDbArc
 50
180.0
 51
270.0
  0
ARC
  5
285
100
AcDbEntity
  8
M0
 62
   154
100
AcDbCircle
 10
96.755969
 20
310.317241
 40
1.0
100
AcDbArc
 50
0.0
 51
90.0
  0
ARC
  5
286
100
AcDbEntity
  8
M0
 62
   154
100
AcDbCircle
 10
88.755969
 20
310.317241
 40
1.0
100
AcDbArc
 50
90.0
 51
180.0
  0
ARC
  5
287
100
AcDbEntity
  8
M0
 62
   154
100
AcDbCircle
 10
105.655969
 20
281.017241
 40
1.0
100
AcDbArc
 50
270.0
 51
360.0
  0
ARC
  5
288
100
AcDbEntity
  8
M0
 62
   154
100
AcDbCircle
 10
97.655969
 20
281.017241
 40
1.0
100
AcDbArc
 50
180.0
 51
270.0
  0
ARC
  5
289
100
AcDbEntity
  8
M0
 62
   154
100
AcDbCircle
 10
103.300414
 20
291.017241
 40
1.0
100
AcDbArc
 50
31.890792
 51
90.0
  0
ARC
  5
28A
100
AcDbEntity
  8
M0
 62
   154
100
AcDbCircle
 10
102.655969
 20
286.374383
 40
4.0
100
AcDbArc
 50
0.0
 51
31.890792
  0
LINE
  5
28B
100
AcDbEntity
  8
M0
 62
   154
100
AcDbLine
 10
101.755969
 20
292.017241
 11
103.300414
 21
292.017241
  0
LINE
  5
28C
100
AcDbEntity
  8
M0
 62
   154
100
AcDbLine
 10
106.052196
 20
288.487591
 11
104.14947
 21
291.545542
  0
ARC
  5
28D
100
AcDbEntity
  8
M0
 62
   154
100
AcDbCircle
 10
92.655969
 20
285.686328
 40
4.0
100
AcDbArc
 50
0.0
 51
31.574191
  0
ARC
  5
28E
100
AcDbEntity
  8
M0
 62
   154
100
AcDbCircle
 10
70.75597
 20
299.017241
 40
2.0
100
AcDbArc
 50
90.0
 51
180.0
  0
ARC
  5
28F
100
AcDbEntity
  8
M0
 62
   154
100
AcDbCircle
 10
64.75597
 20
297.548154
 40
4.0
100
AcDbArc
 50
-31.574191
 51
0.0
  0
LINE
  5
290
100
AcDbEntity
  8
M0
 62
   154
100
AcDbLine
 10
63.448118
 20
287.780736
 11
68.163821
 21
295.453745
  0
LINE
  5
291
100
AcDbEntity
  8
M0
 62
   154
100
AcDbLine
 10
68.75597
 20
299.017241
 11
68.75597
 21
297.548154
  0
LINE
  5
292
100
AcDbEntity
  8
M0
 62
   154
100
AcDbLine
 10
70.75597
 20
301.017241
 11
71.591385
 21
301.017241
  0
LINE
  5
293
100
AcDbEntity
  8
M0
 62
   154
100
AcDbLine
 10
61.85597
 20
280.017241
 11
53.85597
 21
280.017241
  0
LINE
  5
294
100
AcDbEntity
  8
M0
 62
   154
100
AcDbLine
 10
62.85597
 20
281.017241
 11
62.85597
 21
285.686328
  0
LINE
  5
295
100
AcDbEntity
  8
M0
 62
   154
100
AcDbLine
 10
70.75597
 20
311.317241
 11
62.75597
 21
311.317241
  0
LINE
  5
296
100
AcDbEntity
  8
M0
 62
   154
100
AcDbLine
 10
52.85597
 20
281.017241
 11
52.85597
 21
286.374383
  0
ARC
  5
297
100
AcDbEntity
  8
M0
 62
   154
100
AcDbCircle
 10
64.05597
 20
302.317241
 40
2.5
100
AcDbArc
 50
156.926082
 51
203.073918
  0
ARC
  5
298
100
AcDbEntity
  8
M0
 62
   154
100
AcDbCircle
 10
64.05597
 20
309.317241
 40
2.5
100
AcDbArc
 50
156.926082
 51
203.073918
  0
ARC
  5
299
100
AcDbEntity
  8
M0
 62
   154
100
AcDbCircle
 10
69.45597
 20
302.317241
 40
2.5
100
AcDbArc
 50
328.667749
 51
383.073918
  0
ARC
  5
29A
100
AcDbEntity
  8
M0
 62
   154
100
AcDbCircle
 10
69.45597
 20
309.317241
 40
2.5
100
AcDbArc
 50
336.926082
 51
383.073918
  0
LINE
  5
29B
100
AcDbEntity
  8
M0
 62
   154
100
AcDbLine
 10
61.75597
 20
303.297036
 11
61.75597
 21
308.337445
  0
LINE
  5
29C
100
AcDbEntity
  8
M0
 62
   154
100
AcDbLine
 10
61.75597
 20
310.297036
 11
61.75597
 21
310.317241
  0
LINE
  5
29D
100
AcDbEntity
  8
M0
 62
   154
100
AcDbLine
 10
71.75597
 20
303.297036
 11
71.75597
 21
308.337445
  0
LINE
  5
29E
100
AcDbEntity
  8
M0
 62
   154
100
AcDbLine
 10
71.75597
 20
310.297036
 11
71.75597
 21
310.317241
  0
LINE
  5
29F
100
AcDbEntity
  8
M0
 62
   154
100
AcDbLine
 10
61.75597
 20
301.337445
 11
61.75597
 21
296.017241
  0
ARC
  5
2A0
100
AcDbEntity
  8
M0
 62
   154
100
AcDbCircle
 10
57.75597
 20
296.017241
 40
4.0
100
AcDbArc
 50
-90.0
 51
8.14222E-013
  0
ARC
  5
2A1
100
AcDbEntity
  8
M0
 62
   154
100
AcDbCircle
 10
62.75597
 20
310.317241
 40
1.0
100
AcDbArc
 50
90.0
 51
180.0
  0
ARC
  5
2A2
100
AcDbEntity
  8
M0
 62
   154
100
AcDbCircle
 10
70.75597
 20
310.317241
 40
1.0
100
AcDbArc
 50
0.0
 51
90.0
  0
ARC
  5
2A3
100
AcDbEntity
  8
M0
 62
   154
100
AcDbCircle
 10
53.85597
 20
281.017241
 40
1.0
100
AcDbArc
 50
180.0
 51
270.0
  0
ARC
  5
2A4
100
AcDbEntity
  8
M0
 62
   154
100
AcDbCircle
 10
61.85597
 20
281.017241
 40
1.0
100
AcDbArc
 50
-90.0
 51
0.0
  0
ARC
  5
2A5
100
AcDbEntity
  8
M0
 62
   154
100
AcDbCircle
 10
56.211525
 20
291.017241
 40
1.0
100
AcDbArc
 50
90.0
 51
148.109208
  0
ARC
  5
2A6
100
AcDbEntity
  8
M0
 62
   154
100
AcDbCircle
 10
56.85597
 20
286.374383
 40
4.0
100
AcDbArc
 50
148.109208
 51
180.0
  0
LINE
  5
2A7
100
AcDbEntity
  8
M0
 62
   154
100
AcDbLine
 10
57.75597
 20
292.017241
 11
56.211525
 21
292.017241
  0
LINE
  5
2A8
100
AcDbEntity
  8
M0
 62
   154
100
AcDbLine
 10
53.459743
 20
288.487591
 11
55.362469
 21
291.545542
  0
ARC
  5
2A9
100
AcDbEntity
  8
M0
 62
   154
100
AcDbCircle
 10
66.85597
 20
285.686328
 40
4.0
100
AcDbArc
 50
148.425809
 51
180.0
  0
LINE
  5
2AA
100
AcDbEntity
  8
M0
  6
DASHDOT
 62
     7
100
AcDbLine
 10
57.85597
 20
285.517241
 11
57.85597
 21
286.517241
  0
CIRCLE
  5
2AB
100
AcDbEntity
  8
M0
 62
     7
100
AcDbCircle
 10
57.85597
 20
286.017241
 40
4.499996
  0
LINE
  5
2AC
100
AcDbEntity
  8
M0
  6
DASHDOT
 62
     7
100
AcDbLine
 10
57.35597
 20
286.017241
 11
58.35597
 21
286.017241
  0
LINE
  5
2AD
100
AcDbEntity
  8
M0
 62
     7
100
AcDbLine
 10
58.322873
 20
287.898375
 11
55.974897
 21
285.550383
  0
LINE
  5
2AE
100
AcDbEntity
  8
M0
 62
     7
100
AcDbLine
 10
59.737073
 20
286.48416
 11
57.389096
 21
284.136168
  0
LINE
  5
2AF
100
AcDbEntity
  8
M0
 62
     7
100
AcDbLine
 10
55.787015
 20
288.086149
 11
60.049985
 21
283.82321
  0
LINE
  5
2B0
100
AcDbEntity
  8
M0
  6
DASHED
100
AcDbLine
 10
168.390985
 20
320.142242
 11
168.390985
 21
317.292242
  0
LINE
  5
2B1
100
AcDbEntity
  8
M0
  6
DASHED
100
AcDbLine
 10
169.390985
 20
346.94224
 11
168.390985
 21
346.94224
  0
LINE
  5
2B2
100
AcDbEntity
  8
M0
  6
DASHED
100
AcDbLine
 10
168.390985
 20
344.54224
 11
168.390985
 21
341.69224
  0
LINE
  5
2B3
100
AcDbEntity
  8
M0
  6
DASHED
100
AcDbLine
 10
168.390985
 20
346.94224
 11
168.390985
 21
339.29224
  0
LINE
  5
2B4
100
AcDbEntity
  8
M0
100
AcDbLine
 10
167.990984
 20
333.807138
 11
167.990984
 21
334.01724
  0
LINE
  5
2B5
100
AcDbEntity
  8
M0
100
AcDbLine
 10
164.290985
 20
330.06724
 11
163.790984
 21
330.06724
  0
LINE
  5
2B6
100
AcDbEntity
  8
M0
100
AcDbLine
 10
162.290985
 20
312.01724
 11
162.290985
 21
346.01724
  0
LINE
  5
2B7
100
AcDbEntity
  8
M0
100
AcDbLine
 10
164.461164
 20
334.01724
 11
164.461164
 21
333.693029
  0
LINE
  5
2B8
100
AcDbEntity
  8
M0
100
AcDbLine
 10
213.290984
 20
346.01724
 11
213.290984
 21
347.01724
  0
LINE
  5
2B9
100
AcDbEntity
  8
M0
100
AcDbLine
 10
213.290984
 20
347.01724
 11
214.290984
 21
347.01724
  0
LINE
  5
2BA
100
AcDbEntity
  8
M0
100
AcDbLine
 10
213.290984
 20
342.11724
 11
213.290984
 21
346.01724
  0
LINE
  5
2BB
100
AcDbEntity
  8
M0
100
AcDbLine
 10
215.290984
 20
343.51724
 11
214.290984
 21
347.01724
  0
LINE
  5
2BC
100
AcDbEntity
  8
M0
100
AcDbLine
 10
210.99371
 20
333.01724
 11
210.99371
 21
329.017241
  0
LINE
  5
2BD
100
AcDbEntity
  8
M0
100
AcDbLine
 10
213.734725
 20
342.11724
 11
214.290984
 21
342.11724
  0
LINE
  5
2BE
100
AcDbEntity
  8
M0
100
AcDbLine
 10
209.290984
 20
347.01724
 11
209.986637
 21
347.01724
  0
LINE
  5
2BF
100
AcDbEntity
  8
M0
100
AcDbLine
 10
215.290984
 20
333.01724
 11
210.99371
 21
333.01724
  0
LINE
  5
2C0
100
AcDbEntity
  8
M0
100
AcDbLine
 10
210.990984
 20
346.275426
 11
210.990984
 21
342.11724
  0
LINE
  5
2C1
100
AcDbEntity
  8
M0
100
AcDbLine
 10
214.040984
 20
342.11724
 11
210.990984
 21
342.11724
  0
LINE
  5
2C2
100
AcDbEntity
  8
M0
100
AcDbLine
 10
210.990984
 20
342.11724
 11
213.734725
 21
342.11724
  0
LINE
  5
2C3
100
AcDbEntity
  8
M0
100
AcDbLine
 10
210.790984
 20
346.01724
 11
210.790984
 21
312.01724
  0
LINE
  5
2C4
100
AcDbEntity
  8
M0
100
AcDbLine
 10
165.290983
 20
333.81724
 11
164.790982
 21
333.81724
  0
LINE
  5
2C5
100
AcDbEntity
  8
M0
100
AcDbLine
 10
164.290985
 20
324.717241
 11
164.290985
 21
333.31724
  0
LINE
  5
2C6
100
AcDbEntity
  8
M0
100
AcDbLine
 10
213.940984
 20
329.017241
 11
213.940984
 21
333.01724
  0
LINE
  5
2C7
100
AcDbEntity
  8
M0
100
AcDbLine
 10
164.790982
 20
324.21724
 11
165.290983
 21
324.21724
  0
ARC
  5
2C8
100
AcDbEntity
  8
M0
100
AcDbCircle
 10
164.790984
 20
324.71724
 40
0.5
100
AcDbArc
 50
180.0
 51
270.0
  0
ARC
  5
2C9
100
AcDbEntity
  8
M0
100
AcDbCircle
 10
164.790984
 20
333.31724
 40
0.5
100
AcDbArc
 50
90.0
 51
180.0
  0
LINE
  5
2CA
100
AcDbEntity
  8
M0
100
AcDbLine
 10
167.890983
 20
324.21724
 11
165.290983
 21
324.21724
  0
ARC
  5
2CB
100
AcDbEntity
  8
M0
100
AcDbCircle
 10
210.490984
 20
346.275426
 40
0.5
100
AcDbArc
 50
0.0
 51
44.92732
  0
ARC
  5
2CC
100
AcDbEntity
  8
M0
100
AcDbCircle
 10
169.390984
 20
346.01724
 40
1.0
100
AcDbArc
 50
90.0
 51
180.0
  0
ARC
  5
2CD
100
AcDbEntity
  8
M0
100
AcDbCircle
 10
210.290984
 20
346.51724
 40
0.5
100
AcDbArc
 50
0.0
 51
90.0
  0
ARC
  5
2CE
100
AcDbEntity
  8
M0
100
AcDbCircle
 10
163.290984
 20
335.21724
 40
1.0
100
AcDbArc
 50
90.0
 51
180.0
  0
LINE
  5
2CF
100
AcDbEntity
  8
M0
100
AcDbLine
 10
213.940984
 20
325.01724
 11
213.940984
 21
329.017241
  0
LINE
  5
2D0
100
AcDbEntity
  8
M0
100
AcDbLine
 10
210.842743
 20
346.625176
 11
210.751634
 21
346.711029
  0
ARC
  5
2D1
100
AcDbEntity
  8
M0
100
AcDbCircle
 10
214.290984
 20
341.11724
 40
1.0
100
AcDbArc
 50
0.0
 51
90.0
  0
ARC
  5
2D2
100
AcDbEntity
  8
M0
100
AcDbCircle
 10
163.290984
 20
346.01724
 40
1.0
100
AcDbArc
 50
90.0
 51
180.0
  0
LINE
  5
2D3
100
AcDbEntity
  8
M0
100
AcDbLine
 10
163.790984
 20
334.01724
 11
163.790984
 21
324.01724
  0
LINE
  5
2D4
100
AcDbEntity
  8
M0
100
AcDbLine
 10
210.990984
 20
315.917241
 11
210.990984
 21
312.01724
  0
LINE
  5
2D5
100
AcDbEntity
  8
M0
100
AcDbLine
 10
213.734725
 20
315.917241
 11
210.990984
 21
315.917241
  0
LINE
  5
2D6
100
AcDbEntity
  8
M0
100
AcDbLine
 10
169.390986
 20
311.017242
 11
163.290983
 21
311.017242
  0
LINE
  5
2D7
100
AcDbEntity
  8
M0
100
AcDbLine
 10
167.990984
 20
324.227343
 11
167.990984
 21
324.01724
  0
LINE
  5
2D8
100
AcDbEntity
  8
M0
100
AcDbLine
 10
163.790984
 20
330.017239
 11
164.290985
 21
330.017239
  0
LINE
  5
2D9
100
AcDbEntity
  8
M0
100
AcDbLine
 10
169.890983
 20
311.017242
 11
163.290983
 21
311.017242
  0
LINE
  5
2DA
100
AcDbEntity
  8
M0
100
AcDbLine
 10
164.461164
 20
324.01724
 11
164.461164
 21
324.34145
  0
LINE
  5
2DB
100
AcDbEntity
  8
M0
100
AcDbLine
 10
168.390984
 20
312.01724
 11
168.390984
 21
321.81724
  0
LINE
  5
2DC
100
AcDbEntity
  8
M0
100
AcDbLine
 10
168.390984
 20
324.01724
 11
168.390984
 21
334.01724
  0
LINE
  5
2DD
100
AcDbEntity
  8
M0
100
AcDbLine
 10
163.290984
 20
324.01724
 11
168.390984
 21
324.01724
  0
LINE
  5
2DE
100
AcDbEntity
  8
M0
100
AcDbLine
 10
168.390984
 20
321.81724
 11
163.290984
 21
321.81724
  0
LINE
  5
2DF
100
AcDbEntity
  8
M0
100
AcDbLine
 10
214.290984
 20
315.917241
 11
213.734725
 21
315.917241
  0
LINE
  5
2E0
100
AcDbEntity
  8
M0
100
AcDbLine
 10
215.290984
 20
343.51724
 11
215.290984
 21
316.917241
  0
LINE
  5
2E1
100
AcDbEntity
  8
M0
100
AcDbLine
 10
210.990984
 20
329.017241
 11
210.990984
 21
325.01724
  0
LINE
  5
2E2
100
AcDbEntity
  8
M0
100
AcDbLine
 10
215.290984
 20
325.01724
 11
210.990984
 21
325.01724
  0
LINE
  5
2E3
100
AcDbEntity
  8
M0
100
AcDbLine
 10
165.290983
 20
333.81724
 11
167.890983
 21
333.81724
  0
ARC
  5
2E4
100
AcDbEntity
  8
M0
100
AcDbCircle
 10
163.290984
 20
312.01724
 40
1.0
100
AcDbArc
 50
180.0
 51
270.0
  0
ARC
  5
2E5
100
AcDbEntity
  8
M0
100
AcDbCircle
 10
163.290984
 20
335.01724
 40
1.0
100
AcDbArc
 50
180.0
 51
270.0
  0
ARC
  5
2E6
100
AcDbEntity
  8
M0
100
AcDbCircle
 10
214.290984
 20
316.91724
 40
1.0
100
AcDbArc
 50
270.0
 51
360.0
  0
ARC
  5
2E7
100
AcDbEntity
  8
M0
100
AcDbCircle
 10
209.99099
 20
312.017235
 40
0.999994
100
AcDbArc
 50
270.0
 51
360.0
  0
LINE
  5
2E8
100
AcDbEntity
  8
M0
100
AcDbLine
 10
210.790984
 20
346.01724
 11
210.790984
 21
346.51724
  0
LINE
  5
2E9
100
AcDbEntity
  8
M0
100
AcDbLine
 10
163.290984
 20
347.01724
 11
210.290984
 21
347.01724
  0
LINE
  5
2EA
100
AcDbEntity
  8
M0
100
AcDbLine
 10
163.290983
 20
336.21724
 11
168.390984
 21
336.21724
  0
LINE
  5
2EB
100
AcDbEntity
  8
M0
100
AcDbLine
 10
168.390984
 20
336.21724
 11
168.390984
 21
346.01724
  0
ARC
  5
2EC
100
AcDbEntity
  8
M0
100
AcDbCircle
 10
167.890984
 20
333.31724
 40
0.5
100
AcDbArc
 50
0.0
 51
90.0
  0
ARC
  5
2ED
100
AcDbEntity
  8
M0
100
AcDbCircle
 10
167.890984
 20
324.71724
 40
0.5
100
AcDbArc
 50
270.0
 51
360.0
  0
LINE
  5
2EE
100
AcDbEntity
  8
M0
100
AcDbLine
 10
209.790984
 20
311.017242
 11
163.290983
 21
311.017242
  0
LINE
  5
2EF
100
AcDbEntity
  8
M0
100
AcDbLine
 10
168.390984
 20
334.01724
 11
163.290983
 21
334.01724
  0
ARC
  5
2F0
100
AcDbEntity
  8
M0
100
AcDbCircle
 10
169.390984
 20
312.01724
 40
1.0
100
AcDbArc
 50
180.0
 51
270.0
  0
ARC
  5
2F1
100
AcDbEntity
  8
M0
100
AcDbCircle
 10
209.790984
 20
312.01724
 40
1.0
100
AcDbArc
 50
270.0
 51
360.0
  0
ARC
  5
2F2
100
AcDbEntity
  8
M0
100
AcDbCircle
 10
163.290984
 20
323.01724
 40
1.0
100
AcDbArc
 50
90.0
 51
180.0
  0
ARC
  5
2F3
100
AcDbEntity
  8
M0
100
AcDbCircle
 10
163.290984
 20
322.81724
 40
1.0
100
AcDbArc
 50
180.0
 51
270.0
  0
LINE
  5
2F4
100
AcDbEntity
  8
M0
100
AcDbLine
 10
170.090983
 20
311.017242
 11
163.290983
 21
311.017242
  0
LINE
  5
2F5
100
AcDbEntity
  8
M0
 62
     7
100
AcDbLine
 10
157.290985
 20
346.01724
 11
157.290985
 21
312.01724
  0
LINE
  5
2F6
100
AcDbEntity
  8
M0
  6
DASHDOT
 62
     7
100
AcDbLine
 10
79.755966
 20
373.517241
 11
79.755966
 21
374.517241
  0
CIRCLE
  5
2F7
100
AcDbEntity
  8
M0
 62
     7
100
AcDbCircle
 10
79.755966
 20
374.017241
 40
4.499996
  0
LINE
  5
2F8
100
AcDbEntity
  8
M0
  6
DASHDOT
 62
     7
100
AcDbLine
 10
79.255966
 20
374.017241
 11
80.255966
 21
374.017241
  0
LINE
  5
2F9
100
AcDbEntity
  8
M0
 62
     7
100
AcDbLine
 10
80.22287
 20
375.898375
 11
77.874893
 21
373.550383
  0
LINE
  5
2FA
100
AcDbEntity
  8
M0
 62
     7
100
AcDbLine
 10
81.63707
 20
374.48416
 11
79.289093
 21
372.136168
  0
LINE
  5
2FB
100
AcDbEntity
  8
M0
 62
     7
100
AcDbLine
 10
77.687012
 20
376.08615
 11
81.949982
 21
371.82321
  0
HATCH
  5
2FC
100
AcDbEntity
  8
M0
 62
     7
100
AcDbHatch
 10
0.0
 20
0.0
210
0.0
220
0.0
230
1.0
  2
SOLID
 70
     1
 71
     0
 91
        1
 92
        1
 93
       12
 72
     1
 10
61.489808
 20
331.748042
 11
61.489808
 21
332.966489
 72
     1
 10
61.489808
 20
332.966489
 11
62.97133
 21
332.966489
 72
     1
 10
62.97133
 20
332.966489
 11
62.97133
 21
331.748042
 72
     1
 10
62.97133
 20
331.748042
 11
63.705167
 21
331.748042
 72
     1
 10
63.705167
 20
331.748042
 11
63.705167
 21
334.517242
 72
     1
 10
63.705167
 20
334.517242
 11
62.97133
 21
334.517242
 72
     1
 10
62.97133
 20
334.517242
 11
62.97133
 21
333.409562
 72
     1
 10
62.97133
 20
333.409562
 11
61.489808
 21
333.409562
 72
     1
 10
61.489808
 20
333.409562
 11
61.489808
 21
334.517242
 72
     1
 10
61.489808
 20
334.517242
 11
60.75597
 21
334.517242
 72
     1
 10
60.75597
 20
334.517242
 11
60.75597
 21
331.748042
 72
     1
 10
60.75597
 20
331.748042
 11
61.489808
 21
331.748042
 97
        0
 75
     0
 76
     1
 98
        1
 10
0.0
 20
0.0
  0
LINE
  5
2FF
100
AcDbEntity
  8
M0
 62
     7
100
AcDbLine
 10
92.246553
 20
367.026596
 11
89.064913
 21
370.208358
  0
LINE
  5
300
100
AcDbEntity
  8
M0
 62
     7
100
AcDbLine
 10
92.069796
 20
368.970932
 11
90.302218
 21
367.203354
  0
LINE
  5
301
100
AcDbEntity
  8
M0
 62
     7
100
AcDbLine
 10
91.009249
 20
370.031601
 11
89.241671
 21
368.2639
  0
LINE
  5
302
100
AcDbEntity
  8
M0
 62
     7
100
AcDbLine
 10
93.98097
 20
372.442241
 11
87.33097
 21
372.442241
  0
LINE
  5
303
100
AcDbEntity
  8
M0
 62
     7
100
AcDbLine
 10
87.33097
 20
364.792241
 11
91.478104
 21
364.792241
  0
LINE
  5
304
100
AcDbEntity
  8
M0
 62
     7
100
AcDbLine
 10
86.83097
 20
371.942241
 11
86.83097
 21
365.292241
  0
ARC
  5
305
100
AcDbEntity
  8
M0
 62
     7
100
AcDbCircle
 10
87.33097
 20
371.942241
 40
0.5
100
AcDbArc
 50
90.0
 51
180.0
  0
ARC
  5
306
100
AcDbEntity
  8
M0
 62
     7
100
AcDbCircle
 10
87.33097
 20
365.292241
 40
0.5
100
AcDbArc
 50
180.0
 51
270.0
  0
ARC
  5
307
100
AcDbEntity
  8
M0
 62
     7
100
AcDbCircle
 10
90.65597
 20
368.617241
 40
3.0
100
AcDbArc
 50
354.126881
 51
662.724737
  0
LINE
  5
308
100
AcDbEntity
  8
M0
 62
     7
100
AcDbLine
 10
94.48097
 20
371.942241
 11
94.48097
 21
369.678258
  0
ARC
  5
309
100
AcDbEntity
  8
M0
 62
     7
100
AcDbCircle
 10
93.98097
 20
371.942241
 40
0.5
100
AcDbArc
 50
0.0
 51
90.0
  0
LINE
  5
30A
100
AcDbEntity
  8
M0
 62
     7
100
AcDbLine
 10
65.030963
 20
371.942241
 11
65.030963
 21
369.678258
  0
ARC
  5
30B
100
AcDbEntity
  8
M0
 62
     7
100
AcDbCircle
 10
65.530963
 20
371.942241
 40
0.5
100
AcDbArc
 50
90.0
 51
180.0
  0
ARC
  5
30C
100
AcDbEntity
  8
M0
 62
     7
100
AcDbCircle
 10
66.75597
 20
297.517241
 40
2.75
100
AcDbArc
 50
294.427107
 51
402.37713
  0
LINE
  5
30D
100
AcDbEntity
  8
M0
 62
     7
100
AcDbLine
 10
55.755969
 20
315.517195
 11
52.964913
 21
318.308358
  0
LINE
  5
30E
100
AcDbEntity
  8
M0
 62
     7
100
AcDbLine
 10
55.755969
 20
316.857106
 11
54.202218
 21
315.303354
  0
LINE
  5
30F
100
AcDbEntity
  8
M0
 62
     7
100
AcDbLine
 10
54.909249
 20
318.131601
 11
53.141671
 21
316.3639
  0
LINE
  5
310
100
AcDbEntity
  8
M0
 62
     7
100
AcDbLine
 10
55.755969
 20
320.542241
 11
51.23097
 21
320.542241
  0
LINE
  5
311
100
AcDbEntity
  8
M0
 62
     7
100
AcDbLine
 10
51.23097
 20
312.892241
 11
55.763813
 21
312.892241
  0
LINE
  5
312
100
AcDbEntity
  8
M0
 62
     7
100
AcDbLine
 10
50.73097
 20
320.042241
 11
50.73097
 21
313.392241
  0
ARC
  5
313
100
AcDbEntity
  8
M0
 62
     7
100
AcDbCircle
 10
51.23097
 20
320.042241
 40
0.5
100
AcDbArc
 50
90.0
 51
180.0
  0
ARC
  5
314
100
AcDbEntity
  8
M0
 62
     7
100
AcDbCircle
 10
51.23097
 20
313.392241
 40
0.5
100
AcDbArc
 50
180.0
 51
270.0
  0
ARC
  5
315
100
AcDbEntity
  8
M0
 62
     7
100
AcDbCircle
 10
54.55597
 20
316.717241
 40
3.0
100
AcDbArc
 50
66.421825
 51
293.578175
  0
CIRCLE
  5
316
100
AcDbEntity
  8
M0
 62
     7
100
AcDbCircle
 10
54.55597
 20
309.117241
 40
3.0
  0
LINE
  5
317
100
AcDbEntity
  8
M0
 62
     7
100
AcDbLine
 10
56.146553
 20
307.526596
 11
52.964913
 21
310.708358
  0
LINE
  5
318
100
AcDbEntity
  8
M0
 62
     7
100
AcDbLine
 10
55.969796
 20
309.470932
 11
54.202218
 21
307.703354
  0
LINE
  5
319
100
AcDbEntity
  8
M0
 62
     7
100
AcDbLine
 10
54.909249
 20
310.531601
 11
53.141671
 21
308.7639
  0
LINE
  5
31A
100
AcDbEntity
  8
M0
 62
     7
100
AcDbLine
 10
55.758786
 20
312.942241
 11
51.23097
 21
312.942241
  0
LINE
  5
31B
100
AcDbEntity
  8
M0
 62
     7
100
AcDbLine
 10
58.38097
 20
305.792241
 11
58.38097
 21
312.017242
  0
ARC
  5
31C
100
AcDbEntity
  8
M0
 62
     7
100
AcDbCircle
 10
57.88097
 20
305.792241
 40
0.5
100
AcDbArc
 50
270.0
 51
360.0
  0
LINE
  5
31D
100
AcDbEntity
  8
M0
 62
     7
100
AcDbLine
 10
51.23097
 20
305.292241
 11
57.88097
 21
305.292241
  0
LINE
  5
31E
100
AcDbEntity
  8
M0
 62
     7
100
AcDbLine
 10
50.73097
 20
312.442241
 11
50.73097
 21
305.792241
  0
ARC
  5
31F
100
AcDbEntity
  8
M0
 62
     7
100
AcDbCircle
 10
51.23097
 20
312.442241
 40
0.5
100
AcDbArc
 50
90.0
 51
180.0
  0
ARC
  5
320
100
AcDbEntity
  8
M0
 62
     7
100
AcDbCircle
 10
51.23097
 20
305.792241
 40
0.5
100
AcDbArc
 50
180.0
 51
270.0
  0
CIRCLE
  5
321
100
AcDbEntity
  8
M0
 62
     7
100
AcDbCircle
 10
66.75597
 20
353.717241
 40
3.5
  0
LINE
  5
322
100
AcDbEntity
  8
M0
 62
     7
100
AcDbLine
 10
67.766841
 20
355.435198
 11
65.191768
 21
352.860124
  0
LINE
  5
323
100
AcDbEntity
  8
M0
 62
     7
100
AcDbLine
 10
68.473949
 20
354.72809
 11
65.898876
 21
352.153017
  0
LINE
  5
324
100
AcDbEntity
  8
M0
 62
     7
100
AcDbLine
 10
65.795116
 20
354.678087
 11
67.639964
 21
352.833254
  0
CIRCLE
  5
325
100
AcDbEntity
  8
M0
 62
     7
100
AcDbCircle
 10
79.755966
 20
353.717241
 40
3.5
  0
LINE
  5
326
100
AcDbEntity
  8
M0
 62
     7
100
AcDbLine
 10
80.766838
 20
355.435198
 11
78.191765
 21
352.860124
  0
LINE
  5
327
100
AcDbEntity
  8
M0
 62
     7
100
AcDbLine
 10
81.473945
 20
354.72809
 11
78.898872
 21
352.153017
  0
LINE
  5
328
100
AcDbEntity
  8
M0
 62
     7
100
AcDbLine
 10
78.795112
 20
354.678087
 11
80.639961
 21
352.833254
  0
CIRCLE
  5
329
100
AcDbEntity
  8
M0
 62
     7
100
AcDbCircle
 10
92.755966
 20
353.717241
 40
3.5
  0
LINE
  5
32A
100
AcDbEntity
  8
M0
 62
     7
100
AcDbLine
 10
93.766838
 20
355.435198
 11
91.191765
 21
352.860124
  0
LINE
  5
32B
100
AcDbEntity
  8
M0
 62
     7
100
AcDbLine
 10
94.473946
 20
354.72809
 11
91.898872
 21
352.153017
  0
LINE
  5
32C
100
AcDbEntity
  8
M0
 62
     7
100
AcDbLine
 10
91.795113
 20
354.678087
 11
93.639961
 21
352.833254
  0
CIRCLE
  5
32D
100
AcDbEntity
  8
M0
 62
     7
100
AcDbCircle
 10
92.755966
 20
306.317241
 40
3.5
  0
LINE
  5
32E
100
AcDbEntity
  8
M0
 62
     7
100
AcDbLine
 10
93.766838
 20
308.035197
 11
91.191765
 21
305.460124
  0
LINE
  5
32F
100
AcDbEntity
  8
M0
 62
     7
100
AcDbLine
 10
94.473946
 20
307.32809
 11
91.898872
 21
304.753016
  0
LINE
  5
330
100
AcDbEntity
  8
M0
 62
     7
100
AcDbLine
 10
91.795113
 20
307.278087
 11
93.639961
 21
305.433253
  0
CIRCLE
  5
331
100
AcDbEntity
  8
M0
 62
     7
100
AcDbCircle
 10
79.755966
 20
306.317241
 40
3.5
  0
LINE
  5
332
100
AcDbEntity
  8
M0
 62
     7
100
AcDbLine
 10
80.766838
 20
308.035197
 11
78.191765
 21
305.460124
  0
LINE
  5
333
100
AcDbEntity
  8
M0
 62
     7
100
AcDbLine
 10
81.473945
 20
307.32809
 11
78.898872
 21
304.753016
  0
LINE
  5
334
100
AcDbEntity
  8
M0
 62
     7
100
AcDbLine
 10
78.795112
 20
307.278087
 11
80.639961
 21
305.433253
  0
CIRCLE
  5
335
100
AcDbEntity
  8
M0
 62
     7
100
AcDbCircle
 10
66.75597
 20
306.317241
 40
3.5
  0
LINE
  5
336
100
AcDbEntity
  8
M0
 62
     7
100
AcDbLine
 10
67.766841
 20
308.035197
 11
65.191768
 21
305.460124
  0
LINE
  5
337
100
AcDbEntity
  8
M0
 62
     7
100
AcDbLine
 10
68.473949
 20
307.32809
 11
65.898876
 21
304.753016
  0
LINE
  5
338
100
AcDbEntity
  8
M0
 62
     7
100
AcDbLine
 10
65.795116
 20
307.278087
 11
67.639964
 21
305.433253
  0
CIRCLE
  5
339
100
AcDbEntity
  8
M0
 62
     7
100
AcDbCircle
 10
54.55597
 20
350.917241
 40
3.0
  0
LINE
  5
33A
100
AcDbEntity
  8
M0
 62
     7
100
AcDbLine
 10
56.146553
 20
349.326596
 11
52.964913
 21
352.508358
  0
LINE
  5
33B
100
AcDbEntity
  8
M0
 62
     7
100
AcDbLine
 10
55.969796
 20
351.270932
 11
54.202217
 21
349.503354
  0
LINE
  5
33C
100
AcDbEntity
  8
M0
 62
     7
100
AcDbLine
 10
54.909249
 20
352.331601
 11
53.141671
 21
350.5639
  0
LINE
  5
33D
100
AcDbEntity
  8
M0
 62
     7
100
AcDbLine
 10
57.88097
 20
354.742241
 11
51.23097
 21
354.742241
  0
ARC
  5
33E
100
AcDbEntity
  8
M0
 62
     7
100
AcDbCircle
 10
57.88097
 20
354.242241
 40
0.5
100
AcDbArc
 50
0.0
 51
90.0
  0
LINE
  5
33F
100
AcDbEntity
  8
M0
 62
     7
100
AcDbLine
 10
58.38097
 20
348.017241
 11
58.38097
 21
354.242241
  0
LINE
  5
340
100
AcDbEntity
  8
M0
 62
     7
100
AcDbLine
 10
51.23097
 20
347.092241
 11
55.758786
 21
347.092241
  0
LINE
  5
341
100
AcDbEntity
  8
M0
 62
     7
100
AcDbLine
 10
50.73097
 20
354.242241
 11
50.73097
 21
347.592241
  0
ARC
  5
342
100
AcDbEntity
  8
M0
 62
     7
100
AcDbCircle
 10
51.23097
 20
354.242241
 40
0.5
100
AcDbArc
 50
90.0
 51
180.0
  0
ARC
  5
343
100
AcDbEntity
  8
M0
 62
     7
100
AcDbCircle
 10
51.23097
 20
347.592241
 40
0.5
100
AcDbArc
 50
180.0
 51
270.0
  0
CIRCLE
  5
344
100
AcDbEntity
  8
M0
 62
     7
100
AcDbCircle
 10
104.955969
 20
316.717241
 40
3.0
  0
LINE
  5
345
100
AcDbEntity
  8
M0
 62
     7
100
AcDbLine
 10
106.546553
 20
315.126596
 11
103.364912
 21
318.308358
  0
LINE
  5
346
100
AcDbEntity
  8
M0
 62
     7
100
AcDbLine
 10
106.369795
 20
317.070932
 11
104.602217
 21
315.303354
  0
LINE
  5
347
100
AcDbEntity
  8
M0
 62
     7
100
AcDbLine
 10
105.309248
 20
318.131601
 11
103.54167
 21
316.3639
  0
LINE
  5
348
100
AcDbEntity
  8
M0
 62
     7
100
AcDbLine
 10
108.280969
 20
320.542241
 11
103.75597
 21
320.542241
  0
ARC
  5
349
100
AcDbEntity
  8
M0
 62
     7
100
AcDbCircle
 10
108.280969
 20
320.042241
 40
0.5
100
AcDbArc
 50
0.0
 51
90.0
  0
LINE
  5
34A
100
AcDbEntity
  8
M0
 62
     7
100
AcDbLine
 10
108.780969
 20
313.392241
 11
108.780969
 21
320.042241
  0
ARC
  5
34B
100
AcDbEntity
  8
M0
 62
     7
100
AcDbCircle
 10
108.280969
 20
313.392241
 40
0.5
100
AcDbArc
 50
270.0
 51
360.0
  0
LINE
  5
34C
100
AcDbEntity
  8
M0
 62
     7
100
AcDbLine
 10
103.748126
 20
312.892241
 11
108.280969
 21
312.892241
  0
LINE
  5
34D
100
AcDbEntity
  8
M0
 62
     7
100
AcDbLine
 10
106.546553
 20
341.726596
 11
103.75597
 21
344.517286
  0
LINE
  5
34E
100
AcDbEntity
  8
M0
 62
     7
100
AcDbLine
 10
106.369795
 20
343.670932
 11
104.602217
 21
341.903354
  0
LINE
  5
34F
100
AcDbEntity
  8
M0
 62
     7
100
AcDbLine
 10
105.309248
 20
344.731601
 11
103.75597
 21
343.178215
  0
LINE
  5
350
100
AcDbEntity
  8
M0
 62
     7
100
AcDbLine
 10
108.280969
 20
347.142241
 11
103.748126
 21
347.142241
  0
ARC
  5
351
100
AcDbEntity
  8
M0
 62
     7
100
AcDbCircle
 10
108.280969
 20
346.642241
 40
0.5
100
AcDbArc
 50
0.0
 51
90.0
  0
LINE
  5
352
100
AcDbEntity
  8
M0
 62
     7
100
AcDbLine
 10
108.780969
 20
339.992241
 11
108.780969
 21
346.642241
  0
ARC
  5
353
100
AcDbEntity
  8
M0
 62
     7
100
AcDbCircle
 10
108.280969
 20
339.992241
 40
0.5
100
AcDbArc
 50
270.0
 51
360.0
  0
LINE
  5
354
100
AcDbEntity
  8
M0
 62
     7
100
AcDbLine
 10
103.75597
 20
339.492241
 11
108.280969
 21
339.492241
  0
ARC
  5
355
100
AcDbEntity
  8
M0
 62
     7
100
AcDbCircle
 10
104.955969
 20
343.317241
 40
3.0
100
AcDbArc
 50
246.421832
 51
473.578168
  0
HATCH
  5
356
100
AcDbEntity
  8
M0
 62
     7
100
AcDbHatch
 10
0.0
 20
0.0
210
0.0
220
0.0
230
1.0
  2
SOLID
 70
     1
 71
     0
 91
        1
 92
        1
 93
        4
 72
     1
 10
157.290985
 20
346.01724
 11
155.290985
 21
346.01724
 72
     1
 10
155.290985
 20
346.01724
 11
155.290985
 21
312.01724
 72
     1
 10
155.290985
 20
312.01724
 11
157.290985
 21
312.01724
 72
     1
 10
157.290985
 20
312.01724
 11
157.290985
 21
346.01724
 97
        0
 75
     0
 76
     1
 98
        1
 10
0.0
 20
0.0
  0
HATCH
  5
357
100
AcDbEntity
  8
M0
 62
     7
100
AcDbHatch
 10
0.0
 20
0.0
210
0.0
220
0.0
230
1.0
  2
SOLID
 70
     1
 71
     0
 91
        2
 92
        1
 93
        8
 72
     1
 10
68.680802
 20
332.34342
 11
70.05556
 21
332.34342
 72
     1
 10
70.05556
 20
332.34342
 11
70.295863
 21
331.748042
 72
     1
 10
70.295863
 20
331.748042
 11
71.112777
 21
331.748042
 72
     1
 10
71.112777
 20
331.748042
 11
69.818176
 21
334.517242
 72
     1
 10
69.818176
 20
334.517242
 11
68.918186
 21
334.517242
 72
     1
 10
68.918186
 20
334.517242
 11
67.623585
 21
331.748042
 72
     1
 10
67.623585
 20
331.748042
 11
68.440499
 21
331.748042
 72
     1
 10
68.440499
 20
331.748042
 11
68.680802
 21
332.34342
 97
        0
 92
       16
 93
        3
 72
     1
 10
69.368181
 20
334.046477
 11
68.859632
 21
332.786492
 72
     1
 10
68.859632
 20
332.786492
 11
69.87673
 21
332.786492
 72
     1
 10
69.87673
 20
332.786492
 11
69.368181
 21
334.046477
 97
        0
 75
     0
 76
     1
 98
        1
 10
0.0
 20
0.0
  0
HATCH
  5
358
100
AcDbEntity
  8
M0
 62
     7
100
AcDbHatch
 10
0.0
 20
0.0
210
0.0
220
0.0
230
1.0
  2
SOLID
 70
     1
 71
     0
 91
        1
 92
        1
 93
       12
 72
     1
 10
75.225039
 20
331.748042
 11
75.225039
 21
332.966489
 72
     1
 10
75.225039
 20
332.966489
 11
76.706561
 21
332.966489
 72
     1
 10
76.706561
 20
332.966489
 11
76.706561
 21
331.748042
 72
     1
 10
76.706561
 20
331.748042
 11
77.440399
 21
331.748042
 72
     1
 10
77.440399
 20
331.748042
 11
77.440399
 21
334.517242
 72
     1
 10
77.440399
 20
334.517242
 11
76.706561
 21
334.517242
 72
     1
 10
76.706561
 20
334.517242
 11
76.706561
 21
333.409562
 72
     1
 10
76.706561
 20
333.409562
 11
75.225039
 21
333.409562
 72
     1
 10
75.225039
 20
333.409562
 11
75.225039
 21
334.517242
 72
     1
 10
75.225039
 20
334.517242
 11
74.491201
 21
334.517242
 72
     1
 10
74.491201
 20
334.517242
 11
74.491201
 21
331.748042
 72
     1
 10
74.491201
 20
331.748042
 11
75.225039
 21
331.748042
 97
        0
 75
     0
 76
     1
 98
        1
 10
0.0
 20
0.0
  0
HATCH
  5
359
100
AcDbEntity
  8
M0
 62
     7
100
AcDbHatch
 10
0.0
 20
0.0
210
0.0
220
0.0
230
1.0
  2
SOLID
 70
     1
 71
     0
 91
        1
 92
        1
 93
       20
 72
     2
 10
72.621992
 20
334.115708
 40
2.436895
 50
252.447306
 51
292.422669
 73
     1
 72
     2
 10
73.213504
 20
332.6822
 40
0.886144
 50
292.422669
 51
346.150662
 73
     1
 72
     2
 10
72.621992
 20
332.82803
 40
1.495367
 50
346.150662
 51
356.81526
 73
     1
 72
     1
 10
74.11505
 20
332.744954
 11
73.341984
 21
332.744954
 72
     2
 10
72.621992
 20
332.744954
 40
0.719992
 50
0.0
 51
25.643738
 73
     0
 72
     2
 10
72.796742
 20
332.661063
 40
0.526148
 50
25.643738
 51
72.512342
 73
     0
 72
     2
 10
72.621992
 20
333.215717
 40
1.10768
 50
72.512342
 51
111.534322
 73
     0
 72
     2
 10
72.454276
 20
332.790693
 40
0.650762
 50
111.534322
 51
163.518484
 73
     0
 72
     2
 10
73.516443
 20
333.104949
 40
1.758441
 50
163.518484
 51
199.911347
 73
     0
 72
     2
 10
72.474979
 20
333.482186
 40
0.650762
 50
199.911347
 51
251.231339
 73
     0
 72
     2
 10
72.621992
 20
333.049565
 40
1.10768
 50
251.231339
 51
287.055921
 73
     0
 72
     2
 10
72.792558
 20
333.605521
 40
0.526148
 50
287.055921
 51
341.370551
 73
     0
 72
     2
 10
72.621992
 20
333.548021
 40
0.706146
 50
341.370551
 51
357.752539
 73
     0
 72
     1
 10
73.327594
 20
333.575713
 11
74.098263
 21
333.575713
 72
     2
 10
72.621992
 20
333.451099
 40
1.481521
 50
4.824977
 51
11.570993
 73
     1
 72
     2
 10
73.191705
 20
333.567744
 40
0.89999
 50
11.570993
 51
66.454336
 73
     1
 72
     2
 10
72.621992
 20
332.260344
 40
2.326127
 50
66.454336
 51
109.456965
 73
     1
 72
     2
 10
72.262249
 20
333.278655
 40
1.246139
 50
109.456965
 51
161.721239
 73
     1
 72
     2
 10
72.788143
 20
333.104949
 40
1.799979
 50
161.721239
 51
190.751611
 73
     1
 72
     2
 10
72.271231
 20
333.006795
 40
1.273831
 50
190.751611
 51
252.447306
 73
     1
 97
        0
 75
     0
 76
     1
 98
        1
 10
0.0
 20
0.0
  0
HATCH
  5
35A
100
AcDbEntity
  8
M0
 62
     7
100
AcDbHatch
 10
0.0
 20
0.0
210
0.0
220
0.0
230
1.0
  2
SOLID
 70
     1
 71
     0
 91
        1
 92
        1
 93
        4
 72
     1
 10
78.75577
 20
331.748042
 11
78.75577
 21
334.517242
 72
     1
 10
78.75577
 20
334.517242
 11
78.021931
 21
334.517242
 72
     1
 10
78.021931
 20
334.517242
 11
78.021931
 21
331.748042
 72
     1
 10
78.021931
 20
331.748042
 11
78.75577
 21
331.748042
 97
        0
 75
     0
 76
     1
 98
        1
 10
0.0
 20
0.0
  0
HATCH
  5
35B
100
AcDbEntity
  8
M0
 62
     7
100
AcDbHatch
 10
0.0
 20
0.0
210
0.0
220
0.0
230
1.0
  2
SOLID
 70
     1
 71
     0
 91
        1
 92
        1
 93
        4
 72
     1
 10
65.020537
 20
331.748042
 11
65.020537
 21
334.517242
 72
     1
 10
65.020537
 20
334.517242
 11
64.286699
 21
334.517242
 72
     1
 10
64.286699
 20
334.517242
 11
64.286699
 21
331.748042
 72
     1
 10
64.286699
 20
331.748042
 11
65.020537
 21
331.748042
 97
        0
 75
     0
 76
     1
 98
        1
 10
0.0
 20
0.0
  0
LINE
  5
35C
100
AcDbEntity
  8
M0
 62
   154
100
AcDbLine
 10
76.655966
 20
300.017241
 11
76.655966
 21
293.215066
  0
LINE
  5
35D
100
AcDbEntity
  8
M0
 62
   154
100
AcDbLine
 10
82.855966
 20
300.017241
 11
82.855966
 21
293.215066
  0
LINE
  5
35E
100
AcDbEntity
  8
M0
 62
   154
100
AcDbLine
 10
84.755966
 20
289.617965
 11
84.755966
 21
281.017241
  0
LINE
  5
35F
100
AcDbEntity
  8
M0
 62
   154
100
AcDbLine
 10
83.680968
 20
291.148818
 11
84.480966
 21
290.306715
  0
LINE
  5
360
100
AcDbEntity
  8
M0
 62
   154
100
AcDbLine
 10
84.591382
 20
301.017241
 11
83.855966
 21
301.017241
  0
LINE
  5
361
100
AcDbEntity
  8
M0
 62
   154
100
AcDbLine
 10
74.755966
 20
289.617965
 11
74.755966
 21
281.017241
  0
LINE
  5
362
100
AcDbEntity
  8
M0
 62
   154
100
AcDbLine
 10
83.755966
 20
280.017241
 11
75.755966
 21
280.017241
  0
LINE
  5
363
100
AcDbEntity
  8
M0
 62
   154
100
AcDbLine
 10
74.920551
 20
301.017241
 11
75.655966
 21
301.017241
  0
LINE
  5
364
100
AcDbEntity
  8
M0
 62
   154
100
AcDbLine
 10
83.755966
 20
311.317241
 11
75.755966
 21
311.317241
  0
LINE
  5
365
100
AcDbEntity
  8
M0
 62
   154
100
AcDbLine
 10
74.755966
 20
310.317241
 11
74.755966
 21
310.297036
  0
LINE
  5
366
100
AcDbEntity
  8
M0
 62
   154
100
AcDbLine
 10
74.755966
 20
308.337445
 11
74.755966
 21
303.297036
  0
LINE
  5
367
100
AcDbEntity
  8
M0
 62
   154
100
AcDbLine
 10
84.755966
 20
308.337445
 11
84.755966
 21
303.297036
  0
LINE
  5
368
100
AcDbEntity
  8
M0
 62
   154
100
AcDbLine
 10
84.755966
 20
310.317241
 11
84.755966
 21
310.297036
  0
ARC
  5
369
100
AcDbEntity
  8
M0
 62
   154
100
AcDbCircle
 10
77.055966
 20
309.317241
 40
2.5
100
AcDbArc
 50
156.926082
 51
203.073918
  0
ARC
  5
36A
100
AcDbEntity
  8
M0
 62
   154
100
AcDbCircle
 10
75.755966
 20
310.317241
 40
1.0
100
AcDbArc
 50
90.0
 51
180.0
  0
ARC
  5
36B
100
AcDbEntity
  8
M0
 62
   154
100
AcDbCircle
 10
83.755966
 20
310.317241
 40
1.0
100
AcDbArc
 50
0.0
 51
90.0
  0
ARC
  5
36C
100
AcDbEntity
  8
M0
 62
   154
100
AcDbCircle
 10
83.855966
 20
300.017241
 40
1.0
100
AcDbArc
 50
90.0
 51
180.0
  0
ARC
  5
36D
100
AcDbEntity
  8
M0
 62
   154
100
AcDbCircle
 10
75.655966
 20
300.017241
 40
1.0
100
AcDbArc
 50
0.0
 51
90.0
  0
ARC
  5
36E
100
AcDbEntity
  8
M0
 62
   154
100
AcDbCircle
 10
77.055966
 20
302.317241
 40
2.5
100
AcDbArc
 50
156.926082
 51
211.332251
  0
ARC
  5
36F
100
AcDbEntity
  8
M0
 62
   154
100
AcDbCircle
 10
82.455966
 20
302.317241
 40
2.5
100
AcDbArc
 50
328.667749
 51
383.073918
  0
ARC
  5
370
100
AcDbEntity
  8
M0
 62
   154
100
AcDbCircle
 10
82.455966
 20
309.317241
 40
2.5
100
AcDbArc
 50
336.926082
 51
383.073918
  0
ARC
  5
371
100
AcDbEntity
  8
M0
 62
   154
100
AcDbCircle
 10
75.755966
 20
281.017241
 40
1.0
100
AcDbArc
 50
180.0
 51
270.0
  0
ARC
  5
372
100
AcDbEntity
  8
M0
 62
   154
100
AcDbCircle
 10
75.755966
 20
289.617965
 40
1.0
100
AcDbArc
 50
136.468801
 51
180.0
  0
ARC
  5
373
100
AcDbEntity
  8
M0
 62
   154
100
AcDbCircle
 10
83.755966
 20
281.017241
 40
1.0
100
AcDbArc
 50
-90.0
 51
0.0
  0
ARC
  5
374
100
AcDbEntity
  8
M0
 62
   154
100
AcDbCircle
 10
83.755966
 20
289.617965
 40
1.0
100
AcDbArc
 50
0.0
 51
43.531199
  0
ARC
  5
375
100
AcDbEntity
  8
M0
 62
   154
100
AcDbCircle
 10
73.655966
 20
293.215066
 40
3.0
100
AcDbArc
 50
-43.531199
 51
0.0
  0
ARC
  5
376
100
AcDbEntity
  8
M0
 62
   154
100
AcDbCircle
 10
85.855966
 20
293.215066
 40
3.0
100
AcDbArc
 50
180.0
 51
223.531199
  0
LINE
  5
377
100
AcDbEntity
  8
M0
 62
   154
100
AcDbLine
 10
75.830964
 20
291.148818
 11
75.030967
 21
290.306715
  0
LINE
  5
378
100
AcDbEntity
  8
M0
100
AcDbLine
 10
69.818176
 20
334.517242
 11
71.112777
 21
331.748042
  0
LINE
  5
379
100
AcDbEntity
  8
M0
100
AcDbLine
 10
66.405137
 20
331.748042
 11
67.138975
 21
331.748042
  0
LINE
  5
37A
100
AcDbEntity
  8
M0
100
AcDbLine
 10
78.75577
 20
334.517242
 11
78.021931
 21
334.517242
  0
LINE
  5
37B
100
AcDbEntity
  8
M0
100
AcDbLine
 10
70.295863
 20
331.748042
 11
71.112777
 21
331.748042
  0
LINE
  5
37C
100
AcDbEntity
  8
M0
100
AcDbLine
 10
68.440499
 20
331.748042
 11
68.680802
 21
332.34342
  0
LINE
  5
37D
100
AcDbEntity
  8
M0
100
AcDbLine
 10
64.286699
 20
334.517242
 11
64.286699
 21
331.748042
  0
LINE
  5
37E
100
AcDbEntity
  8
M0
100
AcDbLine
 10
95.75597
 20
327.317244
 11
89.75597
 21
327.317244
  0
LINE
  5
37F
100
AcDbEntity
  8
M0
100
AcDbLine
 10
77.440399
 20
334.517242
 11
76.706561
 21
334.517242
  0
TEXT
  5
380
100
AcDbEntity
  8
M0
100
AcDbText
 10
82.880972
 20
322.517246
 40
2.0
  1
５６
 41
0.625
  7
STANDARD
100
AcDbText
  0
LINE
  5
381
100
AcDbEntity
  8
M0
100
AcDbLine
 10
76.706561
 20
333.409562
 11
75.225039
 21
333.409562
  0
TEXT
  5
382
100
AcDbEntity
  8
M0
100
AcDbText
 10
60.880962
 20
328.517246
 40
2.0
  1
ＬＡＴＣＨＥＤ
 41
0.625
  7
STANDARD
100
AcDbText
  0
LINE
  5
383
100
AcDbEntity
  8
M0
100
AcDbLine
 10
76.706561
 20
333.409562
 11
76.706561
 21
334.517242
  0
LINE
  5
384
100
AcDbEntity
  8
M0
100
AcDbLine
 10
74.115049
 20
332.744954
 11
73.341983
 21
332.744954
  0
TEXT
  5
385
100
AcDbEntity
  8
M0
100
AcDbText
 10
82.880972
 20
335.517243
 40
2.0
  1
５５
 41
0.625
  7
STANDARD
100
AcDbText
  0
LINE
  5
386
100
AcDbEntity
  8
M0
100
AcDbLine
 10
86.75597
 20
327.817244
 11
89.75597
 21
326.725333
  0
LINE
  5
387
100
AcDbEntity
  8
M0
100
AcDbLine
 10
68.260501
 20
334.517242
 11
65.283612
 21
334.517242
  0
LINE
  5
388
100
AcDbEntity
  8
M0
100
AcDbLine
 10
95.75597
 20
328.317244
 11
89.75597
 21
328.317244
  0
LINE
  5
389
100
AcDbEntity
  8
M0
100
AcDbLine
 10
68.918186
 20
334.517242
 11
67.623585
 21
331.748042
  0
LINE
  5
38A
100
AcDbEntity
  8
M0
100
AcDbLine
 10
89.75597
 20
326.725333
 11
89.75597
 21
327.317244
  0
LINE
  5
38B
100
AcDbEntity
  8
M0
100
AcDbLine
 10
66.405137
 20
334.046477
 11
66.405137
 21
331.748042
  0
LINE
  5
38C
100
AcDbEntity
  8
M0
100
AcDbLine
 10
89.75597
 20
328.317244
 11
89.75597
 21
328.909155
  0
LINE
  5
38D
100
AcDbEntity
  8
M0
100
AcDbLine
 10
86.75597
 20
327.817244
 11
89.75597
 21
328.909155
  0
LINE
  5
38E
100
AcDbEntity
  8
M0
100
AcDbLine
 10
68.680802
 20
332.34342
 11
70.05556
 21
332.34342
  0
LINE
  5
38F
100
AcDbEntity
  8
M0
100
AcDbLine
 10
69.87673
 20
332.786492
 11
69.368181
 21
334.046477
  0
LINE
  5
390
100
AcDbEntity
  8
M0
100
AcDbLine
 10
61.489808
 20
334.517242
 11
60.75597
 21
334.517242
  0
LINE
  5
391
100
AcDbEntity
  8
M0
100
AcDbLine
 10
63.705167
 20
334.517242
 11
62.97133
 21
334.517242
  0
LINE
  5
392
100
AcDbEntity
  8
M0
100
AcDbLine
 10
62.97133
 20
331.748042
 11
63.705167
 21
331.748042
  0
LINE
  5
393
100
AcDbEntity
  8
M0
100
AcDbLine
 10
95.75597
 20
327.317244
 11
95.75597
 21
328.317244
  0
ARC
  5
394
100
AcDbEntity
  8
M0
100
AcDbCircle
 10
103.218928
 20
325.717241
 40
0.5
100
AcDbArc
 50
270.0
 51
360.0
  0
ARC
  5
395
100
AcDbEntity
  8
M0
100
AcDbCircle
 10
103.218928
 20
334.317241
 40
0.5
100
AcDbArc
 50
0.0
 51
90.0
  0
LINE
  5
396
100
AcDbEntity
  8
M0
100
AcDbLine
 10
103.718927
 20
334.317241
 11
103.718927
 21
325.717241
  0
LINE
  5
397
100
AcDbEntity
  8
M0
100
AcDbLine
 10
75.225039
 20
331.748042
 11
75.225039
 21
332.966489
  0
LINE
  5
398
100
AcDbEntity
  8
M0
100
AcDbLine
 10
65.283612
 20
334.046477
 11
66.405137
 21
334.046477
  0
LINE
  5
399
100
AcDbEntity
  8
M0
100
AcDbLine
 10
98.855969
 20
334.817241
 11
103.218928
 21
334.817241
  0
LINE
  5
39A
100
AcDbEntity
  8
M0
100
AcDbLine
 10
65.283612
 20
334.517242
 11
65.283612
 21
334.046477
  0
LINE
  5
39B
100
AcDbEntity
  8
M0
100
AcDbLine
 10
88.155969
 20
314.817241
 11
95.95597
 21
314.817241
  0
LINE
  5
39C
100
AcDbEntity
  8
M0
100
AcDbLine
 10
72.95597
 20
313.517242
 11
72.95597
 21
312.017242
  0
ARC
  5
39D
100
AcDbEntity
  8
M0
100
AcDbCircle
 10
82.15597
 20
314.417241
 40
0.5
100
AcDbArc
 50
270.0
 51
360.0
  0
LINE
  5
39E
100
AcDbEntity
  8
M0
100
AcDbLine
 10
65.35597
 20
313.017241
 11
65.25597
 21
313.017241
  0
LINE
  5
39F
100
AcDbEntity
  8
M0
100
AcDbLine
 10
73.05597
 20
313.517242
 11
72.95597
 21
313.517242
  0
ARC
  5
3A0
100
AcDbEntity
  8
M0
100
AcDbCircle
 10
82.15597
 20
317.317241
 40
0.5
100
AcDbArc
 50
0.0
 51
90.0
  0
LINE
  5
3A1
100
AcDbEntity
  8
M0
100
AcDbLine
 10
65.35597
 20
312.017242
 11
65.35597
 21
313.017241
  0
LINE
  5
3A2
100
AcDbEntity
  8
M0
100
AcDbLine
 10
75.225039
 20
332.966489
 11
76.706561
 21
332.966489
  0
LINE
  5
3A3
100
AcDbEntity
  8
M0
100
AcDbLine
 10
75.225039
 20
334.517242
 11
74.491201
 21
334.517242
  0
LINE
  5
3A4
100
AcDbEntity
  8
M0
100
AcDbLine
 10
67.138975
 20
334.046477
 11
67.138975
 21
331.748042
  0
LINE
  5
3A5
100
AcDbEntity
  8
M0
100
AcDbLine
 10
78.021931
 20
331.748042
 11
78.75577
 21
331.748042
  0
LINE
  5
3A6
100
AcDbEntity
  8
M0
100
AcDbLine
 10
67.138975
 20
334.046477
 11
68.260501
 21
334.046477
  0
LINE
  5
3A7
100
AcDbEntity
  8
M0
100
AcDbLine
 10
60.75597
 20
331.748042
 11
61.489808
 21
331.748042
  0
LINE
  5
3A8
100
AcDbEntity
  8
M0
100
AcDbLine
 10
69.87673
 20
332.786492
 11
68.859632
 21
332.786492
  0
LINE
  5
3A9
100
AcDbEntity
  8
M0
100
AcDbLine
 10
77.440399
 20
331.748042
 11
77.440399
 21
334.517242
  0
LINE
  5
3AA
100
AcDbEntity
  8
M0
100
AcDbLine
 10
74.491201
 20
334.517242
 11
74.491201
 21
331.748042
  0
LINE
  5
3AB
100
AcDbEntity
  8
M0
100
AcDbLine
 10
65.020537
 20
334.517242
 11
65.020537
 21
331.748042
  0
LINE
  5
3AC
100
AcDbEntity
  8
M0
100
AcDbLine
 10
68.260501
 20
334.517242
 11
68.260501
 21
334.046477
  0
LINE
  5
3AD
100
AcDbEntity
  8
M0
100
AcDbLine
 10
76.706561
 20
331.748042
 11
76.706561
 21
332.966489
  0
LINE
  5
3AE
100
AcDbEntity
  8
M0
100
AcDbLine
 10
75.225039
 20
333.409562
 11
75.225039
 21
334.517242
  0
LINE
  5
3AF
100
AcDbEntity
  8
M0
100
AcDbLine
 10
69.509249
 20
317.331604
 11
67.741671
 21
315.563904
  0
LINE
  5
3B0
100
AcDbEntity
  8
M0
100
AcDbLine
 10
93.469796
 20
320.070935
 11
91.702217
 21
318.303357
  0
LINE
  5
3B1
100
AcDbEntity
  8
M0
100
AcDbLine
 10
70.746554
 20
314.326599
 11
67.564913
 21
317.508362
  0
LINE
  5
3B2
100
AcDbEntity
  8
M0
100
AcDbLine
 10
93.646553
 20
318.126599
 11
90.464913
 21
321.308362
  0
CIRCLE
  5
3B3
100
AcDbEntity
  8
M0
100
AcDbCircle
 10
92.05597
 20
340.317241
 40
3.0
  0
LINE
  5
3B4
100
AcDbEntity
  8
M0
100
AcDbLine
 10
70.569796
 20
316.270935
 11
68.802218
 21
314.503357
  0
LINE
  5
3B5
100
AcDbEntity
  8
M0
100
AcDbLine
 10
92.409249
 20
321.131604
 11
90.641671
 21
319.363904
  0
LINE
  5
3B6
100
AcDbEntity
  8
M0
100
AcDbLine
 10
92.409249
 20
341.731604
 11
90.641671
 21
339.963904
  0
LINE
  5
3B7
100
AcDbEntity
  8
M0
100
AcDbLine
 10
93.469796
 20
340.670935
 11
91.702217
 21
338.903357
  0
LINE
  5
3B8
100
AcDbEntity
  8
M0
100
AcDbLine
 10
70.746554
 20
342.526599
 11
67.564913
 21
345.708362
  0
LINE
  5
3B9
100
AcDbEntity
  8
M0
100
AcDbLine
 10
70.569796
 20
344.470935
 11
68.802218
 21
342.703357
  0
LINE
  5
3BA
100
AcDbEntity
  8
M0
100
AcDbLine
 10
93.646553
 20
338.726599
 11
90.464913
 21
341.908362
  0
LINE
  5
3BB
100
AcDbEntity
  8
M0
100
AcDbLine
 10
69.509249
 20
345.531604
 11
67.741671
 21
343.763904
  0
ARC
  5
3BC
100
AcDbEntity
  8
M0
100
AcDbCircle
 10
72.621992
 20
333.548021
 40
0.706146
100
AcDbArc
 50
2.247463
 51
18.629353
  0
ARC
  5
3BD
100
AcDbEntity
  8
M0
100
AcDbCircle
 10
73.191705
 20
333.567744
 40
0.89999
100
AcDbArc
 50
11.57091
 51
66.454309
  0
ARC
  5
3BE
100
AcDbEntity
  8
M0
100
AcDbCircle
 10
72.621992
 20
333.215717
 40
1.10768
100
AcDbArc
 50
248.465704
 51
287.487613
  0
ARC
  5
3BF
100
AcDbEntity
  8
M0
100
AcDbCircle
 10
72.621992
 20
333.049565
 40
1.10768
100
AcDbArc
 50
72.944058
 51
108.768683
  0
ARC
  5
3C0
100
AcDbEntity
  8
M0
100
AcDbCircle
 10
73.516443
 20
333.104949
 40
1.758441
100
AcDbArc
 50
160.088603
 51
196.481482
  0
ARC
  5
3C1
100
AcDbEntity
  8
M0
100
AcDbCircle
 10
72.621992
 20
332.744954
 40
0.719992
100
AcDbArc
 50
334.356275
 51
360.0
  0
ARC
  5
3C2
100
AcDbEntity
  8
M0
100
AcDbCircle
 10
72.454276
 20
332.790693
 40
0.650762
100
AcDbArc
 50
196.481517
 51
248.465722
  0
CIRCLE
  5
3C3
100
AcDbEntity
  8
M0
100
AcDbCircle
 10
92.05597
 20
319.717241
 40
3.0
  0
ARC
  5
3C4
100
AcDbEntity
  8
M0
100
AcDbCircle
 10
72.792558
 20
333.605521
 40
0.526148
100
AcDbArc
 50
18.629246
 51
72.943922
  0
CIRCLE
  5
3C5
100
AcDbEntity
  8
M0
100
AcDbCircle
 10
69.15597
 20
344.117241
 40
3.0
  0
ARC
  5
3C6
100
AcDbEntity
  8
M0
100
AcDbCircle
 10
72.474979
 20
333.482186
 40
0.650762
100
AcDbArc
 50
108.768698
 51
160.088638
  0
ARC
  5
3C7
100
AcDbEntity
  8
M0
100
AcDbCircle
 10
73.213504
 20
332.6822
 40
0.886144
100
AcDbArc
 50
292.42259
 51
346.150643
  0
CIRCLE
  5
3C8
100
AcDbEntity
  8
M0
100
AcDbCircle
 10
69.15597
 20
315.917241
 40
3.0
  0
ARC
  5
3C9
100
AcDbEntity
  8
M0
100
AcDbCircle
 10
72.621992
 20
333.451099
 40
1.481521
100
AcDbArc
 50
4.824937
 51
11.570943
  0
LINE
  5
3CA
100
AcDbEntity
  8
M0
100
AcDbLine
 10
61.489808
 20
332.966489
 11
62.97133
 21
332.966489
  0
LINE
  5
3CB
100
AcDbEntity
  8
M0
100
AcDbLine
 10
70.295863
 20
331.748042
 11
70.05556
 21
332.34342
  0
LINE
  5
3CC
100
AcDbEntity
  8
M0
100
AcDbLine
 10
64.286699
 20
331.748042
 11
65.020537
 21
331.748042
  0
ARC
  5
3CD
100
AcDbEntity
  8
M0
100
AcDbCircle
 10
72.788143
 20
333.104949
 40
1.799979
100
AcDbArc
 50
161.72132
 51
190.751551
  0
ARC
  5
3CE
100
AcDbEntity
  8
M0
100
AcDbCircle
 10
72.262249
 20
333.278655
 40
1.246139
100
AcDbArc
 50
109.456972
 51
161.721309
  0
LINE
  5
3CF
100
AcDbEntity
  8
M0
100
AcDbLine
 10
74.098263
 20
333.575713
 11
73.327594
 21
333.575713
  0
LINE
  5
3D0
100
AcDbEntity
  8
M0
100
AcDbLine
 10
62.97133
 20
334.517242
 11
62.97133
 21
333.409562
  0
LINE
  5
3D1
100
AcDbEntity
  8
M0
100
AcDbLine
 10
69.818176
 20
334.517242
 11
68.918186
 21
334.517242
  0
LINE
  5
3D2
100
AcDbEntity
  8
M0
100
AcDbLine
 10
61.489808
 20
334.517242
 11
61.489808
 21
333.409562
  0
LINE
  5
3D3
100
AcDbEntity
  8
M0
100
AcDbLine
 10
68.859632
 20
332.786492
 11
69.368181
 21
334.046477
  0
LINE
  5
3D4
100
AcDbEntity
  8
M0
100
AcDbLine
 10
63.705167
 20
334.517242
 11
63.705167
 21
331.748042
  0
LINE
  5
3D5
100
AcDbEntity
  8
M0
100
AcDbLine
 10
67.623585
 20
331.748042
 11
68.440499
 21
331.748042
  0
LINE
  5
3D6
100
AcDbEntity
  8
M0
100
AcDbLine
 10
61.489808
 20
332.966489
 11
61.489808
 21
331.748042
  0
LINE
  5
3D7
100
AcDbEntity
  8
M0
100
AcDbLine
 10
74.491201
 20
331.748042
 11
75.225039
 21
331.748042
  0
LINE
  5
3D8
100
AcDbEntity
  8
M0
100
AcDbLine
 10
76.706561
 20
331.748042
 11
77.440399
 21
331.748042
  0
LINE
  5
3D9
100
AcDbEntity
  8
M0
100
AcDbLine
 10
62.97133
 20
332.966489
 11
62.97133
 21
331.748042
  0
TEXT
  5
3DA
100
AcDbEntity
  8
M0
100
AcDbText
 10
89.280965
 20
330.717243
 40
2.0
  1
ＯＦＦ
 41
0.625
  7
STANDARD
100
AcDbText
  0
LINE
  5
3DB
100
AcDbEntity
  8
M0
100
AcDbLine
 10
65.020537
 20
334.517242
 11
64.286699
 21
334.517242
  0
LINE
  5
3DC
100
AcDbEntity
  8
M0
100
AcDbLine
 10
62.97133
 20
333.409562
 11
61.489808
 21
333.409562
  0
TEXT
  5
3DD
100
AcDbEntity
  8
M0
100
AcDbText
 10
67.780964
 20
322.517246
 40
2.0
  1
Ｅ２
 41
0.625
  7
STANDARD
100
AcDbText
  0
LINE
  5
3DE
100
AcDbEntity
  8
M0
100
AcDbLine
 10
78.021931
 20
331.748042
 11
78.021931
 21
334.517242
  0
ARC
  5
3DF
100
AcDbEntity
  8
M0
100
AcDbCircle
 10
72.796742
 20
332.661063
 40
0.526148
100
AcDbArc
 50
287.487588
 51
334.356243
  0
ARC
  5
3E0
100
AcDbEntity
  8
M0
100
AcDbCircle
 10
72.271231
 20
333.006795
 40
1.273831
100
AcDbArc
 50
190.75155
 51
252.447271
  0
ARC
  5
3E1
100
AcDbEntity
  8
M0
100
AcDbCircle
 10
72.621992
 20
332.82803
 40
1.495367
100
AcDbArc
 50
346.150651
 51
356.815254
  0
TEXT
  5
3E2
100
AcDbEntity
  8
M0
100
AcDbText
 10
60.880962
 20
326.017246
 40
2.0
  1
ＣＯＮＴＡＣＴＯＲ
 41
0.625
  7
STANDARD
100
AcDbText
  0
TEXT
  5
3E3
100
AcDbEntity
  8
M0
100
AcDbText
 10
67.780964
 20
335.517243
 40
2.0
  1
Ｅ１
 41
0.625
  7
STANDARD
100
AcDbText
  0
ARC
  5
3E4
100
AcDbEntity
  8
M0
100
AcDbCircle
 10
72.621992
 20
334.115708
 40
2.436895
100
AcDbArc
 50
252.447278
 51
292.42262
  0
LINE
  5
3E5
100
AcDbEntity
  8
M0
100
AcDbLine
 10
99.25597
 20
347.017241
 11
99.25597
 21
337.217241
  0
LINE
  5
3E6
100
AcDbEntity
  8
M0
100
AcDbLine
 10
95.95597
 20
336.21724
 11
95.95597
 21
347.017241
  0
LINE
  5
3E7
100
AcDbEntity
  8
M0
100
AcDbLine
 10
99.25597
 20
337.217241
 11
101.75597
 21
337.217241
  0
LINE
  5
3E8
100
AcDbEntity
  8
M0
100
AcDbLine
 10
88.155969
 20
347.017241
 11
88.155969
 21
336.21724
  0
LINE
  5
3E9
100
AcDbEntity
  8
M0
100
AcDbLine
 10
65.25597
 20
340.01724
 11
73.05597
 21
340.01724
  0
LINE
  5
3EA
100
AcDbEntity
  8
M0
100
AcDbLine
 10
101.75597
 20
335.017241
 11
99.25597
 21
335.017241
  0
LINE
  5
3EB
100
AcDbEntity
  8
M0
100
AcDbLine
 10
88.155969
 20
336.21724
 11
95.95597
 21
336.21724
  0
LINE
  5
3EC
100
AcDbEntity
  8
M0
100
AcDbLine
 10
65.25597
 20
348.017241
 11
65.25597
 21
347.017241
  0
LINE
  5
3ED
100
AcDbEntity
  8
M0
100
AcDbLine
 10
73.05597
 20
347.017241
 11
73.05597
 21
348.017241
  0
LINE
  5
3EE
100
AcDbEntity
  8
M0
100
AcDbLine
 10
80.75597
 20
317.917242
 11
80.75597
 21
317.81724
  0
LINE
  5
3EF
100
AcDbEntity
  8
M0
100
AcDbLine
 10
103.75597
 20
336.21724
 11
103.75597
 21
336.017241
  0
LINE
  5
3F0
100
AcDbEntity
  8
M0
100
AcDbLine
 10
101.75597
 20
337.217241
 11
102.75597
 21
337.217241
  0
LINE
  5
3F1
100
AcDbEntity
  8
M0
100
AcDbLine
 10
82.65597
 20
317.917242
 11
82.65597
 21
317.81724
  0
LINE
  5
3F2
100
AcDbEntity
  8
M0
100
AcDbLine
 10
102.75597
 20
335.017241
 11
101.75597
 21
335.017241
  0
ARC
  5
3F3
100
AcDbEntity
  8
M0
100
AcDbCircle
 10
77.55597
 20
317.317241
 40
0.5
100
AcDbArc
 50
90.0
 51
180.0
  0
ARC
  5
3F4
100
AcDbEntity
  8
M0
100
AcDbCircle
 10
102.75597
 20
336.017241
 40
1.0
100
AcDbArc
 50
270.0
 51
360.0
  0
LINE
  5
3F5
100
AcDbEntity
  8
M0
100
AcDbLine
 10
95.805969
 20
343.567241
 11
95.805969
 21
337.067241
  0
ARC
  5
3F6
100
AcDbEntity
  8
M0
100
AcDbCircle
 10
98.25597
 20
347.017241
 40
1.0
100
AcDbArc
 50
0.0
 51
90.0
  0
ARC
  5
3F7
100
AcDbEntity
  8
M0
100
AcDbCircle
 10
99.25597
 20
334.517241
 40
0.5
100
AcDbArc
 50
90.0
 51
180.0
  0
ARC
  5
3F8
100
AcDbEntity
  8
M0
100
AcDbCircle
 10
77.55597
 20
314.417241
 40
0.5
100
AcDbArc
 50
180.0
 51
270.0
  0
ARC
  5
3F9
100
AcDbEntity
  8
M0
100
AcDbCircle
 10
102.75597
 20
336.217241
 40
1.0
100
AcDbArc
 50
0.0
 51
90.0
  0
LINE
  5
3FA
100
AcDbEntity
  8
M0
100
AcDbLine
 10
56.75597
 20
348.017241
 11
102.75597
 21
348.017241
  0
LINE
  5
3FB
100
AcDbEntity
  8
M0
100
AcDbLine
 10
56.75597
 20
333.217241
 11
56.25597
 21
333.217241
  0
LINE
  5
3FC
100
AcDbEntity
  8
M0
100
AcDbLine
 10
73.05597
 20
340.01724
 11
73.05597
 21
347.017241
  0
LINE
  5
3FD
100
AcDbEntity
  8
M0
100
AcDbLine
 10
88.80597
 20
344.067241
 11
95.305969
 21
344.067241
  0
LINE
  5
3FE
100
AcDbEntity
  8
M0
100
AcDbLine
 10
95.305969
 20
336.567241
 11
88.80597
 21
336.567241
  0
LINE
  5
3FF
100
AcDbEntity
  8
M0
100
AcDbLine
 10
65.25597
 20
347.017241
 11
65.25597
 21
340.01724
  0
LINE
  5
400
100
AcDbEntity
  8
M0
100
AcDbLine
 10
103.75597
 20
330.017242
 11
103.718927
 21
330.017242
  0
LINE
  5
401
100
AcDbEntity
  8
M0
100
AcDbLine
 10
65.90597
 20
347.867241
 11
72.40597
 21
347.867241
  0
ARC
  5
402
100
AcDbEntity
  8
M0
100
AcDbCircle
 10
88.80597
 20
316.467241
 40
0.5
100
AcDbArc
 50
180.0
 51
270.0
  0
LINE
  5
403
100
AcDbEntity
  8
M0
100
AcDbLine
 10
72.40597
 20
312.167241
 11
65.90597
 21
312.167241
  0
ARC
  5
404
100
AcDbEntity
  8
M0
100
AcDbCircle
 10
72.40597
 20
319.167241
 40
0.5
100
AcDbArc
 50
0.0
 51
90.0
  0
ARC
  5
405
100
AcDbEntity
  8
M0
100
AcDbCircle
 10
72.40597
 20
312.667241
 40
0.5
100
AcDbArc
 50
270.0
 51
360.0
  0
LINE
  5
406
100
AcDbEntity
  8
M0
100
AcDbLine
 10
65.40597
 20
312.667241
 11
65.40597
 21
319.16724
  0
ARC
  5
407
100
AcDbEntity
  8
M0
100
AcDbCircle
 10
88.80597
 20
322.967241
 40
0.5
100
AcDbArc
 50
90.0
 51
180.0
  0
LINE
  5
408
100
AcDbEntity
  8
M0
100
AcDbLine
 10
65.40597
 20
340.867241
 11
65.40597
 21
347.367241
  0
ARC
  5
409
100
AcDbEntity
  8
M0
100
AcDbCircle
 10
65.90597
 20
347.367241
 40
0.5
100
AcDbArc
 50
90.0
 51
180.0
  0
LINE
  5
40A
100
AcDbEntity
  8
M0
100
AcDbLine
 10
72.90597
 20
347.367241
 11
72.90597
 21
340.867241
  0
LINE
  5
40B
100
AcDbEntity
  8
M0
100
AcDbLine
 10
65.90597
 20
319.667241
 11
72.40597
 21
319.667241
  0
LINE
  5
40C
100
AcDbEntity
  8
M0
100
AcDbLine
 10
72.90597
 20
319.167241
 11
72.90597
 21
312.667242
  0
LINE
  5
40D
100
AcDbEntity
  8
M0
100
AcDbLine
 10
72.40597
 20
340.367241
 11
65.90597
 21
340.367241
  0
ARC
  5
40E
100
AcDbEntity
  8
M0
100
AcDbCircle
 10
65.90597
 20
340.867241
 40
0.5
100
AcDbArc
 50
180.0
 51
270.0
  0
ARC
  5
40F
100
AcDbEntity
  8
M0
100
AcDbCircle
 10
88.80597
 20
343.567241
 40
0.5
100
AcDbArc
 50
90.0
 51
180.0
  0
ARC
  5
410
100
AcDbEntity
  8
M0
100
AcDbCircle
 10
88.80597
 20
337.067241
 40
0.5
100
AcDbArc
 50
180.0
 51
270.0
  0
LINE
  5
411
100
AcDbEntity
  8
M0
100
AcDbLine
 10
95.30597
 20
315.967242
 11
88.80597
 21
315.967242
  0
ARC
  5
412
100
AcDbEntity
  8
M0
100
AcDbCircle
 10
95.30597
 20
316.467241
 40
0.5
100
AcDbArc
 50
270.0
 51
360.0
  0
LINE
  5
413
100
AcDbEntity
  8
M0
100
AcDbLine
 10
82.65597
 20
317.81724
 11
82.65597
 21
316.017239
  0
LINE
  5
414
100
AcDbEntity
  8
M0
100
AcDbLine
 10
88.30597
 20
316.467239
 11
88.30597
 21
322.967241
  0
ARC
  5
415
100
AcDbEntity
  8
M0
100
AcDbCircle
 10
95.30597
 20
322.967241
 40
0.5
100
AcDbArc
 50
0.0
 51
90.0
  0
ARC
  5
416
100
AcDbEntity
  8
M0
100
AcDbCircle
 10
72.40597
 20
340.867241
 40
0.5
100
AcDbArc
 50
270.0
 51
360.0
  0
ARC
  5
417
100
AcDbEntity
  8
M0
100
AcDbCircle
 10
72.40597
 20
347.367241
 40
0.5
100
AcDbArc
 50
0.0
 51
90.0
  0
ARC
  5
418
100
AcDbEntity
  8
M0
100
AcDbCircle
 10
65.90597
 20
319.167241
 40
0.5
100
AcDbArc
 50
90.0
 51
180.0
  0
LINE
  5
419
100
AcDbEntity
  8
M0
100
AcDbLine
 10
95.805969
 20
322.967241
 11
95.805969
 21
316.467239
  0
LINE
  5
41A
100
AcDbEntity
  8
M0
100
AcDbLine
 10
88.80597
 20
323.467241
 11
95.305969
 21
323.467241
  0
ARC
  5
41B
100
AcDbEntity
  8
M0
100
AcDbCircle
 10
65.90597
 20
312.667241
 40
0.5
100
AcDbArc
 50
180.0
 51
270.0
  0
LINE
  5
41C
100
AcDbEntity
  8
M0
100
AcDbLine
 10
95.95597
 20
345.217241
 11
88.155969
 21
345.217241
  0
LINE
  5
41D
100
AcDbEntity
  8
M0
100
AcDbLine
 10
82.65597
 20
314.417242
 11
82.65597
 21
314.917239
  0
LINE
  5
41E
100
AcDbEntity
  8
M0
100
AcDbLine
 10
55.755969
 20
313.017241
 11
55.755969
 21
319.517241
  0
LINE
  5
41F
100
AcDbEntity
  8
M0
100
AcDbLine
 10
77.55597
 20
317.81724
 11
82.15597
 21
317.81724
  0
LINE
  5
420
100
AcDbEntity
  8
M0
100
AcDbLine
 10
82.15597
 20
313.917241
 11
77.55597
 21
313.917241
  0
LINE
  5
421
100
AcDbEntity
  8
M0
100
AcDbLine
 10
82.95597
 20
317.71724
 11
82.95597
 21
316.017239
  0
LINE
  5
422
100
AcDbEntity
  8
M0
100
AcDbLine
 10
82.65597
 20
317.317241
 11
82.65597
 21
314.917239
  0
LINE
  5
423
100
AcDbEntity
  8
M0
100
AcDbLine
 10
56.25597
 20
326.817241
 11
56.75597
 21
326.817241
  0
LINE
  5
424
100
AcDbEntity
  8
M0
100
AcDbLine
 10
103.75597
 20
347.017241
 11
103.75597
 21
313.017241
  0
LINE
  5
425
100
AcDbEntity
  8
M0
100
AcDbLine
 10
56.75597
 20
326.817241
 11
56.75597
 21
333.217241
  0
LINE
  5
426
100
AcDbEntity
  8
M0
100
AcDbLine
 10
82.95597
 20
313.517242
 11
77.05597
 21
313.517242
  0
LINE
  5
427
100
AcDbEntity
  8
M0
100
AcDbLine
 10
59.255969
 20
312.017242
 11
56.75597
 21
312.017242
  0
LINE
  5
428
100
AcDbEntity
  8
M0
100
AcDbLine
 10
55.755969
 20
313.017241
 11
55.755969
 21
347.017241
  0
LINE
  5
429
100
AcDbEntity
  8
M0
100
AcDbLine
 10
103.718927
 20
330.017242
 11
103.75597
 21
330.017242
  0
ARC
  5
42A
100
AcDbEntity
  8
M0
100
AcDbCircle
 10
64.25597
 20
313.017241
 40
1.0
100
AcDbArc
 50
270.0
 51
360.0
  0
ARC
  5
42B
100
AcDbEntity
  8
M0
100
AcDbCircle
 10
56.75597
 20
313.017241
 40
1.0
100
AcDbArc
 50
180.0
 51
270.0
  0
ARC
  5
42C
100
AcDbEntity
  8
M0
100
AcDbCircle
 10
76.05597
 20
313.017241
 40
1.0
100
AcDbArc
 50
270.0
 51
360.0
  0
ARC
  5
42D
100
AcDbEntity
  8
M0
100
AcDbCircle
 10
102.75597
 20
313.017241
 40
1.0
100
AcDbArc
 50
270.0
 51
360.0
  0
ARC
  5
42E
100
AcDbEntity
  8
M0
100
AcDbCircle
 10
72.621992
 20
332.260344
 40
2.326127
100
AcDbArc
 50
66.454301
 51
109.456969
  0
ARC
  5
42F
100
AcDbEntity
  8
M0
100
AcDbCircle
 10
74.05597
 20
313.017241
 40
1.0
100
AcDbArc
 50
180.0
 51
270.0
  0
ARC
  5
430
100
AcDbEntity
  8
M0
100
AcDbCircle
 10
56.25597
 20
326.317241
 40
0.5
100
AcDbArc
 50
90.0
 51
180.0
  0
ARC
  5
431
100
AcDbEntity
  8
M0
100
AcDbCircle
 10
99.25597
 20
325.517241
 40
0.5
100
AcDbArc
 50
180.0
 51
270.0
  0
ARC
  5
432
100
AcDbEntity
  8
M0
100
AcDbCircle
 10
98.25597
 20
313.017241
 40
1.0
100
AcDbArc
 50
270.0
 51
360.0
  0
ARC
  5
433
100
AcDbEntity
  8
M0
100
AcDbCircle
 10
102.75597
 20
324.017241
 40
1.0
100
AcDbArc
 50
0.0
 51
90.0
  0
ARC
  5
434
100
AcDbEntity
  8
M0
100
AcDbCircle
 10
87.15597
 20
313.017241
 40
1.0
100
AcDbArc
 50
270.0
 51
360.0
  0
ARC
  5
435
100
AcDbEntity
  8
M0
100
AcDbCircle
 10
83.95597
 20
313.017241
 40
1.0
100
AcDbArc
 50
180.0
 51
270.0
  0
ARC
  5
436
100
AcDbEntity
  8
M0
100
AcDbCircle
 10
102.75597
 20
323.817241
 40
1.0
100
AcDbArc
 50
270.0
 51
360.0
  0
ARC
  5
437
100
AcDbEntity
  8
M0
100
AcDbCircle
 10
96.95597
 20
313.017241
 40
1.0
100
AcDbArc
 50
180.0
 51
270.0
  0
ARC
  5
438
100
AcDbEntity
  8
M0
100
AcDbCircle
 10
95.30597
 20
337.067241
 40
0.5
100
AcDbArc
 50
270.0
 51
360.0
  0
LINE
  5
439
100
AcDbEntity
  8
M0
100
AcDbLine
 10
103.218928
 20
325.21724
 11
98.855969
 21
325.21724
  0
ARC
  5
43A
100
AcDbEntity
  8
M0
100
AcDbCircle
 10
102.75597
 20
347.017241
 40
1.0
100
AcDbArc
 50
0.0
 51
90.0
  0
LINE
  5
43B
100
AcDbEntity
  8
M0
100
AcDbLine
 10
101.75597
 20
322.817241
 11
102.75597
 21
322.817241
  0
LINE
  5
43C
100
AcDbEntity
  8
M0
100
AcDbLine
 10
103.75597
 20
324.017241
 11
103.75597
 21
323.817241
  0
ARC
  5
43D
100
AcDbEntity
  8
M0
100
AcDbCircle
 10
95.30597
 20
343.567241
 40
0.5
100
AcDbArc
 50
0.0
 51
90.0
  0
LINE
  5
43E
100
AcDbEntity
  8
M0
100
AcDbLine
 10
101.75597
 20
325.017241
 11
102.75597
 21
325.017241
  0
ARC
  5
43F
100
AcDbEntity
  8
M0
100
AcDbCircle
 10
87.15597
 20
347.017241
 40
1.0
100
AcDbArc
 50
0.0
 51
90.0
  0
ARC
  5
440
100
AcDbEntity
  8
M0
100
AcDbCircle
 10
74.05597
 20
347.017241
 40
1.0
100
AcDbArc
 50
90.0
 51
180.0
  0
LINE
  5
441
100
AcDbEntity
  8
M0
100
AcDbLine
 10
88.30597
 20
337.067241
 11
88.30597
 21
343.567241
  0
ARC
  5
442
100
AcDbEntity
  8
M0
100
AcDbCircle
 10
56.75597
 20
347.017241
 40
1.0
100
AcDbArc
 50
90.0
 51
180.0
  0
ARC
  5
443
100
AcDbEntity
  8
M0
100
AcDbCircle
 10
56.25597
 20
333.717241
 40
0.5
100
AcDbArc
 50
180.0
 51
270.0
  0
ARC
  5
444
100
AcDbEntity
  8
M0
100
AcDbCircle
 10
96.95597
 20
347.017241
 40
1.0
100
AcDbArc
 50
90.0
 51
180.0
  0
ARC
  5
445
100
AcDbEntity
  8
M0
100
AcDbCircle
 10
64.25597
 20
347.017241
 40
1.0
100
AcDbArc
 50
0.0
 51
90.0
  0
LINE
  5
446
100
AcDbEntity
  8
M0
100
AcDbLine
 10
77.05597
 20
317.917242
 11
77.05597
 21
313.017241
  0
LINE
  5
447
100
AcDbEntity
  8
M0
100
AcDbLine
 10
73.05597
 20
313.017241
 11
73.05597
 21
320.01724
  0
LINE
  5
448
100
AcDbEntity
  8
M0
100
AcDbLine
 10
82.95597
 20
313.017241
 11
82.95597
 21
317.917242
  0
LINE
  5
449
100
AcDbEntity
  8
M0
100
AcDbLine
 10
65.25597
 20
320.01724
 11
65.25597
 21
313.017241
  0
LINE
  5
44A
100
AcDbEntity
  8
M0
100
AcDbLine
 10
102.75597
 20
312.017242
 11
56.75597
 21
312.017242
  0
LINE
  5
44B
100
AcDbEntity
  8
M0
100
AcDbLine
 10
82.95597
 20
317.917242
 11
77.05597
 21
317.917242
  0
LINE
  5
44C
100
AcDbEntity
  8
M0
100
AcDbLine
 10
73.05597
 20
320.01724
 11
65.25597
 21
320.01724
  0
LINE
  5
44D
100
AcDbEntity
  8
M0
100
AcDbLine
 10
99.25597
 20
322.817241
 11
99.25597
 21
313.017241
  0
LINE
  5
44E
100
AcDbEntity
  8
M0
100
AcDbLine
 10
98.755969
 20
334.517241
 11
98.755969
 21
325.51724
  0
LINE
  5
44F
100
AcDbEntity
  8
M0
100
AcDbLine
 10
101.75597
 20
322.817241
 11
99.25597
 21
322.817241
  0
LINE
  5
450
100
AcDbEntity
  8
M0
100
AcDbLine
 10
95.95597
 20
323.817241
 11
88.155969
 21
323.817241
  0
LINE
  5
451
100
AcDbEntity
  8
M0
100
AcDbLine
 10
88.155969
 20
323.817241
 11
88.155969
 21
313.017241
  0
LINE
  5
452
100
AcDbEntity
  8
M0
100
AcDbLine
 10
99.25597
 20
325.017241
 11
101.75597
 21
325.017241
  0
LINE
  5
453
100
AcDbEntity
  8
M0
100
AcDbLine
 10
95.95597
 20
313.017241
 11
95.95597
 21
323.817241
  0
LINE
  5
454
100
AcDbEntity
  8
M0
100
AcDbLine
 10
59.25597
 20
338.517242
 11
86.25597
 21
338.517242
  0
LINE
  5
455
100
AcDbEntity
  8
M0
100
AcDbLine
 10
58.75597
 20
338.017242
 11
58.75597
 21
322.017242
  0
LINE
  5
456
100
AcDbEntity
  8
M0
100
AcDbLine
 10
59.25597
 20
321.517242
 11
86.25597
 21
321.517242
  0
LINE
  5
457
100
AcDbEntity
  8
M0
100
AcDbLine
 10
96.75597
 20
326.017242
 11
96.75597
 21
334.017242
  0
LINE
  5
458
100
AcDbEntity
  8
M0
100
AcDbLine
 10
96.25597
 20
325.517242
 11
87.25597
 21
325.517242
  0
LINE
  5
459
100
AcDbEntity
  8
M0
100
AcDbLine
 10
96.25597
 20
334.517242
 11
87.25597
 21
334.517242
  0
LINE
  5
45A
100
AcDbEntity
  8
M0
100
AcDbLine
 10
86.75597
 20
322.017242
 11
86.75597
 21
325.017242
  0
LINE
  5
45B
100
AcDbEntity
  8
M0
100
AcDbLine
 10
86.75597
 20
335.017242
 11
86.75597
 21
338.017242
  0
ARC
  5
45C
100
AcDbEntity
  8
M0
100
AcDbCircle
 10
59.25597
 20
338.017242
 40
0.5
100
AcDbArc
 50
90.0
 51
180.0
  0
ARC
  5
45D
100
AcDbEntity
  8
M0
100
AcDbCircle
 10
86.25597
 20
338.017242
 40
0.5
100
AcDbArc
 50
0.0
 51
90.0
  0
ARC
  5
45E
100
AcDbEntity
  8
M0
100
AcDbCircle
 10
87.25597
 20
335.017242
 40
0.5
100
AcDbArc
 50
180.0
 51
270.0
  0
ARC
  5
45F
100
AcDbEntity
  8
M0
100
AcDbCircle
 10
96.25597
 20
334.017242
 40
0.5
100
AcDbArc
 50
0.0
 51
90.0
  0
ARC
  5
460
100
AcDbEntity
  8
M0
100
AcDbCircle
 10
96.25597
 20
326.017242
 40
0.5
100
AcDbArc
 50
270.0
 51
360.0
  0
ARC
  5
461
100
AcDbEntity
  8
M0
100
AcDbCircle
 10
87.25597
 20
325.017242
 40
0.5
100
AcDbArc
 50
90.0
 51
180.0
  0
ARC
  5
462
100
AcDbEntity
  8
M0
100
AcDbCircle
 10
86.25597
 20
322.017242
 40
0.5
100
AcDbArc
 50
270.0
 51
360.0
  0
ARC
  5
463
100
AcDbEntity
  8
M0
100
AcDbCircle
 10
59.25597
 20
322.017242
 40
0.5
100
AcDbArc
 50
180.0
 51
270.0
  0
HATCH
  5
464
100
AcDbEntity
  8
M0
 62
     7
100
AcDbHatch
 10
0.0
 20
0.0
210
0.0
220
0.0
230
1.0
  2
SOLID
 70
     1
 71
     0
 91
        1
 92
        1
 93
        8
 72
     1
 10
67.138975
 20
331.748042
 11
67.138975
 21
334.046477
 72
     1
 10
67.138975
 20
334.046477
 11
68.260501
 21
334.046477
 72
     1
 10
68.260501
 20
334.046477
 11
68.260501
 21
334.517242
 72
     1
 10
68.260501
 20
334.517242
 11
65.283612
 21
334.517242
 72
     1
 10
65.283612
 20
334.517242
 11
65.283612
 21
334.046477
 72
     1
 10
65.283612
 20
334.046477
 11
66.405137
 21
334.046477
 72
     1
 10
66.405137
 20
334.046477
 11
66.405137
 21
331.748042
 72
     1
 10
66.405137
 20
331.748042
 11
67.138975
 21
331.748042
 97
        0
 75
     0
 76
     1
 98
        1
 10
0.0
 20
0.0
  0
LINE
  5
465
100
AcDbEntity
  8
M0
 62
     7
100
AcDbLine
 10
228.790982
 20
279.017241
 11
231.090982
 21
279.017241
  0
LINE
  5
466
100
AcDbEntity
  8
M0
 62
     7
100
AcDbLine
 10
238.790982
 20
282.516865
 11
231.090982
 21
282.517154
  0
LINE
  5
467
100
AcDbEntity
  8
M0
 62
     7
100
AcDbLine
 10
224.651334
 20
280.677491
 11
226.490933
 21
280.516557
  0
ARC
  5
468
100
AcDbEntity
  8
M0
 62
     7
100
AcDbCircle
 10
224.790982
 20
282.271409
 40
1.599998
100
AcDbArc
 50
180.000034
 51
264.992965
  0
LINE
  5
469
100
AcDbEntity
  8
M0
 62
     7
100
AcDbLine
 10
238.790982
 20
287.516801
 11
238.790982
 21
282.516865
  0
LINE
  5
46A
100
AcDbEntity
  8
M0
 62
     7
100
AcDbLine
 10
231.090982
 20
287.516801
 11
238.790982
 21
287.516801
  0
LINE
  5
46B
100
AcDbEntity
  8
M0
 62
     7
100
AcDbLine
 10
227.790982
 20
280.017278
 11
228.790982
 21
280.017241
  0
LINE
  5
46C
100
AcDbEntity
  8
M0
 62
     7
100
AcDbLine
 10
223.191022
 20
282.271409
 11
223.191022
 21
287.761735
  0
LINE
  5
46D
100
AcDbEntity
  8
M0
 62
     7
100
AcDbLine
 10
227.790982
 20
280.516572
 11
226.490933
 21
280.516572
  0
LINE
  5
46E
100
AcDbEntity
  8
M0
 62
     7
100
AcDbLine
 10
228.790982
 20
290.017241
 11
228.790982
 21
280.017241
  0
LINE
  5
46F
100
AcDbEntity
  8
M0
 62
     7
100
AcDbLine
 10
227.790982
 20
280.017278
 11
227.790982
 21
290.017278
  0
LINE
  5
470
100
AcDbEntity
  8
M0
 62
     7
100
AcDbLine
 10
226.490933
 20
289.516557
 11
226.490933
 21
280.516557
  0
LINE
  5
471
100
AcDbEntity
  8
M0
 62
     7
100
AcDbLine
 10
228.790982
 20
279.017241
 11
228.790982
 21
293.51724
  0
LINE
  5
472
100
AcDbEntity
  8
M0
 62
     7
100
AcDbLine
 10
224.651334
 20
289.355638
 11
226.490933
 21
289.516557
  0
LINE
  5
473
100
AcDbEntity
  8
M0
 62
     7
100
AcDbLine
 10
226.490933
 20
289.516572
 11
227.790982
 21
289.516572
  0
ARC
  5
474
100
AcDbEntity
  8
M0
 62
     7
100
AcDbCircle
 10
224.790982
 20
287.761735
 40
1.599998
100
AcDbArc
 50
95.00717
 51
180.000034
  0
LINE
  5
475
100
AcDbEntity
  8
M0
 62
     7
100
AcDbLine
 10
227.790982
 20
290.017278
 11
228.790982
 21
290.017241
  0
LINE
  5
476
100
AcDbEntity
  8
M0
  6
DASHDOT
 62
     7
100
AcDbLine
 10
79.755966
 20
285.517241
 11
79.755966
 21
286.517241
  0
CIRCLE
  5
477
100
AcDbEntity
  8
M0
 62
     7
100
AcDbCircle
 10
79.755966
 20
286.017241
 40
4.499996
  0
LINE
  5
478
100
AcDbEntity
  8
M0
  6
DASHDOT
 62
     7
100
AcDbLine
 10
79.255966
 20
286.017241
 11
80.255966
 21
286.017241
  0
LINE
  5
479
100
AcDbEntity
  8
M0
 62
     7
100
AcDbLine
 10
80.22287
 20
287.898375
 11
77.874893
 21
285.550383
  0
LINE
  5
47A
100
AcDbEntity
  8
M0
 62
     7
100
AcDbLine
 10
81.63707
 20
286.48416
 11
79.289093
 21
284.136168
  0
LINE
  5
47B
100
AcDbEntity
  8
M0
 62
     7
100
AcDbLine
 10
77.687012
 20
288.086149
 11
81.949982
 21
283.82321
  0
LINE
  5
47C
100
AcDbEntity
  8
M0
 62
     7
100
AcDbLine
 10
55.755969
 20
342.117195
 11
52.964913
 21
344.908358
  0
LINE
  5
47D
100
AcDbEntity
  8
M0
 62
     7
100
AcDbLine
 10
55.755969
 20
343.457106
 11
54.202217
 21
341.903354
  0
LINE
  5
47E
100
AcDbEntity
  8
M0
 62
     7
100
AcDbLine
 10
54.909249
 20
344.731601
 11
53.141671
 21
342.9639
  0
LINE
  5
47F
100
AcDbEntity
  8
M0
 62
     7
100
AcDbLine
 10
55.763813
 20
347.142241
 11
51.23097
 21
347.142241
  0
LINE
  5
480
100
AcDbEntity
  8
M0
 62
     7
100
AcDbLine
 10
51.23097
 20
339.492241
 11
55.755969
 21
339.492241
  0
LINE
  5
481
100
AcDbEntity
  8
M0
 62
     7
100
AcDbLine
 10
50.73097
 20
346.642241
 11
50.73097
 21
339.992241
  0
ARC
  5
482
100
AcDbEntity
  8
M0
 62
     7
100
AcDbCircle
 10
51.23097
 20
346.642241
 40
0.5
100
AcDbArc
 50
90.0
 51
180.0
  0
ARC
  5
483
100
AcDbEntity
  8
M0
 62
     7
100
AcDbCircle
 10
51.23097
 20
339.992241
 40
0.5
100
AcDbArc
 50
180.0
 51
270.0
  0
ARC
  5
484
100
AcDbEntity
  8
M0
 62
     7
100
AcDbCircle
 10
54.55597
 20
343.317241
 40
3.0
100
AcDbArc
 50
66.421824
 51
293.578176
  0
LINE
  5
485
100
AcDbEntity
  8
M0
  6
DASHDOT
 62
     7
100
AcDbLine
 10
101.655969
 20
285.517241
 11
101.655969
 21
286.517241
  0
CIRCLE
  5
486
100
AcDbEntity
  8
M0
 62
     7
100
AcDbCircle
 10
101.655969
 20
286.017241
 40
4.499996
  0
LINE
  5
487
100
AcDbEntity
  8
M0
  6
DASHDOT
 62
     7
100
AcDbLine
 10
101.155969
 20
286.017241
 11
102.155969
 21
286.017241
  0
LINE
  5
488
100
AcDbEntity
  8
M0
 62
     7
100
AcDbLine
 10
102.122873
 20
287.898375
 11
99.774896
 21
285.550383
  0
LINE
  5
489
100
AcDbEntity
  8
M0
 62
     7
100
AcDbLine
 10
103.537073
 20
286.48416
 11
101.189096
 21
284.136168
  0
LINE
  5
48A
100
AcDbEntity
  8
M0
 62
     7
100
AcDbLine
 10
99.587015
 20
288.086149
 11
103.849985
 21
283.82321
  0
ARC
  5
48B
100
AcDbEntity
  8
M0
 62
   154
100
AcDbCircle
 10
70.75597
 20
361.017241
 40
2.0
100
AcDbArc
 50
180.0
 51
270.0
  0
ARC
  5
48C
100
AcDbEntity
  8
M0
 62
   154
100
AcDbCircle
 10
64.75597
 20
362.486328
 40
4.0
100
AcDbArc
 50
8.14222E-013
 51
31.574191
  0
LINE
  5
48D
100
AcDbEntity
  8
M0
 62
   154
100
AcDbLine
 10
63.448118
 20
372.253745
 11
68.163821
 21
364.580737
  0
LINE
  5
48E
100
AcDbEntity
  8
M0
 62
   154
100
AcDbLine
 10
68.75597
 20
361.017241
 11
68.75597
 21
362.486328
  0
LINE
  5
48F
100
AcDbEntity
  8
M0
 62
   154
100
AcDbLine
 10
70.75597
 20
359.017241
 11
71.591385
 21
359.017241
  0
LINE
  5
490
100
AcDbEntity
  8
M0
 62
   154
100
AcDbLine
 10
61.85597
 20
380.017241
 11
53.85597
 21
380.017241
  0
LINE
  5
491
100
AcDbEntity
  8
M0
 62
   154
100
AcDbLine
 10
62.85597
 20
379.017241
 11
62.85597
 21
374.348154
  0
LINE
  5
492
100
AcDbEntity
  8
M0
 62
   154
100
AcDbLine
 10
70.75597
 20
348.717241
 11
62.75597
 21
348.717241
  0
LINE
  5
493
100
AcDbEntity
  8
M0
 62
   154
100
AcDbLine
 10
52.85597
 20
379.017241
 11
52.85597
 21
373.660098
  0
ARC
  5
494
100
AcDbEntity
  8
M0
 62
   154
100
AcDbCircle
 10
64.05597
 20
357.717241
 40
2.5
100
AcDbArc
 50
156.926082
 51
203.073918
  0
ARC
  5
495
100
AcDbEntity
  8
M0
 62
   154
100
AcDbCircle
 10
64.05597
 20
350.717241
 40
2.5
100
AcDbArc
 50
156.926082
 51
203.073918
  0
ARC
  5
496
100
AcDbEntity
  8
M0
 62
   154
100
AcDbCircle
 10
69.45597
 20
357.717241
 40
2.5
100
AcDbArc
 50
-23.073918
 51
31.332251
  0
ARC
  5
497
100
AcDbEntity
  8
M0
 62
   154
100
AcDbCircle
 10
69.45597
 20
350.717241
 40
2.5
100
AcDbArc
 50
-23.073918
 51
23.073918
  0
LINE
  5
498
100
AcDbEntity
  8
M0
 62
   154
100
AcDbLine
 10
61.75597
 20
356.737445
 11
61.75597
 21
351.697037
  0
LINE
  5
499
100
AcDbEntity
  8
M0
 62
   154
100
AcDbLine
 10
61.75597
 20
349.737445
 11
61.75597
 21
349.717241
  0
LINE
  5
49A
100
AcDbEntity
  8
M0
 62
   154
100
AcDbLine
 10
71.75597
 20
356.737445
 11
71.75597
 21
351.697037
  0
LINE
  5
49B
100
AcDbEntity
  8
M0
 62
   154
100
AcDbLine
 10
71.75597
 20
349.737445
 11
71.75597
 21
349.717241
  0
LINE
  5
49C
100
AcDbEntity
  8
M0
 62
   154
100
AcDbLine
 10
61.75597
 20
358.697037
 11
61.75597
 21
364.017241
  0
ARC
  5
49D
100
AcDbEntity
  8
M0
 62
   154
100
AcDbCircle
 10
57.75597
 20
364.017241
 40
4.0
100
AcDbArc
 50
0.0
 51
90.0
  0
ARC
  5
49E
100
AcDbEntity
  8
M0
 62
   154
100
AcDbCircle
 10
62.75597
 20
349.717241
 40
1.0
100
AcDbArc
 50
180.0
 51
270.0
  0
ARC
  5
49F
100
AcDbEntity
  8
M0
 62
   154
100
AcDbCircle
 10
70.75597
 20
349.717241
 40
1.0
100
AcDbArc
 50
270.0
 51
360.0
  0
ARC
  5
4A0
100
AcDbEntity
  8
M0
 62
   154
100
AcDbCircle
 10
53.85597
 20
379.017241
 40
1.0
100
AcDbArc
 50
90.0
 51
180.0
  0
ARC
  5
4A1
100
AcDbEntity
  8
M0
 62
   154
100
AcDbCircle
 10
61.85597
 20
379.017241
 40
1.0
100
AcDbArc
 50
0.0
 51
90.0
  0
ARC
  5
4A2
100
AcDbEntity
  8
M0
 62
   154
100
AcDbCircle
 10
56.211525
 20
369.017241
 40
1.0
100
AcDbArc
 50
211.890792
 51
270.0
  0
ARC
  5
4A3
100
AcDbEntity
  8
M0
 62
   154
100
AcDbCircle
 10
56.85597
 20
373.660098
 40
4.0
100
AcDbArc
 50
180.0
 51
211.890792
  0
LINE
  5
4A4
100
AcDbEntity
  8
M0
 62
   154
100
AcDbLine
 10
57.75597
 20
368.017241
 11
56.211525
 21
368.017241
  0
LINE
  5
4A5
100
AcDbEntity
  8
M0
 62
   154
100
AcDbLine
 10
53.459743
 20
371.546891
 11
55.362469
 21
368.488939
  0
ARC
  5
4A6
100
AcDbEntity
  8
M0
 62
   154
100
AcDbCircle
 10
66.85597
 20
374.348154
 40
4.0
100
AcDbArc
 50
180.0
 51
211.574191
  0
LINE
  5
4A7
100
AcDbEntity
  8
M0
 62
     7
100
AcDbLine
 10
228.790982
 20
379.017241
 11
231.090982
 21
379.017241
  0
LINE
  5
4A8
100
AcDbEntity
  8
M0
 62
     7
100
AcDbLine
 10
238.790982
 20
375.517617
 11
231.090982
 21
375.517327
  0
LINE
  5
4A9
100
AcDbEntity
  8
M0
 62
     7
100
AcDbLine
 10
224.651334
 20
377.35699
 11
226.490933
 21
377.517925
  0
ARC
  5
4AA
100
AcDbEntity
  8
M0
 62
     7
100
AcDbCircle
 10
224.790982
 20
375.763072
 40
1.599998
100
AcDbArc
 50
95.007035
 51
179.999966
  0
LINE
  5
4AB
100
AcDbEntity
  8
M0
 62
     7
100
AcDbLine
 10
238.790982
 20
370.51768
 11
238.790982
 21
375.517617
  0
LINE
  5
4AC
100
AcDbEntity
  8
M0
 62
     7
100
AcDbLine
 10
231.090982
 20
370.51768
 11
238.790982
 21
370.51768
  0
LINE
  5
4AD
100
AcDbEntity
  8
M0
 62
     7
100
AcDbLine
 10
227.790982
 20
378.017203
 11
228.790982
 21
378.017241
  0
LINE
  5
4AE
100
AcDbEntity
  8
M0
 62
     7
100
AcDbLine
 10
223.191022
 20
375.763072
 11
223.191022
 21
370.272746
  0
LINE
  5
4AF
100
AcDbEntity
  8
M0
 62
     7
100
AcDbLine
 10
227.790982
 20
377.517909
 11
226.490933
 21
377.517909
  0
LINE
  5
4B0
100
AcDbEntity
  8
M0
 62
     7
100
AcDbLine
 10
228.790982
 20
368.017241
 11
228.790982
 21
378.017241
  0
LINE
  5
4B1
100
AcDbEntity
  8
M0
 62
     7
100
AcDbLine
 10
227.790982
 20
378.017203
 11
227.790982
 21
368.017203
  0
LINE
  5
4B2
100
AcDbEntity
  8
M0
 62
     7
100
AcDbLine
 10
226.490933
 20
368.517925
 11
226.490933
 21
377.517925
  0
LINE
  5
4B3
100
AcDbEntity
  8
M0
 62
     7
100
AcDbLine
 10
228.790982
 20
379.017241
 11
228.790982
 21
364.517242
  0
LINE
  5
4B4
100
AcDbEntity
  8
M0
 62
     7
100
AcDbLine
 10
224.651334
 20
368.678844
 11
226.490933
 21
368.517925
  0
LINE
  5
4B5
100
AcDbEntity
  8
M0
 62
     7
100
AcDbLine
 10
226.490933
 20
368.517909
 11
227.790982
 21
368.517909
  0
ARC
  5
4B6
100
AcDbEntity
  8
M0
 62
     7
100
AcDbCircle
 10
224.790982
 20
370.272746
 40
1.599998
100
AcDbArc
 50
179.999966
 51
264.99283
  0
LINE
  5
4B7
100
AcDbEntity
  8
M0
 62
     7
100
AcDbLine
 10
227.790982
 20
368.017203
 11
228.790982
 21
368.017241
  0
HATCH
  5
4B8
100
AcDbEntity
  8
M0
 62
     7
100
AcDbHatch
 10
0.0
 20
0.0
210
0.0
220
0.0
230
1.0
  2
SOLID
 70
     1
 71
     0
 91
        1
 92
        1
 93
        7
 72
     1
 10
89.75597
 20
328.909155
 11
86.75597
 21
327.817244
 72
     1
 10
86.75597
 20
327.817244
 11
89.75597
 21
326.725333
 72
     1
 10
89.75597
 20
326.725333
 11
89.75597
 21
327.317244
 72
     1
 10
89.75597
 20
327.317244
 11
95.75597
 21
327.317244
 72
     1
 10
95.75597
 20
327.317244
 11
95.75597
 21
328.317244
 72
     1
 10
95.75597
 20
328.317244
 11
89.75597
 21
328.317244
 72
     1
 10
89.75597
 20
328.317244
 11
89.75597
 21
328.909155
 97
        0
 75
     0
 76
     1
 98
        1
 10
0.0
 20
0.0
  0
LINE
  5
4B9
100
AcDbEntity
  8
M0
 62
     7
100
AcDbLine
 10
231.090982
 20
364.517242
 11
231.090982
 21
379.017241
  0
LINE
  5
4BA
100
AcDbEntity
  8
M0
 62
     7
100
AcDbLine
 10
216.290982
 20
326.517241
 11
216.290982
 21
325.517241
  0
LINE
  5
4BB
100
AcDbEntity
  8
M0
 62
     7
100
AcDbLine
 10
216.290982
 20
331.517241
 11
216.290982
 21
332.517241
  0
LINE
  5
4BC
100
AcDbEntity
  8
M0
 62
     7
100
AcDbLine
 10
288.290983
 20
312.017241
 11
289.790982
 21
312.017241
  0
LINE
  5
4BD
100
AcDbEntity
  8
M0
 62
     7
100
AcDbLine
 10
289.790982
 20
312.017241
 11
289.790982
 21
311.217241
  0
LINE
  5
4BE
100
AcDbEntity
  8
M0
 62
     7
100
AcDbLine
 10
291.490983
 20
293.517239
 11
282.090982
 21
293.517239
  0
LINE
  5
4BF
100
AcDbEntity
  8
M0
 62
     7
100
AcDbLine
 10
291.490983
 20
293.558985
 11
291.490983
 21
293.517239
  0
LINE
  5
4C0
100
AcDbEntity
  8
M0
 62
     7
100
AcDbLine
 10
216.290982
 20
325.517241
 11
215.290984
 21
325.517241
  0
LINE
  5
4C1
100
AcDbEntity
  8
M0
 62
     7
100
AcDbLine
 10
215.290984
 20
331.517241
 11
216.290982
 21
331.517241
  0
LINE
  5
4C2
100
AcDbEntity
  8
M0
 62
     7
100
AcDbLine
 10
216.290982
 20
325.517241
 11
216.790983
 21
325.517241
  0
LINE
  5
4C3
100
AcDbEntity
  8
M0
 62
     7
100
AcDbLine
 10
215.290984
 20
326.517241
 11
216.290982
 21
326.517241
  0
LINE
  5
4C4
100
AcDbEntity
  8
M0
 62
     7
100
AcDbLine
 10
216.290982
 20
332.517241
 11
215.290984
 21
332.517241
  0
LINE
  5
4C5
100
AcDbEntity
  8
M0
 62
     7
100
AcDbLine
 10
216.290982
 20
332.517241
 11
216.790983
 21
332.517241
  0
LINE
  5
4C6
100
AcDbEntity
  8
M0
 62
     7
100
AcDbLine
 10
216.790983
 20
326.517241
 11
216.290982
 21
326.517241
  0
ARC
  5
4C7
100
AcDbEntity
  8
M0
 62
     7
100
AcDbCircle
 10
284.290982
 20
311.301013
 40
0.3
100
AcDbArc
 50
0.0
 51
90.0
  0
ARC
  5
4C8
100
AcDbEntity
  8
M0
 62
     7
100
AcDbCircle
 10
284.290982
 20
346.733468
 40
0.3
100
AcDbArc
 50
270.0
 51
360.0
  0
ARC
  5
4C9
100
AcDbEntity
  8
M0
 62
     7
100
AcDbCircle
 10
288.290982
 20
311.517241
 40
0.5
100
AcDbArc
 50
90.0
 51
180.0
  0
ARC
  5
4CA
100
AcDbEntity
  8
M0
 62
     7
100
AcDbCircle
 10
284.290982
 20
343.256685
 40
0.3
100
AcDbArc
 50
0.0
 51
90.0
  0
ARC
  5
4CB
100
AcDbEntity
  8
M0
 62
     7
100
AcDbCircle
 10
284.290982
 20
314.777796
 40
0.3
100
AcDbArc
 50
270.0
 51
360.0
  0
LINE
  5
4CC
100
AcDbEntity
  8
M0
 62
     7
100
AcDbLine
 10
291.315513
 20
311.216639
 11
289.730983
 21
313.01724
  0
LINE
  5
4CD
100
AcDbEntity
  8
M0
 62
     7
100
AcDbLine
 10
288.590983
 20
313.517241
 11
289.290983
 21
313.517241
  0
LINE
  5
4CE
100
AcDbEntity
  8
M0
 62
     7
100
AcDbLine
 10
287.790982
 20
311.217241
 11
287.790982
 21
311.51724
  0
LINE
  5
4CF
100
AcDbEntity
  8
M0
 62
     7
100
AcDbLine
 10
291.790983
 20
310.717241
 11
291.790983
 21
294.01724
  0
LINE
  5
4D0
100
AcDbEntity
  8
M0
 62
     7
100
AcDbLine
 10
288.590983
 20
312.017241
 11
288.590983
 21
313.517241
  0
ARC
  5
4D1
100
AcDbEntity
  8
M0
 62
     7
100
AcDbCircle
 10
245.890982
 20
294.517241
 40
1.0
100
AcDbArc
 50
180.0
 51
270.0
  0
LINE
  5
4D2
100
AcDbEntity
  8
M0
 62
     7
100
AcDbLine
 10
239.990983
 20
296.517242
 11
244.890982
 21
296.517242
  0
LINE
  5
4D3
100
AcDbEntity
  8
M0
 62
     7
100
AcDbLine
 10
292.090982
 20
362.76724
 11
291.790983
 21
362.76724
  0
LINE
  5
4D4
100
AcDbEntity
  8
M0
 62
     7
100
AcDbLine
 10
291.790983
 20
353.267241
 11
292.090982
 21
353.267241
  0
LINE
  5
4D5
100
AcDbEntity
  8
M0
 62
     7
100
AcDbLine
 10
292.090982
 20
304.76724
 11
291.790983
 21
304.76724
  0
LINE
  5
4D6
100
AcDbEntity
  8
M0
 62
     7
100
AcDbLine
 10
291.790983
 20
295.267239
 11
292.090982
 21
295.267239
  0
LINE
  5
4D7
100
AcDbEntity
  8
M0
 62
     7
100
AcDbLine
 10
216.790983
 20
330.517241
 11
216.290982
 21
330.517241
  0
LINE
  5
4D8
100
AcDbEntity
  8
M0
 62
     7
100
AcDbLine
 10
216.790983
 20
331.517241
 11
216.290982
 21
331.517241
  0
LINE
  5
4D9
100
AcDbEntity
  8
M0
 62
     7
100
AcDbLine
 10
216.290982
 20
327.517241
 11
216.290982
 21
330.517241
  0
LINE
  5
4DA
100
AcDbEntity
  8
M0
 62
     7
100
AcDbLine
 10
216.290982
 20
327.517241
 11
216.790983
 21
327.517241
  0
LINE
  5
4DB
100
AcDbEntity
  8
M0
 62
     7
100
AcDbLine
 10
268.790982
 20
346.433468
 11
284.290982
 21
346.433468
  0
ARC
  5
4DC
100
AcDbEntity
  8
M0
 62
     7
100
AcDbCircle
 10
239.990982
 20
297.517241
 40
1.0
100
AcDbArc
 50
237.247324
 51
270.0
  0
LINE
  5
4DD
100
AcDbEntity
  8
M0
 62
     7
100
AcDbLine
 10
284.290982
 20
343.556685
 11
268.790982
 21
343.556685
  0
LINE
  5
4DE
100
AcDbEntity
  8
M0
 62
     7
100
AcDbLine
 10
268.790982
 20
314.477796
 11
284.290982
 21
314.477796
  0
LINE
  5
4DF
100
AcDbEntity
  8
M0
 62
     7
100
AcDbLine
 10
284.290982
 20
311.601013
 11
268.790982
 21
311.601013
  0
LINE
  5
4E0
100
AcDbEntity
  8
M0
 62
     7
100
AcDbLine
 10
241.090983
 20
362.01724
 11
241.090983
 21
360.01724
  0
LINE
  5
4E1
100
AcDbEntity
  8
M0
 62
     7
100
AcDbLine
 10
244.690983
 20
363.517241
 11
241.090983
 21
362.01724
  0
LINE
  5
4E2
100
AcDbEntity
  8
M0
 62
     7
100
AcDbLine
 10
244.890982
 20
362.517241
 11
242.090981
 21
361.350573
  0
LINE
  5
4E3
100
AcDbEntity
  8
M0
 62
     7
100
AcDbLine
 10
250.390982
 20
360.01724
 11
250.390982
 21
363.517241
  0
LINE
  5
4E4
100
AcDbEntity
  8
M0
 62
     7
100
AcDbLine
 10
244.690983
 20
363.517241
 11
244.690983
 21
372.517239
  0
LINE
  5
4E5
100
AcDbEntity
  8
M0
 62
     7
100
AcDbLine
 10
255.390982
 20
333.117241
 11
255.490982
 21
333.117241
  0
LINE
  5
4E6
100
AcDbEntity
  8
M0
 62
     7
100
AcDbLine
 10
250.390982
 20
363.517241
 11
244.690983
 21
363.517241
  0
LINE
  5
4E7
100
AcDbEntity
  8
M0
 62
     7
100
AcDbLine
 10
262.176769
 20
373.517241
 11
245.690983
 21
373.517241
  0
LINE
  5
4E8
100
AcDbEntity
  8
M0
 62
     7
100
AcDbLine
 10
249.390982
 20
362.517241
 11
244.890982
 21
362.517241
  0
LINE
  5
4E9
100
AcDbEntity
  8
M0
 62
     7
100
AcDbLine
 10
292.090982
 20
362.76724
 11
292.090982
 21
353.267241
  0
LINE
  5
4EA
100
AcDbEntity
  8
M0
 62
     7
100
AcDbLine
 10
242.090981
 20
361.01724
 11
249.390982
 21
361.01724
  0
LINE
  5
4EB
100
AcDbEntity
  8
M0
 62
     7
100
AcDbLine
 10
249.390982
 20
361.01724
 11
249.390982
 21
362.517241
  0
LINE
  5
4EC
100
AcDbEntity
  8
M0
 62
     7
100
AcDbLine
 10
242.090981
 20
361.350573
 11
242.090981
 21
361.01724
  0
LINE
  5
4ED
100
AcDbEntity
  8
M0
 62
     7
100
AcDbLine
 10
291.790983
 20
364.017241
 11
291.790983
 21
344.617241
  0
ARC
  5
4EE
100
AcDbEntity
  8
M0
 62
     7
100
AcDbCircle
 10
262.176769
 20
372.517241
 40
1.0
100
AcDbArc
 50
45.0
 51
90.0
  0
ARC
  5
4EF
100
AcDbEntity
  8
M0
 62
     7
100
AcDbCircle
 10
245.690982
 20
372.517241
 40
1.0
100
AcDbArc
 50
90.0
 51
180.0
  0
ARC
  5
4F0
100
AcDbEntity
  8
M0
 62
     7
100
AcDbCircle
 10
266.590982
 20
368.103027
 40
1.0
100
AcDbArc
 50
0.0
 51
45.0
  0
ARC
  5
4F1
100
AcDbEntity
  8
M0
 62
     7
100
AcDbCircle
 10
248.190982
 20
370.517241
 40
3.0
100
AcDbArc
 50
90.0
 51
180.0
  0
ELLIPSE
  5
4F2
100
AcDbEntity
  8
M0
 62
     7
100
AcDbEllipse
 10
266.990982
 20
343.508243
 11
0.0
 21
20.008998
210
0.0
220
0.0
230
1.0
 40
0.029987
 41
5.682730448278078
 42
6.283185307179586
  0
ARC
  5
4F3
100
AcDbEntity
  8
M0
 62
     7
100
AcDbCircle
 10
217.590982
 20
332.317241
 40
1.0
100
AcDbArc
 50
168.463041
 51
180.0
  0
ARC
  5
4F4
100
AcDbEntity
  8
M0
 62
     7
100
AcDbCircle
 10
273.890982
 20
294.517241
 40
1.0
100
AcDbArc
 50
270.0
 51
360.0
  0
LINE
  5
4F5
100
AcDbEntity
  8
M0
 62
     7
100
AcDbLine
 10
216.590984
 20
332.317241
 11
216.590984
 21
331.517241
  0
LINE
  5
4F6
100
AcDbEntity
  8
M0
 62
     7
100
AcDbLine
 10
216.590984
 20
326.517241
 11
216.590984
 21
325.517241
  0
LINE
  5
4F7
100
AcDbEntity
  8
M0
 62
     7
100
AcDbLine
 10
246.990982
 20
326.31724
 11
246.990982
 21
331.717241
  0
LINE
  5
4F8
100
AcDbEntity
  8
M0
 62
     7
100
AcDbLine
 10
243.490983
 20
331.717241
 11
243.490983
 21
326.31724
  0
ARC
  5
4F9
100
AcDbEntity
  8
M0
 62
     7
100
AcDbCircle
 10
291.490982
 20
344.617241
 40
0.3
100
AcDbArc
 50
270.0
 51
360.0
  0
LINE
  5
4FA
100
AcDbEntity
  8
M0
 62
     7
100
AcDbLine
 10
274.890983
 20
294.517241
 11
274.890983
 21
298.017241
  0
LINE
  5
4FB
100
AcDbEntity
  8
M0
 62
     7
100
AcDbLine
 10
256.890982
 20
294.517241
 11
256.890982
 21
293.517239
  0
LINE
  5
4FC
100
AcDbEntity
  8
M0
 62
     7
100
AcDbLine
 10
267.590982
 20
368.103027
 11
267.590982
 21
360.01724
  0
LINE
  5
4FD
100
AcDbEntity
  8
M0
 62
     7
100
AcDbLine
 10
250.490982
 20
363.517241
 11
245.790983
 21
363.517241
  0
LINE
  5
4FE
100
AcDbEntity
  8
M0
 62
     7
100
AcDbLine
 10
250.490982
 20
363.517241
 11
250.490982
 21
360.01724
  0
LINE
  5
4FF
100
AcDbEntity
  8
M0
 62
     7
100
AcDbLine
 10
266.990982
 20
363.517241
 11
250.490982
 21
363.517241
  0
LINE
  5
500
100
AcDbEntity
  8
M0
 62
     7
100
AcDbLine
 10
289.590983
 20
344.317241
 11
291.490983
 21
344.317241
  0
ARC
  5
501
100
AcDbEntity
  8
M0
 62
     7
100
AcDbCircle
 10
291.290982
 20
310.717241
 40
0.5
100
AcDbArc
 50
0.0
 51
90.0
  0
LINE
  5
502
100
AcDbEntity
  8
M0
 62
     7
100
AcDbLine
 10
256.890982
 20
339.117241
 11
256.890982
 21
360.01724
  0
ARC
  5
503
100
AcDbEntity
  8
M0
 62
     7
100
AcDbCircle
 10
291.290982
 20
294.017241
 40
0.5
100
AcDbArc
 50
270.0
 51
360.0
  0
ARC
  5
504
100
AcDbEntity
  8
M0
 62
     7
100
AcDbCircle
 10
291.290982
 20
347.317241
 40
0.5
100
AcDbArc
 50
270.0
 51
360.0
  0
LINE
  5
505
100
AcDbEntity
  8
M0
 62
     7
100
AcDbLine
 10
289.590983
 20
344.317241
 11
288.590983
 21
345.317241
  0
LINE
  5
506
100
AcDbEntity
  8
M0
 62
     7
100
AcDbLine
 10
288.590983
 20
345.317241
 11
288.590983
 21
346.817241
  0
LINE
  5
507
100
AcDbEntity
  8
M0
 62
     7
100
AcDbLine
 10
276.190982
 20
363.517241
 11
281.090982
 21
363.517241
  0
LINE
  5
508
100
AcDbEntity
  8
M0
 62
     7
100
AcDbLine
 10
267.590982
 20
368.103027
 11
267.590982
 21
365.96724
  0
LINE
  5
509
100
AcDbEntity
  8
M0
 62
     7
100
AcDbLine
 10
275.290983
 20
363.21724
 11
275.290983
 21
360.01724
  0
LINE
  5
50A
100
AcDbEntity
  8
M0
 62
     7
100
AcDbLine
 10
287.590982
 20
344.317241
 11
287.590982
 21
346.817241
  0
LINE
  5
50B
100
AcDbEntity
  8
M0
 62
     7
100
AcDbLine
 10
262.883876
 20
373.224348
 11
267.298089
 21
368.810132
  0
LINE
  5
50C
100
AcDbEntity
  8
M0
 62
     7
100
AcDbLine
 10
275.290983
 20
363.21724
 11
275.290983
 21
363.517241
  0
LINE
  5
50D
100
AcDbEntity
  8
M0
 62
     7
100
AcDbLine
 10
275.290983
 20
363.517241
 11
281.090982
 21
363.517241
  0
LINE
  5
50E
100
AcDbEntity
  8
M0
 62
     7
100
AcDbLine
 10
291.790983
 20
363.01724
 11
291.790983
 21
362.46724
  0
LINE
  5
50F
100
AcDbEntity
  8
M0
 62
     7
100
AcDbLine
 10
267.590982
 20
363.517241
 11
267.590982
 21
360.01724
  0
ARC
  5
510
100
AcDbEntity
  8
M0
 62
     7
100
AcDbCircle
 10
237.190982
 20
353.717241
 40
3.0
100
AcDbArc
 50
90.0
 51
180.0
  0
ARC
  5
511
100
AcDbEntity
  8
M0
 62
     7
100
AcDbCircle
 10
237.190982
 20
304.317241
 40
3.0
100
AcDbArc
 50
180.0
 51
270.0
  0
ARC
  5
512
100
AcDbEntity
  8
M0
 62
     7
100
AcDbCircle
 10
248.148342
 20
353.717241
 40
3.0
100
AcDbArc
 50
45.0
 51
90.0
  0
ARC
  5
513
100
AcDbEntity
  8
M0
 62
     7
100
AcDbCircle
 10
248.148342
 20
304.317241
 40
3.0
100
AcDbArc
 50
270.0
 51
315.0
  0
ARC
  5
514
100
AcDbEntity
  8
M0
 62
     7
100
AcDbCircle
 10
218.290982
 20
346.117241
 40
3.0
100
AcDbArc
 50
90.0
 51
180.0
  0
ARC
  5
515
100
AcDbEntity
  8
M0
 62
     7
100
AcDbCircle
 10
216.790982
 20
324.317241
 40
1.0
100
AcDbArc
 50
0.0
 51
90.0
  0
ARC
  5
516
100
AcDbEntity
  8
M0
 62
     7
100
AcDbCircle
 10
231.190982
 20
352.117241
 40
3.0
100
AcDbArc
 50
270.0
 51
360.0
  0
ARC
  5
517
100
AcDbEntity
  8
M0
 62
     7
100
AcDbCircle
 10
231.190982
 20
305.917241
 40
3.0
100
AcDbArc
 50
0.0
 51
90.0
  0
ARC
  5
518
100
AcDbEntity
  8
M0
 62
     7
100
AcDbCircle
 10
243.290982
 20
331.217241
 40
0.5
100
AcDbArc
 50
90.0
 51
180.0
  0
LINE
  5
519
100
AcDbEntity
  8
M0
 62
     7
100
AcDbLine
 10
217.290981
 20
309.088813
 11
217.290981
 21
296.517242
  0
ARC
  5
51A
100
AcDbEntity
  8
M0
 62
     7
100
AcDbCircle
 10
243.290982
 20
326.817241
 40
0.5
100
AcDbArc
 50
180.0
 51
270.0
  0
LINE
  5
51B
100
AcDbEntity
  8
M0
 62
     7
100
AcDbLine
 10
217.290981
 20
361.517241
 11
217.290981
 21
348.945668
  0
LINE
  5
51C
100
AcDbEntity
  8
M0
 62
     7
100
AcDbLine
 10
256.890982
 20
344.117241
 11
264.290982
 21
344.117241
  0
LINE
  5
51D
100
AcDbEntity
  8
M0
 62
     7
100
AcDbLine
 10
264.290982
 20
349.11724
 11
256.890982
 21
349.11724
  0
LINE
  5
51E
100
AcDbEntity
  8
M0
 62
     7
100
AcDbLine
 10
256.890982
 20
339.117241
 11
255.990983
 21
339.117241
  0
LINE
  5
51F
100
AcDbEntity
  8
M0
 62
     7
100
AcDbLine
 10
268.790982
 20
314.477796
 11
268.790982
 21
311.601013
  0
LINE
  5
520
100
AcDbEntity
  8
M0
 62
     7
100
AcDbLine
 10
268.790982
 20
346.433468
 11
268.790982
 21
343.556685
  0
LINE
  5
521
100
AcDbEntity
  8
M0
 62
     7
100
AcDbLine
 10
282.090982
 20
364.517242
 11
291.290982
 21
364.517242
  0
ARC
  5
522
100
AcDbEntity
  8
M0
 62
     7
100
AcDbCircle
 10
216.290982
 20
333.717241
 40
1.0
100
AcDbArc
 50
180.0
 51
270.0
  0
ARC
  5
523
100
AcDbEntity
  8
M0
 62
     7
100
AcDbCircle
 10
235.048342
 20
296.517241
 40
3.0
100
AcDbArc
 50
270.0
 51
315.0
  0
ARC
  5
524
100
AcDbEntity
  8
M0
 62
     7
100
AcDbCircle
 10
218.290982
 20
311.917241
 40
3.0
100
AcDbArc
 50
180.0
 51
270.0
  0
ARC
  5
525
100
AcDbEntity
  8
M0
 62
     7
100
AcDbCircle
 10
216.290982
 20
324.317241
 40
1.0
100
AcDbArc
 50
90.0
 51
180.0
  0
ARC
  5
526
100
AcDbEntity
  8
M0
 62
     7
100
AcDbCircle
 10
220.290982
 20
296.517241
 40
3.0
100
AcDbArc
 50
180.0
 51
270.0
  0
LINE
  5
527
100
AcDbEntity
  8
M0
 62
     7
100
AcDbLine
 10
284.590982
 20
311.217241
 11
291.290982
 21
311.217241
  0
ARC
  5
528
100
AcDbEntity
  8
M0
 62
     7
100
AcDbCircle
 10
235.048342
 20
361.517241
 40
3.0
100
AcDbArc
 50
45.0
 51
90.0
  0
ARC
  5
529
100
AcDbEntity
  8
M0
 62
     7
100
AcDbCircle
 10
220.290982
 20
361.517241
 40
3.0
100
AcDbArc
 50
90.0
 51
180.0
  0
ARC
  5
52A
100
AcDbEntity
  8
M0
 62
     7
100
AcDbCircle
 10
216.790982
 20
333.717241
 40
1.0
100
AcDbArc
 50
270.0
 51
360.0
  0
LINE
  5
52B
100
AcDbEntity
  8
M0
 62
     7
100
AcDbLine
 10
252.390983
 20
304.317241
 11
250.269662
 21
302.19592
  0
LINE
  5
52C
100
AcDbEntity
  8
M0
 62
     7
100
AcDbLine
 10
217.790982
 20
324.317241
 11
217.790982
 21
333.717241
  0
LINE
  5
52D
100
AcDbEntity
  8
M0
 62
     7
100
AcDbLine
 10
248.148342
 20
301.317241
 11
237.190982
 21
301.317241
  0
LINE
  5
52E
100
AcDbEntity
  8
M0
 62
     7
100
AcDbLine
 10
234.190982
 20
352.11724
 11
234.190982
 21
353.717241
  0
LINE
  5
52F
100
AcDbEntity
  8
M0
 62
     7
100
AcDbLine
 10
250.269662
 20
355.838561
 11
252.390983
 21
353.717241
  0
LINE
  5
530
100
AcDbEntity
  8
M0
 62
     7
100
AcDbLine
 10
237.190982
 20
356.71724
 11
248.148342
 21
356.71724
  0
LINE
  5
531
100
AcDbEntity
  8
M0
 62
     7
100
AcDbLine
 10
252.390983
 20
353.717241
 11
281.090982
 21
353.717241
  0
LINE
  5
532
100
AcDbEntity
  8
M0
 62
     7
100
AcDbLine
 10
242.790982
 20
331.217241
 11
242.790982
 21
326.81724
  0
LINE
  5
533
100
AcDbEntity
  8
M0
 62
     7
100
AcDbLine
 10
243.290983
 20
326.31724
 11
255.490982
 21
326.31724
  0
LINE
  5
534
100
AcDbEntity
  8
M0
 62
     7
100
AcDbLine
 10
255.490982
 20
331.717241
 11
243.290983
 21
331.717241
  0
LINE
  5
535
100
AcDbEntity
  8
M0
 62
     7
100
AcDbLine
 10
256.890982
 20
304.517241
 11
252.390983
 21
304.317241
  0
LINE
  5
536
100
AcDbEntity
  8
M0
 62
     7
100
AcDbLine
 10
281.090982
 20
360.01724
 11
240.790982
 21
360.01724
  0
LINE
  5
537
100
AcDbEntity
  8
M0
 62
     7
100
AcDbLine
 10
220.290983
 20
293.517239
 11
235.048343
 21
293.517239
  0
LINE
  5
538
100
AcDbEntity
  8
M0
 62
     7
100
AcDbLine
 10
235.048343
 20
364.517242
 11
220.290983
 21
364.517242
  0
LINE
  5
539
100
AcDbEntity
  8
M0
 62
     7
100
AcDbLine
 10
240.790982
 20
360.01724
 11
237.169662
 21
363.638561
  0
LINE
  5
53A
100
AcDbEntity
  8
M0
 62
     7
100
AcDbLine
 10
237.169662
 20
294.39592
 11
240.790982
 21
298.017241
  0
LINE
  5
53B
100
AcDbEntity
  8
M0
 62
     7
100
AcDbLine
 10
216.790983
 20
332.717241
 11
216.790983
 21
325.317241
  0
LINE
  5
53C
100
AcDbEntity
  8
M0
 62
     7
100
AcDbLine
 10
216.290982
 20
332.717241
 11
216.790983
 21
332.717241
  0
LINE
  5
53D
100
AcDbEntity
  8
M0
 62
     7
100
AcDbLine
 10
231.190983
 20
308.917241
 11
218.290983
 21
308.917241
  0
LINE
  5
53E
100
AcDbEntity
  8
M0
 62
     7
100
AcDbLine
 10
218.290983
 20
349.11724
 11
231.190983
 21
349.11724
  0
LINE
  5
53F
100
AcDbEntity
  8
M0
 62
     7
100
AcDbLine
 10
216.790983
 20
325.317241
 11
216.290982
 21
325.317241
  0
LINE
  5
540
100
AcDbEntity
  8
M0
 62
     7
100
AcDbLine
 10
215.290984
 20
311.91724
 11
215.290984
 21
346.117241
  0
ARC
  5
541
100
AcDbEntity
  8
M0
 62
     7
100
AcDbCircle
 10
255.990982
 20
338.617241
 40
0.5
100
AcDbArc
 50
90.0
 51
180.0
  0
ARC
  5
542
100
AcDbEntity
  8
M0
 62
     7
100
AcDbCircle
 10
287.090982
 20
315.717241
 40
0.5
100
AcDbArc
 50
270.0
 51
360.0
  0
ARC
  5
543
100
AcDbEntity
  8
M0
 62
     7
100
AcDbCircle
 10
287.090982
 20
342.317241
 40
0.5
100
AcDbArc
 50
0.0
 51
90.0
  0
ARC
  5
544
100
AcDbEntity
  8
M0
 62
     7
100
AcDbCircle
 10
255.990982
 20
319.417241
 40
0.5
100
AcDbArc
 50
180.0
 51
270.0
  0
LINE
  5
545
100
AcDbEntity
  8
M0
 62
     7
100
AcDbLine
 10
280.090982
 20
298.017241
 11
240.790982
 21
298.017241
  0
LINE
  5
546
100
AcDbEntity
  8
M0
 62
     7
100
AcDbLine
 10
280.090982
 20
298.017241
 11
280.090982
 21
298.517242
  0
LINE
  5
547
100
AcDbEntity
  8
M0
 62
     7
100
AcDbLine
 10
281.090982
 20
296.517242
 11
280.090982
 21
296.517242
  0
LINE
  5
548
100
AcDbEntity
  8
M0
 62
     7
100
AcDbLine
 10
280.090982
 20
297.017239
 11
280.090982
 21
298.017241
  0
LINE
  5
549
100
AcDbEntity
  8
M0
 62
     7
100
AcDbLine
 10
280.090982
 20
298.517242
 11
281.090982
 21
298.517242
  0
LINE
  5
54A
100
AcDbEntity
  8
M0
 62
     7
100
AcDbLine
 10
291.790983
 20
355.567241
 11
291.790983
 21
353.41724
  0
LINE
  5
54B
100
AcDbEntity
  8
M0
 62
     7
100
AcDbLine
 10
280.090982
 20
296.517242
 11
280.090982
 21
297.017239
  0
LINE
  5
54C
100
AcDbEntity
  8
M0
 62
     7
100
AcDbLine
 10
287.890982
 20
341.317241
 11
287.890982
 21
343.31724
  0
LINE
  5
54D
100
AcDbEntity
  8
M0
 62
     7
100
AcDbLine
 10
245.190982
 20
363.517241
 11
245.190982
 21
370.517239
  0
LINE
  5
54E
100
AcDbEntity
  8
M0
 62
     7
100
AcDbLine
 10
245.890982
 20
293.517239
 11
248.890982
 21
293.517239
  0
ARC
  5
54F
100
AcDbEntity
  8
M0
 62
     7
100
AcDbCircle
 10
282.090982
 20
294.517241
 40
1.0
100
AcDbArc
 50
180.0
 51
270.0
  0
ARC
  5
550
100
AcDbEntity
  8
M0
 62
     7
100
AcDbCircle
 10
291.290982
 20
364.017241
 40
0.5
100
AcDbArc
 50
0.0
 51
90.0
  0
ARC
  5
551
100
AcDbEntity
  8
M0
 62
     7
100
AcDbCircle
 10
282.090982
 20
363.517241
 40
1.0
100
AcDbArc
 50
90.0
 51
180.0
  0
LINE
  5
552
100
AcDbEntity
  8
M0
 62
     7
100
AcDbLine
 10
256.890982
 20
293.517239
 11
256.890982
 21
318.917241
  0
LINE
  5
553
100
AcDbEntity
  8
M0
 62
     7
100
AcDbLine
 10
244.890982
 20
298.017241
 11
244.890982
 21
294.517241
  0
LINE
  5
554
100
AcDbEntity
  8
M0
 62
     7
100
AcDbLine
 10
245.890982
 20
293.517239
 11
273.890982
 21
293.517239
  0
LINE
  5
555
100
AcDbEntity
  8
M0
 62
     7
100
AcDbLine
 10
287.090983
 20
315.21724
 11
284.590982
 21
315.21724
  0
LINE
  5
556
100
AcDbEntity
  8
M0
 62
     7
100
AcDbLine
 10
284.590982
 20
342.81724
 11
287.090983
 21
342.81724
  0
LINE
  5
557
100
AcDbEntity
  8
M0
 62
     7
100
AcDbLine
 10
284.590982
 20
343.256686
 11
284.590982
 21
342.81724
  0
LINE
  5
558
100
AcDbEntity
  8
M0
 62
     7
100
AcDbLine
 10
284.590982
 20
315.21724
 11
284.590982
 21
314.777795
  0
LINE
  5
559
100
AcDbEntity
  8
M0
 62
     7
100
AcDbLine
 10
256.890982
 20
318.917241
 11
255.990983
 21
318.917241
  0
LINE
  5
55A
100
AcDbEntity
  8
M0
 62
     7
100
AcDbLine
 10
256.890982
 20
308.917241
 11
264.290982
 21
308.917241
  0
LINE
  5
55B
100
AcDbEntity
  8
M0
 62
     7
100
AcDbLine
 10
264.290982
 20
313.91724
 11
256.890982
 21
313.91724
  0
LINE
  5
55C
100
AcDbEntity
  8
M0
 62
     7
100
AcDbLine
 10
255.490982
 20
338.61724
 11
255.490982
 21
319.417241
  0
LINE
  5
55D
100
AcDbEntity
  8
M0
 62
     7
100
AcDbLine
 10
291.290982
 20
346.817241
 11
284.590982
 21
346.817241
  0
LINE
  5
55E
100
AcDbEntity
  8
M0
 62
     7
100
AcDbLine
 10
234.190982
 20
304.317241
 11
234.190982
 21
305.917241
  0
LINE
  5
55F
100
AcDbEntity
  8
M0
 62
     7
100
AcDbLine
 10
292.090982
 20
304.76724
 11
292.090982
 21
295.267239
  0
LINE
  5
560
100
AcDbEntity
  8
M0
 62
     7
100
AcDbLine
 10
287.590982
 20
340.817241
 11
287.890982
 21
341.317241
  0
LINE
  5
561
100
AcDbEntity
  8
M0
 62
     7
100
AcDbLine
 10
287.890982
 20
343.31724
 11
287.590982
 21
344.317241
  0
LINE
  5
562
100
AcDbEntity
  8
M0
 62
     7
100
AcDbLine
 10
287.590982
 20
346.817241
 11
287.590982
 21
311.217241
  0
LINE
  5
563
100
AcDbEntity
  8
M0
 62
     7
100
AcDbLine
 10
281.090982
 20
353.717241
 11
281.090982
 21
363.517241
  0
LINE
  5
564
100
AcDbEntity
  8
M0
 62
     7
100
AcDbLine
 10
264.290982
 20
344.117241
 11
264.290982
 21
349.11724
  0
LINE
  5
565
100
AcDbEntity
  8
M0
 62
     7
100
AcDbLine
 10
264.290982
 20
308.917241
 11
264.290982
 21
313.91724
  0
LINE
  5
566
100
AcDbEntity
  8
M0
 62
     7
100
AcDbLine
 10
281.090982
 20
304.517241
 11
256.890982
 21
304.517241
  0
LINE
  5
567
100
AcDbEntity
  8
M0
 62
     7
100
AcDbLine
 10
281.090982
 20
294.517241
 11
281.090982
 21
304.517241
  0
LINE
  5
568
100
AcDbEntity
  8
M0
 62
     7
100
AcDbLine
 10
289.290983
 20
313.517241
 11
289.297666
 21
313.509645
  0
LINE
  5
569
100
AcDbEntity
  8
M0
 62
     7
100
AcDbLine
 10
289.297666
 20
313.509645
 11
289.317518
 21
313.487086
  0
LINE
  5
56A
100
AcDbEntity
  8
M0
 62
     7
100
AcDbLine
 10
289.317518
 20
313.487086
 11
289.34993
 21
313.450253
  0
LINE
  5
56B
100
AcDbEntity
  8
M0
 62
     7
100
AcDbLine
 10
289.34993
 20
313.450253
 11
289.393922
 21
313.400263
  0
LINE
  5
56C
100
AcDbEntity
  8
M0
 62
     7
100
AcDbLine
 10
289.393922
 20
313.400263
 11
289.448155
 21
313.338634
  0
LINE
  5
56D
100
AcDbEntity
  8
M0
 62
     7
100
AcDbLine
 10
289.448155
 20
313.338634
 11
289.510982
 21
313.26724
  0
LINE
  5
56E
100
AcDbEntity
  8
M0
 62
     7
100
AcDbLine
 10
289.510982
 20
313.26724
 11
289.580494
 21
313.188251
  0
LINE
  5
56F
100
AcDbEntity
  8
M0
 62
     7
100
AcDbLine
 10
289.580494
 20
313.188251
 11
289.654577
 21
313.104065
  0
LINE
  5
570
100
AcDbEntity
  8
M0
 62
     7
100
AcDbLine
 10
289.654577
 20
313.104065
 11
289.730983
 21
313.01724
  0
LINE
  5
571
100
AcDbEntity
  8
M0
 62
     7
100
AcDbLine
 10
231.090982
 20
293.51724
 11
231.090982
 21
279.017241
  0
ARC
  5
572
100
AcDbEntity
  8
M0
 62
   154
100
AcDbCircle
 10
88.755969
 20
361.017241
 40
2.0
100
AcDbArc
 50
-90.0
 51
0.0
  0
ARC
  5
573
100
AcDbEntity
  8
M0
 62
   154
100
AcDbCircle
 10
94.755969
 20
362.486328
 40
4.0
100
AcDbArc
 50
148.425809
 51
180.0
  0
LINE
  5
574
100
AcDbEntity
  8
M0
 62
   154
100
AcDbLine
 10
96.063821
 20
372.253745
 11
91.348118
 21
364.580737
  0
LINE
  5
575
100
AcDbEntity
  8
M0
 62
   154
100
AcDbLine
 10
90.755969
 20
361.017241
 11
90.755969
 21
362.486328
  0
LINE
  5
576
100
AcDbEntity
  8
M0
 62
   154
100
AcDbLine
 10
88.755969
 20
359.017241
 11
87.920554
 21
359.017241
  0
LINE
  5
577
100
AcDbEntity
  8
M0
 62
   154
100
AcDbLine
 10
97.655969
 20
380.017241
 11
105.655969
 21
380.017241
  0
LINE
  5
578
100
AcDbEntity
  8
M0
 62
   154
100
AcDbLine
 10
96.655969
 20
379.017241
 11
96.655969
 21
374.348154
  0
LINE
  5
579
100
AcDbEntity
  8
M0
 62
   154
100
AcDbLine
 10
88.755969
 20
348.717241
 11
96.755969
 21
348.717241
  0
LINE
  5
57A
100
AcDbEntity
  8
M0
 62
   154
100
AcDbLine
 10
106.655969
 20
379.017241
 11
106.655969
 21
373.660098
  0
ARC
  5
57B
100
AcDbEntity
  8
M0
 62
   154
100
AcDbCircle
 10
95.455969
 20
357.717241
 40
2.5
100
AcDbArc
 50
-23.073918
 51
23.073918
  0
ARC
  5
57C
100
AcDbEntity
  8
M0
 62
   154
100
AcDbCircle
 10
95.455969
 20
350.717241
 40
2.5
100
AcDbArc
 50
-23.073918
 51
23.073918
  0
ARC
  5
57D
100
AcDbEntity
  8
M0
 62
   154
100
AcDbCircle
 10
90.055969
 20
357.717241
 40
2.5
100
AcDbArc
 50
148.667749
 51
203.073918
  0
ARC
  5
57E
100
AcDbEntity
  8
M0
 62
   154
100
AcDbCircle
 10
90.055969
 20
350.717241
 40
2.5
100
AcDbArc
 50
156.926082
 51
203.073918
  0
LINE
  5
57F
100
AcDbEntity
  8
M0
 62
   154
100
AcDbLine
 10
97.755969
 20
356.737445
 11
97.755969
 21
351.697037
  0
LINE
  5
580
100
AcDbEntity
  8
M0
 62
   154
100
AcDbLine
 10
97.755969
 20
349.737445
 11
97.755969
 21
349.717241
  0
LINE
  5
581
100
AcDbEntity
  8
M0
 62
   154
100
AcDbLine
 10
87.755969
 20
356.737445
 11
87.755969
 21
351.697037
  0
LINE
  5
582
100
AcDbEntity
  8
M0
 62
   154
100
AcDbLine
 10
87.755969
 20
349.737445
 11
87.755969
 21
349.717241
  0
LINE
  5
583
100
AcDbEntity
  8
M0
 62
   154
100
AcDbLine
 10
97.755969
 20
358.697037
 11
97.755969
 21
364.017241
  0
ARC
  5
584
100
AcDbEntity
  8
M0
 62
   154
100
AcDbCircle
 10
101.755969
 20
364.017241
 40
4.0
100
AcDbArc
 50
90.0
 51
180.0
  0
ARC
  5
585
100
AcDbEntity
  8
M0
 62
   154
100
AcDbCircle
 10
96.755969
 20
349.717241
 40
1.0
100
AcDbArc
 50
-90.0
 51
0.0
  0
ARC
  5
586
100
AcDbEntity
  8
M0
 62
   154
100
AcDbCircle
 10
88.755969
 20
349.717241
 40
1.0
100
AcDbArc
 50
180.0
 51
270.0
  0
ARC
  5
587
100
AcDbEntity
  8
M0
 62
   154
100
AcDbCircle
 10
105.655969
 20
379.017241
 40
1.0
100
AcDbArc
 50
0.0
 51
90.0
  0
ARC
  5
588
100
AcDbEntity
  8
M0
 62
   154
100
AcDbCircle
 10
97.655969
 20
379.017241
 40
1.0
100
AcDbArc
 50
90.0
 51
180.0
  0
ARC
  5
589
100
AcDbEntity
  8
M0
 62
   154
100
AcDbCircle
 10
103.300414
 20
369.017241
 40
1.0
100
AcDbArc
 50
270.0
 51
328.109208
  0
ARC
  5
58A
100
AcDbEntity
  8
M0
 62
   154
100
AcDbCircle
 10
102.655969
 20
373.660098
 40
4.0
100
AcDbArc
 50
-31.890792
 51
0.0
  0
LINE
  5
58B
100
AcDbEntity
  8
M0
 62
   154
100
AcDbLine
 10
101.755969
 20
368.017241
 11
103.300414
 21
368.017241
  0
LINE
  5
58C
100
AcDbEntity
  8
M0
 62
   154
100
AcDbLine
 10
106.052196
 20
371.546891
 11
104.14947
 21
368.488939
  0
ARC
  5
58D
100
AcDbEntity
  8
M0
 62
   154
100
AcDbCircle
 10
92.655969
 20
374.348154
 40
4.0
100
AcDbArc
 50
-31.574191
 51
0.0
  0
LINE
  5
58E
100
AcDbEntity
  8
M0
 62
   154
100
AcDbLine
 10
76.655966
 20
360.017241
 11
76.655966
 21
366.819415
  0
LINE
  5
58F
100
AcDbEntity
  8
M0
 62
   154
100
AcDbLine
 10
82.855966
 20
360.017241
 11
82.855966
 21
366.819415
  0
LINE
  5
590
100
AcDbEntity
  8
M0
 62
   154
100
AcDbLine
 10
84.755966
 20
370.416516
 11
84.755966
 21
379.017241
  0
LINE
  5
591
100
AcDbEntity
  8
M0
 62
   154
100
AcDbLine
 10
83.680968
 20
368.885664
 11
84.480966
 21
369.727767
  0
LINE
  5
592
100
AcDbEntity
  8
M0
 62
   154
100
AcDbLine
 10
84.591382
 20
359.017241
 11
83.855966
 21
359.017241
  0
LINE
  5
593
100
AcDbEntity
  8
M0
 62
   154
100
AcDbLine
 10
74.755966
 20
370.416516
 11
74.755966
 21
379.017241
  0
LINE
  5
594
100
AcDbEntity
  8
M0
 62
   154
100
AcDbLine
 10
83.755966
 20
380.017241
 11
75.755966
 21
380.017241
  0
LINE
  5
595
100
AcDbEntity
  8
M0
 62
   154
100
AcDbLine
 10
74.920551
 20
359.017241
 11
75.655966
 21
359.017241
  0
LINE
  5
596
100
AcDbEntity
  8
M0
 62
   154
100
AcDbLine
 10
83.755966
 20
348.717241
 11
75.755966
 21
348.717241
  0
LINE
  5
597
100
AcDbEntity
  8
M0
 62
   154
100
AcDbLine
 10
74.755966
 20
349.717241
 11
74.755966
 21
349.737445
  0
LINE
  5
598
100
AcDbEntity
  8
M0
 62
   154
100
AcDbLine
 10
74.755966
 20
351.697037
 11
74.755966
 21
356.737445
  0
LINE
  5
599
100
AcDbEntity
  8
M0
 62
   154
100
AcDbLine
 10
84.755966
 20
351.697037
 11
84.755966
 21
356.737445
  0
LINE
  5
59A
100
AcDbEntity
  8
M0
 62
   154
100
AcDbLine
 10
84.755966
 20
349.717241
 11
84.755966
 21
349.737445
  0
ARC
  5
59B
100
AcDbEntity
  8
M0
 62
   154
100
AcDbCircle
 10
77.055966
 20
350.717241
 40
2.5
100
AcDbArc
 50
156.926082
 51
203.073918
  0
ARC
  5
59C
100
AcDbEntity
  8
M0
 62
   154
100
AcDbCircle
 10
75.755966
 20
349.717241
 40
1.0
100
AcDbArc
 50
180.0
 51
270.0
  0
ARC
  5
59D
100
AcDbEntity
  8
M0
 62
   154
100
AcDbCircle
 10
83.755966
 20
349.717241
 40
1.0
100
AcDbArc
 50
270.0
 51
360.0
  0
ARC
  5
59E
100
AcDbEntity
  8
M0
 62
   154
100
AcDbCircle
 10
83.855966
 20
360.017241
 40
1.0
100
AcDbArc
 50
180.0
 51
270.0
  0
ARC
  5
59F
100
AcDbEntity
  8
M0
 62
   154
100
AcDbCircle
 10
75.655966
 20
360.017241
 40
1.0
100
AcDbArc
 50
270.0
 51
360.0
  0
ARC
  5
5A0
100
AcDbEntity
  8
M0
 62
   154
100
AcDbCircle
 10
77.055966
 20
357.717241
 40
2.5
100
AcDbArc
 50
148.667749
 51
203.073918
  0
ARC
  5
5A1
100
AcDbEntity
  8
M0
 62
   154
100
AcDbCircle
 10
82.455966
 20
357.717241
 40
2.5
100
AcDbArc
 50
-23.073918
 51
31.332251
  0
ARC
  5
5A2
100
AcDbEntity
  8
M0
 62
   154
100
AcDbCircle
 10
82.455966
 20
350.717241
 40
2.5
100
AcDbArc
 50
-23.073918
 51
23.073918
  0
ARC
  5
5A3
100
AcDbEntity
  8
M0
 62
   154
100
AcDbCircle
 10
75.755966
 20
379.017241
 40
1.0
100
AcDbArc
 50
90.0
 51
180.0
  0
ARC
  5
5A4
100
AcDbEntity
  8
M0
 62
   154
100
AcDbCircle
 10
75.755966
 20
370.416516
 40
1.0
100
AcDbArc
 50
180.0
 51
223.531199
  0
ARC
  5
5A5
100
AcDbEntity
  8
M0
 62
   154
100
AcDbCircle
 10
83.755966
 20
379.017241
 40
1.0
100
AcDbArc
 50
0.0
 51
90.0
  0
ARC
  5
5A6
100
AcDbEntity
  8
M0
 62
   154
100
AcDbCircle
 10
83.755966
 20
370.416516
 40
1.0
100
AcDbArc
 50
316.468801
 51
360.0
  0
ARC
  5
5A7
100
AcDbEntity
  8
M0
 62
   154
100
AcDbCircle
 10
73.655966
 20
366.819415
 40
3.0
100
AcDbArc
 50
0.0
 51
43.531199
  0
ARC
  5
5A8
100
AcDbEntity
  8
M0
 62
   154
100
AcDbCircle
 10
85.855966
 20
366.819415
 40
3.0
100
AcDbArc
 50
136.468801
 51
180.0
  0
LINE
  5
5A9
100
AcDbEntity
  8
M0
 62
   154
100
AcDbLine
 10
75.830964
 20
368.885664
 11
75.030967
 21
369.727767
  0
LINE
  5
5AA
100
AcDbEntity
  8
M0
  6
DIVIDE
 62
     7
100
AcDbLine
 10
54.255969
 20
196.769378
 11
54.255969
 21
211.269376
  0
LINE
  5
5AB
100
AcDbEntity
  8
M0
  6
DIVIDE
 62
     7
100
AcDbLine
 10
105.255969
 20
196.769378
 11
105.255969
 21
211.269376
  0
LINE
  5
5AC
100
AcDbEntity
  8
M0
  6
DIVIDE
 62
     7
100
AcDbLine
 10
105.255969
 20
211.269376
 11
54.255969
 21
211.269376
  0
LINE
  5
5AD
100
AcDbEntity
  8
M0
  6
DIVIDE
 62
     7
100
AcDbLine
 10
105.255969
 20
111.269376
 11
105.255969
 21
125.769376
  0
LINE
  5
5AE
100
AcDbEntity
  8
M0
  6
DIVIDE
 62
     7
100
AcDbLine
 10
54.255969
 20
111.269376
 11
105.255969
 21
111.269376
  0
LINE
  5
5AF
100
AcDbEntity
  8
M0
  6
DIVIDE
 62
     7
100
AcDbLine
 10
54.255969
 20
111.269376
 11
54.255969
 21
125.769376
  0
LINE
  5
5B0
100
AcDbEntity
  8
M0
  6
DIVIDE
 62
     7
100
AcDbLine
 10
48.355973
 20
125.769376
 11
54.255969
 21
125.769376
  0
LINE
  5
5B1
100
AcDbEntity
  8
M0
  6
DIVIDE
 62
     7
100
AcDbLine
 10
48.355973
 20
196.769378
 11
48.355973
 21
125.769376
  0
LINE
  5
5B2
100
AcDbEntity
  8
M0
  6
DIVIDE
 62
     7
100
AcDbLine
 10
54.255969
 20
196.769378
 11
48.355973
 21
196.769378
  0
LINE
  5
5B3
100
AcDbEntity
  8
M0
  6
DASHDOT
 62
     7
100
AcDbLine
 10
56.853374
 20
191.269377
 11
48.658565
 21
191.269377
  0
LINE
  5
5B4
100
AcDbEntity
  8
M0
  6
DASHDOT
 62
     7
100
AcDbLine
 10
52.755962
 20
195.366774
 11
52.755977
 21
187.171965
  0
LINE
  5
5B5
100
AcDbEntity
  8
M0
  6
DASHDOT
 62
     7
100
AcDbLine
 10
110.853374
 20
132.269377
 11
102.658565
 21
132.269377
  0
LINE
  5
5B6
100
AcDbEntity
  8
M0
  6
DASHDOT
 62
     7
100
AcDbLine
 10
106.755962
 20
136.366774
 11
106.755977
 21
127.171965
  0
LINE
  5
5B7
100
AcDbEntity
  8
M0
  6
DIVIDE
 62
     7
100
AcDbLine
 10
111.155966
 20
125.769376
 11
105.255969
 21
125.769376
  0
LINE
  5
5B8
100
AcDbEntity
  8
M0
  6
DIVIDE
 62
     7
100
AcDbLine
 10
105.255969
 20
196.769378
 11
111.155966
 21
196.769378
  0
LINE
  5
5B9
100
AcDbEntity
  8
M0
  6
DIVIDE
 62
     7
100
AcDbLine
 10
111.155966
 20
196.769378
 11
111.155966
 21
125.769376
  0
CIRCLE
  5
5BA
100
AcDbEntity
  8
M0
 62
     7
100
AcDbCircle
 10
106.755969
 20
132.269377
 40
2.0
  0
CIRCLE
  5
5BB
100
AcDbEntity
  8
M0
 62
     7
100
AcDbCircle
 10
52.75597
 20
191.269377
 40
2.0
  0
CIRCLE
  5
5BC
100
AcDbEntity
  8
M0
 62
     7
100
AcDbCircle
 10
52.75597
 20
191.269369
 40
1.7
  0
CIRCLE
  5
5BD
100
AcDbEntity
  8
M0
 62
     7
100
AcDbCircle
 10
106.755969
 20
132.269377
 40
1.7
  0
LINE
  5
5BE
100
AcDbEntity
  8
M1
 62
     2
100
AcDbLine
 10
15.384616
 20
15.384616
 11
15.384616
 21
438.461555
  0
LINE
  5
5BF
100
AcDbEntity
  8
M1
 62
     2
100
AcDbLine
 10
15.384616
 20
438.461555
 11
307.692319
 21
438.461555
  0
LINE
  5
5C0
100
AcDbEntity
  8
M1
 62
     2
100
AcDbLine
 10
307.692319
 20
438.461555
 11
307.692319
 21
15.384616
  0
LINE
  5
5C1
100
AcDbEntity
  8
M1
 62
     2
100
AcDbLine
 10
307.692319
 20
15.384616
 11
15.384616
 21
15.384616
  0
LINE
  5
5C2
100
AcDbEntity
  8
M1
 62
     2
100
AcDbLine
 10
307.692319
 20
30.769232
 11
153.846159
 21
30.769232
  0
LINE
  5
5C3
100
AcDbEntity
  8
M1
 62
     2
100
AcDbLine
 10
307.692319
 20
46.153848
 11
153.846159
 21
46.153848
  0
LINE
  5
5C4
100
AcDbEntity
  8
M1
 62
     2
100
AcDbLine
 10
307.692319
 20
61.538464
 11
153.846159
 21
61.538464
  0
LINE
  5
5C5
100
AcDbEntity
  8
M1
 62
     2
100
AcDbLine
 10
153.846159
 20
15.384616
 11
153.846159
 21
61.538464
  0
TEXT
  5
5C6
100
AcDbEntity
  8
M1
 62
     2
100
AcDbText
 10
157.692313
 20
19.23077
 40
7.692308
  1
適　用；
 41
1.0
  7
STANDARD
100
AcDbText
  0
TEXT
  5
5C7
100
AcDbEntity
  8
M1
 62
     2
100
AcDbText
 10
157.692313
 20
50.000002
 40
7.692308
  1
登録名：
 41
1.0
  7
STANDARD
100
AcDbText
  0
TEXT
  5
5C8
100
AcDbEntity
  8
M1
 62
     2
100
AcDbText
 10
194.615392
 20
50.000002
 40
7.692308
  1
ＤＭＨＳ２５ＬＲ０１
 41
0.5
  7
STANDARD
100
AcDbText
  0
TEXT
  5
5C9
100
AcDbEntity
  8
M1
 62
     2
100
AcDbText
 10
157.692313
 20
34.615386
 40
7.692308
  1
形　式；
 41
1.0
  7
STANDARD
100
AcDbText
  0
TEXT
  5
5CA
100
AcDbEntity
  8
M1
 62
     2
100
AcDbText
 10
194.615392
 20
34.615386
 40
7.692308
  1
ＨＳ２５－Ｌ
 41
0.5
  7
STANDARD
100
AcDbText
  0
LINE
  5
5CB
100
AcDbEntity
  8
DN0
100
AcDbLine
 10
61.865755
 20
93.328429
 11
86.834988
 21
93.328429
  0
TEXT
  5
5CC
100
AcDbEntity
  8
DN0
100
AcDbText
 10
62.555499
 20
93.943814
 40
6.153846
  1
せん孔図
 41
0.833333
  7
STANDARD
100
AcDbText
  0
ENDSEC
  0
SECTION
  2
OBJECTS
  0
DICTIONARY
  5
C
100
AcDbDictionary
  3
ACAD_GROUP
350
D
  3
ACAD_MLINESTYLE
350
E
  3
ACDBVARIABLEDICTIONARY
350
2FD
  0
DICTIONARY
  5
D
102
{ACAD_REACTORS
330
C
102
}
100
AcDbDictionary
  0
DICTIONARY
  5
E
102
{ACAD_REACTORS
330
C
102
}
100
AcDbDictionary
  3
STANDARD
350
13
  0
DICTIONARY
  5
2FD
102
{ACAD_REACTORS
330
C
102
}
100
AcDbDictionary
  3
SORTENTS
350
2FE
  0
MLINESTYLE
  5
13
102
{ACAD_REACTORS
330
E
102
}
100
AcDbMlineStyle
  2
STANDARD
 70
     0
  3

 62
     0
 51
90.0
 52
90.0
 71
     2
 49
0.5
 62
   256
  6
BYLAYER
 49
-0.5
 62
   256
  6
BYLAYER
  0
DICTIONARYVAR
  5
2FE
102
{ACAD_REACTORS
330
2FD
102
}
100
DictionaryVariables
280
     0
  1
96
  0
ENDSEC
  0
EOF
