  0
SECTION
  2
HEADER
  9
$ACADVER
  1
AC1009
  9
$INSBASE
 10
0.000000
 20
0.000000
 30
0.0
  9
$VIEWCTR
 10
7.531722
 20
4.5
  9
$VIEWSIZE
 40
9.0
  9
$SNAPMODE
 70
     0
  9
$SNAPUNIT
 10
1.0
 20
1.0
  9
$SNAPBASE
 10
0.0
 20
0.0
  9
$SNAPANG
 50
0.0
  9
$SNAPSTYLE
 70
     0
  9
$SNAPISOPAIR
 70
     0
  9
$GRIDMODE
 70
     0
  9
$GRIDUNIT
 10
0.0
 20
0.0
  9
$ORTHOMODE
 70
     0
  9
$REGENMODE
 70
     1
  9
$FILLMODE
 70
     1
  9
$QTEXTMODE
 70
     0
  9
$DRAGMODE
 70
     2
  9
$LTSCALE
  40
     1.000000
  9
$OSMODE
 70
     0
  9
$ATTMODE
 70
     1
  9
$TEXTSIZE
 40
0.2
  9
$TRACEWID
 40
0.05
  9
$TEXTSTYLE
  7
STANDARD
  9
$CELTYPE
  6
BYLAYER
  9
$CECOLOR
 62
   256
  9
$DIMSCALE
 40
1.0
  9
$DIMASZ
 40
0.18
  9
$DIMEXO
 40
0.0625
  9
$DIMDLI
 40
0.38
  9
$DIMRND
 40
0.0
  9
$DIMDLE
 40
0.0
  9
$DIMEXE
 40
0.18
  9
$DIMTP
 40
0.0
  9
$DIMTM
 40
0.0
  9
$DIMTXT
 40
0.18
  9
$DIMCEN
 40
0.09
  9
$DIMTSZ
 40
0.0
  9
$DIMTOL
 70
     0
  9
$DIMLIM
 70
     0
  9
$DIMTIH
 70
     1
  9
$DIMTOH
 70
     1
  9
$DIMSE1
 70
     0
  9
$DIMSE2
 70
     0
  9
$DIMTAD
 70
     0
  9
$DIMZIN
 70
     0
  9
$DIMBLK
  1

  9
$LUNITS
 70
     2
  9
$LUPREC
 70
     4
  9
$AXISMODE
 70
     0
  9
$AXISUNIT
 10
0.0
 20
0.0
  9
$SKETCHINC
 40
0.1
  9
$FILLETRAD
 40
0.0
  9
$AUNITS
 70
     0
  9
$AUPREC
 70
     0
  9
$MENU
  1
ACAD
  9
$ELEVATION
 40
0.0
  9
$THICKNESS
 40
0.0
  9
$VIEWDIR
 10
0.0
 20
0.0
 30
1.0
  9
$LIMCHECK
 70
     0
  9
$BLIPMODE
 70
     1
  9
$CHAMFERA
 40
0.0
  9
$CHAMFERB
 40
0.0
  9
$FASTZOOM
 70
     1
  9
$SKPOLY
 70
     0
  9
$TDCREATE
 40
0000000.0000000000
  9
$TDUPDATE
 40
0000000.0000000000
  9
$TDINDWG
 40
0.0000000000
  9
$TDUSRTIMER
 40
0.0000000000
  9
$USRTIMER
 70
     1
  9
$ANGBASE
 50
0.0
  9
$ANGDIR
 70
     0
  9
$PDMODE
 70
     0
  9
$PDSIZE
 40
0.0
  9
$PLINEWID
 40
0.0
  9
$COORDS
 70
     0
  9
$USERI1
 70
     0
  9
$USERI2
 70
     0
  9
$USERI3
 70
     0
  9
$USERI4
 70
     0
  9
$USERI5
 70
     0
  9
$USERR1
 40
0.0
  9
$USERR2
 40
0.0
  9
$USERR3
 40
0.0
  9
$USERR4
 40
0.0
  9
$USERR5
 40
0.0
  9
$CLAYER
  8
M0
  9
$EXTMIN
 10
16.336965
 20
17.593654
  9
$EXTMAX
 10
333.003619
 20
475.92697
  9
$LIMMIN
 10
0.0
 20
0.0
  9
$LIMMAX
 10
210.0
 20
297.0
  0
ENDSEC
  0
SECTION
  2
TABLES
  0
TABLE
  2
VPORT
  0
VPORT
  2
*ACTIVE
 70
     0
 10
0.0
 20
0.0
 11
1.0
 21
1.0
 12
484.0
 22
297.0
 13
0.0
 23
0.0
 14
1.0
 24
1.0
 15
0.0
 25
0.0
 16
0.0
 26
0.0
 36
1.0
 17
0.0
 27
0.0
 37
0.0
 40
594.0
 41
2.0
 42
50.0
 43
0.0
 44
0.0
 50
0.0
 51
0.0
 71
     0
 72
   100
 73
     1
 74
     1
 75
     0
 76
     0
 77
     0
 78
     0
  0
ENDTAB
  0
TABLE
  2
LTYPE
 70
     5
  0
LTYPE
  2
CONTINUOUS
 70
    64
  3
Solid line
 72
    65
 73
     0
 40
0.0
  0
LTYPE
  2
DASHED
 70
    64
  3
__ __ __ __ __ __ __ __ __ __ __ __ __ __ __ __
 72
    65
 73
     2
 40
0.75
 49
0.5
 49
-0.25
  0
LTYPE
  2
DASHDOT
 70
    64
  3
__ . __ . __ . __ . __ . __ . __ . __ . __ . __
 72
    65
 73
     4
 40
1.0
 49
0.5
 49
-0.25
 49
0.0
 49
-0.25
  0
LTYPE
  2
DIVIDE
 70
    64
  3
____ . . ____ . . ____ . . ____ . . ____ . . __
 72
    65
 73
     6
 40
1.25
 49
0.5
 49
-0.25
 49
0.0
 49
-0.25
 49
0.0
 49
-0.25
  0
LTYPE
  2
DOT
 70
    64
  3
. . . . . . . . . . . . . . . . . . . . . . . .
 72
    65
 73
     2
 40
0.25
 49
0.0
 49
-0.25
  0
ENDTAB
  0
TABLE
  2
LAYER
 70
   102
  0
LAYER
  2
0
 70
     0
 62
     7
  6
CONTINUOUS
  0
LAYER
  2
M0
 70
     0
 62
     3
  6
CONTINUOUS
  0
LAYER
  2
M3
 70
     0
 62
     3
  6
CONTINUOUS
  0
LAYER
  2
DD0
 70
     0
 62
     4
  6
CONTINUOUS
  0
LAYER
  2
DN0
 70
     0
 62
     2
  6
CONTINUOUS
  0
ENDTAB
  0
TABLE
  2
STYLE
 70
     2
  0
STYLE
  2
STANDARD
 70
     0
 40
0.0
 41
1.0
 50
0.0
 71
     0
 42
0.2
  3
txt
  4
BIGFONT
  0
ENDTAB
  0
TABLE
  2
VIEW
 70
     0
  0
ENDTAB
  0
TABLE
  2
DIMSTYLE
 70
     2
  0
DIMSTYLE
  2
STANDARD
 70
     0
  3

  4

  5

  6
_OPEN
  7
_OPEN
 40
1.0
 41
5.0
 42
1.0
 43
8.0
 44
1.0
 45
0.0
 46
0.0
 47
0.0
 48
0.0
140
5.25
141
0.09
142
0.0
143
0.03937
144
1.0
145
0.0
146
1.0
147
0.6
 71
     0
 72
     0
 73
     1
 74
     1
 75
     0
 76
     0
 77
     3
 78
     8
170
     0
171
     2
172
     0
173
     1
174
     0
175
     0
176
     0
177
     0
178
     0
  0
ENDTAB
  0
ENDSEC
  0
SECTION
  2
BLOCKS
  0
BLOCK
  8
DD0
  2
DIMS0
 70
     0
 10
0.0
 20
0.0
  0
TEXT
  8
DD0
 10
121.092587
 20
140.132174
 40
4.166667
  1
２－Ｍ４ねじ穴
 41
0.666667
  7
STANDARD
  0
LINE
  8
DD0
 10
126.255832
 20
160.414858
 11
123.853666
 21
164.800014
  0
LINE
  8
DD0
 10
123.853666
 20
164.800014
 11
123.741425
 21
159.801274
  0
LINE
  8
DD0
 10
123.853666
 20
164.800014
 11
128.100149
 21
147.398332
  0
ENDBLK
  8
DD0
  0
BLOCK
  8
DD0
  2
DIMS1
 70
     0
 10
0.0
 20
0.0
  0
LINE
  8
DD0
 10
139.391169
 20
380.8691
 11
139.391169
 21
427.973463
  0
LINE
  8
DD0
 10
51.591169
 20
380.8691
 11
51.591169
 21
427.973463
  0
LINE
  8
DD0
 10
134.56154
 20
425.012701
 11
139.391169
 21
426.306797
  0
LINE
  8
DD0
 10
139.391169
 20
426.306797
 11
134.56154
 21
427.600892
  0
LINE
  8
DD0
 10
56.420798
 20
427.600892
 11
51.591169
 21
426.306797
  0
LINE
  8
DD0
 10
51.591169
 20
426.306797
 11
56.420798
 21
425.012701
  0
LINE
  8
DD0
 10
139.391169
 20
426.306797
 11
51.591169
 21
426.306797
  0
TEXT
  8
DD0
 10
92.443951
 20
427.306807
 40
4.166667
  1
８８
 41
0.666667
  7
STANDARD
  0
TEXT
  8
DD0
 10
60.777285
 20
420.806817
 40
4.166667
  1
（補助接点サイドオンユニットを付けた場合）
 41
0.666667
  7
STANDARD
  0
ENDBLK
  8
DD0
  0
BLOCK
  8
DD0
  2
DIMS2
 70
     0
 10
0.0
 20
0.0
  0
LINE
  8
DD0
 10
95.491164
 20
307.335752
 11
95.491164
 21
293.537281
  0
LINE
  8
DD0
 10
82.491166
 20
323.63575
 11
82.491166
 21
293.537281
  0
LINE
  8
DD0
 10
90.661535
 20
293.909852
 11
95.491164
 21
295.203947
  0
LINE
  8
DD0
 10
95.491164
 20
295.203947
 11
90.661535
 21
296.498043
  0
LINE
  8
DD0
 10
87.320795
 20
296.498043
 11
82.491166
 21
295.203947
  0
LINE
  8
DD0
 10
82.491166
 20
295.203947
 11
87.320795
 21
293.909852
  0
LINE
  8
DD0
 10
95.491164
 20
295.203947
 11
82.491166
 21
295.203947
  0
TEXT
  8
DD0
 10
85.943942
 20
296.203958
 40
4.166667
  1
１３
 41
0.666667
  7
STANDARD
  0
ENDBLK
  8
DD0
  0
BLOCK
  8
DD0
  2
DIMS3
 70
     0
 10
0.0
 20
0.0
  0
LINE
  8
DD0
 10
113.275562
 20
394.002441
 11
158.648663
 21
394.002441
  0
LINE
  8
DD0
 10
123.557836
 20
314.002419
 11
158.648663
 21
314.002419
  0
LINE
  8
DD0
 10
158.276091
 20
389.172812
 11
156.981996
 21
394.002441
  0
LINE
  8
DD0
 10
156.981996
 20
394.002441
 11
155.687901
 21
389.172812
  0
LINE
  8
DD0
 10
155.687901
 20
318.832048
 11
156.981996
 21
314.002419
  0
LINE
  8
DD0
 10
156.981996
 20
314.002419
 11
158.276091
 21
318.832048
  0
LINE
  8
DD0
 10
156.981996
 20
394.002441
 11
156.981996
 21
314.002419
  0
TEXT
  8
DD0
 10
155.981999
 20
350.955185
 40
4.166667
  1
８０
 50
90.000003
 41
0.666667
  7
STANDARD
  0
ENDBLK
  8
DD0
  0
BLOCK
  8
DD0
  2
DIMS4
 70
     0
 10
0.0
 20
0.0
  0
LINE
  8
DD0
 10
126.891169
 20
381.669093
 11
126.891169
 21
414.365701
  0
LINE
  8
DD0
 10
64.091165
 20
381.669093
 11
64.091165
 21
414.365701
  0
LINE
  8
DD0
 10
122.06154
 20
411.404939
 11
126.891169
 21
412.699035
  0
LINE
  8
DD0
 10
126.891169
 20
412.699035
 11
122.06154
 21
413.99313
  0
LINE
  8
DD0
 10
68.920794
 20
413.99313
 11
64.091165
 21
412.699035
  0
LINE
  8
DD0
 10
64.091165
 20
412.699035
 11
68.920794
 21
411.404939
  0
LINE
  8
DD0
 10
126.891169
 20
412.699035
 11
64.091165
 21
412.699035
  0
TEXT
  8
DD0
 10
92.443944
 20
413.699045
 40
4.166667
  1
６３
 41
0.666667
  7
STANDARD
  0
ENDBLK
  8
DD0
  0
BLOCK
  8
DD0
  2
DIMS5
 70
     0
 10
0.0
 20
0.0
  0
LINE
  8
DD0
 10
204.401479
 20
362.669104
 11
204.401479
 21
406.903416
  0
LINE
  8
DD0
 10
199.401479
 20
399.589218
 11
199.401479
 21
406.903416
  0
LINE
  8
DD0
 10
209.231108
 20
406.530845
 11
204.401479
 21
405.236749
  0
LINE
  8
DD0
 10
204.401479
 20
405.236749
 11
209.231108
 21
403.942654
  0
LINE
  8
DD0
 10
194.57185
 20
403.942654
 11
199.401479
 21
405.236749
  0
LINE
  8
DD0
 10
199.401479
 20
405.236749
 11
194.57185
 21
406.530845
  0
LINE
  8
DD0
 10
209.901478
 20
405.236749
 11
188.901479
 21
405.236749
  0
TEXT
  8
DD0
 10
190.37092
 20
406.23676
 40
4.166667
  1
５
 41
0.666667
  7
STANDARD
  0
ENDBLK
  8
DD0
  0
BLOCK
  8
DD0
  2
DIMS6
 70
     0
 10
0.0
 20
0.0
  0
LINE
  8
DD0
 10
285.501469
 20
384.919088
 11
285.501469
 21
427.973463
  0
LINE
  8
DD0
 10
173.101482
 20
353.469097
 11
173.101482
 21
427.973463
  0
LINE
  8
DD0
 10
280.67184
 20
425.012676
 11
285.501469
 21
426.306771
  0
LINE
  8
DD0
 10
285.501469
 20
426.306771
 11
280.67184
 21
427.600866
  0
LINE
  8
DD0
 10
177.931111
 20
427.600866
 11
173.101482
 21
426.306771
  0
LINE
  8
DD0
 10
173.101482
 20
426.306771
 11
177.931111
 21
425.012676
  0
LINE
  8
DD0
 10
285.501469
 20
426.306771
 11
173.101482
 21
426.306771
  0
TEXT
  8
DD0
 10
189.587572
 20
427.306756
 40
4.166667
  1
１１２（補助接点ヘッドオンユニットを付けた場合）
 41
0.666667
  7
STANDARD
  0
ENDBLK
  8
DD0
  0
BLOCK
  8
DD0
  2
DIMS7
 70
     0
 10
0.0
 20
0.0
  0
LINE
  8
DD0
 10
285.501469
 20
314.085757
 11
285.501469
 21
293.537255
  0
LINE
  8
DD0
 10
274.501484
 20
313.335762
 11
274.501484
 21
293.537255
  0
LINE
  8
DD0
 10
290.331098
 20
296.498017
 11
285.501469
 21
295.203922
  0
LINE
  8
DD0
 10
285.501469
 20
295.203922
 11
290.331098
 21
293.909827
  0
LINE
  8
DD0
 10
269.671856
 20
293.909827
 11
274.501484
 21
295.203922
  0
LINE
  8
DD0
 10
274.501484
 20
295.203922
 11
269.671856
 21
296.498017
  0
LINE
  8
DD0
 10
291.001468
 20
295.203922
 11
269.001485
 21
295.203922
  0
TEXT
  8
DD0
 10
276.954232
 20
296.203932
 40
4.166667
  1
１１
 41
0.666667
  7
STANDARD
  0
ENDBLK
  8
DD0
  0
BLOCK
  8
DD0
  2
DIMS8
 70
     0
 10
0.0
 20
0.0
  0
LINE
  8
DD0
 10
204.401479
 20
362.669104
 11
204.401479
 21
421.389042
  0
LINE
  8
DD0
 10
209.231108
 20
421.01647
 11
204.401479
 21
419.722375
  0
LINE
  8
DD0
 10
204.401479
 20
419.722375
 11
209.231108
 21
418.42828
  0
LINE
  8
DD0
 10
280.67184
 20
418.42828
 11
285.501469
 21
419.722375
  0
LINE
  8
DD0
 10
285.501469
 20
419.722375
 11
280.67184
 21
421.01647
  0
LINE
  8
DD0
 10
204.401479
 20
419.722375
 11
285.501469
 21
419.722375
  0
TEXT
  8
DD0
 10
241.904235
 20
420.722385
 40
4.166667
  1
８１
 41
0.666667
  7
STANDARD
  0
ENDBLK
  8
DD0
  0
BLOCK
  8
DD0
  2
DIMS9
 70
     0
 10
0.0
 20
0.0
  0
LINE
  8
DD0
 10
74.255235
 20
225.264095
 11
144.849199
 21
225.264095
  0
LINE
  8
DD0
 10
128.255241
 20
166.264108
 11
144.849199
 21
166.264108
  0
LINE
  8
DD0
 10
144.476628
 20
220.434466
 11
143.182533
 21
225.264095
  0
LINE
  8
DD0
 10
143.182533
 20
225.264095
 11
141.888437
 21
220.434466
  0
LINE
  8
DD0
 10
141.888437
 20
171.093737
 11
143.182533
 21
166.264108
  0
LINE
  8
DD0
 10
143.182533
 20
166.264108
 11
144.476628
 21
171.093737
  0
LINE
  8
DD0
 10
143.182533
 20
225.264095
 11
143.182533
 21
166.264108
  0
TEXT
  8
DD0
 10
142.182535
 20
192.716882
 40
4.166667
  1
５９
 50
90.000003
 41
0.666667
  7
STANDARD
  0
ENDBLK
  8
DD0
  0
BLOCK
  8
DD0
  2
DIMS10
 70
     0
 10
0.0
 20
0.0
  0
LINE
  8
DD0
 10
68.491157
 20
231.028179
 11
68.491157
 21
254.60995
  0
LINE
  8
DD0
 10
122.491158
 20
172.028166
 11
122.491158
 21
254.60995
  0
LINE
  8
DD0
 10
73.320786
 20
254.237378
 11
68.491157
 21
252.943283
  0
LINE
  8
DD0
 10
68.491157
 20
252.943283
 11
73.320786
 21
251.649188
  0
LINE
  8
DD0
 10
117.661529
 20
251.649188
 11
122.491158
 21
252.943283
  0
LINE
  8
DD0
 10
122.491158
 20
252.943283
 11
117.661529
 21
254.237378
  0
LINE
  8
DD0
 10
68.491157
 20
252.943283
 11
122.491158
 21
252.943283
  0
TEXT
  8
DD0
 10
92.443938
 20
253.943293
 40
4.166667
  1
５４
 41
0.666667
  7
STANDARD
  0
ENDBLK
  8
DD0
  0
BLOCK
  8
DD0
  2
DIMS11
 70
     0
 10
0.0
 20
0.0
  0
LINE
  8
DD0
 10
74.255235
 20
225.264095
 11
144.849199
 21
225.264095
  0
LINE
  8
DD0
 10
113.857837
 20
239.764115
 11
144.849199
 21
239.764115
  0
LINE
  8
DD0
 10
141.888437
 20
230.093724
 11
143.182533
 21
225.264095
  0
LINE
  8
DD0
 10
143.182533
 20
225.264095
 11
144.476628
 21
230.093724
  0
LINE
  8
DD0
 10
144.476628
 20
234.934486
 11
143.182533
 21
239.764115
  0
LINE
  8
DD0
 10
143.182533
 20
239.764115
 11
141.888437
 21
234.934486
  0
LINE
  8
DD0
 10
143.182533
 20
225.264095
 11
143.182533
 21
239.764115
  0
TEXT
  8
DD0
 10
142.182535
 20
226.13354
 40
4.166667
  1
１４．５
 50
90.000003
 41
0.666667
  7
STANDARD
  0
ENDBLK
  8
DD0
  0
ENDSEC
  0
SECTION
  2
ENTITIES
  0
INSERT
  8
DD0
  2
DIMS0
 10
0.0
 20
0.0
  0
INSERT
  8
DD0
  2
DIMS1
 10
0.0
 20
0.0
  0
INSERT
  8
DD0
  2
DIMS2
 10
0.0
 20
0.0
  0
INSERT
  8
DD0
  2
DIMS3
 10
0.0
 20
0.0
  0
INSERT
  8
DD0
  2
DIMS4
 10
0.0
 20
0.0
  0
INSERT
  8
DD0
  2
DIMS5
 10
0.0
 20
0.0
  0
INSERT
  8
DD0
  2
DIMS6
 10
0.0
 20
0.0
  0
INSERT
  8
DD0
  2
DIMS7
 10
0.0
 20
0.0
  0
INSERT
  8
DD0
  2
DIMS8
 10
0.0
 20
0.0
  0
INSERT
  8
DD0
  2
DIMS9
 10
0.0
 20
0.0
  0
INSERT
  8
DD0
  2
DIMS10
 10
0.0
 20
0.0
  0
INSERT
  8
DD0
  2
DIMS11
 10
0.0
 20
0.0
  0
SOLID
  8
M0
 62
     7
 10
199.401475
 20
397.922551
 11
197.401475
 21
397.922551
 12
199.401475
 22
379.722551
 13
197.401475
 23
379.722551
  0
CIRCLE
  8
M0
 62
     7
 10
122.491166
 20
166.264106
 40
2.0
  0
CIRCLE
  8
M0
 62
     7
 10
68.491167
 20
225.264106
 40
2.0
  0
CIRCLE
  8
M0
 62
     7
 10
68.491167
 20
225.264099
 40
1.7
  0
CIRCLE
  8
M0
 62
     7
 10
122.491166
 20
166.264106
 40
1.7
  0
LINE
  8
M0
  6
DASHED
 62
     7
 10
139.391163
 20
379.202429
 11
139.391163
 21
319.802429
  0
LINE
  8
M0
  6
DASHED
 62
     7
 10
139.391163
 20
379.202429
 11
126.891163
 21
379.202429
  0
LINE
  8
M0
  6
DASHED
 62
     7
 10
139.391163
 20
319.802429
 11
126.891163
 21
319.802429
  0
LINE
  8
M0
  6
DASHED
 62
     7
 10
51.59117
 20
379.202429
 11
64.09117
 21
379.202429
  0
LINE
  8
M0
  6
DASHED
 62
     7
 10
51.59117
 20
379.202429
 11
51.59117
 21
319.802429
  0
LINE
  8
M0
  6
DASHED
 62
     7
 10
51.59117
 20
319.802429
 11
64.09117
 21
319.802429
  0
CIRCLE
  8
M0
 62
     7
 10
120.691166
 20
336.202429
 40
3.0
  0
LINE
  8
M0
 62
     7
 10
122.28175
 20
334.611784
 11
119.10011
 21
337.793547
  0
LINE
  8
M0
 62
     7
 10
122.104992
 20
336.55612
 11
120.337414
 21
334.788542
  0
LINE
  8
M0
 62
     7
 10
121.044445
 20
337.616789
 11
119.276867
 21
335.849089
  0
LINE
  8
M0
 62
     7
 10
124.016166
 20
340.027429
 11
117.366166
 21
340.027429
  0
ARC
  8
M0
 62
     7
 10
124.016166
 20
339.527429
 40
0.5
 50
0.0
 51
90.0
  0
LINE
  8
M0
 62
     7
 10
124.516166
 20
332.877429
 11
124.516166
 21
339.527429
  0
ARC
  8
M0
 62
     7
 10
124.016166
 20
332.877429
 40
0.5
 50
270.0
 51
360.0
  0
LINE
  8
M0
 62
     7
 10
117.366166
 20
332.377429
 11
124.016166
 21
332.377429
  0
LINE
  8
M0
 62
     7
 10
116.866166
 20
339.527429
 11
116.866166
 21
332.877429
  0
ARC
  8
M0
 62
     7
 10
117.366166
 20
339.527429
 40
0.5
 50
90.0
 51
180.0
  0
ARC
  8
M0
 62
     7
 10
117.366166
 20
332.877429
 40
0.5
 50
180.0
 51
270.0
  0
CIRCLE
  8
M0
 62
     7
 10
120.691166
 20
362.802429
 40
3.0
  0
LINE
  8
M0
 62
     7
 10
122.28175
 20
361.211784
 11
119.10011
 21
364.393547
  0
LINE
  8
M0
 62
     7
 10
122.104992
 20
363.15612
 11
120.337414
 21
361.388542
  0
LINE
  8
M0
 62
     7
 10
121.044446
 20
364.216789
 11
119.276867
 21
362.449089
  0
LINE
  8
M0
 62
     7
 10
124.016166
 20
366.627429
 11
117.366166
 21
366.627429
  0
ARC
  8
M0
 62
     7
 10
124.016166
 20
366.127429
 40
0.5
 50
0.0
 51
90.0
  0
LINE
  8
M0
 62
     7
 10
124.516166
 20
359.477429
 11
124.516166
 21
366.127429
  0
ARC
  8
M0
 62
     7
 10
124.016166
 20
359.477429
 40
0.5
 50
270.0
 51
360.0
  0
LINE
  8
M0
 62
     7
 10
117.366166
 20
358.977429
 11
124.016166
 21
358.977429
  0
LINE
  8
M0
 62
     7
 10
116.866166
 20
366.127429
 11
116.866166
 21
359.477429
  0
ARC
  8
M0
 62
     7
 10
117.366166
 20
366.127429
 40
0.5
 50
90.0
 51
180.0
  0
ARC
  8
M0
 62
     7
 10
117.366166
 20
359.477429
 40
0.5
 50
180.0
 51
270.0
  0
CIRCLE
  8
M0
  6
DASHED
 62
     7
 10
70.291167
 20
362.802429
 40
3.0
  0
LINE
  8
M0
  6
DASHED
 62
     7
 10
71.88175
 20
361.211784
 11
68.70011
 21
364.393547
  0
LINE
  8
M0
  6
DASHED
 62
     7
 10
71.704993
 20
363.15612
 11
69.937415
 21
361.388542
  0
LINE
  8
M0
  6
DASHED
 62
     7
 10
70.644446
 20
364.216789
 11
68.876868
 21
362.449089
  0
LINE
  8
M0
  6
DASHED
 62
     7
 10
73.616167
 20
366.627429
 11
66.966167
 21
366.627429
  0
ARC
  8
M0
  6
DASHED
 62
     7
 10
73.616167
 20
366.127429
 40
0.5
 50
0.0
 51
90.0
  0
LINE
  8
M0
  6
DASHED
 62
     7
 10
74.116167
 20
359.477429
 11
74.116167
 21
366.127429
  0
ARC
  8
M0
  6
DASHED
 62
     7
 10
73.616167
 20
359.477429
 40
0.5
 50
270.0
 51
360.0
  0
LINE
  8
M0
  6
DASHED
 62
     7
 10
66.966167
 20
358.977429
 11
73.616167
 21
358.977429
  0
LINE
  8
M0
  6
DASHED
 62
     7
 10
66.466167
 20
366.127429
 11
66.466167
 21
359.477429
  0
ARC
  8
M0
  6
DASHED
 62
     7
 10
66.966167
 20
366.127429
 40
0.5
 50
90.0
 51
180.0
  0
ARC
  8
M0
  6
DASHED
 62
     7
 10
66.966167
 20
359.477429
 40
0.5
 50
180.0
 51
270.0
  0
CIRCLE
  8
M0
  6
DASHED
 62
     7
 10
70.291167
 20
328.602429
 40
3.0
  0
LINE
  8
M0
  6
DASHED
 62
     7
 10
71.881751
 20
327.011784
 11
68.70011
 21
330.193547
  0
LINE
  8
M0
  6
DASHED
 62
     7
 10
71.704993
 20
328.95612
 11
69.937415
 21
327.188542
  0
LINE
  8
M0
  6
DASHED
 62
     7
 10
70.644446
 20
330.016789
 11
68.876868
 21
328.249089
  0
LINE
  8
M0
  6
DASHED
 62
     7
 10
73.616167
 20
332.427429
 11
66.966167
 21
332.427429
  0
ARC
  8
M0
  6
DASHED
 62
     7
 10
73.616167
 20
331.927429
 40
0.5
 50
0.0
 51
90.0
  0
LINE
  8
M0
  6
DASHED
 62
     7
 10
74.116167
 20
325.277429
 11
74.116167
 21
331.927429
  0
ARC
  8
M0
  6
DASHED
 62
     7
 10
73.616167
 20
325.277429
 40
0.5
 50
270.0
 51
360.0
  0
LINE
  8
M0
  6
DASHED
 62
     7
 10
66.966167
 20
324.777429
 11
73.616167
 21
324.777429
  0
LINE
  8
M0
  6
DASHED
 62
     7
 10
66.466167
 20
331.927429
 11
66.466167
 21
325.277429
  0
ARC
  8
M0
  6
DASHED
 62
     7
 10
66.966167
 20
331.927429
 40
0.5
 50
90.0
 51
180.0
  0
ARC
  8
M0
  6
DASHED
 62
     7
 10
66.966167
 20
325.277429
 40
0.5
 50
180.0
 51
270.0
  0
ARC
  8
M0
 62
     7
 10
86.991167
 20
368.702429
 40
0.5
 50
270.0
 51
360.0
  0
LINE
  8
M0
 62
     7
 10
87.491167
 20
377.702429
 11
87.491167
 21
368.702429
  0
ARC
  8
M0
 62
     7
 10
86.991167
 20
377.702429
 40
0.5
 50
0.0
 51
90.0
  0
LINE
  8
M0
 62
     7
 10
77.491167
 20
377.702429
 11
77.491167
 21
368.702429
  0
ARC
  8
M0
 62
     7
 10
77.991167
 20
377.702429
 40
0.5
 50
90.0
 51
180.0
  0
ARC
  8
M0
 62
     7
 10
77.991167
 20
368.702429
 40
0.5
 50
180.0
 51
270.0
  0
LINE
  8
M0
 62
     7
 10
77.991167
 20
368.202429
 11
86.991167
 21
368.202429
  0
LINE
  8
M0
 62
     7
 10
86.991167
 20
378.202429
 11
77.991167
 21
378.202429
  0
CIRCLE
  8
M0
 62
     7
 10
82.491167
 20
373.202429
 40
3.5
  0
LINE
  8
M0
 62
     7
 10
83.502038
 20
374.920386
 11
80.926965
 21
372.345313
  0
LINE
  8
M0
 62
     7
 10
84.209146
 20
374.213278
 11
81.634073
 21
371.638205
  0
LINE
  8
M0
 62
     7
 10
81.530313
 20
374.163275
 11
83.375161
 21
372.318442
  0
ARC
  8
M0
 62
     7
 10
99.991163
 20
368.702429
 40
0.5
 50
270.0
 51
360.0
  0
LINE
  8
M0
 62
     7
 10
100.491163
 20
377.702429
 11
100.491163
 21
368.702429
  0
ARC
  8
M0
 62
     7
 10
99.991163
 20
377.702429
 40
0.5
 50
0.0
 51
90.0
  0
LINE
  8
M0
 62
     7
 10
90.491163
 20
377.702429
 11
90.491163
 21
368.702429
  0
ARC
  8
M0
 62
     7
 10
90.991163
 20
377.702429
 40
0.5
 50
90.0
 51
180.0
  0
ARC
  8
M0
 62
     7
 10
90.991163
 20
368.702429
 40
0.5
 50
180.0
 51
270.0
  0
LINE
  8
M0
 62
     7
 10
90.991163
 20
368.202429
 11
99.991163
 21
368.202429
  0
LINE
  8
M0
 62
     7
 10
99.991163
 20
378.202429
 11
90.991163
 21
378.202429
  0
CIRCLE
  8
M0
 62
     7
 10
95.491163
 20
373.202429
 40
3.5
  0
LINE
  8
M0
 62
     7
 10
96.502035
 20
374.920386
 11
93.926962
 21
372.345313
  0
LINE
  8
M0
 62
     7
 10
97.209142
 20
374.213278
 11
94.634069
 21
371.638205
  0
LINE
  8
M0
 62
     7
 10
94.530309
 20
374.163275
 11
96.375158
 21
372.318442
  0
ARC
  8
M0
 62
     7
 10
112.991164
 20
368.702429
 40
0.5
 50
270.0
 51
360.0
  0
LINE
  8
M0
 62
     7
 10
113.491164
 20
377.702429
 11
113.491164
 21
368.702429
  0
ARC
  8
M0
 62
     7
 10
112.991164
 20
377.702429
 40
0.5
 50
0.0
 51
90.0
  0
LINE
  8
M0
 62
     7
 10
103.491164
 20
377.702429
 11
103.491164
 21
368.702429
  0
ARC
  8
M0
 62
     7
 10
103.991164
 20
377.702429
 40
0.5
 50
90.0
 51
180.0
  0
ARC
  8
M0
 62
     7
 10
103.991164
 20
368.702429
 40
0.5
 50
180.0
 51
270.0
  0
LINE
  8
M0
 62
     7
 10
103.991164
 20
368.202429
 11
112.991164
 21
368.202429
  0
LINE
  8
M0
 62
     7
 10
112.991164
 20
378.202429
 11
103.991164
 21
378.202429
  0
CIRCLE
  8
M0
 62
     7
 10
108.491164
 20
373.202429
 40
3.5
  0
LINE
  8
M0
 62
     7
 10
109.502035
 20
374.920386
 11
106.926962
 21
372.345313
  0
LINE
  8
M0
 62
     7
 10
110.209143
 20
374.213278
 11
107.634069
 21
371.638205
  0
LINE
  8
M0
 62
     7
 10
107.53031
 20
374.163275
 11
109.375158
 21
372.318442
  0
ARC
  8
M0
 62
     7
 10
112.991164
 20
321.302429
 40
0.5
 50
270.0
 51
360.0
  0
LINE
  8
M0
 62
     7
 10
113.491164
 20
330.302429
 11
113.491164
 21
321.302429
  0
ARC
  8
M0
 62
     7
 10
112.991164
 20
330.302429
 40
0.5
 50
0.0
 51
90.0
  0
LINE
  8
M0
 62
     7
 10
103.491164
 20
330.302429
 11
103.491164
 21
321.302429
  0
ARC
  8
M0
 62
     7
 10
103.991164
 20
330.302429
 40
0.5
 50
90.0
 51
180.0
  0
ARC
  8
M0
 62
     7
 10
103.991164
 20
321.302429
 40
0.5
 50
180.0
 51
270.0
  0
LINE
  8
M0
 62
     7
 10
103.991164
 20
320.802429
 11
112.991164
 21
320.802429
  0
LINE
  8
M0
 62
     7
 10
112.991164
 20
330.802429
 11
103.991164
 21
330.802429
  0
CIRCLE
  8
M0
 62
     7
 10
108.491164
 20
325.802429
 40
3.5
  0
LINE
  8
M0
 62
     7
 10
109.502035
 20
327.520385
 11
106.926962
 21
324.945312
  0
LINE
  8
M0
 62
     7
 10
110.209143
 20
326.813278
 11
107.634069
 21
324.238205
  0
LINE
  8
M0
 62
     7
 10
107.53031
 20
326.763275
 11
109.375158
 21
324.918441
  0
ARC
  8
M0
 62
     7
 10
99.991163
 20
321.302429
 40
0.5
 50
270.0
 51
360.0
  0
LINE
  8
M0
 62
     7
 10
100.491163
 20
330.302429
 11
100.491163
 21
321.302429
  0
ARC
  8
M0
 62
     7
 10
99.991163
 20
330.302429
 40
0.5
 50
0.0
 51
90.0
  0
LINE
  8
M0
 62
     7
 10
90.491163
 20
330.302429
 11
90.491163
 21
321.302429
  0
ARC
  8
M0
 62
     7
 10
90.991163
 20
330.302429
 40
0.5
 50
90.0
 51
180.0
  0
ARC
  8
M0
 62
     7
 10
90.991163
 20
321.302429
 40
0.5
 50
180.0
 51
270.0
  0
LINE
  8
M0
 62
     7
 10
90.991163
 20
320.802429
 11
99.991163
 21
320.802429
  0
LINE
  8
M0
 62
     7
 10
99.991163
 20
330.802429
 11
90.991163
 21
330.802429
  0
CIRCLE
  8
M0
 62
     7
 10
95.491163
 20
325.802429
 40
3.5
  0
LINE
  8
M0
 62
     7
 10
96.502035
 20
327.520385
 11
93.926962
 21
324.945312
  0
LINE
  8
M0
 62
     7
 10
97.209142
 20
326.813278
 11
94.634069
 21
324.238205
  0
LINE
  8
M0
 62
     7
 10
94.530309
 20
326.763275
 11
96.375158
 21
324.918441
  0
ARC
  8
M0
 62
     7
 10
86.991167
 20
321.302429
 40
0.5
 50
270.0
 51
360.0
  0
LINE
  8
M0
 62
     7
 10
87.491167
 20
330.302429
 11
87.491167
 21
321.302429
  0
ARC
  8
M0
 62
     7
 10
86.991167
 20
330.302429
 40
0.5
 50
0.0
 51
90.0
  0
LINE
  8
M0
 62
     7
 10
77.491167
 20
330.302429
 11
77.491167
 21
321.302429
  0
ARC
  8
M0
 62
     7
 10
77.991167
 20
330.302429
 40
0.5
 50
90.0
 51
180.0
  0
ARC
  8
M0
 62
     7
 10
77.991167
 20
321.302429
 40
0.5
 50
180.0
 51
270.0
  0
LINE
  8
M0
 62
     7
 10
77.991167
 20
320.802429
 11
86.991167
 21
320.802429
  0
LINE
  8
M0
 62
     7
 10
86.991167
 20
330.802429
 11
77.991167
 21
330.802429
  0
CIRCLE
  8
M0
 62
     7
 10
82.491167
 20
325.802429
 40
3.5
  0
LINE
  8
M0
 62
     7
 10
83.502038
 20
327.520385
 11
80.926965
 21
324.945312
  0
LINE
  8
M0
 62
     7
 10
84.209146
 20
326.813278
 11
81.634073
 21
324.238205
  0
LINE
  8
M0
 62
     7
 10
81.530313
 20
326.763275
 11
83.375161
 21
324.918441
  0
CIRCLE
  8
M0
 62
     7
 10
120.691166
 20
328.602429
 40
3.0
  0
LINE
  8
M0
 62
     7
 10
122.28175
 20
327.011784
 11
119.10011
 21
330.193547
  0
LINE
  8
M0
 62
     7
 10
122.104992
 20
328.95612
 11
120.337414
 21
327.188542
  0
LINE
  8
M0
 62
     7
 10
121.044445
 20
330.016789
 11
119.276867
 21
328.249089
  0
LINE
  8
M0
 62
     7
 10
124.016166
 20
332.427429
 11
117.366166
 21
332.427429
  0
ARC
  8
M0
 62
     7
 10
124.016166
 20
331.927429
 40
0.5
 50
0.0
 51
90.0
  0
LINE
  8
M0
 62
     7
 10
124.516166
 20
325.277429
 11
124.516166
 21
331.927429
  0
ARC
  8
M0
 62
     7
 10
124.016166
 20
325.277429
 40
0.5
 50
270.0
 51
360.0
  0
LINE
  8
M0
 62
     7
 10
117.366166
 20
324.777429
 11
124.016166
 21
324.777429
  0
LINE
  8
M0
 62
     7
 10
116.866166
 20
331.927429
 11
116.866166
 21
325.277429
  0
ARC
  8
M0
 62
     7
 10
117.366166
 20
331.927429
 40
0.5
 50
90.0
 51
180.0
  0
ARC
  8
M0
 62
     7
 10
117.366166
 20
325.277429
 40
0.5
 50
180.0
 51
270.0
  0
CIRCLE
  8
M0
  6
DASHED
 62
     7
 10
70.291167
 20
370.402429
 40
3.0
  0
LINE
  8
M0
  6
DASHED
 62
     7
 10
71.88175
 20
368.811784
 11
68.70011
 21
371.993547
  0
LINE
  8
M0
  6
DASHED
 62
     7
 10
71.704993
 20
370.75612
 11
69.937415
 21
368.988542
  0
LINE
  8
M0
  6
DASHED
 62
     7
 10
70.644446
 20
371.816789
 11
68.876868
 21
370.049089
  0
LINE
  8
M0
  6
DASHED
 62
     7
 10
73.616167
 20
374.227429
 11
66.966167
 21
374.227429
  0
ARC
  8
M0
  6
DASHED
 62
     7
 10
73.616167
 20
373.727429
 40
0.5
 50
0.0
 51
90.0
  0
LINE
  8
M0
  6
DASHED
 62
     7
 10
74.116167
 20
367.077429
 11
74.116167
 21
373.727429
  0
ARC
  8
M0
  6
DASHED
 62
     7
 10
73.616167
 20
367.077429
 40
0.5
 50
270.0
 51
360.0
  0
LINE
  8
M0
  6
DASHED
 62
     7
 10
66.966167
 20
366.577429
 11
73.616167
 21
366.577429
  0
LINE
  8
M0
  6
DASHED
 62
     7
 10
66.466167
 20
373.727429
 11
66.466167
 21
367.077429
  0
ARC
  8
M0
  6
DASHED
 62
     7
 10
66.966167
 20
373.727429
 40
0.5
 50
90.0
 51
180.0
  0
ARC
  8
M0
  6
DASHED
 62
     7
 10
66.966167
 20
367.077429
 40
0.5
 50
180.0
 51
270.0
  0
CIRCLE
  8
M0
  6
DASHED
 62
     7
 10
70.291167
 20
336.202429
 40
3.0
  0
LINE
  8
M0
  6
DASHED
 62
     7
 10
71.881751
 20
334.611784
 11
68.70011
 21
337.793547
  0
LINE
  8
M0
  6
DASHED
 62
     7
 10
71.704993
 20
336.55612
 11
69.937415
 21
334.788542
  0
LINE
  8
M0
  6
DASHED
 62
     7
 10
70.644446
 20
337.616789
 11
68.876868
 21
335.849089
  0
LINE
  8
M0
  6
DASHED
 62
     7
 10
73.616167
 20
340.027429
 11
66.966167
 21
340.027429
  0
ARC
  8
M0
  6
DASHED
 62
     7
 10
73.616167
 20
339.527429
 40
0.5
 50
0.0
 51
90.0
  0
LINE
  8
M0
  6
DASHED
 62
     7
 10
74.116167
 20
332.877429
 11
74.116167
 21
339.527429
  0
ARC
  8
M0
  6
DASHED
 62
     7
 10
73.616167
 20
332.877429
 40
0.5
 50
270.0
 51
360.0
  0
LINE
  8
M0
  6
DASHED
 62
     7
 10
66.966167
 20
332.377429
 11
73.616167
 21
332.377429
  0
LINE
  8
M0
  6
DASHED
 62
     7
 10
66.466167
 20
339.527429
 11
66.466167
 21
332.877429
  0
ARC
  8
M0
  6
DASHED
 62
     7
 10
66.966167
 20
339.527429
 40
0.5
 50
90.0
 51
180.0
  0
ARC
  8
M0
  6
DASHED
 62
     7
 10
66.966167
 20
332.877429
 40
0.5
 50
180.0
 51
270.0
  0
CIRCLE
  8
M0
 62
     7
 10
82.491167
 20
317.002429
 40
2.75
  0
LINE
  8
M0
 62
     7
 10
82.191167
 20
315.602429
 11
82.191167
 21
315.998789
  0
LINE
  8
M0
 62
     7
 10
82.791167
 20
315.602429
 11
82.791167
 21
315.998789
  0
LINE
  8
M0
 62
     7
 10
82.191167
 20
318.402429
 11
82.191167
 21
318.006068
  0
LINE
  8
M0
 62
     7
 10
82.791167
 20
318.402429
 11
82.791167
 21
318.006068
  0
ARC
  8
M0
 62
     7
 10
81.466167
 20
315.977429
 40
0.725
 50
0.0
 51
90.0
  0
ARC
  8
M0
 62
     7
 10
81.466167
 20
318.027429
 40
0.725
 50
-90.0
 51
0.0
  0
ARC
  8
M0
 62
     7
 10
83.516167
 20
318.027429
 40
0.725
 50
180.0
 51
270.0
  0
ARC
  8
M0
 62
     7
 10
83.516167
 20
315.977429
 40
0.725
 50
90.0
 51
180.0
  0
LINE
  8
M0
 62
     7
 10
83.516167
 20
316.702429
 11
83.916167
 21
316.702429
  0
LINE
  8
M0
 62
     7
 10
83.516167
 20
317.302429
 11
83.916167
 21
317.302429
  0
LINE
  8
M0
 62
     7
 10
82.191167
 20
318.402429
 11
82.791167
 21
318.402429
  0
LINE
  8
M0
 62
     7
 10
82.191167
 20
315.602429
 11
82.791167
 21
315.602429
  0
LINE
  8
M0
 62
     7
 10
81.091167
 20
317.302429
 11
81.466167
 21
317.302429
  0
LINE
  8
M0
 62
     7
 10
81.091167
 20
317.302429
 11
81.091167
 21
316.702429
  0
LINE
  8
M0
 62
     7
 10
81.091167
 20
316.702429
 11
81.466167
 21
316.702429
  0
LINE
  8
M0
 62
     7
 10
83.916167
 20
317.302429
 11
83.916167
 21
316.702429
  0
CIRCLE
  8
M0
 62
     7
 10
108.491167
 20
317.002429
 40
2.75
  0
LINE
  8
M0
 62
     7
 10
108.191167
 20
315.602429
 11
108.191167
 21
315.998789
  0
LINE
  8
M0
 62
     7
 10
108.791167
 20
315.602429
 11
108.791167
 21
315.998789
  0
LINE
  8
M0
 62
     7
 10
108.191167
 20
318.402429
 11
108.191167
 21
318.006068
  0
LINE
  8
M0
 62
     7
 10
108.791167
 20
318.402429
 11
108.791167
 21
318.006068
  0
ARC
  8
M0
 62
     7
 10
107.466167
 20
315.977429
 40
0.725
 50
0.0
 51
90.0
  0
ARC
  8
M0
 62
     7
 10
107.466167
 20
318.027429
 40
0.725
 50
-90.0
 51
0.0
  0
ARC
  8
M0
 62
     7
 10
109.516167
 20
318.027429
 40
0.725
 50
180.0
 51
270.0
  0
ARC
  8
M0
 62
     7
 10
109.516167
 20
315.977429
 40
0.725
 50
90.0
 51
180.0
  0
LINE
  8
M0
 62
     7
 10
109.516167
 20
316.702429
 11
109.916167
 21
316.702429
  0
LINE
  8
M0
 62
     7
 10
109.516167
 20
317.302429
 11
109.916167
 21
317.302429
  0
LINE
  8
M0
 62
     7
 10
108.191167
 20
318.402429
 11
108.791167
 21
318.402429
  0
LINE
  8
M0
 62
     7
 10
108.191167
 20
315.602429
 11
108.791167
 21
315.602429
  0
LINE
  8
M0
 62
     7
 10
107.091167
 20
317.302429
 11
107.466167
 21
317.302429
  0
LINE
  8
M0
 62
     7
 10
107.091167
 20
317.302429
 11
107.091167
 21
316.702429
  0
LINE
  8
M0
 62
     7
 10
107.091167
 20
316.702429
 11
107.466167
 21
316.702429
  0
LINE
  8
M0
 62
     7
 10
109.916167
 20
317.302429
 11
109.916167
 21
316.702429
  0
CIRCLE
  8
M0
 62
     7
 10
106.391167
 20
388.102429
 40
3.0
  0
LINE
  8
M0
 62
     7
 10
107.981751
 20
386.511784
 11
104.80011
 21
389.693547
  0
LINE
  8
M0
 62
     7
 10
107.804993
 20
388.45612
 11
106.037415
 21
386.688542
  0
LINE
  8
M0
 62
     7
 10
106.744446
 20
389.516789
 11
104.976868
 21
387.749089
  0
LINE
  8
M0
 62
     7
 10
109.716167
 20
391.927429
 11
103.066167
 21
391.927429
  0
ARC
  8
M0
 62
     7
 10
109.716167
 20
391.427429
 40
0.5
 50
0.0
 51
90.0
  0
LINE
  8
M0
 62
     7
 10
110.216167
 20
384.777429
 11
110.216167
 21
391.427429
  0
ARC
  8
M0
 62
     7
 10
109.716167
 20
384.777429
 40
0.5
 50
270.0
 51
360.0
  0
LINE
  8
M0
 62
     7
 10
103.066167
 20
384.277429
 11
109.716167
 21
384.277429
  0
LINE
  8
M0
 62
     7
 10
102.566167
 20
391.427429
 11
102.566167
 21
384.777429
  0
ARC
  8
M0
 62
     7
 10
103.066167
 20
391.427429
 40
0.5
 50
90.0
 51
180.0
  0
ARC
  8
M0
 62
     7
 10
103.066167
 20
384.777429
 40
0.5
 50
180.0
 51
270.0
  0
CIRCLE
  8
M0
 62
     7
 10
120.691166
 20
370.402429
 40
3.0
  0
LINE
  8
M0
 62
     7
 10
122.28175
 20
368.811784
 11
119.10011
 21
371.993547
  0
LINE
  8
M0
 62
     7
 10
122.104992
 20
370.75612
 11
120.337414
 21
368.988542
  0
LINE
  8
M0
 62
     7
 10
121.044446
 20
371.816789
 11
119.276867
 21
370.049089
  0
LINE
  8
M0
 62
     7
 10
124.016166
 20
374.227429
 11
117.366166
 21
374.227429
  0
ARC
  8
M0
 62
     7
 10
124.016166
 20
373.727429
 40
0.5
 50
0.0
 51
90.0
  0
LINE
  8
M0
 62
     7
 10
124.516166
 20
367.077429
 11
124.516166
 21
373.727429
  0
ARC
  8
M0
 62
     7
 10
124.016166
 20
367.077429
 40
0.5
 50
270.0
 51
360.0
  0
LINE
  8
M0
 62
     7
 10
117.366166
 20
366.577429
 11
124.016166
 21
366.577429
  0
LINE
  8
M0
 62
     7
 10
116.866166
 20
373.727429
 11
116.866166
 21
367.077429
  0
ARC
  8
M0
 62
     7
 10
117.366166
 20
373.727429
 40
0.5
 50
90.0
 51
180.0
  0
ARC
  8
M0
 62
     7
 10
117.366166
 20
367.077429
 40
0.5
 50
180.0
 51
270.0
  0
CIRCLE
  8
M0
 62
     7
 10
95.491167
 20
387.702429
 40
2.75
  0
LINE
  8
M0
 62
     7
 10
95.191167
 20
386.302429
 11
95.191167
 21
386.698789
  0
LINE
  8
M0
 62
     7
 10
95.791167
 20
386.302429
 11
95.791167
 21
386.698789
  0
LINE
  8
M0
 62
     7
 10
95.191167
 20
389.102429
 11
95.191167
 21
388.706068
  0
LINE
  8
M0
 62
     7
 10
95.791167
 20
389.102429
 11
95.791167
 21
388.706068
  0
ARC
  8
M0
 62
     7
 10
94.466167
 20
386.677429
 40
0.725
 50
0.0
 51
90.0
  0
ARC
  8
M0
 62
     7
 10
94.466167
 20
388.727429
 40
0.725
 50
-90.0
 51
0.0
  0
ARC
  8
M0
 62
     7
 10
96.516167
 20
388.727429
 40
0.725
 50
180.0
 51
270.0
  0
ARC
  8
M0
 62
     7
 10
96.516167
 20
386.677429
 40
0.725
 50
90.0
 51
180.0
  0
LINE
  8
M0
 62
     7
 10
96.516167
 20
387.402429
 11
96.916167
 21
387.402429
  0
LINE
  8
M0
 62
     7
 10
96.516167
 20
388.002429
 11
96.916167
 21
388.002429
  0
LINE
  8
M0
 62
     7
 10
95.191167
 20
389.102429
 11
95.791167
 21
389.102429
  0
LINE
  8
M0
 62
     7
 10
95.191167
 20
386.302429
 11
95.791167
 21
386.302429
  0
LINE
  8
M0
 62
     7
 10
94.091167
 20
388.002429
 11
94.466167
 21
388.002429
  0
LINE
  8
M0
 62
     7
 10
94.091167
 20
388.002429
 11
94.091167
 21
387.402429
  0
LINE
  8
M0
 62
     7
 10
94.091167
 20
387.402429
 11
94.466167
 21
387.402429
  0
LINE
  8
M0
 62
     7
 10
96.916167
 20
388.002429
 11
96.916167
 21
387.402429
  0
LINE
  8
M0
  6
DASHDOT
 62
     7
 10
95.491167
 20
397.50243
 11
95.491167
 21
309.002428
  0
LINE
  8
M0
  6
DASHDOT
 62
     7
 10
59.091167
 20
349.502429
 11
131.891163
 21
349.502429
  0
ARC
  8
M0
 62
     7
 10
103.141167
 20
384.852429
 40
0.5
 50
268.473851
 51
270.0
  0
ARC
  8
M0
 62
     7
 10
68.491167
 20
379.502429
 40
2.25
 50
0.0
 51
180.0
  0
ARC
  8
M0
 62
     7
 10
68.491167
 20
377.502429
 40
2.25
 50
180.0
 51
360.0
  0
ARC
  8
M0
 62
     7
 10
69.091167
 20
319.002429
 40
5.0
 50
180.0
 51
270.0
  0
ARC
  8
M0
 62
     7
 10
69.091167
 20
380.002429
 40
5.0
 50
90.0
 51
180.0
  0
LINE
  8
M0
 62
     7
 10
104.391166
 20
337.302429
 11
86.591167
 21
337.302429
  0
LINE
  8
M0
 62
     7
 10
86.091168
 20
337.802429
 11
86.091168
 21
361.202429
  0
LINE
  8
M0
 62
     7
 10
115.191167
 20
366.902429
 11
75.791166
 21
366.902429
  0
LINE
  8
M0
 62
     7
 10
116.991167
 20
352.002429
 11
115.191167
 21
352.002429
  0
LINE
  8
M0
 62
     7
 10
90.191168
 20
361.702429
 11
86.591167
 21
361.702429
  0
ARC
  8
M0
 62
     7
 10
73.291167
 20
317.502429
 40
0.5
 50
180.0
 51
270.0
  0
ARC
  8
M0
 62
     7
 10
117.691167
 20
318.502429
 40
0.5
 50
0.0
 51
90.0
  0
ARC
  8
M0
 62
     7
 10
74.291167
 20
318.502429
 40
0.5
 50
0.0
 51
90.0
  0
ARC
  8
M0
 62
     7
 10
73.291167
 20
318.502429
 40
0.5
 50
90.0
 51
180.0
  0
CIRCLE
  8
M0
 62
     7
 10
67.991167
 20
319.502429
 40
2.25
  0
CIRCLE
  8
M0
 62
     7
 10
122.991167
 20
379.502429
 40
2.25
  0
ARC
  8
M0
 62
     7
 10
117.691167
 20
317.502429
 40
0.5
 50
270.0
 51
360.0
  0
ARC
  8
M0
 62
     7
 10
116.691167
 20
318.502429
 40
0.5
 50
90.0
 51
180.0
  0
ARC
  8
M0
 62
     7
 10
115.491167
 20
384.002429
 40
1.0
 50
90.0
 51
98.626927
  0
ARC
  8
M0
 62
     7
 10
122.491167
 20
319.502429
 40
2.25
 50
180.0
 51
360.0
  0
ARC
  8
M0
 62
     7
 10
75.491167
 20
384.002429
 40
1.0
 50
81.373073
 51
90.0
  0
ARC
  8
M0
 62
     7
 10
121.891167
 20
380.002429
 40
5.0
 50
0.0
 51
90.0
  0
ARC
  8
M0
 62
     7
 10
74.291167
 20
317.502429
 40
0.5
 50
270.0
 51
360.0
  0
ARC
  8
M0
 62
     7
 10
122.491167
 20
321.502429
 40
2.25
 50
0.0
 51
180.0
  0
ARC
  8
M0
 62
     7
 10
121.891167
 20
319.002429
 40
5.0
 50
270.0
 51
360.0
  0
LINE
  8
M0
 62
     7
 10
75.060397
 20
353.002429
 11
75.060397
 21
352.002429
  0
LINE
  8
M0
 62
     7
 10
74.791166
 20
353.002429
 11
74.191167
 21
353.002429
  0
LINE
  8
M0
 62
     7
 10
75.060397
 20
346.002429
 11
75.060397
 21
347.002429
  0
LINE
  8
M0
 62
     7
 10
74.791166
 20
346.002429
 11
74.191167
 21
346.002429
  0
LINE
  8
M0
 62
     7
 10
115.921934
 20
346.002429
 11
115.921934
 21
347.002429
  0
LINE
  8
M0
 62
     7
 10
116.191165
 20
346.002429
 11
116.791168
 21
346.002429
  0
LINE
  8
M0
 62
     7
 10
115.921934
 20
353.002429
 11
115.921934
 21
352.002429
  0
LINE
  8
M0
 62
     7
 10
116.191165
 20
353.002429
 11
116.791168
 21
353.002429
  0
LINE
  8
M0
 62
     7
 10
110.691165
 20
384.00243
 11
110.691165
 21
393.402431
  0
LINE
  8
M0
 62
     7
 10
112.280627
 20
391.02042
 11
112.491166
 21
384.00243
  0
LINE
  8
M0
 62
     7
 10
111.608898
 20
394.00243
 11
111.291168
 21
394.00243
  0
LINE
  8
M0
 62
     7
 10
100.491167
 20
316.502429
 11
100.491167
 21
317.00243
  0
LINE
  8
M0
 62
     7
 10
100.491167
 20
314.002428
 11
90.491166
 21
314.002428
  0
LINE
  8
M0
 62
     7
 10
90.491166
 20
317.00243
 11
90.491166
 21
316.502429
  0
LINE
  8
M0
 62
     7
 10
73.991166
 20
347.002429
 11
73.991166
 21
352.002429
  0
LINE
  8
M0
 62
     7
 10
74.791166
 20
346.002429
 11
75.791166
 21
346.002429
  0
LINE
  8
M0
 62
     7
 10
74.791166
 20
315.002429
 11
74.791166
 21
346.002429
  0
LINE
  8
M0
 62
     7
 10
74.791166
 20
353.002429
 11
75.791166
 21
353.002429
  0
LINE
  8
M0
 62
     7
 10
73.491167
 20
351.002429
 11
73.991166
 21
351.002429
  0
LINE
  8
M0
 62
     7
 10
73.491167
 20
348.002429
 11
73.491167
 21
351.002429
  0
LINE
  8
M0
 62
     7
 10
90.991167
 20
316.002428
 11
99.991166
 21
316.002428
  0
LINE
  8
M0
 62
     7
 10
73.991166
 20
348.002429
 11
73.491167
 21
348.002429
  0
LINE
  8
M0
 62
     7
 10
117.491168
 20
348.002429
 11
117.491168
 21
351.002429
  0
LINE
  8
M0
 62
     7
 10
74.991166
 20
352.002429
 11
73.991166
 21
352.002429
  0
LINE
  8
M0
 62
     7
 10
117.491168
 20
351.002429
 11
116.991167
 21
351.002429
  0
ARC
  8
M0
 62
     7
 10
73.991167
 20
346.202429
 40
0.5
 50
293.578178
 51
336.421822
  0
ARC
  8
M0
 62
     7
 10
116.991167
 20
346.202429
 40
0.5
 50
203.578178
 51
246.421822
  0
LINE
  8
M0
 62
     7
 10
73.291167
 20
317.00243
 11
74.291167
 21
317.00243
  0
LINE
  8
M0
 62
     7
 10
74.291167
 20
319.00243
 11
73.291167
 21
319.00243
  0
LINE
  8
M0
 62
     7
 10
117.691168
 20
319.00243
 11
116.691166
 21
319.00243
  0
LINE
  8
M0
 62
     7
 10
72.791166
 20
318.502429
 11
72.791166
 21
317.502427
  0
ARC
  8
M0
 62
     7
 10
89.591167
 20
393.502429
 40
0.5
 50
0.0
 51
90.0
  0
ARC
  8
M0
 62
     7
 10
101.391167
 20
393.502429
 40
0.5
 50
90.0
 51
180.0
  0
ARC
  8
M0
 62
     7
 10
89.591167
 20
393.002429
 40
1.0
 50
90.0
 51
180.0
  0
LINE
  8
M0
 62
     7
 10
92.991167
 20
353.979896
 11
92.991167
 21
353.802429
  0
LINE
  8
M0
 62
     7
 10
97.991166
 20
344.502429
 11
97.991166
 21
344.602429
  0
ARC
  8
M0
 62
     7
 10
101.391167
 20
393.002429
 40
1.0
 50
0.0
 51
90.0
  0
LINE
  8
M0
 62
     7
 10
97.991166
 20
353.979896
 11
97.991166
 21
353.802429
  0
ARC
  8
M0
 62
     7
 10
90.691167
 20
353.302429
 40
0.5
 50
90.0
 51
180.0
  0
ARC
  8
M0
 62
     7
 10
93.241167
 20
353.302429
 40
0.5
 50
0.0
 51
90.0
  0
LINE
  8
M0
 62
     7
 10
118.191165
 20
317.502427
 11
118.191165
 21
318.502429
  0
ARC
  8
M0
 62
     7
 10
90.691167
 20
345.102429
 40
0.5
 50
180.0
 51
270.0
  0
ARC
  8
M0
 62
     7
 10
100.291167
 20
353.302429
 40
0.5
 50
0.0
 51
90.0
  0
ARC
  8
M0
 62
     7
 10
97.741167
 20
353.302429
 40
0.5
 50
90.0
 51
180.0
  0
ARC
  8
M0
 62
     7
 10
100.291167
 20
345.102429
 40
0.5
 50
270.0
 51
360.0
  0
LINE
  8
M0
 62
     7
 10
103.191168
 20
384.00243
 11
112.491166
 21
384.00243
  0
LINE
  8
M0
 62
     7
 10
112.491166
 20
382.502429
 11
103.191168
 21
382.502429
  0
LINE
  8
M0
 62
     7
 10
112.491166
 20
384.00243
 11
112.491166
 21
382.502429
  0
LINE
  8
M0
 62
     7
 10
88.591167
 20
392.50243
 11
80.291166
 21
392.50243
  0
LINE
  8
M0
 62
     7
 10
110.691165
 20
392.50243
 11
102.391166
 21
392.50243
  0
LINE
  8
M0
 62
     7
 10
102.391166
 20
393.002428
 11
102.391166
 21
384.982224
  0
LINE
  8
M0
 62
     7
 10
116.991167
 20
348.002429
 11
117.491168
 21
348.002429
  0
LINE
  8
M0
 62
     7
 10
100.891167
 20
384.438319
 11
100.891167
 21
393.002428
  0
LINE
  8
M0
 62
     7
 10
87.791168
 20
382.502429
 11
78.491167
 21
382.502429
  0
LINE
  8
M0
 62
     7
 10
112.491166
 20
382.502429
 11
112.491166
 21
380.502428
  0
LINE
  8
M0
 62
     7
 10
78.491167
 20
384.00243
 11
87.791168
 21
384.00243
  0
LINE
  8
M0
 62
     7
 10
121.891168
 20
314.002428
 11
114.791167
 21
314.002428
  0
LINE
  8
M0
 62
     7
 10
72.791166
 20
320.002429
 11
74.791166
 21
320.002429
  0
LINE
  8
M0
 62
     7
 10
72.791166
 20
323.80243
 11
72.791166
 21
320.002429
  0
LINE
  8
M0
 62
     7
 10
118.191165
 20
320.002429
 11
118.191165
 21
323.80243
  0
LINE
  8
M0
 62
     7
 10
116.191165
 20
320.002429
 11
118.191165
 21
320.002429
  0
LINE
  8
M0
 62
     7
 10
120.24117
 20
321.502428
 11
120.24117
 21
319.502428
  0
LINE
  8
M0
 62
     7
 10
124.741164
 20
319.502428
 11
124.741164
 21
321.502428
  0
LINE
  8
M0
 62
     7
 10
64.091167
 20
319.00243
 11
64.091167
 21
380.002429
  0
LINE
  8
M0
 62
     7
 10
78.491167
 20
384.00243
 11
78.491167
 21
380.502428
  0
LINE
  8
M0
 62
     7
 10
70.741167
 20
379.502428
 11
70.741167
 21
377.50243
  0
LINE
  8
M0
 62
     7
 10
66.241167
 20
377.50243
 11
66.241167
 21
379.502428
  0
ARC
  8
M0
 62
     7
 10
115.191167
 20
365.902429
 40
1.0
 50
0.0
 51
90.0
  0
ARC
  8
M0
 62
     7
 10
115.191167
 20
333.102429
 40
1.0
 50
270.0
 51
360.0
  0
LINE
  8
M0
 62
     7
 10
115.191167
 20
346.002429
 11
115.191167
 21
347.002429
  0
LINE
  8
M0
 62
     7
 10
116.991167
 20
347.002429
 11
115.191167
 21
347.002429
  0
LINE
  8
M0
 62
     7
 10
96.691166
 20
361.702429
 11
94.291167
 21
361.702429
  0
LINE
  8
M0
 62
     7
 10
94.291167
 20
363.302429
 11
94.291167
 21
361.702429
  0
LINE
  8
M0
 62
     7
 10
74.991166
 20
352.002429
 11
75.791166
 21
352.002429
  0
LINE
  8
M0
 62
     7
 10
73.991166
 20
347.002429
 11
75.791166
 21
347.002429
  0
LINE
  8
M0
 62
     7
 10
115.191167
 20
353.002429
 11
115.191167
 21
352.002429
  0
LINE
  8
M0
 62
     7
 10
75.791166
 20
353.002429
 11
75.791166
 21
352.002429
  0
LINE
  8
M0
 62
     7
 10
99.791167
 20
360.702429
 11
91.191166
 21
360.702429
  0
LINE
  8
M0
 62
     7
 10
96.691166
 20
363.302429
 11
94.291167
 21
363.302429
  0
LINE
  8
M0
 62
     7
 10
96.691166
 20
363.302429
 11
96.691166
 21
361.702429
  0
LINE
  8
M0
 62
     7
 10
100.791165
 20
361.702429
 11
104.391166
 21
361.702429
  0
LINE
  8
M0
 62
     7
 10
104.891167
 20
337.802429
 11
104.891167
 21
361.202429
  0
LINE
  8
M0
 62
     7
 10
116.791168
 20
324.80243
 11
117.691168
 21
324.80243
  0
LINE
  8
M0
 62
     7
 10
123.691169
 20
324.80243
 11
124.591169
 21
324.80243
  0
LINE
  8
M0
 62
     7
 10
73.291167
 20
374.20243
 11
74.191167
 21
374.20243
  0
LINE
  8
M0
 62
     7
 10
117.691168
 20
374.20243
 11
116.791168
 21
374.20243
  0
LINE
  8
M0
 62
     7
 10
125.691166
 20
321.802429
 11
125.591164
 21
321.802429
  0
LINE
  8
M0
 62
     7
 10
124.591169
 20
374.20243
 11
123.691169
 21
374.20243
  0
LINE
  8
M0
 62
     7
 10
125.691166
 20
377.202428
 11
125.591164
 21
377.202428
  0
LINE
  8
M0
 62
     7
 10
66.391167
 20
374.20243
 11
67.291167
 21
374.20243
  0
ARC
  8
M0
 62
     7
 10
78.491167
 20
315.002429
 40
1.0
 50
180.0
 51
270.0
  0
LINE
  8
M0
 62
     7
 10
78.491167
 20
314.002428
 11
86.491167
 21
314.002428
  0
LINE
  8
M0
 62
     7
 10
65.291167
 20
321.802429
 11
65.391166
 21
321.802429
  0
LINE
  8
M0
 62
     7
 10
74.191167
 20
324.80243
 11
73.291167
 21
324.80243
  0
LINE
  8
M0
 62
     7
 10
67.291167
 20
324.80243
 11
66.391167
 21
324.80243
  0
ARC
  8
M0
 62
     7
 10
100.791167
 20
361.202429
 40
0.5
 50
90.0
 51
180.0
  0
ARC
  8
M0
 62
     7
 10
104.391167
 20
361.202429
 40
0.5
 50
0.0
 51
90.0
  0
ARC
  8
M0
 62
     7
 10
91.191167
 20
361.202429
 40
0.5
 50
180.0
 51
270.0
  0
ARC
  8
M0
 62
     7
 10
99.791167
 20
361.202429
 40
0.5
 50
270.0
 51
360.0
  0
LINE
  8
M0
 62
     7
 10
65.291167
 20
377.202428
 11
65.391166
 21
377.202428
  0
ARC
  8
M0
 62
     7
 10
75.791167
 20
365.902429
 40
1.0
 50
90.0
 51
180.0
  0
ARC
  8
M0
 62
     7
 10
75.791167
 20
333.102429
 40
1.0
 50
180.0
 51
270.0
  0
ARC
  8
M0
 62
     7
 10
99.991167
 20
316.502429
 40
0.5
 50
270.0
 51
360.0
  0
ARC
  8
M0
 62
     7
 10
100.491167
 20
316.002429
 40
2.0
 50
270.0
 51
292.57935
  0
ARC
  8
M0
 62
     7
 10
86.591167
 20
361.202429
 40
0.5
 50
90.0
 51
180.0
  0
ARC
  8
M0
 62
     7
 10
90.191167
 20
361.202429
 40
0.5
 50
0.0
 51
90.0
  0
ARC
  8
M0
 62
     7
 10
104.391167
 20
337.802429
 40
0.5
 50
270.0
 51
360.0
  0
ARC
  8
M0
 62
     7
 10
86.591167
 20
337.802429
 40
0.5
 50
180.0
 51
270.0
  0
ARC
  8
M0
 62
     7
 10
79.373437
 20
393.402429
 40
0.6
 50
90.0
 51
178.281642
  0
ARC
  8
M0
 62
     7
 10
79.691167
 20
393.402429
 40
0.6
 50
0.0
 51
90.0
  0
ARC
  8
M0
 62
     7
 10
116.691167
 20
317.502429
 40
0.5
 50
180.0
 51
270.0
  0
ARC
  8
M0
 62
     7
 10
90.491167
 20
316.002429
 40
2.0
 50
247.42065
 51
270.0
  0
ARC
  8
M0
 62
     7
 10
90.991167
 20
316.502429
 40
0.5
 50
180.0
 51
270.0
  0
ARC
  8
M0
 62
     7
 10
111.291167
 20
393.402429
 40
0.6
 50
90.0
 51
180.0
  0
LINE
  8
M0
 62
     7
 10
80.291166
 20
393.402431
 11
80.291166
 21
384.00243
  0
LINE
  8
M0
 62
     7
 10
78.491167
 20
384.00243
 11
78.701706
 21
391.02042
  0
LINE
  8
M0
 62
     7
 10
79.373437
 20
394.00243
 11
79.691167
 21
394.00243
  0
ARC
  8
M0
 62
     7
 10
111.608897
 20
393.402429
 40
0.6
 50
1.718358
 51
90.0
  0
LINE
  8
M0
 62
     7
 10
116.691166
 20
317.00243
 11
117.691168
 21
317.00243
  0
LINE
  8
M0
 62
     7
 10
116.191165
 20
353.002429
 11
115.191167
 21
353.002429
  0
LINE
  8
M0
 62
     7
 10
116.991167
 20
347.002429
 11
116.991167
 21
352.002429
  0
LINE
  8
M0
 62
     7
 10
115.191167
 20
332.102429
 11
75.791166
 21
332.102429
  0
LINE
  8
M0
 62
     7
 10
116.191165
 20
346.002429
 11
115.191167
 21
346.002429
  0
LINE
  8
M0
 62
     7
 10
116.191165
 20
315.002429
 11
116.191165
 21
346.002429
  0
LINE
  8
M0
 62
     7
 10
75.791166
 20
346.002429
 11
75.791166
 21
347.002429
  0
LINE
  8
M0
 62
     7
 10
100.891167
 20
393.002428
 11
100.891167
 21
393.502429
  0
LINE
  8
M0
 62
     7
 10
90.091166
 20
392.50243
 11
91.191166
 21
392.50243
  0
LINE
  8
M0
 62
     7
 10
100.791165
 20
345.102429
 11
100.791165
 21
353.302429
  0
LINE
  8
M0
 62
     7
 10
99.791167
 20
392.50243
 11
100.891167
 21
392.50243
  0
LINE
  8
M0
 62
     7
 10
90.091166
 20
393.002428
 11
90.091166
 21
384.438319
  0
LINE
  8
M0
 62
     7
 10
88.591167
 20
384.982224
 11
88.591167
 21
393.002428
  0
LINE
  8
M0
 62
     7
 10
90.091166
 20
393.502429
 11
90.091166
 21
393.002428
  0
LINE
  8
M0
 62
     7
 10
99.291166
 20
354.102429
 11
99.291166
 21
353.802429
  0
LINE
  8
M0
 62
     7
 10
100.791165
 20
353.302429
 11
100.791165
 21
354.102429
  0
LINE
  8
M0
 62
     7
 10
91.691167
 20
354.102429
 11
91.691167
 21
353.802429
  0
LINE
  8
M0
 62
     7
 10
99.291166
 20
344.602429
 11
99.291166
 21
344.502429
  0
LINE
  8
M0
 62
     7
 10
90.191168
 20
347.702429
 11
89.691167
 21
347.702429
  0
LINE
  8
M0
 62
     7
 10
100.791165
 20
347.702429
 11
101.291166
 21
347.702429
  0
LINE
  8
M0
 62
     7
 10
100.791165
 20
344.502429
 11
100.791165
 21
345.102429
  0
LINE
  8
M0
 62
     7
 10
89.691167
 20
350.702429
 11
90.191168
 21
350.702429
  0
LINE
  8
M0
 62
     7
 10
92.991167
 20
353.979896
 11
92.991167
 21
354.102429
  0
LINE
  8
M0
 62
     7
 10
74.191167
 20
345.702429
 11
74.791166
 21
345.702429
  0
LINE
  8
M0
 62
     7
 10
92.991167
 20
344.502429
 11
92.991167
 21
344.602429
  0
LINE
  8
M0
 62
     7
 10
97.991166
 20
353.979896
 11
97.991166
 21
354.102429
  0
LINE
  8
M0
 62
     7
 10
90.191168
 20
344.502429
 11
90.191168
 21
345.102429
  0
LINE
  8
M0
 62
     7
 10
91.691167
 20
344.602429
 11
91.691167
 21
344.502429
  0
LINE
  8
M0
 62
     7
 10
116.791168
 20
345.702429
 11
116.191165
 21
345.702429
  0
LINE
  8
M0
 62
     7
 10
97.241168
 20
353.302429
 11
97.241168
 21
346.102429
  0
LINE
  8
M0
 62
     7
 10
93.741165
 20
353.302429
 11
93.741165
 21
346.102429
  0
LINE
  8
M0
 62
     7
 10
90.691165
 20
353.802429
 11
93.241168
 21
353.802429
  0
LINE
  8
M0
 62
     7
 10
100.291168
 20
344.602429
 11
90.691165
 21
344.602429
  0
LINE
  8
M0
 62
     7
 10
100.291168
 20
353.802429
 11
97.741166
 21
353.802429
  0
LINE
  8
M0
 62
     7
 10
93.741165
 20
346.102429
 11
97.241168
 21
346.102429
  0
LINE
  8
M0
 62
     7
 10
86.091168
 20
353.802429
 11
86.291167
 21
353.802429
  0
LINE
  8
M0
 62
     7
 10
86.291167
 20
344.602429
 11
86.091168
 21
344.602429
  0
LINE
  8
M0
 62
     7
 10
90.191168
 20
353.302429
 11
90.191168
 21
354.102429
  0
LINE
  8
M0
 62
     7
 10
101.291166
 20
350.702429
 11
100.791165
 21
350.702429
  0
LINE
  8
M0
 62
     7
 10
91.491168
 20
353.802429
 11
99.491165
 21
353.802429
  0
LINE
  8
M0
 62
     7
 10
90.191168
 20
345.102429
 11
90.191168
 21
353.302429
  0
LINE
  8
M0
 62
     7
 10
104.891167
 20
353.802429
 11
104.691168
 21
353.802429
  0
LINE
  8
M0
 62
     7
 10
104.691168
 20
344.602429
 11
104.891167
 21
344.602429
  0
LINE
  8
M0
 62
     7
 10
125.891169
 20
369.602428
 11
125.591164
 21
369.602428
  0
ARC
  8
M0
 62
     7
 10
88.791167
 20
384.002429
 40
1.0
 50
90.0
 51
180.0
  0
LINE
  8
M0
 62
     7
 10
125.591164
 20
345.802429
 11
125.891169
 21
345.802429
  0
LINE
  8
M0
 62
     7
 10
125.891169
 20
353.202429
 11
125.591164
 21
353.202429
  0
ARC
  8
M0
 62
     7
 10
101.791167
 20
384.002429
 40
1.0
 50
90.0
 51
180.0
  0
ARC
  8
M0
 62
     7
 10
101.791167
 20
315.002429
 40
1.0
 50
180.0
 51
270.0
  0
ARC
  8
M0
 62
     7
 10
89.191167
 20
384.002429
 40
1.0
 50
0.0
 51
90.0
  0
ARC
  8
M0
 62
     7
 10
89.191167
 20
315.002429
 40
1.0
 50
270.0
 51
360.0
  0
LINE
  8
M0
 62
     7
 10
104.691168
 20
342.002428
 11
104.691168
 21
355.602429
  0
LINE
  8
M0
 62
     7
 10
103.691166
 20
361.502429
 11
102.191166
 21
361.502429
  0
LINE
  8
M0
 62
     7
 10
103.691166
 20
337.502429
 11
103.191168
 21
337.502429
  0
LINE
  8
M0
 62
     7
 10
125.591164
 20
329.402429
 11
125.891169
 21
329.402429
  0
LINE
  8
M0
 62
     7
 10
124.591169
 20
376.202429
 11
124.591169
 21
354.202429
  0
LINE
  8
M0
 62
     7
 10
89.191166
 20
314.002428
 11
88.791167
 21
314.002428
  0
LINE
  8
M0
 62
     7
 10
88.791167
 20
330.602429
 11
89.191166
 21
330.602429
  0
LINE
  8
M0
 62
     7
 10
89.191166
 20
330.602429
 11
90.191168
 21
330.602429
  0
ARC
  8
M0
 62
     7
 10
102.191167
 20
384.002429
 40
1.0
 50
0.0
 51
90.0
  0
ARC
  8
M0
 62
     7
 10
114.791167
 20
384.002429
 40
1.0
 50
90.0
 51
180.0
  0
LINE
  8
M0
 62
     7
 10
124.591169
 20
344.802429
 11
124.591169
 21
322.802429
  0
ARC
  8
M0
 62
     7
 10
102.191167
 20
315.002429
 40
1.0
 50
270.0
 51
360.0
  0
ARC
  8
M0
 62
     7
 10
115.191167
 20
315.002429
 40
1.0
 50
270.0
 51
360.0
  0
LINE
  8
M0
 62
     7
 10
88.791167
 20
385.00243
 11
89.191166
 21
385.00243
  0
ARC
  8
M0
 62
     7
 10
114.791167
 20
315.002429
 40
1.0
 50
180.0
 51
270.0
  0
ARC
  8
M0
 62
     7
 10
115.191167
 20
384.002429
 40
1.0
 50
0.0
 51
90.0
  0
LINE
  8
M0
 62
     7
 10
125.891169
 20
353.202429
 11
125.891169
 21
345.802429
  0
LINE
  8
M0
 62
     7
 10
118.191165
 20
345.502429
 11
118.191165
 21
353.502429
  0
LINE
  8
M0
 62
     7
 10
116.191165
 20
345.502429
 11
118.191165
 21
345.502429
  0
LINE
  8
M0
 62
     7
 10
65.091167
 20
345.802429
 11
65.391166
 21
345.802429
  0
LINE
  8
M0
 62
     7
 10
65.091167
 20
369.602428
 11
65.391166
 21
369.602428
  0
LINE
  8
M0
 62
     7
 10
124.591169
 20
353.202429
 11
124.591169
 21
345.802429
  0
LINE
  8
M0
 62
     7
 10
124.591169
 20
345.802429
 11
121.591163
 21
345.802429
  0
LINE
  8
M0
 62
     7
 10
65.091167
 20
353.202429
 11
65.091167
 21
345.802429
  0
LINE
  8
M0
 62
     7
 10
121.591163
 20
353.202429
 11
124.591169
 21
353.202429
  0
LINE
  8
M0
 62
     7
 10
115.291168
 20
353.002429
 11
115.291168
 21
352.002429
  0
LINE
  8
M0
 62
     7
 10
116.191165
 20
353.502429
 11
118.191165
 21
353.502429
  0
LINE
  8
M0
 62
     7
 10
121.591163
 20
345.802429
 11
121.591163
 21
353.202429
  0
LINE
  8
M0
 62
     7
 10
87.291167
 20
361.502429
 11
88.791167
 21
361.502429
  0
LINE
  8
M0
 62
     7
 10
86.291167
 20
342.002428
 11
86.291167
 21
355.602429
  0
LINE
  8
M0
 62
     7
 10
87.291167
 20
337.502429
 11
87.791168
 21
337.502429
  0
LINE
  8
M0
 62
     7
 10
90.441165
 20
360.502429
 11
100.541168
 21
360.502429
  0
LINE
  8
M0
 62
     7
 10
101.041166
 20
354.102429
 11
89.941168
 21
354.102429
  0
LINE
  8
M0
 62
     7
 10
90.441165
 20
355.602429
 11
100.541168
 21
355.602429
  0
LINE
  8
M0
 62
     7
 10
100.541168
 20
359.002429
 11
90.441165
 21
359.002429
  0
LINE
  8
M0
 62
     7
 10
65.391166
 20
353.202429
 11
65.091167
 21
353.202429
  0
LINE
  8
M0
 62
     7
 10
115.291168
 20
347.002429
 11
115.291168
 21
346.002429
  0
LINE
  8
M0
 62
     7
 10
65.391166
 20
329.402429
 11
65.091167
 21
329.402429
  0
LINE
  8
M0
 62
     7
 10
66.391167
 20
376.202429
 11
66.391167
 21
354.202429
  0
LINE
  8
M0
 62
     7
 10
116.791168
 20
346.502429
 11
116.791168
 21
345.502429
  0
LINE
  8
M0
 62
     7
 10
116.791168
 20
353.502429
 11
116.791168
 21
352.502429
  0
LINE
  8
M0
 62
     7
 10
66.391167
 20
358.802429
 11
74.791166
 21
358.802429
  0
LINE
  8
M0
 62
     7
 10
116.791168
 20
346.502429
 11
117.091165
 21
346.502429
  0
LINE
  8
M0
 62
     7
 10
117.091165
 20
352.502429
 11
117.091165
 21
351.002429
  0
LINE
  8
M0
 62
     7
 10
116.191165
 20
340.202429
 11
124.591169
 21
340.202429
  0
LINE
  8
M0
 62
     7
 10
117.091165
 20
352.502429
 11
116.791168
 21
352.502429
  0
LINE
  8
M0
 62
     7
 10
117.091165
 20
348.002429
 11
117.091165
 21
346.502429
  0
LINE
  8
M0
 62
     7
 10
73.891166
 20
348.002429
 11
73.891166
 21
346.502429
  0
LINE
  8
M0
 62
     7
 10
73.891166
 20
352.502429
 11
73.891166
 21
351.002429
  0
LINE
  8
M0
 62
     7
 10
74.191167
 20
346.502429
 11
73.891166
 21
346.502429
  0
LINE
  8
M0
 62
     7
 10
74.191167
 20
346.502429
 11
74.191167
 21
345.502429
  0
LINE
  8
M0
 62
     7
 10
74.791166
 20
340.202429
 11
66.391167
 21
340.202429
  0
LINE
  8
M0
 62
     7
 10
73.891166
 20
352.502429
 11
74.191167
 21
352.502429
  0
ARC
  8
M0
 62
     7
 10
76.191167
 20
384.002429
 40
1.0
 50
0.0
 51
90.0
  0
ARC
  8
M0
 62
     7
 10
88.791167
 20
315.002429
 40
1.0
 50
180.0
 51
270.0
  0
ARC
  8
M0
 62
     7
 10
75.791167
 20
384.002429
 40
1.0
 50
90.0
 51
180.0
  0
ARC
  8
M0
 62
     7
 10
76.191167
 20
315.002429
 40
1.0
 50
270.0
 51
360.0
  0
LINE
  8
M0
 62
     7
 10
76.191166
 20
314.002428
 11
75.991166
 21
314.002428
  0
LINE
  8
M0
 62
     7
 10
75.991166
 20
385.00243
 11
76.191166
 21
385.00243
  0
LINE
  8
M0
 62
     7
 10
104.891167
 20
354.802429
 11
104.691168
 21
354.802429
  0
ARC
  8
M0
 62
     7
 10
74.791167
 20
330.002429
 40
0.6
 50
180.0
 51
270.0
  0
LINE
  8
M0
 62
     7
 10
74.191167
 20
353.502429
 11
74.191167
 21
352.502429
  0
LINE
  8
M0
 62
     7
 10
124.591169
 20
358.802429
 11
116.191165
 21
358.802429
  0
ARC
  8
M0
 62
     7
 10
116.191167
 20
330.002429
 40
0.6
 50
270.0
 51
360.0
  0
ARC
  8
M0
 62
     7
 10
75.791167
 20
315.002429
 40
1.0
 50
180.0
 51
270.0
  0
ARC
  8
M0
 62
     7
 10
74.791167
 20
369.002429
 40
0.6
 50
90.0
 51
180.0
  0
ARC
  8
M0
 62
     7
 10
116.191167
 20
369.002429
 40
0.6
 50
0.0
 51
90.0
  0
LINE
  8
M0
 62
     7
 10
103.191168
 20
368.402429
 11
100.791165
 21
368.402429
  0
LINE
  8
M0
 62
     7
 10
103.191168
 20
330.602429
 11
102.191166
 21
330.602429
  0
LINE
  8
M0
 62
     7
 10
101.791167
 20
314.002428
 11
102.191166
 21
314.002428
  0
LINE
  8
M0
 62
     7
 10
101.791167
 20
330.602429
 11
100.791165
 21
330.602429
  0
LINE
  8
M0
 62
     7
 10
102.191166
 20
330.602429
 11
101.791167
 21
330.602429
  0
LINE
  8
M0
 62
     7
 10
121.891167
 20
385.00243
 11
114.791167
 21
385.00243
  0
LINE
  8
M0
 62
     7
 10
116.191165
 20
353.002429
 11
116.191165
 21
384.00243
  0
LINE
  8
M0
 62
     7
 10
102.191166
 20
385.00243
 11
101.791167
 21
385.00243
  0
LINE
  8
M0
 62
     7
 10
113.791165
 20
332.102429
 11
113.791165
 21
315.00243
  0
ARC
  8
M0
 62
     7
 10
89.441167
 20
338.002429
 40
0.5
 50
270.0
 51
360.0
  0
ARC
  8
M0
 62
     7
 10
101.541167
 20
338.002429
 40
0.5
 50
180.0
 51
270.0
  0
ARC
  8
M0
 62
     7
 10
89.441167
 20
360.502429
 40
1.0
 50
0.0
 51
90.0
  0
ARC
  8
M0
 62
     7
 10
89.941167
 20
354.602429
 40
0.5
 50
270.0
 51
360.0
  0
ARC
  8
M0
 62
     7
 10
103.691167
 20
338.502429
 40
1.0
 50
270.0
 51
360.0
  0
ARC
  8
M0
 62
     7
 10
103.691167
 20
342.002429
 40
1.0
 50
0.0
 51
90.0
  0
ARC
  8
M0
 62
     7
 10
101.541167
 20
360.502429
 40
1.0
 50
90.0
 51
180.0
  0
ARC
  8
M0
 62
     7
 10
101.041167
 20
354.602429
 40
0.5
 50
180.0
 51
270.0
  0
ARC
  8
M0
 62
     7
 10
125.891167
 20
354.202429
 40
1.0
 50
270.0
 51
360.0
  0
ARC
  8
M0
 62
     7
 10
125.891167
 20
368.602429
 40
1.0
 50
0.0
 51
90.0
  0
ARC
  8
M0
 62
     7
 10
87.291167
 20
360.502429
 40
1.0
 50
90.0
 51
180.0
  0
ARC
  8
M0
 62
     7
 10
87.291167
 20
338.502429
 40
1.0
 50
180.0
 51
270.0
  0
ARC
  8
M0
 62
     7
 10
125.891167
 20
330.402429
 40
1.0
 50
270.0
 51
360.0
  0
LINE
  8
M0
 62
     7
 10
101.041166
 20
343.002429
 11
89.941168
 21
343.002429
  0
LINE
  8
M0
 62
     7
 10
89.941168
 20
339.002429
 11
101.041166
 21
339.002429
  0
LINE
  8
M0
 62
     7
 10
89.941168
 20
344.502429
 11
101.041166
 21
344.502429
  0
LINE
  8
M0
 62
     7
 10
86.291167
 20
355.602429
 11
86.291167
 21
360.502429
  0
LINE
  8
M0
 62
     7
 10
87.791168
 20
354.102429
 11
86.291167
 21
355.602429
  0
LINE
  8
M0
 62
     7
 10
86.291167
 20
338.502429
 11
86.291167
 21
342.002428
  0
ARC
  8
M0
 62
     7
 10
78.391167
 20
332.802429
 40
1.0
 50
270.0
 51
315.572996
  0
ARC
  8
M0
 62
     7
 10
86.591167
 20
332.802429
 40
1.0
 50
224.427004
 51
270.0
  0
ARC
  8
M0
 62
     7
 10
87.291167
 20
342.002429
 40
1.0
 50
90.0
 51
180.0
  0
ARC
  8
M0
 62
     7
 10
103.691167
 20
360.502429
 40
1.0
 50
0.0
 51
90.0
  0
LINE
  8
M0
 62
     7
 10
126.891163
 20
380.002429
 11
126.891163
 21
319.002429
  0
ARC
  8
M0
 62
     7
 10
112.591167
 20
366.202429
 40
1.0
 50
90.0
 51
135.572996
  0
LINE
  8
M0
 62
     7
 10
99.591167
 20
367.202429
 11
100.791165
 21
367.202429
  0
LINE
  8
M0
 62
     7
 10
112.591167
 20
331.802429
 11
113.791165
 21
331.802429
  0
LINE
  8
M0
 62
     7
 10
104.391166
 20
331.802429
 11
103.191168
 21
331.802429
  0
LINE
  8
M0
 62
     7
 10
124.591169
 20
366.602429
 11
116.791168
 21
366.602429
  0
LINE
  8
M0
 62
     7
 10
91.391166
 20
367.202429
 11
90.191168
 21
367.202429
  0
LINE
  8
M0
 62
     7
 10
103.191168
 20
320.50243
 11
113.791165
 21
320.50243
  0
LINE
  8
M0
 62
     7
 10
100.791165
 20
378.50243
 11
90.191168
 21
378.50243
  0
ARC
  8
M0
 62
     7
 10
65.391167
 20
368.602429
 40
1.0
 50
0.0
 51
90.0
  0
ARC
  8
M0
 62
     7
 10
65.391167
 20
344.802429
 40
1.0
 50
0.0
 51
90.0
  0
ARC
  8
M0
 62
     7
 10
65.091167
 20
354.202429
 40
1.0
 50
180.0
 51
270.0
  0
ARC
  8
M0
 62
     7
 10
65.091167
 20
368.602429
 40
1.0
 50
90.0
 51
180.0
  0
ARC
  8
M0
 62
     7
 10
125.591167
 20
330.402429
 40
1.0
 50
180.0
 51
270.0
  0
ARC
  8
M0
 62
     7
 10
125.591167
 20
354.202429
 40
1.0
 50
180.0
 51
270.0
  0
ARC
  8
M0
 62
     7
 10
65.391167
 20
330.402429
 40
1.0
 50
270.0
 51
360.0
  0
ARC
  8
M0
 62
     7
 10
65.391167
 20
354.202429
 40
1.0
 50
270.0
 51
360.0
  0
ARC
  8
M0
 62
     7
 10
65.091167
 20
344.802429
 40
1.0
 50
90.0
 51
180.0
  0
ARC
  8
M0
 62
     7
 10
65.091167
 20
330.402429
 40
1.0
 50
180.0
 51
270.0
  0
LINE
  8
M0
 62
     7
 10
112.591167
 20
367.202429
 11
113.791165
 21
367.202429
  0
LINE
  8
M0
 62
     7
 10
66.391167
 20
353.202429
 11
66.391167
 21
345.802429
  0
LINE
  8
M0
 62
     7
 10
75.691167
 20
347.002429
 11
75.691167
 21
346.002429
  0
LINE
  8
M0
 62
     7
 10
69.391167
 20
345.802429
 11
69.391167
 21
353.202429
  0
LINE
  8
M0
 62
     7
 10
66.391167
 20
345.802429
 11
69.391167
 21
345.802429
  0
LINE
  8
M0
 62
     7
 10
72.791166
 20
345.502429
 11
72.791166
 21
353.502429
  0
LINE
  8
M0
 62
     7
 10
74.791166
 20
353.502429
 11
72.791166
 21
353.502429
  0
LINE
  8
M0
 62
     7
 10
75.691167
 20
353.002429
 11
75.691167
 21
352.002429
  0
LINE
  8
M0
 62
     7
 10
74.791166
 20
345.502429
 11
72.791166
 21
345.502429
  0
ARC
  8
M0
 62
     7
 10
125.591167
 20
368.602429
 40
1.0
 50
90.0
 51
180.0
  0
ARC
  8
M0
 62
     7
 10
125.891167
 20
344.802429
 40
1.0
 50
0.0
 51
90.0
  0
LINE
  8
M0
 62
     7
 10
113.791165
 20
378.50243
 11
103.191168
 21
378.50243
  0
ARC
  8
M0
 62
     7
 10
125.591167
 20
344.802429
 40
1.0
 50
90.0
 51
180.0
  0
LINE
  8
M0
 62
     7
 10
86.091168
 20
354.802429
 11
86.291167
 21
354.802429
  0
LINE
  8
M0
 62
     7
 10
69.391167
 20
353.202429
 11
66.391167
 21
353.202429
  0
LINE
  8
M0
 62
     7
 10
104.891167
 20
344.202428
 11
104.691168
 21
344.202428
  0
LINE
  8
M0
 62
     7
 10
86.091168
 20
344.202428
 11
86.291167
 21
344.202428
  0
LINE
  8
M0
 62
     7
 10
90.441165
 20
360.502429
 11
90.441165
 21
354.602429
  0
LINE
  8
M0
 62
     7
 10
100.541168
 20
360.502429
 11
100.541168
 21
354.602429
  0
LINE
  8
M0
 62
     7
 10
89.941168
 20
346.252429
 11
89.941168
 21
338.002429
  0
LINE
  8
M0
 62
     7
 10
89.691167
 20
346.752429
 11
89.941168
 21
346.252429
  0
LINE
  8
M0
 62
     7
 10
101.291166
 20
346.752429
 11
101.041166
 21
346.252429
  0
LINE
  8
M0
 62
     7
 10
101.291166
 20
352.252429
 11
101.291166
 21
346.752429
  0
LINE
  8
M0
 62
     7
 10
101.041166
 20
354.102429
 11
101.041166
 21
352.752429
  0
LINE
  8
M0
 62
     7
 10
101.041166
 20
346.252429
 11
101.041166
 21
338.002429
  0
LINE
  8
M0
 62
     7
 10
87.291167
 20
343.002429
 11
87.791168
 21
343.002429
  0
LINE
  8
M0
 62
     7
 10
89.691167
 20
352.252429
 11
89.691167
 21
346.752429
  0
LINE
  8
M0
 62
     7
 10
87.791168
 20
343.002429
 11
87.791168
 21
354.102429
  0
LINE
  8
M0
 62
     7
 10
89.941168
 20
352.752429
 11
89.691167
 21
352.252429
  0
LINE
  8
M0
 62
     7
 10
89.941168
 20
354.102429
 11
89.941168
 21
352.752429
  0
LINE
  8
M0
 62
     7
 10
77.191166
 20
320.50243
 11
87.791168
 21
320.50243
  0
LINE
  8
M0
 62
     7
 10
86.591167
 20
331.802429
 11
87.791168
 21
331.802429
  0
LINE
  8
M0
 62
     7
 10
104.691168
 20
338.502429
 11
104.691168
 21
342.002428
  0
LINE
  8
M0
 62
     7
 10
78.391166
 20
331.802429
 11
77.191166
 21
331.802429
  0
LINE
  8
M0
 62
     7
 10
103.691166
 20
343.002429
 11
103.191168
 21
343.002429
  0
LINE
  8
M0
 62
     7
 10
103.191168
 20
343.002429
 11
103.191168
 21
354.102429
  0
LINE
  8
M0
 62
     7
 10
87.291167
 20
361.502429
 11
89.441167
 21
361.502429
  0
LINE
  8
M0
 62
     7
 10
101.041166
 20
352.752429
 11
101.291166
 21
352.252429
  0
LINE
  8
M0
 62
     7
 10
104.691168
 20
355.602429
 11
104.691168
 21
360.502429
  0
LINE
  8
M0
 62
     7
 10
103.191168
 20
354.102429
 11
104.691168
 21
355.602429
  0
LINE
  8
M0
 62
     7
 10
87.291167
 20
337.502429
 11
103.691166
 21
337.502429
  0
LINE
  8
M0
 62
     7
 10
103.691166
 20
361.502429
 11
101.541167
 21
361.502429
  0
POLYLINE
  8
M0
 62
     7
 66
     1
  0
VERTEX
  8
M0
 62
     7
 10
90.191167
 20
384.419096
  0
VERTEX
  8
M0
 62
     7
 10
90.206359
 20
384.346742
  0
VERTEX
  8
M0
 62
     7
 10
90.251474
 20
384.276587
  0
VERTEX
  8
M0
 62
     7
 10
90.325141
 20
384.210762
  0
VERTEX
  8
M0
 62
     7
 10
90.425122
 20
384.151267
  0
VERTEX
  8
M0
 62
     7
 10
90.548379
 20
384.09991
  0
VERTEX
  8
M0
 62
     7
 10
90.691167
 20
384.058252
  0
VERTEX
  8
M0
 62
     7
 10
90.849147
 20
384.027557
  0
VERTEX
  8
M0
 62
     7
 10
91.017519
 20
384.008759
  0
VERTEX
  8
M0
 62
     7
 10
91.191167
 20
384.002429
  0
SEQEND
  8
M0
 62
     7
  0
POLYLINE
  8
M0
 62
     7
 66
     1
  0
VERTEX
  8
M0
 62
     7
 10
99.791167
 20
384.002429
  0
VERTEX
  8
M0
 62
     7
 10
99.964815
 20
384.008759
  0
VERTEX
  8
M0
 62
     7
 10
100.133187
 20
384.027557
  0
VERTEX
  8
M0
 62
     7
 10
100.291167
 20
384.058252
  0
VERTEX
  8
M0
 62
     7
 10
100.433954
 20
384.09991
  0
VERTEX
  8
M0
 62
     7
 10
100.557211
 20
384.151267
  0
VERTEX
  8
M0
 62
     7
 10
100.657192
 20
384.210762
  0
VERTEX
  8
M0
 62
     7
 10
100.730859
 20
384.276587
  0
VERTEX
  8
M0
 62
     7
 10
100.775974
 20
384.346742
  0
VERTEX
  8
M0
 62
     7
 10
100.791167
 20
384.419096
  0
SEQEND
  8
M0
 62
     7
  0
LINE
  8
M0
 62
     7
 10
99.791167
 20
384.00243
 11
91.191166
 21
384.00243
  0
LINE
  8
M0
 62
     7
 10
91.191166
 20
392.50243
 11
99.791167
 21
392.50243
  0
LINE
  8
M0
 62
     7
 10
77.191166
 20
380.502428
 11
87.791168
 21
380.502428
  0
LINE
  8
M0
 62
     7
 10
90.191168
 20
380.502428
 11
100.791165
 21
380.502428
  0
LINE
  8
M0
 62
     7
 10
90.191168
 20
391.502429
 11
90.191168
 21
366.902429
  0
LINE
  8
M0
 62
     7
 10
100.791165
 20
382.502429
 11
90.191168
 21
382.502429
  0
LINE
  8
M0
 62
     7
 10
105.241166
 20
314.502429
 11
105.241166
 21
315.00243
  0
LINE
  8
M0
 62
     7
 10
111.741168
 20
317.00243
 11
111.741168
 21
315.00243
  0
LINE
  8
M0
 62
     7
 10
104.491168
 20
314.002428
 11
112.491167
 21
314.002428
  0
LINE
  8
M0
 62
     7
 10
105.241166
 20
315.00243
 11
105.241166
 21
317.00243
  0
LINE
  8
M0
 62
     7
 10
113.491168
 20
315.00243
 11
113.491168
 21
318.502429
  0
LINE
  8
M0
 62
     7
 10
113.491168
 20
318.502429
 11
113.791165
 21
318.502429
  0
LINE
  8
M0
 62
     7
 10
65.391166
 20
321.802429
 11
65.091167
 21
321.802429
  0
LINE
  8
M0
 62
     7
 10
77.491167
 20
318.502429
 11
77.191166
 21
318.502429
  0
LINE
  8
M0
 62
     7
 10
112.491166
 20
320.50243
 11
112.491166
 21
319.502428
  0
LINE
  8
M0
 62
     7
 10
65.091167
 20
377.202428
 11
65.391166
 21
377.202428
  0
LINE
  8
M0
 62
     7
 10
86.491167
 20
318.002428
 11
86.491167
 21
320.50243
  0
LINE
  8
M0
 62
     7
 10
87.791168
 20
317.00243
 11
87.491167
 21
317.00243
  0
LINE
  8
M0
 62
     7
 10
111.741168
 20
315.00243
 11
111.741168
 21
314.502429
  0
LINE
  8
M0
 62
     7
 10
113.791165
 20
380.502428
 11
103.191168
 21
380.502428
  0
LINE
  8
M0
 62
     7
 10
104.491168
 20
318.002428
 11
104.491168
 21
320.50243
  0
LINE
  8
M0
 62
     7
 10
78.491167
 20
320.50243
 11
78.491167
 21
319.502428
  0
LINE
  8
M0
 62
     7
 10
100.791165
 20
317.00243
 11
90.191168
 21
317.00243
  0
LINE
  8
M0
 62
     7
 10
103.491166
 20
317.00243
 11
103.191168
 21
317.00243
  0
ARC
  8
M0
 62
     7
 10
112.241167
 20
314.502429
 40
0.5
 50
180.0
 51
270.0
  0
ARC
  8
M0
 62
     7
 10
104.741167
 20
314.502429
 40
0.5
 50
270.0
 51
360.0
  0
ARC
  8
M0
 62
     7
 10
108.491167
 20
317.002429
 40
3.25
 50
0.0
 51
180.0
  0
ARC
  8
M0
 62
     7
 10
91.191167
 20
391.502429
 40
1.0
 50
90.0
 51
180.0
  0
ARC
  8
M0
 62
     7
 10
99.791167
 20
391.502429
 40
1.0
 50
0.0
 51
90.0
  0
ARC
  8
M0
 62
     7
 10
112.491167
 20
315.002429
 40
1.0
 50
270.0
 51
360.0
  0
ARC
  8
M0
 62
     7
 10
78.741167
 20
314.502429
 40
0.5
 50
270.0
 51
360.0
  0
ARC
  8
M0
 62
     7
 10
86.491167
 20
315.002429
 40
1.0
 50
270.0
 51
360.0
  0
ARC
  8
M0
 62
     7
 10
104.491167
 20
315.002429
 40
1.0
 50
180.0
 51
270.0
  0
ARC
  8
M0
 62
     7
 10
82.491167
 20
317.002429
 40
3.25
 50
0.0
 51
180.0
  0
LINE
  8
M0
 62
     7
 10
79.241167
 20
317.002429
 11
79.241167
 21
314.502429
  0
LINE
  8
M0
 62
     7
 10
87.491167
 20
317.00243
 11
87.491167
 21
315.00243
  0
LINE
  8
M0
 62
     7
 10
103.491166
 20
317.00243
 11
103.491166
 21
315.00243
  0
LINE
  8
M0
 62
     7
 10
85.741167
 20
314.502429
 11
85.741167
 21
317.002429
  0
ARC
  8
M0
 62
     7
 10
103.491167
 20
318.002429
 40
1.0
 50
270.0
 51
360.0
  0
ARC
  8
M0
 62
     7
 10
77.491167
 20
319.502429
 40
1.0
 50
270.0
 51
360.0
  0
ARC
  8
M0
 62
     7
 10
86.241167
 20
314.502429
 40
0.5
 50
180.0
 51
270.0
  0
ARC
  8
M0
 62
     7
 10
87.491167
 20
318.002429
 40
1.0
 50
180.0
 51
270.0
  0
LINE
  8
M0
 62
     7
 10
77.491167
 20
315.00243
 11
77.491167
 21
318.502429
  0
ARC
  8
M0
 62
     7
 10
113.491167
 20
319.502429
 40
1.0
 50
180.0
 51
270.0
  0
ARC
  8
M0
 62
     7
 10
65.091167
 20
376.202429
 40
1.0
 50
90.0
 51
180.0
  0
LINE
  8
M0
 62
     7
 10
76.191166
 20
314.002428
 11
69.091167
 21
314.002428
  0
LINE
  8
M0
 62
     7
 10
69.091167
 20
385.00243
 11
76.191166
 21
385.00243
  0
LINE
  8
M0
 62
     7
 10
74.791166
 20
384.002429
 11
74.791166
 21
353.002429
  0
LINE
  8
M0
 62
     7
 10
116.791168
 20
322.402429
 11
116.791168
 21
340.202429
  0
LINE
  8
M0
 62
     7
 10
116.791168
 20
358.802429
 11
116.791168
 21
376.602429
  0
ARC
  8
M0
 62
     7
 10
65.091167
 20
322.802429
 40
1.0
 50
180.0
 51
270.0
  0
ARC
  8
M0
 62
     7
 10
65.391167
 20
322.802429
 40
1.0
 50
270.0
 51
360.0
  0
LINE
  8
M0
 62
     7
 10
87.791168
 20
368.402429
 11
90.191168
 21
368.402429
  0
ARC
  8
M0
 62
     7
 10
74.791167
 20
322.402429
 40
0.6
 50
180.0
 51
270.0
  0
ARC
  8
M0
 62
     7
 10
116.191167
 20
376.602429
 40
0.6
 50
0.0
 51
90.0
  0
ARC
  8
M0
 62
     7
 10
65.391167
 20
376.202429
 40
1.0
 50
0.0
 51
90.0
  0
ARC
  8
M0
 62
     7
 10
74.791167
 20
376.602429
 40
0.6
 50
90.0
 51
180.0
  0
LINE
  8
M0
 62
     7
 10
77.191166
 20
332.102429
 11
77.191166
 21
315.00243
  0
LINE
  8
M0
 62
     7
 10
87.791168
 20
315.00243
 11
87.791168
 21
332.102429
  0
LINE
  8
M0
 62
     7
 10
87.791168
 20
330.602429
 11
88.791167
 21
330.602429
  0
LINE
  8
M0
 62
     7
 10
114.991167
 20
385.00243
 11
114.791167
 21
385.00243
  0
LINE
  8
M0
 62
     7
 10
113.791165
 20
384.00243
 11
113.791165
 21
366.902429
  0
LINE
  8
M0
 62
     7
 10
90.191168
 20
315.002429
 11
90.191168
 21
332.102429
  0
LINE
  8
M0
 62
     7
 10
87.791168
 20
384.002429
 11
87.791168
 21
366.902429
  0
LINE
  8
M0
 62
     7
 10
103.191168
 20
332.102429
 11
103.191168
 21
315.002429
  0
LINE
  8
M0
 62
     7
 10
100.791165
 20
315.002429
 11
100.791165
 21
332.102429
  0
LINE
  8
M0
 62
     7
 10
103.191168
 20
384.002429
 11
103.191168
 21
366.902429
  0
LINE
  8
M0
 62
     7
 10
100.791165
 20
366.902429
 11
100.791165
 21
391.502429
  0
LINE
  8
M0
 62
     7
 10
100.791165
 20
317.00243
 11
100.791165
 21
318.002428
  0
LINE
  8
M0
 62
     7
 10
100.791165
 20
382.002429
 11
100.791165
 21
381.002429
  0
LINE
  8
M0
 62
     7
 10
125.591164
 20
321.802429
 11
125.891169
 21
321.802429
  0
LINE
  8
M0
 62
     7
 10
125.891169
 20
377.202428
 11
125.591164
 21
377.202428
  0
LINE
  8
M0
 62
     7
 10
125.691166
 20
369.602428
 11
125.591164
 21
369.602428
  0
LINE
  8
M0
 62
     7
 10
77.191166
 20
384.00243
 11
77.191166
 21
366.902429
  0
LINE
  8
M0
 62
     7
 10
65.291167
 20
369.602428
 11
65.391166
 21
369.602428
  0
LINE
  8
M0
 62
     7
 10
125.691166
 20
329.402429
 11
125.591164
 21
329.402429
  0
LINE
  8
M0
 62
     7
 10
65.291167
 20
329.402429
 11
65.391166
 21
329.402429
  0
ARC
  8
M0
 62
     7
 10
125.591167
 20
322.802429
 40
1.0
 50
180.0
 51
270.0
  0
ARC
  8
M0
 62
     7
 10
125.591167
 20
376.202429
 40
1.0
 50
90.0
 51
180.0
  0
ARC
  8
M0
 62
     7
 10
116.191167
 20
322.402429
 40
0.6
 50
270.0
 51
360.0
  0
ARC
  8
M0
 62
     7
 10
125.891167
 20
376.202429
 40
1.0
 50
0.0
 51
90.0
  0
LINE
  8
M0
 62
     7
 10
74.191167
 20
322.402428
 11
74.191167
 21
340.202429
  0
LINE
  8
M0
 62
     7
 10
74.191167
 20
358.802429
 11
74.191167
 21
376.602429
  0
ARC
  8
M0
 62
     7
 10
125.891167
 20
322.802429
 40
1.0
 50
270.0
 51
360.0
  0
LINE
  8
M0
 62
     7
 10
66.391167
 20
344.802429
 11
66.391167
 21
322.802429
  0
LINE
  8
M0
 62
     7
 10
117.691168
 20
323.80243
 11
117.691168
 21
324.80243
  0
LINE
  8
M0
 62
     7
 10
123.691169
 20
323.80243
 11
117.691168
 21
323.80243
  0
LINE
  8
M0
 62
     7
 10
123.691169
 20
324.80243
 11
123.691169
 21
323.80243
  0
LINE
  8
M0
 62
     7
 10
74.191167
 20
366.602429
 11
66.391167
 21
366.602429
  0
LINE
  8
M0
 62
     7
 10
117.691168
 20
375.20243
 11
123.691169
 21
375.20243
  0
LINE
  8
M0
 62
     7
 10
117.691168
 20
374.20243
 11
117.691168
 21
375.20243
  0
LINE
  8
M0
 62
     7
 10
123.691169
 20
375.20243
 11
123.691169
 21
374.20243
  0
LINE
  8
M0
 62
     7
 10
66.391167
 20
332.402428
 11
74.191167
 21
332.402428
  0
LINE
  8
M0
 62
     7
 10
116.791168
 20
332.402428
 11
124.591169
 21
332.402428
  0
LINE
  8
M0
 62
     7
 10
78.391166
 20
367.202429
 11
77.191166
 21
367.202429
  0
LINE
  8
M0
 62
     7
 10
86.591167
 20
367.202429
 11
87.791168
 21
367.202429
  0
LINE
  8
M0
 62
     7
 10
87.791168
 20
378.50243
 11
77.191166
 21
378.50243
  0
ARC
  8
M0
 62
     7
 10
91.391167
 20
366.202429
 40
1.0
 50
44.427004
 51
90.0
  0
LINE
  8
M0
 62
     7
 10
104.391166
 20
367.202429
 11
103.191168
 21
367.202429
  0
ARC
  8
M0
 62
     7
 10
112.591167
 20
332.802429
 40
1.0
 50
224.427004
 51
270.0
  0
ARC
  8
M0
 62
     7
 10
99.591167
 20
366.202429
 40
1.0
 50
90.0
 51
135.572996
  0
LINE
  8
M0
 62
     7
 10
99.591167
 20
331.802429
 11
100.791165
 21
331.802429
  0
LINE
  8
M0
 62
     7
 10
91.391166
 20
331.802429
 11
90.191168
 21
331.802429
  0
LINE
  8
M0
 62
     7
 10
90.191168
 20
320.50243
 11
100.791165
 21
320.50243
  0
LINE
  8
M0
 62
     7
 10
67.291167
 20
375.20243
 11
73.291167
 21
375.20243
  0
LINE
  8
M0
 62
     7
 10
67.291167
 20
374.20243
 11
67.291167
 21
375.20243
  0
LINE
  8
M0
 62
     7
 10
73.291167
 20
375.20243
 11
73.291167
 21
374.20243
  0
ARC
  8
M0
 62
     7
 10
104.391167
 20
366.202429
 40
1.0
 50
44.427004
 51
90.0
  0
ARC
  8
M0
 62
     7
 10
86.591167
 20
366.202429
 40
1.0
 50
90.0
 51
135.572996
  0
ARC
  8
M0
 62
     7
 10
99.591167
 20
332.802429
 40
1.0
 50
224.427004
 51
270.0
  0
ARC
  8
M0
 62
     7
 10
104.391167
 20
332.802429
 40
1.0
 50
270.0
 51
315.572996
  0
ARC
  8
M0
 62
     7
 10
78.391167
 20
366.202429
 40
1.0
 50
44.427004
 51
90.0
  0
ARC
  8
M0
 62
     7
 10
91.391167
 20
332.802429
 40
1.0
 50
270.0
 51
315.572996
  0
LINE
  8
M0
 62
     7
 10
73.291167
 20
323.80243
 11
67.291167
 21
323.80243
  0
LINE
  8
M0
 62
     7
 10
73.291167
 20
324.80243
 11
73.291167
 21
323.80243
  0
LINE
  8
M0
 62
     7
 10
67.291167
 20
323.80243
 11
67.291167
 21
324.80243
  0
LINE
  8
M0
 62
     7
 10
112.208628
 20
393.42042
 11
112.20972
 21
393.383961
  0
LINE
  8
M0
 62
     7
 10
112.20972
 20
393.383961
 11
112.212968
 21
393.275681
  0
LINE
  8
M0
 62
     7
 10
112.212968
 20
393.275681
 11
112.218273
 21
393.098883
  0
LINE
  8
M0
 62
     7
 10
112.218273
 20
393.098883
 11
112.22547
 21
392.858929
  0
LINE
  8
M0
 62
     7
 10
112.22547
 20
392.858929
 11
112.234348
 21
392.563111
  0
LINE
  8
M0
 62
     7
 10
112.234348
 20
392.563111
 11
112.244626
 21
392.220422
  0
LINE
  8
M0
 62
     7
 10
112.244626
 20
392.220422
 11
112.256003
 21
391.841269
  0
LINE
  8
M0
 62
     7
 10
112.256003
 20
391.841269
 11
112.268125
 21
391.437176
  0
LINE
  8
M0
 62
     7
 10
112.268125
 20
391.437176
 11
112.280627
 21
391.02042
  0
LINE
  8
M0
 62
     7
 10
78.701706
 20
391.02042
 11
78.715752
 21
391.488637
  0
LINE
  8
M0
 62
     7
 10
78.715752
 20
391.488637
 11
78.72926
 21
391.938861
  0
LINE
  8
M0
 62
     7
 10
78.72926
 20
391.938861
 11
78.741708
 21
392.353791
  0
LINE
  8
M0
 62
     7
 10
78.741708
 20
392.353791
 11
78.752618
 21
392.717476
  0
LINE
  8
M0
 62
     7
 10
78.752618
 20
392.717476
 11
78.761571
 21
393.015947
  0
LINE
  8
M0
 62
     7
 10
78.761571
 20
393.015947
 11
78.768227
 21
393.237732
  0
LINE
  8
M0
 62
     7
 10
78.768227
 20
393.237732
 11
78.772323
 21
393.374305
  0
LINE
  8
M0
 62
     7
 10
78.772323
 20
393.374305
 11
78.773707
 21
393.42042
  0
LINE
  8
M0
  6
DASHDOT
 62
     7
 10
63.242666
 20
379.502429
 11
73.739667
 21
379.502429
  0
LINE
  8
M0
  6
DASHDOT
 62
     7
 10
68.491167
 20
374.253928
 11
68.491167
 21
384.75093
  0
LINE
  8
M0
  6
DASHDOT
 62
     7
 10
117.242666
 20
320.502429
 11
127.739667
 21
320.502429
  0
LINE
  8
M0
  6
DASHDOT
 62
     7
 10
122.491167
 20
314.253928
 11
122.491167
 21
324.75093
  0
LINE
  8
M0
  6
DASHDOT
 62
     7
 10
81.991167
 20
325.802429
 11
82.991167
 21
325.802429
  0
LINE
  8
M0
  6
DASHDOT
 62
     7
 10
82.491167
 20
325.302429
 11
82.491167
 21
326.302429
  0
LINE
  8
M0
  6
DASHDOT
 62
     7
 10
95.491163
 20
325.302429
 11
95.491163
 21
326.302429
  0
LINE
  8
M0
  6
DASHDOT
 62
     7
 10
94.991163
 20
325.802429
 11
95.991163
 21
325.802429
  0
LINE
  8
M0
  6
DASHDOT
 62
     7
 10
108.491164
 20
325.302429
 11
108.491164
 21
326.302429
  0
LINE
  8
M0
  6
DASHDOT
 62
     7
 10
107.991164
 20
325.802429
 11
108.991164
 21
325.802429
  0
LINE
  8
M0
  6
DASHDOT
 62
     7
 10
108.491164
 20
373.702429
 11
108.491164
 21
372.702429
  0
LINE
  8
M0
  6
DASHDOT
 62
     7
 10
107.991164
 20
373.202429
 11
108.991164
 21
373.202429
  0
LINE
  8
M0
  6
DASHDOT
 62
     7
 10
94.991163
 20
373.202429
 11
95.991163
 21
373.202429
  0
LINE
  8
M0
  6
DASHDOT
 62
     7
 10
82.491167
 20
373.702429
 11
82.491167
 21
372.702429
  0
LINE
  8
M0
  6
DASHDOT
 62
     7
 10
95.491163
 20
373.702429
 11
95.491163
 21
372.702429
  0
LINE
  8
M0
  6
DASHDOT
 62
     7
 10
81.991167
 20
373.202429
 11
82.991167
 21
373.202429
  0
LINE
  8
M0
  6
DASHDOT
 62
     7
 10
121.191166
 20
370.402429
 11
120.191166
 21
370.402429
  0
LINE
  8
M0
  6
DASHDOT
 62
     7
 10
120.691166
 20
369.902429
 11
120.691166
 21
370.902429
  0
LINE
  8
M0
  6
DASHDOT
 62
     7
 10
121.191166
 20
362.802429
 11
120.191166
 21
362.802429
  0
LINE
  8
M0
  6
DASHDOT
 62
     7
 10
120.691166
 20
362.302429
 11
120.691166
 21
363.302429
  0
LINE
  8
M0
  6
DASHDOT
 62
     7
 10
121.191166
 20
336.202429
 11
120.191166
 21
336.202429
  0
LINE
  8
M0
  6
DASHDOT
 62
     7
 10
120.691166
 20
335.702429
 11
120.691166
 21
336.702429
  0
LINE
  8
M0
  6
DASHDOT
 62
     7
 10
121.191166
 20
328.602429
 11
120.191166
 21
328.602429
  0
LINE
  8
M0
  6
DASHDOT
 62
     7
 10
120.691166
 20
328.102429
 11
120.691166
 21
329.102429
  0
LINE
  8
M0
  6
DASHDOT
 62
     7
 10
69.791167
 20
362.802429
 11
70.791167
 21
362.802429
  0
LINE
  8
M0
  6
DASHDOT
 62
     7
 10
70.291167
 20
362.302429
 11
70.291167
 21
363.302429
  0
LINE
  8
M0
  6
DASHDOT
 62
     7
 10
69.791167
 20
370.402429
 11
70.791167
 21
370.402429
  0
LINE
  8
M0
  6
DASHDOT
 62
     7
 10
70.291167
 20
369.902429
 11
70.291167
 21
370.902429
  0
LINE
  8
M0
  6
DASHDOT
 62
     7
 10
69.791167
 20
328.602429
 11
70.791167
 21
328.602429
  0
LINE
  8
M0
  6
DASHDOT
 62
     7
 10
70.291167
 20
328.102429
 11
70.291167
 21
329.102429
  0
LINE
  8
M0
  6
DASHDOT
 62
     7
 10
69.791167
 20
336.202429
 11
70.791167
 21
336.202429
  0
LINE
  8
M0
  6
DASHDOT
 62
     7
 10
70.291167
 20
335.702429
 11
70.291167
 21
336.702429
  0
LINE
  8
M0
  6
DASHDOT
 62
     7
 10
81.991167
 20
317.002429
 11
82.991167
 21
317.002429
  0
LINE
  8
M0
  6
DASHDOT
 62
     7
 10
82.491167
 20
316.502429
 11
82.491167
 21
317.502429
  0
LINE
  8
M0
  6
DASHDOT
 62
     7
 10
107.991167
 20
317.002429
 11
108.991167
 21
317.002429
  0
LINE
  8
M0
  6
DASHDOT
 62
     7
 10
108.491167
 20
316.502429
 11
108.491167
 21
317.502429
  0
LINE
  8
M0
  6
DASHDOT
 62
     7
 10
105.891167
 20
388.102429
 11
106.891167
 21
388.102429
  0
LINE
  8
M0
  6
DASHDOT
 62
     7
 10
106.391167
 20
387.602429
 11
106.391167
 21
388.602429
  0
LINE
  8
M0
  6
DASHDOT
 62
     7
 10
94.991167
 20
387.702429
 11
95.991167
 21
387.702429
  0
LINE
  8
M0
  6
DASHDOT
 62
     7
 10
95.491167
 20
387.202429
 11
95.491167
 21
388.202429
  0
LINE
  8
M0
  6
DASHDOT
 62
     7
 10
85.091166
 20
388.102429
 11
84.091166
 21
388.102429
  0
LINE
  8
M0
  6
DASHDOT
 62
     7
 10
84.591166
 20
387.602429
 11
84.591166
 21
388.602429
  0
CIRCLE
  8
M0
 62
     7
 10
84.591166
 20
388.102429
 40
3.0
  0
LINE
  8
M0
 62
     7
 10
86.18175
 20
386.511784
 11
83.00011
 21
389.693547
  0
LINE
  8
M0
 62
     7
 10
86.004992
 20
388.45612
 11
84.237414
 21
386.688542
  0
LINE
  8
M0
 62
     7
 10
84.944445
 20
389.516789
 11
83.176867
 21
387.749089
  0
LINE
  8
M0
 62
     7
 10
87.916166
 20
391.927429
 11
81.266166
 21
391.927429
  0
ARC
  8
M0
 62
     7
 10
87.916166
 20
391.427429
 40
0.5
 50
0.0
 51
90.0
  0
LINE
  8
M0
 62
     7
 10
88.416166
 20
384.777429
 11
88.416166
 21
391.427429
  0
ARC
  8
M0
 62
     7
 10
87.916166
 20
384.777429
 40
0.5
 50
270.0
 51
360.0
  0
LINE
  8
M0
 62
     7
 10
81.266166
 20
384.277429
 11
87.916166
 21
384.277429
  0
LINE
  8
M0
 62
     7
 10
80.766166
 20
391.427429
 11
80.766166
 21
384.777429
  0
ARC
  8
M0
 62
     7
 10
81.266166
 20
391.427429
 40
0.5
 50
90.0
 51
180.0
  0
ARC
  8
M0
 62
     7
 10
81.266166
 20
384.777429
 40
0.5
 50
180.0
 51
270.0
  0
LINE
  8
M0
 62
     7
 10
199.401475
 20
379.722551
 11
199.401475
 21
397.922551
  0
LINE
  8
M0
  6
DIVIDE
 62
     7
 10
288.501475
 20
363.002429
 11
282.001475
 21
363.002429
  0
LINE
  8
M0
  6
DIVIDE
 62
     7
 10
288.501475
 20
336.002429
 11
282.001475
 21
336.002429
  0
LINE
  8
M0
  6
DIVIDE
 62
     7
 10
287.501475
 20
362.002429
 11
281.001475
 21
362.002429
  0
LINE
  8
M0
  6
DIVIDE
 62
     7
 10
282.001475
 20
336.002429
 11
282.001475
 21
332.002429
  0
LINE
  8
M0
  6
DIVIDE
 62
     7
 10
287.501475
 20
337.002429
 11
281.001475
 21
337.002429
  0
LINE
  8
M0
  6
DIVIDE
 62
     7
 10
281.001475
 20
337.002429
 11
281.001475
 21
332.002429
  0
LINE
  8
M0
  6
DIVIDE
 62
     7
 10
282.001475
 20
367.002429
 11
281.001475
 21
367.002429
  0
LINE
  8
M0
  6
DIVIDE
 62
     7
 10
288.501475
 20
336.002429
 11
288.501475
 21
363.002429
  0
LINE
  8
M0
  6
DIVIDE
 62
     7
 10
281.001475
 20
367.002429
 11
281.001475
 21
362.002429
  0
LINE
  8
M0
  6
DIVIDE
 62
     7
 10
282.001475
 20
367.002429
 11
282.001475
 21
363.002429
  0
LINE
  8
M0
  6
DIVIDE
 62
     7
 10
281.001475
 20
332.002429
 11
282.001475
 21
332.002429
  0
LINE
  8
M0
  6
DIVIDE
 62
     7
 10
287.501475
 20
362.002429
 11
287.501475
 21
337.002429
  0
LINE
  8
M0
 62
     7
 10
209.701475
 20
347.002429
 11
209.701475
 21
346.002429
  0
LINE
  8
M0
 62
     7
 10
209.701475
 20
352.002429
 11
209.701475
 21
353.002429
  0
LINE
  8
M0
 62
     7
 10
281.701476
 20
332.50243
 11
283.201475
 21
332.50243
  0
LINE
  8
M0
 62
     7
 10
283.201475
 20
332.50243
 11
283.201475
 21
331.702429
  0
LINE
  8
M0
 62
     7
 10
284.901476
 20
314.002428
 11
275.501475
 21
314.002428
  0
LINE
  8
M0
 62
     7
 10
284.901476
 20
314.044173
 11
284.901476
 21
314.002428
  0
LINE
  8
M0
 62
     7
 10
209.701475
 20
346.002429
 11
208.701477
 21
346.002429
  0
LINE
  8
M0
 62
     7
 10
208.701477
 20
352.002429
 11
209.701475
 21
352.002429
  0
LINE
  8
M0
 62
     7
 10
209.701475
 20
346.002429
 11
210.201476
 21
346.002429
  0
LINE
  8
M0
 62
     7
 10
208.701477
 20
347.002429
 11
209.701475
 21
347.002429
  0
LINE
  8
M0
 62
     7
 10
209.701475
 20
353.002429
 11
208.701477
 21
353.002429
  0
LINE
  8
M0
 62
     7
 10
209.701475
 20
353.002429
 11
210.201476
 21
353.002429
  0
LINE
  8
M0
 62
     7
 10
210.201476
 20
347.002429
 11
209.701475
 21
347.002429
  0
ARC
  8
M0
 62
     7
 10
277.701475
 20
331.786201
 40
0.3
 50
0.0
 51
90.0
  0
ARC
  8
M0
 62
     7
 10
277.701475
 20
367.218657
 40
0.3
 50
270.0
 51
360.0
  0
ARC
  8
M0
 62
     7
 10
281.701475
 20
332.002429
 40
0.5
 50
90.0
 51
180.0
  0
ARC
  8
M0
 62
     7
 10
277.701475
 20
363.741874
 40
0.3
 50
0.0
 51
90.0
  0
ARC
  8
M0
 62
     7
 10
277.701475
 20
335.262984
 40
0.3
 50
270.0
 51
360.0
  0
LINE
  8
M0
 62
     7
 10
284.726006
 20
331.701828
 11
283.141476
 21
333.502428
  0
LINE
  8
M0
 62
     7
 10
282.001475
 20
334.002429
 11
282.701476
 21
334.002429
  0
LINE
  8
M0
 62
     7
 10
281.201475
 20
331.702429
 11
281.201475
 21
332.002429
  0
LINE
  8
M0
 62
     7
 10
285.201476
 20
331.202429
 11
285.201476
 21
314.502429
  0
LINE
  8
M0
 62
     7
 10
282.001475
 20
332.50243
 11
282.001475
 21
334.002429
  0
LINE
  8
M0
 62
     7
 10
206.401475
 20
360.502429
 11
208.701477
 21
360.502429
  0
ARC
  8
M0
 62
     7
 10
204.901475
 20
361.002429
 40
0.5
 50
90.0
 51
180.0
  0
ARC
  8
M0
 62
     7
 10
204.901475
 20
342.502429
 40
0.5
 50
90.0
 51
180.0
  0
LINE
  8
M0
 62
     7
 10
205.901474
 20
337.502429
 11
204.901476
 21
337.502429
  0
ARC
  8
M0
 62
     7
 10
239.301475
 20
315.002429
 40
1.0
 50
180.0
 51
270.0
  0
LINE
  8
M0
 62
     7
 10
233.401476
 20
317.00243
 11
238.301475
 21
317.00243
  0
LINE
  8
M0
 62
     7
 10
204.901476
 20
337.502429
 11
208.701477
 21
337.502429
  0
LINE
  8
M0
 62
     7
 10
204.401475
 20
361.002429
 11
204.401475
 21
338.002429
  0
LINE
  8
M0
 62
     7
 10
206.401475
 20
337.502429
 11
206.401475
 21
343.002429
  0
LINE
  8
M0
 62
     7
 10
285.501475
 20
383.252428
 11
285.201476
 21
383.252428
  0
LINE
  8
M0
 62
     7
 10
285.201476
 20
373.752429
 11
285.501475
 21
373.752429
  0
LINE
  8
M0
 62
     7
 10
285.501475
 20
325.252428
 11
285.201476
 21
325.252428
  0
LINE
  8
M0
 62
     7
 10
285.201476
 20
315.752427
 11
285.501475
 21
315.752427
  0
LINE
  8
M0
 62
     7
 10
210.201476
 20
351.002429
 11
209.701475
 21
351.002429
  0
LINE
  8
M0
 62
     7
 10
210.201476
 20
352.002429
 11
209.701475
 21
352.002429
  0
LINE
  8
M0
 62
     7
 10
209.701475
 20
348.002429
 11
209.701475
 21
351.002429
  0
LINE
  8
M0
 62
     7
 10
209.701475
 20
348.002429
 11
210.201476
 21
348.002429
  0
POLYLINE
  8
M0
 62
     7
 66
     1
  0
VERTEX
  8
M0
 62
     7
 10
204.401475
 20
355.809536
  0
VERTEX
  8
M0
 62
     7
 10
204.409071
 20
355.773572
  0
VERTEX
  8
M0
 62
     7
 10
204.431629
 20
355.738701
  0
VERTEX
  8
M0
 62
     7
 10
204.468462
 20
355.705982
  0
VERTEX
  8
M0
 62
     7
 10
204.518453
 20
355.67641
  0
VERTEX
  8
M0
 62
     7
 10
204.580081
 20
355.650883
  0
VERTEX
  8
M0
 62
     7
 10
204.651475
 20
355.630176
  0
VERTEX
  8
M0
 62
     7
 10
204.730465
 20
355.614919
  0
VERTEX
  8
M0
 62
     7
 10
204.814651
 20
355.605575
  0
VERTEX
  8
M0
 62
     7
 10
204.901475
 20
355.602429
  0
SEQEND
  8
M0
 62
     7
  0
LINE
  8
M0
 62
     7
 10
262.201475
 20
366.918656
 11
277.701475
 21
366.918656
  0
ARC
  8
M0
 62
     7
 10
233.401475
 20
318.002429
 40
1.0
 50
237.247324
 51
270.0
  0
POLYLINE
  8
M0
 62
     7
 66
     1
  0
VERTEX
  8
M0
 62
     7
 10
204.401475
 20
354.309536
  0
VERTEX
  8
M0
 62
     7
 10
204.409071
 20
354.273572
  0
VERTEX
  8
M0
 62
     7
 10
204.431629
 20
354.238701
  0
VERTEX
  8
M0
 62
     7
 10
204.468462
 20
354.205982
  0
VERTEX
  8
M0
 62
     7
 10
204.518453
 20
354.17641
  0
VERTEX
  8
M0
 62
     7
 10
204.580081
 20
354.150883
  0
VERTEX
  8
M0
 62
     7
 10
204.651475
 20
354.130176
  0
VERTEX
  8
M0
 62
     7
 10
204.730465
 20
354.114919
  0
VERTEX
  8
M0
 62
     7
 10
204.814651
 20
354.105575
  0
VERTEX
  8
M0
 62
     7
 10
204.901475
 20
354.102429
  0
SEQEND
  8
M0
 62
     7
  0
LINE
  8
M0
 62
     7
 10
277.701475
 20
364.041874
 11
262.201475
 21
364.041874
  0
LINE
  8
M0
 62
     7
 10
262.201475
 20
334.962984
 11
277.701475
 21
334.962984
  0
LINE
  8
M0
 62
     7
 10
277.701475
 20
332.086201
 11
262.201475
 21
332.086201
  0
LINE
  8
M0
 62
     7
 10
234.501476
 20
382.502429
 11
234.501476
 21
380.502428
  0
LINE
  8
M0
 62
     7
 10
238.101475
 20
384.00243
 11
234.501476
 21
382.502429
  0
LINE
  8
M0
 62
     7
 10
238.301475
 20
383.00243
 11
235.501474
 21
381.835762
  0
LINE
  8
M0
 62
     7
 10
243.801475
 20
380.502428
 11
243.801475
 21
384.00243
  0
LINE
  8
M0
 62
     7
 10
238.101475
 20
384.00243
 11
238.101475
 21
393.002428
  0
LINE
  8
M0
 62
     7
 10
248.801475
 20
353.602429
 11
248.901475
 21
353.602429
  0
LINE
  8
M0
 62
     7
 10
243.801475
 20
384.00243
 11
238.101475
 21
384.00243
  0
LINE
  8
M0
 62
     7
 10
255.587262
 20
394.00243
 11
239.101476
 21
394.00243
  0
LINE
  8
M0
 62
     7
 10
242.801475
 20
383.00243
 11
238.301475
 21
383.00243
  0
LINE
  8
M0
 62
     7
 10
285.501475
 20
383.252428
 11
285.501475
 21
373.752429
  0
LINE
  8
M0
 62
     7
 10
235.501474
 20
381.502428
 11
242.801475
 21
381.502428
  0
LINE
  8
M0
 62
     7
 10
242.801475
 20
381.502428
 11
242.801475
 21
383.00243
  0
LINE
  8
M0
 62
     7
 10
235.501474
 20
381.835762
 11
235.501474
 21
381.502428
  0
LINE
  8
M0
 62
     7
 10
285.201476
 20
384.502429
 11
285.201476
 21
365.102429
  0
ARC
  8
M0
 62
     7
 10
255.587262
 20
393.002429
 40
1.0
 50
45.0
 51
90.0
  0
ARC
  8
M0
 62
     7
 10
239.101475
 20
393.002429
 40
1.0
 50
90.0
 51
180.0
  0
ARC
  8
M0
 62
     7
 10
260.001475
 20
388.588215
 40
1.0
 50
0.0
 51
45.0
  0
ARC
  8
M0
 62
     7
 10
241.601475
 20
391.002429
 40
3.0
 50
90.0
 51
180.0
  0
POLYLINE
  8
M0
 62
     7
 66
     1
  0
VERTEX
  8
M0
 62
     7
 10
260.740486
 20
380.502429
  0
VERTEX
  8
M0
 62
     7
 10
260.649371
 20
382.214789
  0
VERTEX
  8
M0
 62
     7
 10
260.550725
 20
383.373503
  0
VERTEX
  8
M0
 62
     7
 10
260.447543
 20
383.943363
  0
VERTEX
  8
M0
 62
     7
 10
260.401475
 20
384.002429
  0
SEQEND
  8
M0
 62
     7
  0
ARC
  8
M0
 62
     7
 10
211.001475
 20
352.802429
 40
1.0
 50
168.463041
 51
180.0
  0
ARC
  8
M0
 62
     7
 10
267.301475
 20
315.002429
 40
1.0
 50
270.0
 51
360.0
  0
LINE
  8
M0
 62
     7
 10
210.001477
 20
352.802429
 11
210.001477
 21
352.002429
  0
LINE
  8
M0
 62
     7
 10
210.001477
 20
347.002429
 11
210.001477
 21
346.002429
  0
LINE
  8
M0
 62
     7
 10
240.401475
 20
346.802429
 11
240.401475
 21
352.202429
  0
LINE
  8
M0
 62
     7
 10
236.901476
 20
352.202429
 11
236.901476
 21
346.802429
  0
ARC
  8
M0
 62
     7
 10
284.901475
 20
365.102429
 40
0.3
 50
270.0
 51
360.0
  0
LINE
  8
M0
 62
     7
 10
268.301475
 20
315.00243
 11
268.301475
 21
318.502429
  0
LINE
  8
M0
 62
     7
 10
250.301475
 20
315.00243
 11
250.301475
 21
314.002428
  0
LINE
  8
M0
 62
     7
 10
261.001475
 20
388.588216
 11
261.001475
 21
380.502428
  0
LINE
  8
M0
 62
     7
 10
243.901475
 20
384.00243
 11
239.201475
 21
384.00243
  0
LINE
  8
M0
 62
     7
 10
243.901475
 20
384.00243
 11
243.901475
 21
380.502428
  0
LINE
  8
M0
 62
     7
 10
260.401475
 20
384.00243
 11
243.901475
 21
384.00243
  0
LINE
  8
M0
 62
     7
 10
283.001476
 20
364.802429
 11
284.901476
 21
364.802429
  0
ARC
  8
M0
 62
     7
 10
284.701475
 20
331.202429
 40
0.5
 50
0.0
 51
90.0
  0
LINE
  8
M0
 62
     7
 10
250.301475
 20
359.602429
 11
250.301475
 21
380.502428
  0
ARC
  8
M0
 62
     7
 10
284.701475
 20
314.502429
 40
0.5
 50
270.0
 51
360.0
  0
ARC
  8
M0
 62
     7
 10
284.701475
 20
367.802429
 40
0.5
 50
270.0
 51
360.0
  0
LINE
  8
M0
 62
     7
 10
283.001476
 20
364.802429
 11
282.001475
 21
365.802429
  0
LINE
  8
M0
 62
     7
 10
282.001475
 20
365.802429
 11
282.001475
 21
367.302429
  0
ARC
  8
M0
 62
     7
 10
204.901475
 20
338.002429
 40
0.5
 50
180.0
 51
270.0
  0
LINE
  8
M0
 62
     7
 10
269.601475
 20
384.00243
 11
274.501475
 21
384.00243
  0
LINE
  8
M0
 62
     7
 10
261.001475
 20
388.588216
 11
261.001475
 21
386.452428
  0
LINE
  8
M0
 62
     7
 10
268.701476
 20
383.702428
 11
268.701476
 21
380.502428
  0
LINE
  8
M0
 62
     7
 10
281.001475
 20
364.802429
 11
281.001475
 21
367.302429
  0
LINE
  8
M0
 62
     7
 10
256.294368
 20
393.709536
 11
260.708582
 21
389.29532
  0
LINE
  8
M0
 62
     7
 10
268.701476
 20
383.702428
 11
268.701476
 21
384.00243
  0
LINE
  8
M0
 62
     7
 10
268.701476
 20
384.00243
 11
274.501475
 21
384.00243
  0
LINE
  8
M0
 62
     7
 10
285.201476
 20
383.502429
 11
285.201476
 21
382.952429
  0
LINE
  8
M0
 62
     7
 10
261.001475
 20
384.00243
 11
261.001475
 21
380.502428
  0
ARC
  8
M0
 62
     7
 10
230.601475
 20
374.202429
 40
3.0
 50
90.0
 51
180.0
  0
ARC
  8
M0
 62
     7
 10
230.601475
 20
324.802429
 40
3.0
 50
180.0
 51
270.0
  0
ARC
  8
M0
 62
     7
 10
241.558834
 20
374.202429
 40
3.0
 50
45.0
 51
90.0
  0
ARC
  8
M0
 62
     7
 10
241.558834
 20
324.802429
 40
3.0
 50
270.0
 51
315.0
  0
ARC
  8
M0
 62
     7
 10
211.701475
 20
366.602429
 40
3.0
 50
90.0
 51
180.0
  0
ARC
  8
M0
 62
     7
 10
210.201475
 20
344.802429
 40
1.0
 50
0.0
 51
90.0
  0
ARC
  8
M0
 62
     7
 10
224.601475
 20
372.602429
 40
3.0
 50
270.0
 51
360.0
  0
ARC
  8
M0
 62
     7
 10
224.601475
 20
326.402429
 40
3.0
 50
0.0
 51
90.0
  0
ARC
  8
M0
 62
     7
 10
236.701475
 20
351.702429
 40
0.5
 50
90.0
 51
180.0
  0
LINE
  8
M0
 62
     7
 10
210.701474
 20
329.574001
 11
210.701474
 21
317.00243
  0
ARC
  8
M0
 62
     7
 10
236.701475
 20
347.302429
 40
0.5
 50
180.0
 51
270.0
  0
LINE
  8
M0
 62
     7
 10
210.701474
 20
382.002429
 11
210.701474
 21
369.430856
  0
LINE
  8
M0
 62
     7
 10
250.301475
 20
364.602429
 11
257.701475
 21
364.602429
  0
LINE
  8
M0
 62
     7
 10
257.701475
 20
369.602428
 11
250.301475
 21
369.602428
  0
LINE
  8
M0
 62
     7
 10
250.301475
 20
359.602429
 11
249.401475
 21
359.602429
  0
LINE
  8
M0
 62
     7
 10
262.201475
 20
334.962984
 11
262.201475
 21
332.086201
  0
LINE
  8
M0
 62
     7
 10
262.201475
 20
366.918656
 11
262.201475
 21
364.041874
  0
LINE
  8
M0
 62
     7
 10
275.501475
 20
385.00243
 11
284.701475
 21
385.00243
  0
ARC
  8
M0
 62
     7
 10
209.701475
 20
354.202429
 40
1.0
 50
180.0
 51
270.0
  0
ARC
  8
M0
 62
     7
 10
228.458834
 20
317.002429
 40
3.0
 50
270.0
 51
315.0
  0
ARC
  8
M0
 62
     7
 10
211.701475
 20
332.402429
 40
3.0
 50
180.0
 51
270.0
  0
ARC
  8
M0
 62
     7
 10
209.701475
 20
344.802429
 40
1.0
 50
90.0
 51
180.0
  0
ARC
  8
M0
 62
     7
 10
213.701475
 20
317.002429
 40
3.0
 50
180.0
 51
270.0
  0
LINE
  8
M0
 62
     7
 10
278.001475
 20
331.702429
 11
284.701475
 21
331.702429
  0
ARC
  8
M0
 62
     7
 10
228.458834
 20
382.002429
 40
3.0
 50
45.0
 51
90.0
  0
ARC
  8
M0
 62
     7
 10
213.701475
 20
382.002429
 40
3.0
 50
90.0
 51
180.0
  0
ARC
  8
M0
 62
     7
 10
210.201475
 20
354.202429
 40
1.0
 50
270.0
 51
360.0
  0
LINE
  8
M0
 62
     7
 10
245.801475
 20
324.80243
 11
243.680154
 21
322.681108
  0
LINE
  8
M0
 62
     7
 10
211.201475
 20
344.802429
 11
211.201475
 21
354.202429
  0
LINE
  8
M0
 62
     7
 10
241.558834
 20
321.802429
 11
230.601475
 21
321.802429
  0
LINE
  8
M0
 62
     7
 10
227.601475
 20
372.602429
 11
227.601475
 21
374.20243
  0
LINE
  8
M0
 62
     7
 10
243.680154
 20
376.32375
 11
245.801475
 21
374.20243
  0
LINE
  8
M0
 62
     7
 10
230.601475
 20
377.202428
 11
241.558834
 21
377.202428
  0
LINE
  8
M0
 62
     7
 10
245.801475
 20
374.20243
 11
274.501475
 21
374.20243
  0
LINE
  8
M0
 62
     7
 10
236.201475
 20
351.702429
 11
236.201475
 21
347.302429
  0
LINE
  8
M0
 62
     7
 10
236.701476
 20
346.802429
 11
248.901475
 21
346.802429
  0
LINE
  8
M0
 62
     7
 10
248.901475
 20
352.202429
 11
236.701476
 21
352.202429
  0
LINE
  8
M0
 62
     7
 10
250.301475
 20
325.002429
 11
245.801475
 21
324.80243
  0
LINE
  8
M0
 62
     7
 10
274.501475
 20
380.502428
 11
234.201475
 21
380.502428
  0
LINE
  8
M0
 62
     7
 10
213.701476
 20
314.002428
 11
228.458835
 21
314.002428
  0
LINE
  8
M0
 62
     7
 10
228.458835
 20
385.00243
 11
213.701476
 21
385.00243
  0
LINE
  8
M0
 62
     7
 10
234.201475
 20
380.502428
 11
230.580155
 21
384.123749
  0
LINE
  8
M0
 62
     7
 10
230.580155
 20
314.881108
 11
234.201475
 21
318.502429
  0
LINE
  8
M0
 62
     7
 10
210.201476
 20
353.202429
 11
210.201476
 21
345.802429
  0
LINE
  8
M0
 62
     7
 10
209.701475
 20
353.202429
 11
210.201476
 21
353.202429
  0
LINE
  8
M0
 62
     7
 10
224.601476
 20
329.402429
 11
211.701476
 21
329.402429
  0
LINE
  8
M0
 62
     7
 10
211.701476
 20
369.602428
 11
224.601476
 21
369.602428
  0
LINE
  8
M0
 62
     7
 10
210.201476
 20
345.802429
 11
209.701475
 21
345.802429
  0
LINE
  8
M0
 62
     7
 10
208.701477
 20
332.402428
 11
208.701477
 21
366.602429
  0
ARC
  8
M0
 62
     7
 10
249.401475
 20
359.102429
 40
0.5
 50
90.0
 51
180.0
  0
ARC
  8
M0
 62
     7
 10
280.501475
 20
336.202429
 40
0.5
 50
270.0
 51
360.0
  0
ARC
  8
M0
 62
     7
 10
280.501475
 20
362.802429
 40
0.5
 50
0.0
 51
90.0
  0
ARC
  8
M0
 62
     7
 10
249.401475
 20
339.902429
 40
0.5
 50
180.0
 51
270.0
  0
LINE
  8
M0
 62
     7
 10
273.501475
 20
318.502429
 11
234.201475
 21
318.502429
  0
LINE
  8
M0
 62
     7
 10
273.501475
 20
318.502429
 11
273.501475
 21
319.00243
  0
LINE
  8
M0
 62
     7
 10
274.501475
 20
317.00243
 11
273.501475
 21
317.00243
  0
LINE
  8
M0
 62
     7
 10
273.501475
 20
317.502427
 11
273.501475
 21
318.502429
  0
LINE
  8
M0
 62
     7
 10
273.501475
 20
319.00243
 11
274.501475
 21
319.00243
  0
LINE
  8
M0
 62
     7
 10
285.201476
 20
376.052429
 11
285.201476
 21
373.902428
  0
LINE
  8
M0
 62
     7
 10
273.501475
 20
317.00243
 11
273.501475
 21
317.502427
  0
LINE
  8
M0
 62
     7
 10
281.301475
 20
361.802429
 11
281.301475
 21
363.802429
  0
LINE
  8
M0
 62
     7
 10
208.701477
 20
361.502429
 11
204.901476
 21
361.502429
  0
LINE
  8
M0
 62
     7
 10
204.901476
 20
354.102429
 11
208.701477
 21
354.102429
  0
LINE
  8
M0
 62
     7
 10
206.401475
 20
360.502429
 11
206.401475
 21
354.102429
  0
LINE
  8
M0
 62
     7
 10
206.401475
 20
355.602429
 11
204.901476
 21
355.602429
  0
LINE
  8
M0
 62
     7
 10
206.401475
 20
343.002429
 11
204.901476
 21
343.002429
  0
LINE
  8
M0
 62
     7
 10
238.601475
 20
384.00243
 11
238.601475
 21
391.002427
  0
LINE
  8
M0
 62
     7
 10
239.301475
 20
314.002428
 11
242.301475
 21
314.002428
  0
ARC
  8
M0
 62
     7
 10
275.501475
 20
315.002429
 40
1.0
 50
180.0
 51
270.0
  0
ARC
  8
M0
 62
     7
 10
284.701475
 20
384.502429
 40
0.5
 50
0.0
 51
90.0
  0
ARC
  8
M0
 62
     7
 10
275.501475
 20
384.002429
 40
1.0
 50
90.0
 51
180.0
  0
LINE
  8
M0
 62
     7
 10
250.301475
 20
314.002428
 11
250.301475
 21
339.402429
  0
LINE
  8
M0
 62
     7
 10
238.301475
 20
318.502429
 11
238.301475
 21
315.00243
  0
LINE
  8
M0
 62
     7
 10
239.301475
 20
314.002428
 11
267.301475
 21
314.002428
  0
LINE
  8
M0
 62
     7
 10
280.501476
 20
335.702428
 11
278.001475
 21
335.702428
  0
LINE
  8
M0
 62
     7
 10
278.001475
 20
363.302429
 11
280.501476
 21
363.302429
  0
LINE
  8
M0
 62
     7
 10
278.001475
 20
363.741874
 11
278.001475
 21
363.302429
  0
LINE
  8
M0
 62
     7
 10
278.001475
 20
335.702428
 11
278.001475
 21
335.262983
  0
LINE
  8
M0
 62
     7
 10
250.301475
 20
339.402429
 11
249.401475
 21
339.402429
  0
LINE
  8
M0
 62
     7
 10
250.301475
 20
329.402429
 11
257.701475
 21
329.402429
  0
LINE
  8
M0
 62
     7
 10
257.701475
 20
334.402428
 11
250.301475
 21
334.402428
  0
LINE
  8
M0
 62
     7
 10
248.901475
 20
359.102429
 11
248.901475
 21
339.902429
  0
LINE
  8
M0
 62
     7
 10
284.701475
 20
367.302429
 11
278.001475
 21
367.302429
  0
LINE
  8
M0
 62
     7
 10
227.601475
 20
324.80243
 11
227.601475
 21
326.402429
  0
LINE
  8
M0
 62
     7
 10
285.501475
 20
325.252428
 11
285.501475
 21
315.752427
  0
LINE
  8
M0
 62
     7
 10
281.001475
 20
361.302429
 11
281.301475
 21
361.802429
  0
LINE
  8
M0
 62
     7
 10
281.301475
 20
363.802429
 11
281.001475
 21
364.802429
  0
LINE
  8
M0
 62
     7
 10
281.001475
 20
367.302429
 11
281.001475
 21
331.702429
  0
LINE
  8
M0
 62
     7
 10
274.501475
 20
374.20243
 11
274.501475
 21
384.002429
  0
LINE
  8
M0
 62
     7
 10
257.701475
 20
364.602429
 11
257.701475
 21
369.602428
  0
LINE
  8
M0
 62
     7
 10
257.701475
 20
329.402429
 11
257.701475
 21
334.402428
  0
LINE
  8
M0
 62
     7
 10
274.501475
 20
325.002429
 11
250.301475
 21
325.002429
  0
LINE
  8
M0
 62
     7
 10
274.501475
 20
315.002429
 11
274.501475
 21
325.002429
  0
LINE
  8
M0
 62
     7
 10
282.701476
 20
334.002429
 11
282.708159
 21
333.994833
  0
LINE
  8
M0
 62
     7
 10
282.708159
 20
333.994833
 11
282.728011
 21
333.972275
  0
LINE
  8
M0
 62
     7
 10
282.728011
 20
333.972275
 11
282.760423
 21
333.935441
  0
LINE
  8
M0
 62
     7
 10
282.760423
 20
333.935441
 11
282.804415
 21
333.885451
  0
LINE
  8
M0
 62
     7
 10
282.804415
 20
333.885451
 11
282.858648
 21
333.823822
  0
LINE
  8
M0
 62
     7
 10
282.858648
 20
333.823822
 11
282.921475
 21
333.752429
  0
LINE
  8
M0
 62
     7
 10
282.921475
 20
333.752429
 11
282.990987
 21
333.673439
  0
LINE
  8
M0
 62
     7
 10
282.990987
 20
333.673439
 11
283.06507
 21
333.589253
  0
LINE
  8
M0
 62
     7
 10
283.06507
 20
333.589253
 11
283.141476
 21
333.502428
  0
LINE
  8
M0
 62
     7
 10
206.401475
 20
360.502429
 11
206.227828
 21
360.676077
  0
LINE
  8
M0
 62
     7
 10
206.227828
 20
360.676077
 11
206.059456
 21
360.844449
  0
LINE
  8
M0
 62
     7
 10
206.059456
 20
360.844449
 11
205.901474
 21
361.002429
  0
LINE
  8
M0
 62
     7
 10
205.901474
 20
361.002429
 11
205.758688
 21
361.145216
  0
LINE
  8
M0
 62
     7
 10
205.758688
 20
361.145216
 11
205.635429
 21
361.268473
  0
LINE
  8
M0
 62
     7
 10
205.635429
 20
361.268473
 11
205.53545
 21
361.368454
  0
LINE
  8
M0
 62
     7
 10
205.53545
 20
361.368454
 11
205.461782
 21
361.442121
  0
LINE
  8
M0
 62
     7
 10
205.461782
 20
361.442121
 11
205.416669
 21
361.487236
  0
LINE
  8
M0
 62
     7
 10
205.416669
 20
361.487236
 11
205.401477
 21
361.502429
  0
LINE
  8
M0
  6
DASHED
 62
     7
 10
173.101476
 20
351.802422
 11
173.101476
 21
349.002423
  0
LINE
  8
M0
  6
DASHED
 62
     7
 10
173.101476
 20
351.802422
 11
174.701475
 21
351.802422
  0
LINE
  8
M0
  6
DASHED
 62
     7
 10
174.701475
 20
349.002423
 11
173.101476
 21
349.002423
  0
LINE
  8
M0
  6
DASHED
 62
     7
 10
208.201475
 20
368.202416
 11
198.801475
 21
368.202416
  0
LINE
  8
M0
  6
DASHED
 62
     7
 10
208.201476
 20
332.802429
 11
203.401475
 21
332.802429
  0
LINE
  8
M0
  6
DASHED
 62
     7
 10
174.701475
 20
331.102422
 11
174.701475
 21
369.902422
  0
ARC
  8
M0
  6
DASHED
 62
     7
 10
178.701475
 20
331.102422
 40
4.0
 50
180.0
 51
270.0
  0
ARC
  8
M0
  6
DASHED
 62
     7
 10
193.801475
 20
332.102422
 40
5.0
 50
270.0
 51
360.0
  0
ARC
  8
M0
  6
DASHED
 62
     7
 10
208.201475
 20
333.302428
 40
0.5
 50
270.0
 51
360.0
  0
ARC
  8
M0
  6
DASHED
 62
     7
 10
178.701475
 20
369.902422
 40
4.0
 50
90.0
 51
180.0
  0
ARC
  8
M0
  6
DASHED
 62
     7
 10
193.801475
 20
368.902422
 40
5.0
 50
0.0
 51
90.0
  0
ARC
  8
M0
  6
DASHED
 62
     7
 10
208.201475
 20
367.702416
 40
0.5
 50
0.0
 51
90.0
  0
LINE
  8
M0
  6
DASHED
 62
     7
 10
198.801475
 20
368.202416
 11
198.801475
 21
368.902422
  0
LINE
  8
M0
  6
DASHED
 62
     7
 10
193.801475
 20
373.902423
 11
178.701475
 21
373.902423
  0
LINE
  8
M0
  6
DASHED
 62
     7
 10
206.601475
 20
368.202416
 11
206.601475
 21
370.202422
  0
LINE
  8
M0
  6
DASHED
 62
     7
 10
207.001475
 20
370.202422
 11
207.601477
 21
368.202416
  0
LINE
  8
M0
  6
DASHED
 62
     7
 10
206.601475
 20
370.202422
 11
207.001475
 21
370.202422
  0
LINE
  8
M0
  6
DASHED
 62
     7
 10
208.201476
 20
332.802429
 11
198.801475
 21
332.802429
  0
LINE
  8
M0
  6
DASHED
 62
     7
 10
198.801475
 20
332.802429
 11
198.801475
 21
332.102422
  0
LINE
  8
M0
  6
DASHED
 62
     7
 10
193.801475
 20
327.102422
 11
178.701475
 21
327.102422
  0
LINE
  8
M0
  6
DASHDOT
 62
     7
 10
95.491167
 20
244.099965
 11
95.491167
 21
154.223521
  0
LINE
  8
M0
 62
     7
 10
95.666354
 20
221.139105
 11
95.578791
 21
221.139107
  0
LINE
  8
M0
 62
     7
 10
95.578791
 20
221.139107
 11
95.491183
 21
221.139107
  0
LINE
  8
M0
 62
     7
 10
95.491183
 20
221.139107
 11
95.403576
 21
221.139107
  0
LINE
  8
M0
 62
     7
 10
95.403576
 20
221.139107
 11
95.316009
 21
221.139108
  0
LINE
  8
M0
  6
DIVIDE
 62
     7
 10
78.772613
 20
239.145638
 11
78.769365
 21
239.037359
  0
LINE
  8
M0
  6
DIVIDE
 62
     7
 10
78.773705
 20
239.182097
 11
78.772613
 21
239.145638
  0
LINE
  8
M0
  6
DIVIDE
 62
     7
 10
78.737707
 20
237.9821
 11
78.72633
 21
237.602947
  0
LINE
  8
M0
  6
DIVIDE
 62
     7
 10
78.747985
 20
238.324789
 11
78.737707
 21
237.9821
  0
LINE
  8
M0
  6
DIVIDE
 62
     7
 10
78.714208
 20
237.198853
 11
78.701706
 21
236.782098
  0
LINE
  8
M0
  6
DIVIDE
 62
     7
 10
78.72633
 20
237.602947
 11
78.714208
 21
237.198853
  0
LINE
  8
M0
  6
DIVIDE
 62
     7
 10
78.769365
 20
239.037359
 11
78.76406
 21
238.86056
  0
LINE
  8
M0
  6
DIVIDE
 62
     7
 10
64.09117
 20
230.764107
 11
64.09117
 21
159.764105
  0
LINE
  8
M0
  6
DIVIDE
 62
     7
 10
78.791179
 20
239.764107
 11
78.747985
 21
238.324789
  0
LINE
  8
M0
  6
DIVIDE
 62
     7
 10
64.09117
 20
159.764105
 11
95.491167
 21
159.764105
  0
LINE
  8
M0
  6
DIVIDE
 62
     7
 10
78.521167
 20
230.764107
 11
64.09117
 21
230.764107
  0
LINE
  8
M0
  6
DIVIDE
 62
     7
 10
78.791168
 20
239.764107
 11
95.491167
 21
239.764107
  0
LINE
  8
M0
  6
DIVIDE
 62
     7
 10
78.701706
 20
236.782098
 11
78.521167
 21
230.764107
  0
LINE
  8
M0
  6
DIVIDE
 62
     7
 10
78.76406
 20
238.86056
 11
78.756863
 21
238.620607
  0
LINE
  8
M0
  6
DIVIDE
 62
     7
 10
75.991166
 20
230.764107
 11
76.191166
 21
230.764107
  0
LINE
  8
M0
  6
DIVIDE
 62
     7
 10
75.791166
 20
230.764107
 11
76.191166
 21
230.764107
  0
ARC
  8
M0
  6
DIVIDE
 62
     7
 10
75.491166
 20
229.764106
 40
1.0
 50
81.373073
 51
90.0
  0
LINE
  8
M0
  6
DASHDOT
 62
     7
 10
72.588571
 20
225.264106
 11
64.393762
 21
225.264106
  0
LINE
  8
M0
  6
DASHDOT
 62
     7
 10
68.491159
 20
229.361503
 11
68.491174
 21
221.166694
  0
LINE
  8
M0
  6
DASHDOT
 62
     7
 10
126.588571
 20
166.264106
 11
118.393762
 21
166.264106
  0
LINE
  8
M0
  6
DASHDOT
 62
     7
 10
122.491159
 20
170.361503
 11
122.491174
 21
161.166694
  0
LINE
  8
M0
  6
DIVIDE
 62
     7
 10
126.891163
 20
176.164107
 11
126.891163
 21
173.164106
  0
LINE
  8
M0
  6
DIVIDE
 62
     7
 10
126.891163
 20
218.364106
 11
126.891163
 21
214.364106
  0
LINE
  8
M0
  6
DIVIDE
 62
     7
 10
112.20972
 20
239.145638
 11
112.212968
 21
239.037359
  0
LINE
  8
M0
  6
DIVIDE
 62
     7
 10
112.208628
 20
239.182097
 11
112.20972
 21
239.145638
  0
LINE
  8
M0
  6
DIVIDE
 62
     7
 10
126.891163
 20
171.564107
 11
126.891163
 21
159.764105
  0
LINE
  8
M0
  6
DIVIDE
 62
     7
 10
126.891163
 20
173.164106
 11
126.891163
 21
171.564107
  0
LINE
  8
M0
  6
DIVIDE
 62
     7
 10
126.891163
 20
219.964107
 11
126.891163
 21
218.364106
  0
LINE
  8
M0
  6
DIVIDE
 62
     7
 10
112.244626
 20
237.9821
 11
112.256003
 21
237.602947
  0
LINE
  8
M0
  6
DIVIDE
 62
     7
 10
112.234348
 20
238.324789
 11
112.244626
 21
237.9821
  0
LINE
  8
M0
  6
DIVIDE
 62
     7
 10
112.268125
 20
237.198853
 11
112.280627
 21
236.782098
  0
LINE
  8
M0
  6
DIVIDE
 62
     7
 10
112.256003
 20
237.602947
 11
112.268125
 21
237.198853
  0
LINE
  8
M0
  6
DIVIDE
 62
     7
 10
112.212968
 20
239.037359
 11
112.218273
 21
238.86056
  0
LINE
  8
M0
  6
DIVIDE
 62
     7
 10
126.891163
 20
221.964106
 11
126.891163
 21
219.964107
  0
LINE
  8
M0
  6
DIVIDE
 62
     7
 10
112.191155
 20
239.764107
 11
112.234348
 21
238.324789
  0
LINE
  8
M0
  6
DIVIDE
 62
     7
 10
126.891163
 20
159.764105
 11
95.491167
 21
159.764105
  0
LINE
  8
M0
  6
DIVIDE
 62
     7
 10
126.891163
 20
230.764107
 11
126.891163
 21
221.964106
  0
LINE
  8
M0
  6
DIVIDE
 62
     7
 10
126.891163
 20
190.564107
 11
126.891163
 21
199.964106
  0
LINE
  8
M0
  6
DIVIDE
 62
     7
 10
112.461166
 20
230.764107
 11
126.891163
 21
230.764107
  0
LINE
  8
M0
  6
DIVIDE
 62
     7
 10
112.191165
 20
239.764107
 11
95.491167
 21
239.764107
  0
LINE
  8
M0
  6
DIVIDE
 62
     7
 10
112.280627
 20
236.782098
 11
112.461166
 21
230.764107
  0
LINE
  8
M0
  6
DIVIDE
 62
     7
 10
126.891163
 20
169.564107
 11
126.891163
 21
165.764108
  0
LINE
  8
M0
  6
DIVIDE
 62
     7
 10
126.891163
 20
190.564107
 11
126.891163
 21
178.164105
  0
LINE
  8
M0
  6
DIVIDE
 62
     7
 10
126.891163
 20
214.364106
 11
126.891163
 21
212.364106
  0
LINE
  8
M0
  6
DIVIDE
 62
     7
 10
112.218273
 20
238.86056
 11
112.22547
 21
238.620607
  0
LINE
  8
M0
  6
DIVIDE
 62
     7
 10
114.991167
 20
230.764107
 11
114.791167
 21
230.764107
  0
LINE
  8
M0
  6
DIVIDE
 62
     7
 10
115.191167
 20
230.764107
 11
114.791167
 21
230.764107
  0
ARC
  8
M0
  6
DIVIDE
 62
     7
 10
115.491167
 20
229.764106
 40
1.0
 50
90.0
 51
98.626927
  0
LINE
  8
M0
  6
DIVIDE
 62
     7
 10
126.891163
 20
212.364106
 11
126.891163
 21
199.964106
  0
LINE
  8
M0
  6
DIVIDE
 62
     7
 10
126.891163
 20
178.164105
 11
126.891163
 21
176.164107
  0
LINE
  8
M3
 62
     2
 10
333.003619
 20
67.593652
 11
166.336959
 21
67.593652
  0
LINE
  8
M3
 62
     2
 10
16.336965
 20
17.593654
 11
16.336965
 21
475.92697
  0
LINE
  8
M3
 62
     2
 10
333.003619
 20
17.593654
 11
16.336965
 21
17.593654
  0
LINE
  8
M3
 62
     2
 10
333.003619
 20
34.26032
 11
166.336959
 21
34.26032
  0
TEXT
  8
M3
 62
     2
 10
169.948066
 20
38.426987
 40
8.333333
  1
形　式；
 41
1.0
  7
STANDARD
  0
LINE
  8
M3
 62
     2
 10
333.003619
 20
50.926986
 11
166.336959
 21
50.926986
  0
TEXT
  8
M3
 62
     2
 10
169.948066
 20
55.093653
 40
8.333333
  1
登録名：
 41
1.0
  7
STANDARD
  0
LINE
  8
M3
 62
     2
 10
166.336959
 20
17.593654
 11
166.336959
 21
67.593652
  0
TEXT
  8
M3
 62
     2
 10
169.948066
 20
21.760321
 40
8.333333
  1
適　用；
 41
1.0
  7
STANDARD
  0
LINE
  8
M3
 62
     2
 10
16.336965
 20
475.92697
 11
333.003619
 21
475.92697
  0
LINE
  8
M3
 62
     2
 10
333.003619
 20
475.92697
 11
333.003619
 21
17.593654
  0
TEXT
  8
M3
 62
     2
 10
210.22585
 20
38.426987
 40
8.333333
  1
ＨＳ２０
 41
0.5
  7
STANDARD
  0
TEXT
  8
M3
 62
     2
 10
210.22585
 20
55.093653
 40
8.333333
  1
ＤＭＨＳ２０Ｒ００
 41
0.5
  7
STANDARD
  0
LINE
  8
DN0
 10
82.893568
 20
126.329356
 11
109.943561
 21
126.329356
  0
TEXT
  8
DN0
 10
83.64079
 20
126.996023
 40
6.666666
  1
せん孔図
 41
0.833333
  7
STANDARD
  0
ENDSEC
  0
EOF
