  0
SECTION
  2
HEADER
  9
$ACADVER
  1
AC1014
  9
$INSBASE
 10
0.000000
 20
0.000000
 30
0.0
  9
$VIEWCTR
 10
7.531722
 20
4.5
  9
$VIEWSIZE
 40
9.0
  9
$SNAPMODE
 70
     0
  9
$SNAPUNIT
 10
1.0
 20
1.0
  9
$SNAPBASE
 10
0.0
 20
0.0
  9
$SNAPANG
 50
0.0
  9
$SNAPSTYLE
 70
     0
  9
$SNAPISOPAIR
 70
     0
  9
$GRIDMODE
 70
     0
  9
$GRIDUNIT
 10
0.0
 20
0.0
  9
$ORTHOMODE
 70
     0
  9
$REGENMODE
 70
     1
  9
$FILLMODE
 70
     1
  9
$QTEXTMODE
 70
     0
  9
$DRAGMODE
 70
     2
  9
$LTSCALE
  40
     1.000000
  9
$OSMODE
 70
     0
  9
$ATTMODE
 70
     1
  9
$TEXTSIZE
 40
0.2
  9
$TRACEWID
 40
0.05
  9
$TEXTSTYLE
  7
STANDARD
  9
$CELTYPE
  6
BYLAYER
  9
$CECOLOR
 62
   256
  9
$DIMSCALE
 40
1.0
  9
$DIMASZ
 40
0.18
  9
$DIMEXO
 40
0.0625
  9
$DIMDLI
 40
0.38
  9
$DIMRND
 40
0.0
  9
$DIMDLE
 40
0.0
  9
$DIMEXE
 40
0.18
  9
$DIMTP
 40
0.0
  9
$DIMTM
 40
0.0
  9
$DIMTXT
 40
0.18
  9
$DIMCEN
 40
0.09
  9
$DIMTSZ
 40
0.0
  9
$DIMTOL
 70
     0
  9
$DIMLIM
 70
     0
  9
$DIMTIH
 70
     1
  9
$DIMTOH
 70
     1
  9
$DIMSE1
 70
     0
  9
$DIMSE2
 70
     0
  9
$DIMTAD
 70
     0
  9
$DIMZIN
 70
     0
  9
$DIMBLK
  1

  9
$LUNITS
 70
     2
  9
$LUPREC
 70
     4
  9
$AXISMODE
 70
     0
  9
$AXISUNIT
 10
0.0
 20
0.0
  9
$SKETCHINC
 40
0.1
  9
$FILLETRAD
 40
0.0
  9
$AUNITS
 70
     0
  9
$AUPREC
 70
     0
  9
$MENU
  1
ACAD
  9
$ELEVATION
 40
0.0
  9
$THICKNESS
 40
0.0
  9
$VIEWDIR
 10
0.0
 20
0.0
 30
1.0
  9
$LIMCHECK
 70
     0
  9
$BLIPMODE
 70
     1
  9
$CHAMFERA
 40
0.0
  9
$CHAMFERB
 40
0.0
  9
$FASTZOOM
 70
     1
  9
$SKPOLY
 70
     0
  9
$TDCREATE
 40
0000000.0000000000
  9
$TDUPDATE
 40
0000000.0000000000
  9
$TDINDWG
 40
0.0000000000
  9
$TDUSRTIMER
 40
0.0000000000
  9
$USRTIMER
 70
     1
  9
$ANGBASE
 50
0.0
  9
$ANGDIR
 70
     0
  9
$PDMODE
 70
     0
  9
$PDSIZE
 40
0.0
  9
$PLINEWID
 40
0.0
  9
$COORDS
 70
     0
  9
$USERI1
 70
     0
  9
$USERI2
 70
     0
  9
$USERI3
 70
     0
  9
$USERI4
 70
     0
  9
$USERI5
 70
     0
  9
$USERR1
 40
0.0
  9
$USERR2
 40
0.0
  9
$USERR3
 40
0.0
  9
$USERR4
 40
0.0
  9
$USERR5
 40
0.0
  9
$CLAYER
  8
M0
  9
$EXTMIN
 10
15.384616
 20
15.384616
  9
$EXTMAX
 10
307.692319
 20
438.461555
  9
$LIMMIN
 10
0.0
 20
0.0
  9
$LIMMAX
 10
210.0
 20
297.0
  9
$HANDSEED
  5
54B
  0
ENDSEC
  0
SECTION
  2
CLASSES
  0
CLASS
  1
LWPOLYLINE
  2
AcDbPolyline
  3
"AutoCAD"
 90
        0
280
     0
281
     1
  0
CLASS
  1
DICTIONARYVAR
  2
AcDbDictionaryVar
  3
"AutoCAD"
 90
        0
280
     0
281
     0
  0
CLASS
  1
HATCH
  2
AcDbHatch
  3
"ACAD_SEDONA"
 90
        0
280
     0
281
     1
  0
ENDSEC
  0
SECTION
  2
TABLES
  0
TABLE
  2
VPORT
  5
8
100
AcDbSymbolTable
 70
     2
  0
VPORT
  5
14
100
AcDbSymbolTableRecord
100
AcDbViewportTableRecord
  2
*ACTIVE
 70
     0
 10
0.0
 20
0.0
 11
1.0
 21
1.0
 12
484.0
 22
297.0
 13
0.0
 23
0.0
 14
1.0
 24
1.0
 15
0.0
 25
0.0
 16
0.0
 26
0.0
 36
1.0
 17
0.0
 27
0.0
 37
0.0
 40
594.0
 41
2.0
 42
50.0
 43
0.0
 44
0.0
 50
0.0
 51
0.0
 71
     0
 72
   100
 73
     1
 74
     1
 75
     0
 76
     0
 77
     0
 78
     0
  0
ENDTAB
  0
TABLE
  2
LTYPE
  5
5
100
AcDbSymbolTable
 70
     5
  0
LTYPE
  5
15
100
AcDbSymbolTableRecord
100
AcDbLinetypeTableRecord
  2
BYBLOCK
 70
     0
  3

 72
    65
 73
     0
 40
0.0
  0
LTYPE
  5
16
100
AcDbSymbolTableRecord
100
AcDbLinetypeTableRecord
  2
BYLAYER
 70
     0
  3

 72
    65
 73
     0
 40
0.0
  0
LTYPE
  5
17
100
AcDbSymbolTableRecord
100
AcDbLinetypeTableRecord
  2
CONTINUOUS
 70
    64
  3
Solid line
 72
    65
 73
     0
 40
0.0
  0
LTYPE
  5
18
100
AcDbSymbolTableRecord
100
AcDbLinetypeTableRecord
  2
DASHED
 70
    64
  3
__ __ __ __ __ __ __ __ __ __ __ __ __ __ __ __
 72
    65
 73
     2
 40
0.75
 49
0.5
 74
     0
 49
-0.25
 74
     0
  0
LTYPE
  5
19
100
AcDbSymbolTableRecord
100
AcDbLinetypeTableRecord
  2
DASHDOT
 70
    64
  3
__ . __ . __ . __ . __ . __ . __ . __ . __ . __
 72
    65
 73
     4
 40
1.0
 49
0.5
 74
     0
 49
-0.25
 74
     0
 49
0.0
 74
     0
 49
-0.25
 74
     0
  0
LTYPE
  5
1A
100
AcDbSymbolTableRecord
100
AcDbLinetypeTableRecord
  2
DIVIDE
 70
    64
  3
____ . . ____ . . ____ . . ____ . . ____ . . __
 72
    65
 73
     6
 40
1.25
 49
0.5
 74
     0
 49
-0.25
 74
     0
 49
0.0
 74
     0
 49
-0.25
 74
     0
 49
0.0
 74
     0
 49
-0.25
 74
     0
  0
LTYPE
  5
1B
100
AcDbSymbolTableRecord
100
AcDbLinetypeTableRecord
  2
DOT
 70
    64
  3
. . . . . . . . . . . . . . . . . . . . . . . .
 72
    65
 73
     2
 40
0.25
 49
0.0
 74
     0
 49
-0.25
 74
     0
  0
ENDTAB
  0
TABLE
  2
LAYER
  5
2
100
AcDbSymbolTable
 70
   102
  0
LAYER
  5
F
100
AcDbSymbolTableRecord
100
AcDbLayerTableRecord
  2
0
 70
     0
 62
     7
  6
CONTINUOUS
  0
LAYER
  5
1C
100
AcDbSymbolTableRecord
100
AcDbLayerTableRecord
  2
DEFPOINTS
 70
     0
 62
     7
  6
CONTINUOUS
  0
LAYER
  5
1D
100
AcDbSymbolTableRecord
100
AcDbLayerTableRecord
  2
M0
 70
     0
 62
     3
  6
CONTINUOUS
  0
LAYER
  5
1E
100
AcDbSymbolTableRecord
100
AcDbLayerTableRecord
  2
M1
 70
     0
 62
     3
  6
CONTINUOUS
  0
LAYER
  5
1F
100
AcDbSymbolTableRecord
100
AcDbLayerTableRecord
  2
DD0
 70
     0
 62
     4
  6
CONTINUOUS
  0
LAYER
  5
20
100
AcDbSymbolTableRecord
100
AcDbLayerTableRecord
  2
DN0
 70
     0
 62
     2
  6
CONTINUOUS
  0
ENDTAB
  0
TABLE
  2
STYLE
  5
3
100
AcDbSymbolTable
 70
     2
  0
STYLE
  5
10
100
AcDbSymbolTableRecord
100
AcDbTextStyleTableRecord
  2
STANDARD
 70
     0
 40
0.0
 41
1.0
 50
0.0
 71
     0
 42
0.2
  3
txt
  4
BIGFONT
  0
ENDTAB
  0
TABLE
  2
VIEW
  5
6
100
AcDbSymbolTable
 70
     0
  0
ENDTAB
  0
TABLE
  2
UCS
  5
7
100
AcDbSymbolTable
 70
     0
  0
ENDTAB
  0
TABLE
  2
APPID
  5
9
100
AcDbSymbolTable
 70
     1
  0
APPID
  5
11
100
AcDbSymbolTableRecord
100
AcDbRegAppTableRecord
  2
ACAD
 70
     0
  0
ENDTAB
  0
TABLE
  2
DIMSTYLE
  5
A
100
AcDbSymbolTable
 70
     2
  0
DIMSTYLE
105
27
100
AcDbSymbolTableRecord
100
AcDbDimStyleTableRecord
  2
STANDARD
 70
     0
  3

  4

  5

  6
_OPEN
  7
_OPEN
 40
1.0
 41
4.615385
 42
1.0
 43
8.0
 44
1.0
 45
0.0
 46
0.0
 47
0.0
 48
0.0
140
4.846154
141
0.09
142
0.0
143
0.03937
144
1.0
145
0.0
146
1.0
147
0.6
 71
     0
 72
     0
 73
     1
 74
     1
 75
     0
 76
     0
 77
     3
 78
     8
170
     0
171
     2
172
     0
173
     1
174
     0
175
     0
176
     0
177
     0
178
     0
270
     2
271
     2
272
     4
273
     2
274
     2
340
10
275
     0
280
     0
281
     0
282
     0
283
     1
284
     0
285
     0
286
     0
287
     3
288
     0
  0
DIMSTYLE
105
28
100
AcDbSymbolTableRecord
100
AcDbDimStyleTableRecord
  2
LEADSTYL
 70
     0
  3

  4

  5

  6
_OPEN
  7
_OPEN
 40
1.0
 41
4.615385
 42
0.0625
 43
0.38
 44
0.18
 45
0.0
 46
0.0
 47
0.0
 48
0.0
140
4.846154
141
0.09
142
0.0
143
25.4
144
1.0
145
0.0
146
1.0
147
0.6
 71
     0
 72
     0
 73
     1
 74
     1
 75
     0
 76
     0
 77
     0
 78
     0
170
     0
171
     2
172
     0
173
     1
174
     0
175
     0
176
     0
177
     0
178
     0
270
     2
271
     4
272
     4
273
     2
274
     2
340
10
275
     0
280
     0
281
     0
282
     0
283
     1
284
     0
285
     0
286
     0
287
     3
288
     0
  0
ENDTAB
  0
TABLE
  2
BLOCK_RECORD
  5
1
100
AcDbSymbolTable
 70
    21
  0
BLOCK_RECORD
  5
21
100
AcDbSymbolTableRecord
100
AcDbBlockTableRecord
  2
*MODEL_SPACE
  0
BLOCK_RECORD
  5
24
100
AcDbSymbolTableRecord
100
AcDbBlockTableRecord
  2
*PAPER_SPACE
  0
BLOCK_RECORD
  5
29
100
AcDbSymbolTableRecord
100
AcDbBlockTableRecord
  2
_NONE
  0
BLOCK_RECORD
  5
2D
100
AcDbSymbolTableRecord
100
AcDbBlockTableRecord
  2
_OPEN
  0
BLOCK_RECORD
  5
33
100
AcDbSymbolTableRecord
100
AcDbBlockTableRecord
  2
_CLOSED
  0
BLOCK_RECORD
  5
3A
100
AcDbSymbolTableRecord
100
AcDbBlockTableRecord
  2
_ORIGIN
  0
BLOCK_RECORD
  5
3F
100
AcDbSymbolTableRecord
100
AcDbBlockTableRecord
  2
_DOT
  0
BLOCK_RECORD
  5
47
100
AcDbSymbolTableRecord
100
AcDbBlockTableRecord
  2
_OBLIQUE
  0
BLOCK_RECORD
  5
4B
100
AcDbSymbolTableRecord
100
AcDbBlockTableRecord
  2
DIMS0
  0
BLOCK_RECORD
  5
58
100
AcDbSymbolTableRecord
100
AcDbBlockTableRecord
  2
DIMS1
  0
BLOCK_RECORD
  5
64
100
AcDbSymbolTableRecord
100
AcDbBlockTableRecord
  2
DIMS2
  0
BLOCK_RECORD
  5
70
100
AcDbSymbolTableRecord
100
AcDbBlockTableRecord
  2
DIMS3
  0
BLOCK_RECORD
  5
7C
100
AcDbSymbolTableRecord
100
AcDbBlockTableRecord
  2
DIMS4
  0
BLOCK_RECORD
  5
87
100
AcDbSymbolTableRecord
100
AcDbBlockTableRecord
  2
DIMS5
  0
BLOCK_RECORD
  5
93
100
AcDbSymbolTableRecord
100
AcDbBlockTableRecord
  2
DIMS6
  0
BLOCK_RECORD
  5
9F
100
AcDbSymbolTableRecord
100
AcDbBlockTableRecord
  2
DIMS7
  0
BLOCK_RECORD
  5
A4
100
AcDbSymbolTableRecord
100
AcDbBlockTableRecord
  2
DIMS8
  0
BLOCK_RECORD
  5
AC
100
AcDbSymbolTableRecord
100
AcDbBlockTableRecord
  2
DIMS9
  0
BLOCK_RECORD
  5
B7
100
AcDbSymbolTableRecord
100
AcDbBlockTableRecord
  2
DIMS10
  0
BLOCK_RECORD
  5
C2
100
AcDbSymbolTableRecord
100
AcDbBlockTableRecord
  2
DIMS11
  0
BLOCK_RECORD
  5
CD
100
AcDbSymbolTableRecord
100
AcDbBlockTableRecord
  2
DIMS12
  0
BLOCK_RECORD
  5
D8
100
AcDbSymbolTableRecord
100
AcDbBlockTableRecord
  2
DIMS13
  0
BLOCK_RECORD
  5
E4
100
AcDbSymbolTableRecord
100
AcDbBlockTableRecord
  2
DIMS14
  0
ENDTAB
  0
ENDSEC
  0
SECTION
  2
BLOCKS
  0
BLOCK
  5
22
100
AcDbEntity
  8
0
100
AcDbBlockBegin
  2
*MODEL_SPACE
 70
     0
 10
0.0
 20
0.0
 30
0.0
  3
*MODEL_SPACE
  1

  0
ENDBLK
  5
23
100
AcDbEntity
  8
0
100
AcDbBlockEnd
  0
BLOCK
  5
25
100
AcDbEntity
 67
     1
  8
0
100
AcDbBlockBegin
  2
*PAPER_SPACE
 70
     0
 10
0.0
 20
0.0
 30
0.0
  3
*PAPER_SPACE
  1

  0
ENDBLK
  5
26
100
AcDbEntity
 67
     1
  8
0
100
AcDbBlockEnd
  0
BLOCK
  5
2A
100
AcDbEntity
  8
0
100
AcDbBlockBegin
  2
_NONE
 70
     0
 10
0.0
 20
0.0
  0
CIRCLE
  5
2B
100
AcDbEntity
  8
0
 62
     0
100
AcDbCircle
 10
0.0
 20
0.0
 40
0.25
  0
ENDBLK
  5
2C
100
AcDbEntity
  8
0
100
AcDbBlockEnd
  0
BLOCK
  5
2E
100
AcDbEntity
  8
0
100
AcDbBlockBegin
  2
_OPEN
 70
     0
 10
0.0
 20
0.0
  0
LINE
  5
2F
100
AcDbEntity
  8
0
 62
     0
100
AcDbLine
 10
-0.965926
 20
0.258819
 11
0.0
 21
0.0
  0
LINE
  5
30
100
AcDbEntity
  8
0
 62
     0
100
AcDbLine
 10
0.0
 20
0.0
 11
-0.965926
 21
-0.258819
  0
LINE
  5
31
100
AcDbEntity
  8
0
 62
     0
100
AcDbLine
 10
0.0
 20
0.0
 11
-1.0
 21
0.0
  0
ENDBLK
  5
32
100
AcDbEntity
  8
0
100
AcDbBlockEnd
  0
BLOCK
  5
34
100
AcDbEntity
  8
0
100
AcDbBlockBegin
  2
_CLOSED
 70
     0
 10
0.0
 20
0.0
  0
LINE
  5
35
100
AcDbEntity
  8
0
 62
     0
100
AcDbLine
 10
-0.965926
 20
0.258819
 11
0.0
 21
0.0
  0
LINE
  5
36
100
AcDbEntity
  8
0
 62
     0
100
AcDbLine
 10
0.0
 20
0.0
 11
-0.965926
 21
-0.258819
  0
LINE
  5
37
100
AcDbEntity
  8
0
 62
     0
100
AcDbLine
 10
-0.965926
 20
0.258819
 11
-0.965926
 21
-0.258819
  0
LINE
  5
38
100
AcDbEntity
  8
0
 62
     0
100
AcDbLine
 10
0.0
 20
0.0
 11
-1.0
 21
0.0
  0
ENDBLK
  5
39
100
AcDbEntity
  8
0
100
AcDbBlockEnd
  0
BLOCK
  5
3B
100
AcDbEntity
  8
0
100
AcDbBlockBegin
  2
_ORIGIN
 70
     0
 10
0.0
 20
0.0
  0
CIRCLE
  5
3C
100
AcDbEntity
  8
0
 62
     0
100
AcDbCircle
 10
0.0
 20
0.0
 40
0.5
  0
LINE
  5
3D
100
AcDbEntity
  8
0
 62
     0
100
AcDbLine
 10
0.0
 20
0.0
 11
-1.0
 21
0.0
  0
ENDBLK
  5
3E
100
AcDbEntity
  8
0
100
AcDbBlockEnd
  0
BLOCK
  5
40
100
AcDbEntity
  8
0
100
AcDbBlockBegin
  2
_DOT
 70
     0
 10
0.0
 20
0.0
  0
POLYLINE
  5
41
100
AcDbEntity
  8
0
 62
     0
100
AcDb2dPolyline
 66
     1
 70
     1
 40
0.5
 41
0.5
  0
VERTEX
  5
42
100
AcDbEntity
  8
0
 62
     0
100
AcDbVertex
100
AcDb2dVertex
 10
-0.25
 20
0.0
 42
1.0
  0
VERTEX
  5
43
100
AcDbEntity
  8
0
 62
     0
100
AcDbVertex
100
AcDb2dVertex
 10
0.25
 20
0.0
 42
1.0
  0
SEQEND
  5
44
100
AcDbEntity
  8
0
 62
     0
  0
LINE
  5
45
100
AcDbEntity
  8
0
 62
     0
100
AcDbLine
 10
-0.5
 20
0.0
 11
-1.0
 21
0.0
  0
ENDBLK
  5
46
100
AcDbEntity
  8
0
100
AcDbBlockEnd
  0
BLOCK
  5
48
100
AcDbEntity
  8
0
100
AcDbBlockBegin
  2
_OBLIQUE
 70
     0
 10
0.0
 20
0.0
  0
LINE
  5
49
100
AcDbEntity
  8
0
 62
     0
100
AcDbLine
 10
-0.353553
 20
-0.353553
 11
0.353553
 21
0.353553
  0
ENDBLK
  5
4A
100
AcDbEntity
  8
0
100
AcDbBlockEnd
  0
BLOCK
  5
4C
100
AcDbEntity
  8
DD0
100
AcDbBlockBegin
  2
DIMS0
 70
     0
 10
0.0
 20
0.0
  0
LINE
  5
4D
100
AcDbEntity
  8
DD0
100
AcDbLine
 10
122.794452
 20
335.309108
 11
122.794452
 21
373.722877
  0
LINE
  5
4E
100
AcDbEntity
  8
DD0
100
AcDbLine
 10
34.994461
 20
335.309108
 11
34.994461
 21
373.722877
  0
LINE
  5
4F
100
AcDbEntity
  8
DD0
100
AcDbLine
 10
118.336333
 20
370.989865
 11
122.794452
 21
372.184415
  0
LINE
  5
50
100
AcDbEntity
  8
DD0
100
AcDbLine
 10
122.794452
 20
372.184415
 11
118.336333
 21
373.378964
  0
LINE
  5
51
100
AcDbEntity
  8
DD0
100
AcDbLine
 10
39.452581
 20
373.378964
 11
34.994461
 21
372.184415
  0
LINE
  5
52
100
AcDbEntity
  8
DD0
100
AcDbLine
 10
34.994461
 20
372.184415
 11
39.452581
 21
370.989865
  0
LINE
  5
53
100
AcDbEntity
  8
DD0
100
AcDbLine
 10
122.794452
 20
372.184415
 11
34.994461
 21
372.184415
  0
TEXT
  5
54
100
AcDbEntity
  8
DD0
100
AcDbText
 10
76.081638
 20
373.107501
 40
3.846154
  1
８８
 41
0.666667
  7
STANDARD
100
AcDbText
  0
TEXT
  5
55
100
AcDbEntity
  8
DD0
100
AcDbText
 10
46.850868
 20
367.10751
 40
3.846154
  1
（補助接点サイドオンユニットを付けた場合）
 41
0.666667
  7
STANDARD
100
AcDbText
  0
ENDBLK
  5
56
100
AcDbEntity
  8
DD0
100
AcDbBlockEnd
  0
BLOCK
  5
59
100
AcDbEntity
  8
DD0
100
AcDbBlockBegin
  2
DIMS1
 70
     0
 10
0.0
 20
0.0
  0
LINE
  5
5A
100
AcDbEntity
  8
DD0
100
AcDbLine
 10
78.894457
 20
262.032175
 11
78.894457
 21
251.206862
  0
LINE
  5
5B
100
AcDbEntity
  8
DD0
100
AcDbLine
 10
65.894455
 20
278.332178
 11
65.894455
 21
251.206862
  0
LINE
  5
5C
100
AcDbEntity
  8
DD0
100
AcDbLine
 10
74.436337
 20
251.550774
 11
78.894457
 21
252.745324
  0
LINE
  5
5D
100
AcDbEntity
  8
DD0
100
AcDbLine
 10
78.894457
 20
252.745324
 11
74.436337
 21
253.939873
  0
LINE
  5
5E
100
AcDbEntity
  8
DD0
100
AcDbLine
 10
70.352574
 20
253.939873
 11
65.894455
 21
252.745324
  0
LINE
  5
5F
100
AcDbEntity
  8
DD0
100
AcDbLine
 10
65.894455
 20
252.745324
 11
70.352574
 21
251.550774
  0
LINE
  5
60
100
AcDbEntity
  8
DD0
100
AcDbLine
 10
78.894457
 20
252.745324
 11
65.894455
 21
252.745324
  0
TEXT
  5
61
100
AcDbEntity
  8
DD0
100
AcDbText
 10
69.581641
 20
253.66841
 40
3.846154
  1
１３
 41
0.666667
  7
STANDARD
100
AcDbText
  0
ENDBLK
  5
62
100
AcDbEntity
  8
DD0
100
AcDbBlockEnd
  0
BLOCK
  5
65
100
AcDbEntity
  8
DD0
100
AcDbBlockBegin
  2
DIMS2
 70
     0
 10
0.0
 20
0.0
  0
LINE
  5
66
100
AcDbEntity
  8
DD0
100
AcDbLine
 10
96.550649
 20
348.57064
 11
135.460633
 21
348.57064
  0
LINE
  5
67
100
AcDbEntity
  8
DD0
100
AcDbLine
 10
106.832925
 20
268.570637
 11
135.460633
 21
268.570637
  0
LINE
  5
68
100
AcDbEntity
  8
DD0
100
AcDbLine
 10
135.116721
 20
344.11252
 11
133.922171
 21
348.57064
  0
LINE
  5
69
100
AcDbEntity
  8
DD0
100
AcDbLine
 10
133.922171
 20
348.57064
 11
132.727621
 21
344.11252
  0
LINE
  5
6A
100
AcDbEntity
  8
DD0
100
AcDbLine
 10
132.727621
 20
273.028756
 11
133.922171
 21
268.570637
  0
LINE
  5
6B
100
AcDbEntity
  8
DD0
100
AcDbLine
 10
133.922171
 20
268.570637
 11
135.116721
 21
273.028756
  0
LINE
  5
6C
100
AcDbEntity
  8
DD0
100
AcDbLine
 10
133.922171
 20
348.57064
 11
133.922171
 21
268.570637
  0
TEXT
  5
6D
100
AcDbEntity
  8
DD0
100
AcDbText
 10
132.999096
 20
305.757808
 40
3.846154
  1
８０
 50
90.000003
 41
0.666667
  7
STANDARD
100
AcDbText
  0
ENDBLK
  5
6E
100
AcDbEntity
  8
DD0
100
AcDbBlockEnd
  0
BLOCK
  5
71
100
AcDbEntity
  8
DD0
100
AcDbBlockBegin
  2
DIMS3
 70
     0
 10
0.0
 20
0.0
  0
LINE
  5
72
100
AcDbEntity
  8
DD0
100
AcDbLine
 10
110.294452
 20
336.109092
 11
110.294452
 21
359.502225
  0
LINE
  5
73
100
AcDbEntity
  8
DD0
100
AcDbLine
 10
47.494456
 20
336.109092
 11
47.494456
 21
359.502225
  0
LINE
  5
74
100
AcDbEntity
  8
DD0
100
AcDbLine
 10
105.836332
 20
356.769213
 11
110.294452
 21
357.963763
  0
LINE
  5
75
100
AcDbEntity
  8
DD0
100
AcDbLine
 10
110.294452
 20
357.963763
 11
105.836332
 21
359.158312
  0
LINE
  5
76
100
AcDbEntity
  8
DD0
100
AcDbLine
 10
51.952575
 20
359.158312
 11
47.494456
 21
357.963763
  0
LINE
  5
77
100
AcDbEntity
  8
DD0
100
AcDbLine
 10
47.494456
 20
357.963763
 11
51.952575
 21
356.769213
  0
LINE
  5
78
100
AcDbEntity
  8
DD0
100
AcDbLine
 10
110.294452
 20
357.963763
 11
47.494456
 21
357.963763
  0
TEXT
  5
79
100
AcDbEntity
  8
DD0
100
AcDbText
 10
76.081638
 20
358.886849
 40
3.846154
  1
６３
 41
0.666667
  7
STANDARD
100
AcDbText
  0
ENDBLK
  5
7A
100
AcDbEntity
  8
DD0
100
AcDbBlockEnd
  0
BLOCK
  5
7D
100
AcDbEntity
  8
DD0
100
AcDbBlockBegin
  2
DIMS4
 70
     0
 10
0.0
 20
0.0
  0
LINE
  5
7E
100
AcDbEntity
  8
DD0
100
AcDbLine
 10
275.880207
 20
340.109101
 11
275.880207
 21
359.502225
  0
LINE
  5
7F
100
AcDbEntity
  8
DD0
100
AcDbLine
 10
291.338341
 20
359.158312
 11
286.880222
 21
357.963763
  0
LINE
  5
80
100
AcDbEntity
  8
DD0
100
AcDbLine
 10
286.880222
 20
357.963763
 11
291.338341
 21
356.769213
  0
LINE
  5
81
100
AcDbEntity
  8
DD0
100
AcDbLine
 10
271.422088
 20
356.769213
 11
275.880207
 21
357.963763
  0
LINE
  5
82
100
AcDbEntity
  8
DD0
100
AcDbLine
 10
275.880207
 20
357.963763
 11
271.422088
 21
359.158312
  0
LINE
  5
83
100
AcDbEntity
  8
DD0
100
AcDbLine
 10
291.957145
 20
357.963763
 11
270.803284
 21
357.963763
  0
TEXT
  5
84
100
AcDbEntity
  8
DD0
100
AcDbText
 10
278.567373
 20
358.886849
 40
3.846154
  1
１１
 41
0.666667
  7
STANDARD
100
AcDbText
  0
ENDBLK
  5
85
100
AcDbEntity
  8
DD0
100
AcDbBlockEnd
  0
BLOCK
  5
88
100
AcDbEntity
  8
DD0
100
AcDbBlockBegin
  2
DIMS5
 70
     0
 10
0.0
 20
0.0
  0
LINE
  5
89
100
AcDbEntity
  8
DD0
100
AcDbLine
 10
286.880222
 20
339.359096
 11
286.880222
 21
374.657489
  0
LINE
  5
8A
100
AcDbEntity
  8
DD0
100
AcDbLine
 10
157.080213
 20
322.309653
 11
157.080213
 21
374.657489
  0
LINE
  5
8B
100
AcDbEntity
  8
DD0
100
AcDbLine
 10
282.422103
 20
371.924478
 11
286.880222
 21
373.119028
  0
LINE
  5
8C
100
AcDbEntity
  8
DD0
100
AcDbLine
 10
286.880222
 20
373.119028
 11
282.422103
 21
374.313577
  0
LINE
  5
8D
100
AcDbEntity
  8
DD0
100
AcDbLine
 10
161.538332
 20
374.313577
 11
157.080213
 21
373.119028
  0
LINE
  5
8E
100
AcDbEntity
  8
DD0
100
AcDbLine
 10
157.080213
 20
373.119028
 11
161.538332
 21
371.924478
  0
LINE
  5
8F
100
AcDbEntity
  8
DD0
100
AcDbLine
 10
286.880222
 20
373.119028
 11
157.080213
 21
373.119028
  0
TEXT
  5
90
100
AcDbEntity
  8
DD0
100
AcDbText
 10
217.628932
 20
374.042114
 40
3.846154
  1
１３０
 41
0.666667
  7
STANDARD
100
AcDbText
  0
ENDBLK
  5
91
100
AcDbEntity
  8
DD0
100
AcDbBlockEnd
  0
BLOCK
  5
94
100
AcDbEntity
  8
DD0
100
AcDbBlockBegin
  2
DIMS6
 70
     0
 10
0.0
 20
0.0
  0
LINE
  5
95
100
AcDbEntity
  8
DD0
100
AcDbLine
 10
157.080213
 20
322.309653
 11
157.080213
 21
374.657489
  0
LINE
  5
96
100
AcDbEntity
  8
DD0
100
AcDbLine
 10
152.080213
 20
322.309653
 11
152.080213
 21
374.657489
  0
LINE
  5
97
100
AcDbEntity
  8
DD0
100
AcDbLine
 10
161.538332
 20
374.313577
 11
157.080213
 21
373.119028
  0
LINE
  5
98
100
AcDbEntity
  8
DD0
100
AcDbLine
 10
157.080213
 20
373.119028
 11
161.538332
 21
371.924478
  0
LINE
  5
99
100
AcDbEntity
  8
DD0
100
AcDbLine
 10
147.622093
 20
371.924478
 11
152.080213
 21
373.119028
  0
LINE
  5
9A
100
AcDbEntity
  8
DD0
100
AcDbLine
 10
152.080213
 20
373.119028
 11
147.622093
 21
374.313577
  0
LINE
  5
9B
100
AcDbEntity
  8
DD0
100
AcDbLine
 10
162.157136
 20
373.119028
 11
142.387904
 21
373.119028
  0
TEXT
  5
9C
100
AcDbEntity
  8
DD0
100
AcDbText
 10
143.744311
 20
374.042114
 40
3.846154
  1
５
 41
0.666667
  7
STANDARD
100
AcDbText
  0
ENDBLK
  5
9D
100
AcDbEntity
  8
DD0
100
AcDbBlockEnd
  0
BLOCK
  5
A0
100
AcDbEntity
  8
DD0
100
AcDbBlockBegin
  2
DIMS7
 70
     0
 10
0.0
 20
0.0
  0
TEXT
  5
A1
100
AcDbEntity
  8
DD0
100
AcDbText
 10
110.058863
 20
267.522613
 40
3.846154
  1
　
 50
306.38308
 41
0.666667
  7
STANDARD
100
AcDbText
  0
ENDBLK
  5
A2
100
AcDbEntity
  8
DD0
100
AcDbBlockEnd
  0
BLOCK
  5
A5
100
AcDbEntity
  8
DD0
100
AcDbBlockBegin
  2
DIMS8
 70
     0
 10
0.0
 20
0.0
  0
TEXT
  5
A6
100
AcDbEntity
  8
DD0
100
AcDbText
 10
111.167429
 20
108.897521
 40
3.846154
  1
２－Ｍ４ねじ穴
 41
0.666667
  7
STANDARD
100
AcDbText
  0
LINE
  5
A7
100
AcDbEntity
  8
DD0
100
AcDbLine
 10
110.962749
 20
125.943983
 11
107.256967
 21
128.695155
  0
LINE
  5
A8
100
AcDbEntity
  8
DD0
100
AcDbLine
 10
107.256967
 20
128.695155
 11
109.090682
 21
124.459678
  0
LINE
  5
A9
100
AcDbEntity
  8
DD0
100
AcDbLine
 10
107.256967
 20
128.695155
 11
117.635948
 21
115.604745
  0
ENDBLK
  5
AA
100
AcDbEntity
  8
DD0
100
AcDbBlockEnd
  0
BLOCK
  5
AD
100
AcDbEntity
  8
DD0
100
AcDbBlockBegin
  2
DIMS9
 70
     0
 10
0.0
 20
0.0
  0
LINE
  5
AE
100
AcDbEntity
  8
DD0
100
AcDbLine
 10
51.894451
 20
194.795117
 11
51.894451
 21
216.562884
  0
LINE
  5
AF
100
AcDbEntity
  8
DD0
100
AcDbLine
 10
47.494459
 20
196.197717
 11
47.494459
 21
216.562884
  0
LWPOLYLINE
  5
B0
100
AcDbEntity
  8
DD0
100
AcDbPolyline
 90
        2
 70
     1
 43
0.769231
 10
51.509836
 20
215.024422
 42
1.0
 10
52.279066
 20
215.024422
 42
1.0
  0
LINE
  5
B1
100
AcDbEntity
  8
DD0
100
AcDbLine
 10
43.036339
 20
213.829872
 11
47.494459
 21
215.024422
  0
LINE
  5
B2
100
AcDbEntity
  8
DD0
100
AcDbLine
 10
47.494459
 20
215.024422
 11
43.036339
 21
216.218971
  0
LINE
  5
B3
100
AcDbEntity
  8
DD0
100
AcDbLine
 10
51.894451
 20
215.024422
 11
31.648304
 21
215.024422
  0
TEXT
  5
B4
100
AcDbEntity
  8
DD0
100
AcDbText
 10
33.004717
 20
215.947508
 40
3.846154
  1
４．５
 41
0.666667
  7
STANDARD
100
AcDbText
  0
ENDBLK
  5
B5
100
AcDbEntity
  8
DD0
100
AcDbBlockEnd
  0
BLOCK
  5
B8
100
AcDbEntity
  8
DD0
100
AcDbBlockBegin
  2
DIMS10
 70
     0
 10
0.0
 20
0.0
  0
LINE
  5
B9
100
AcDbEntity
  8
DD0
100
AcDbLine
 10
57.53032
 20
189.159259
 11
128.085778
 21
189.159259
  0
LINE
  5
BA
100
AcDbEntity
  8
DD0
100
AcDbLine
 10
111.53032
 20
130.159248
 11
128.085778
 21
130.159248
  0
LWPOLYLINE
  5
BB
100
AcDbEntity
  8
DD0
100
AcDbPolyline
 90
        2
 70
     1
 43
0.769231
 10
126.162701
 20
189.159259
 42
1.0
 10
126.931932
 20
189.159259
 42
1.0
  0
LINE
  5
BC
100
AcDbEntity
  8
DD0
100
AcDbLine
 10
125.352767
 20
134.617367
 11
126.547316
 21
130.159248
  0
LINE
  5
BD
100
AcDbEntity
  8
DD0
100
AcDbLine
 10
126.547316
 20
130.159248
 11
127.741866
 21
134.617367
  0
LINE
  5
BE
100
AcDbEntity
  8
DD0
100
AcDbLine
 10
126.547316
 20
189.159259
 11
126.547316
 21
130.159248
  0
TEXT
  5
BF
100
AcDbEntity
  8
DD0
100
AcDbText
 10
125.624242
 20
156.846435
 40
3.846154
  1
５９
 50
90.000003
 41
0.666667
  7
STANDARD
100
AcDbText
  0
ENDBLK
  5
C0
100
AcDbEntity
  8
DD0
100
AcDbBlockEnd
  0
BLOCK
  5
C3
100
AcDbEntity
  8
DD0
100
AcDbBlockBegin
  2
DIMS11
 70
     0
 10
0.0
 20
0.0
  0
LINE
  5
C4
100
AcDbEntity
  8
DD0
100
AcDbLine
 10
57.53032
 20
189.159259
 11
128.085778
 21
189.159259
  0
LINE
  5
C5
100
AcDbEntity
  8
DD0
100
AcDbLine
 10
97.402917
 20
203.659253
 11
128.085778
 21
203.659253
  0
LWPOLYLINE
  5
C6
100
AcDbEntity
  8
DD0
100
AcDbPolyline
 90
        2
 70
     1
 43
0.769231
 10
126.162701
 20
189.159259
 42
1.0
 10
126.931932
 20
189.159259
 42
1.0
  0
LINE
  5
C7
100
AcDbEntity
  8
DD0
100
AcDbLine
 10
127.741866
 20
199.201134
 11
126.547316
 21
203.659253
  0
LINE
  5
C8
100
AcDbEntity
  8
DD0
100
AcDbLine
 10
126.547316
 20
203.659253
 11
125.352767
 21
199.201134
  0
LINE
  5
C9
100
AcDbEntity
  8
DD0
100
AcDbLine
 10
126.547316
 20
189.159259
 11
126.547316
 21
220.294925
  0
TEXT
  5
CA
100
AcDbEntity
  8
DD0
100
AcDbText
 10
125.624242
 20
206.712864
 40
3.846154
  1
１４．５
 50
90.000003
 41
0.666667
  7
STANDARD
100
AcDbText
  0
ENDBLK
  5
CB
100
AcDbEntity
  8
DD0
100
AcDbBlockEnd
  0
BLOCK
  5
CE
100
AcDbEntity
  8
DD0
100
AcDbBlockBegin
  2
DIMS12
 70
     0
 10
0.0
 20
0.0
  0
LINE
  5
CF
100
AcDbEntity
  8
DD0
100
AcDbLine
 10
51.894451
 20
194.795117
 11
51.894451
 21
216.562907
  0
LINE
  5
D0
100
AcDbEntity
  8
DD0
100
AcDbLine
 10
105.894451
 20
135.795117
 11
105.894451
 21
216.562907
  0
LWPOLYLINE
  5
D1
100
AcDbEntity
  8
DD0
100
AcDbPolyline
 90
        2
 70
     1
 43
0.769231
 10
51.509836
 20
215.024445
 42
1.0
 10
52.279066
 20
215.024445
 42
1.0
  0
LINE
  5
D2
100
AcDbEntity
  8
DD0
100
AcDbLine
 10
101.436331
 20
213.829896
 11
105.894451
 21
215.024445
  0
LINE
  5
D3
100
AcDbEntity
  8
DD0
100
AcDbLine
 10
105.894451
 20
215.024445
 11
101.436331
 21
216.218995
  0
LINE
  5
D4
100
AcDbEntity
  8
DD0
100
AcDbLine
 10
51.894451
 20
215.024445
 11
105.894451
 21
215.024445
  0
TEXT
  5
D5
100
AcDbEntity
  8
DD0
100
AcDbText
 10
76.081633
 20
215.947532
 40
3.846154
  1
５４
 41
0.666667
  7
STANDARD
100
AcDbText
  0
ENDBLK
  5
D6
100
AcDbEntity
  8
DD0
100
AcDbBlockEnd
  0
BLOCK
  5
D9
100
AcDbEntity
  8
DD0
100
AcDbBlockBegin
  2
DIMS13
 70
     0
 10
0.0
 20
0.0
  0
LINE
  5
DA
100
AcDbEntity
  8
DD0
100
AcDbLine
 10
61.238265
 20
348.57064
 11
25.164767
 21
348.57064
  0
LINE
  5
DB
100
AcDbEntity
  8
DD0
100
AcDbLine
 10
64.355993
 20
327.770633
 11
25.164767
 21
327.770633
  0
LINE
  5
DC
100
AcDbEntity
  8
DD0
100
AcDbLine
 10
27.897778
 20
344.11252
 11
26.703228
 21
348.57064
  0
LINE
  5
DD
100
AcDbEntity
  8
DD0
100
AcDbLine
 10
26.703228
 20
348.57064
 11
25.508679
 21
344.11252
  0
LINE
  5
DE
100
AcDbEntity
  8
DD0
100
AcDbLine
 10
25.508679
 20
332.228752
 11
26.703228
 21
327.770633
  0
LINE
  5
DF
100
AcDbEntity
  8
DD0
100
AcDbLine
 10
26.703228
 20
327.770633
 11
27.897778
 21
332.228752
  0
LINE
  5
E0
100
AcDbEntity
  8
DD0
100
AcDbLine
 10
26.703228
 20
348.57064
 11
26.703228
 21
327.770633
  0
TEXT
  5
E1
100
AcDbEntity
  8
DD0
100
AcDbText
 10
25.780151
 20
335.357818
 40
3.846154
  1
２１
 50
90.000003
 41
0.666667
  7
STANDARD
100
AcDbText
  0
ENDBLK
  5
E2
100
AcDbEntity
  8
DD0
100
AcDbBlockEnd
  0
BLOCK
  5
E5
100
AcDbEntity
  8
DD0
100
AcDbBlockBegin
  2
DIMS14
 70
     0
 10
0.0
 20
0.0
  0
LINE
  5
E6
100
AcDbEntity
  8
DD0
100
AcDbLine
 10
64.355993
 20
327.770633
 11
25.164767
 21
327.770633
  0
LINE
  5
E7
100
AcDbEntity
  8
DD0
100
AcDbLine
 10
64.355993
 20
280.370635
 11
25.164767
 21
280.370635
  0
LINE
  5
E8
100
AcDbEntity
  8
DD0
100
AcDbLine
 10
27.897778
 20
323.312513
 11
26.703228
 21
327.770633
  0
LINE
  5
E9
100
AcDbEntity
  8
DD0
100
AcDbLine
 10
26.703228
 20
327.770633
 11
25.508679
 21
323.312513
  0
LINE
  5
EA
100
AcDbEntity
  8
DD0
100
AcDbLine
 10
25.508679
 20
284.828754
 11
26.703228
 21
280.370635
  0
LINE
  5
EB
100
AcDbEntity
  8
DD0
100
AcDbLine
 10
26.703228
 20
280.370635
 11
27.897778
 21
284.828754
  0
LINE
  5
EC
100
AcDbEntity
  8
DD0
100
AcDbLine
 10
26.703228
 20
327.770633
 11
26.703228
 21
280.370635
  0
TEXT
  5
ED
100
AcDbEntity
  8
DD0
100
AcDbText
 10
25.780151
 20
298.18088
 40
3.846154
  1
４７．５
 50
90.000003
 41
0.666667
  7
STANDARD
100
AcDbText
  0
ENDBLK
  5
EE
100
AcDbEntity
  8
DD0
100
AcDbBlockEnd
  0
ENDSEC
  0
SECTION
  2
ENTITIES
  0
INSERT
  5
57
100
AcDbEntity
  8
DD0
100
AcDbBlockReference
  2
DIMS0
 10
0.0
 20
0.0
  0
INSERT
  5
63
100
AcDbEntity
  8
DD0
100
AcDbBlockReference
  2
DIMS1
 10
0.0
 20
0.0
  0
INSERT
  5
6F
100
AcDbEntity
  8
DD0
100
AcDbBlockReference
  2
DIMS2
 10
0.0
 20
0.0
  0
INSERT
  5
7B
100
AcDbEntity
  8
DD0
100
AcDbBlockReference
  2
DIMS3
 10
0.0
 20
0.0
  0
INSERT
  5
86
100
AcDbEntity
  8
DD0
100
AcDbBlockReference
  2
DIMS4
 10
0.0
 20
0.0
  0
INSERT
  5
92
100
AcDbEntity
  8
DD0
100
AcDbBlockReference
  2
DIMS5
 10
0.0
 20
0.0
  0
INSERT
  5
9E
100
AcDbEntity
  8
DD0
100
AcDbBlockReference
  2
DIMS6
 10
0.0
 20
0.0
  0
INSERT
  5
A3
100
AcDbEntity
  8
DD0
100
AcDbBlockReference
  2
DIMS7
 10
0.0
 20
0.0
  0
INSERT
  5
AB
100
AcDbEntity
  8
DD0
100
AcDbBlockReference
  2
DIMS8
 10
0.0
 20
0.0
  0
INSERT
  5
B6
100
AcDbEntity
  8
DD0
100
AcDbBlockReference
  2
DIMS9
 10
0.0
 20
0.0
  0
INSERT
  5
C1
100
AcDbEntity
  8
DD0
100
AcDbBlockReference
  2
DIMS10
 10
0.0
 20
0.0
  0
INSERT
  5
CC
100
AcDbEntity
  8
DD0
100
AcDbBlockReference
  2
DIMS11
 10
0.0
 20
0.0
  0
INSERT
  5
D7
100
AcDbEntity
  8
DD0
100
AcDbBlockReference
  2
DIMS12
 10
0.0
 20
0.0
  0
INSERT
  5
E3
100
AcDbEntity
  8
DD0
100
AcDbBlockReference
  2
DIMS13
 10
0.0
 20
0.0
  0
INSERT
  5
EF
100
AcDbEntity
  8
DD0
100
AcDbBlockReference
  2
DIMS14
 10
0.0
 20
0.0
  0
LINE
  5
F0
100
AcDbEntity
  8
M0
  6
DASHED
 62
     7
100
AcDbLine
 10
122.794454
 20
333.770641
 11
122.794454
 21
274.370641
  0
LINE
  5
F1
100
AcDbEntity
  8
M0
  6
DASHED
 62
     7
100
AcDbLine
 10
122.794454
 20
333.770641
 11
110.294454
 21
333.770641
  0
LINE
  5
F2
100
AcDbEntity
  8
M0
  6
DASHED
 62
     7
100
AcDbLine
 10
122.794454
 20
274.370641
 11
110.294454
 21
274.370641
  0
LINE
  5
F3
100
AcDbEntity
  8
M0
  6
DASHED
 62
     7
100
AcDbLine
 10
34.99446
 20
333.770641
 11
47.49446
 21
333.770641
  0
LINE
  5
F4
100
AcDbEntity
  8
M0
  6
DASHED
 62
     7
100
AcDbLine
 10
34.99446
 20
333.770641
 11
34.99446
 21
274.370641
  0
LINE
  5
F5
100
AcDbEntity
  8
M0
  6
DASHED
 62
     7
100
AcDbLine
 10
34.99446
 20
274.370641
 11
47.49446
 21
274.370641
  0
LINE
  5
F6
100
AcDbEntity
  8
M0
 62
     7
100
AcDbLine
 10
105.68504
 20
289.179996
 11
102.894457
 21
291.970687
  0
LINE
  5
F7
100
AcDbEntity
  8
M0
 62
     7
100
AcDbLine
 10
105.508283
 20
291.124332
 11
103.740704
 21
289.356754
  0
LINE
  5
F8
100
AcDbEntity
  8
M0
 62
     7
100
AcDbLine
 10
104.447736
 20
292.185001
 11
102.894457
 21
290.631615
  0
LINE
  5
F9
100
AcDbEntity
  8
M0
 62
     7
100
AcDbLine
 10
107.419457
 20
294.595641
 11
102.894457
 21
294.595641
  0
ARC
  5
FA
100
AcDbEntity
  8
M0
 62
     7
100
AcDbCircle
 10
107.419457
 20
294.095641
 40
0.5
100
AcDbArc
 50
0.0
 51
90.0
  0
LINE
  5
FB
100
AcDbEntity
  8
M0
 62
     7
100
AcDbLine
 10
107.919457
 20
287.445641
 11
107.919457
 21
294.095641
  0
ARC
  5
FC
100
AcDbEntity
  8
M0
 62
     7
100
AcDbCircle
 10
107.419457
 20
287.445641
 40
0.5
100
AcDbArc
 50
270.0
 51
360.0
  0
LINE
  5
FD
100
AcDbEntity
  8
M0
 62
     7
100
AcDbLine
 10
102.886614
 20
286.945641
 11
107.419457
 21
286.945641
  0
LINE
  5
FE
100
AcDbEntity
  8
M0
 62
     7
100
AcDbLine
 10
105.68504
 20
315.779996
 11
102.894457
 21
318.570687
  0
LINE
  5
FF
100
AcDbEntity
  8
M0
 62
     7
100
AcDbLine
 10
105.508283
 20
317.724332
 11
103.740704
 21
315.956754
  0
LINE
  5
100
100
AcDbEntity
  8
M0
 62
     7
100
AcDbLine
 10
104.447736
 20
318.785001
 11
102.894457
 21
317.231615
  0
LINE
  5
101
100
AcDbEntity
  8
M0
 62
     7
100
AcDbLine
 10
107.419457
 20
321.195641
 11
102.894457
 21
321.195641
  0
ARC
  5
102
100
AcDbEntity
  8
M0
 62
     7
100
AcDbCircle
 10
107.419457
 20
320.695641
 40
0.5
100
AcDbArc
 50
0.0
 51
90.0
  0
LINE
  5
103
100
AcDbEntity
  8
M0
 62
     7
100
AcDbLine
 10
107.919457
 20
314.045641
 11
107.919457
 21
320.695641
  0
ARC
  5
104
100
AcDbEntity
  8
M0
 62
     7
100
AcDbCircle
 10
107.419457
 20
314.045641
 40
0.5
100
AcDbArc
 50
270.0
 51
360.0
  0
LINE
  5
105
100
AcDbEntity
  8
M0
 62
     7
100
AcDbLine
 10
102.894457
 20
313.545641
 11
107.419457
 21
313.545641
  0
LINE
  5
106
100
AcDbEntity
  8
M0
 62
     7
100
AcDbLine
 10
54.894457
 20
316.170595
 11
52.1034
 21
318.961759
  0
LINE
  5
107
100
AcDbEntity
  8
M0
 62
     7
100
AcDbLine
 10
54.894457
 20
317.510506
 11
53.340705
 21
315.956754
  0
LINE
  5
108
100
AcDbEntity
  8
M0
 62
     7
100
AcDbLine
 10
54.047736
 20
318.785001
 11
52.280158
 21
317.017301
  0
LINE
  5
109
100
AcDbEntity
  8
M0
 62
     7
100
AcDbLine
 10
54.894457
 20
321.195641
 11
50.369457
 21
321.195641
  0
LINE
  5
10A
100
AcDbEntity
  8
M0
 62
     7
100
AcDbLine
 10
50.369457
 20
313.545641
 11
54.894457
 21
313.545641
  0
LINE
  5
10B
100
AcDbEntity
  8
M0
 62
     7
100
AcDbLine
 10
49.869457
 20
320.695641
 11
49.869457
 21
314.045641
  0
ARC
  5
10C
100
AcDbEntity
  8
M0
 62
     7
100
AcDbCircle
 10
50.369457
 20
320.695641
 40
0.5
100
AcDbArc
 50
90.0
 51
180.0
  0
ARC
  5
10D
100
AcDbEntity
  8
M0
 62
     7
100
AcDbCircle
 10
50.369457
 20
314.045641
 40
0.5
100
AcDbArc
 50
180.0
 51
270.0
  0
CIRCLE
  5
10E
100
AcDbEntity
  8
M0
 62
     7
100
AcDbCircle
 10
53.694457
 20
283.170641
 40
3.0
  0
LINE
  5
10F
100
AcDbEntity
  8
M0
 62
     7
100
AcDbLine
 10
55.285041
 20
281.579996
 11
52.1034
 21
284.761759
  0
LINE
  5
110
100
AcDbEntity
  8
M0
 62
     7
100
AcDbLine
 10
55.108283
 20
283.524332
 11
53.340705
 21
281.756754
  0
LINE
  5
111
100
AcDbEntity
  8
M0
 62
     7
100
AcDbLine
 10
54.047736
 20
284.585001
 11
52.280158
 21
282.817301
  0
LINE
  5
112
100
AcDbEntity
  8
M0
  6
DASHED
 62
     7
100
AcDbLine
 10
54.897273
 20
286.995641
 11
50.369457
 21
286.995641
  0
LINE
  5
113
100
AcDbEntity
  8
M0
 62
     7
100
AcDbLine
 10
57.519457
 20
279.845641
 11
57.519457
 21
286.070643
  0
ARC
  5
114
100
AcDbEntity
  8
M0
 62
     7
100
AcDbCircle
 10
57.019457
 20
279.845641
 40
0.5
100
AcDbArc
 50
270.0
 51
360.0
  0
LINE
  5
115
100
AcDbEntity
  8
M0
 62
     7
100
AcDbLine
 10
50.369457
 20
279.345641
 11
57.019457
 21
279.345641
  0
LINE
  5
116
100
AcDbEntity
  8
M0
 62
     7
100
AcDbLine
 10
49.869457
 20
286.495641
 11
49.869457
 21
279.845641
  0
ARC
  5
117
100
AcDbEntity
  8
M0
 62
     7
100
AcDbCircle
 10
50.369457
 20
286.495641
 40
0.5
100
AcDbArc
 50
90.0
 51
180.0
  0
ARC
  5
118
100
AcDbEntity
  8
M0
 62
     7
100
AcDbCircle
 10
50.369457
 20
279.845641
 40
0.5
100
AcDbArc
 50
180.0
 51
270.0
  0
ARC
  5
119
100
AcDbEntity
  8
M0
 62
     7
100
AcDbCircle
 10
70.394457
 20
323.270642
 40
0.5
100
AcDbArc
 50
270.0
 51
360.0
  0
LINE
  5
11A
100
AcDbEntity
  8
M0
 62
     7
100
AcDbLine
 10
70.894457
 20
332.270642
 11
70.894457
 21
323.270642
  0
ARC
  5
11B
100
AcDbEntity
  8
M0
 62
     7
100
AcDbCircle
 10
70.394457
 20
332.270642
 40
0.5
100
AcDbArc
 50
0.0
 51
90.0
  0
LINE
  5
11C
100
AcDbEntity
  8
M0
 62
     7
100
AcDbLine
 10
60.894457
 20
332.270642
 11
60.894457
 21
323.270642
  0
ARC
  5
11D
100
AcDbEntity
  8
M0
 62
     7
100
AcDbCircle
 10
61.394457
 20
332.270642
 40
0.5
100
AcDbArc
 50
90.0
 51
180.0
  0
ARC
  5
11E
100
AcDbEntity
  8
M0
 62
     7
100
AcDbCircle
 10
61.394457
 20
323.270642
 40
0.5
100
AcDbArc
 50
180.0
 51
270.0
  0
LINE
  5
11F
100
AcDbEntity
  8
M0
 62
     7
100
AcDbLine
 10
61.394457
 20
322.770642
 11
70.394457
 21
322.770642
  0
LINE
  5
120
100
AcDbEntity
  8
M0
 62
     7
100
AcDbLine
 10
70.394457
 20
332.770642
 11
61.394457
 21
332.770642
  0
CIRCLE
  5
121
100
AcDbEntity
  8
M0
 62
     7
100
AcDbCircle
 10
65.894457
 20
327.770642
 40
3.5
  0
LINE
  5
122
100
AcDbEntity
  8
M0
 62
     7
100
AcDbLine
 10
66.905328
 20
329.488598
 11
64.330255
 21
326.913525
  0
LINE
  5
123
100
AcDbEntity
  8
M0
 62
     7
100
AcDbLine
 10
67.612436
 20
328.781491
 11
65.037363
 21
326.206417
  0
LINE
  5
124
100
AcDbEntity
  8
M0
 62
     7
100
AcDbLine
 10
64.933603
 20
328.731488
 11
66.778452
 21
326.886654
  0
ARC
  5
125
100
AcDbEntity
  8
M0
 62
     7
100
AcDbCircle
 10
83.394453
 20
323.270642
 40
0.5
100
AcDbArc
 50
270.0
 51
360.0
  0
LINE
  5
126
100
AcDbEntity
  8
M0
 62
     7
100
AcDbLine
 10
83.894453
 20
332.270642
 11
83.894453
 21
323.270642
  0
ARC
  5
127
100
AcDbEntity
  8
M0
 62
     7
100
AcDbCircle
 10
83.394453
 20
332.270642
 40
0.5
100
AcDbArc
 50
0.0
 51
90.0
  0
LINE
  5
128
100
AcDbEntity
  8
M0
 62
     7
100
AcDbLine
 10
73.894453
 20
332.270642
 11
73.894453
 21
323.270642
  0
ARC
  5
129
100
AcDbEntity
  8
M0
 62
     7
100
AcDbCircle
 10
74.394453
 20
332.270642
 40
0.5
100
AcDbArc
 50
90.0
 51
180.0
  0
ARC
  5
12A
100
AcDbEntity
  8
M0
 62
     7
100
AcDbCircle
 10
74.394453
 20
323.270642
 40
0.5
100
AcDbArc
 50
180.0
 51
270.0
  0
LINE
  5
12B
100
AcDbEntity
  8
M0
 62
     7
100
AcDbLine
 10
74.394453
 20
322.770642
 11
83.394453
 21
322.770642
  0
LINE
  5
12C
100
AcDbEntity
  8
M0
 62
     7
100
AcDbLine
 10
83.394453
 20
332.770642
 11
74.394453
 21
332.770642
  0
CIRCLE
  5
12D
100
AcDbEntity
  8
M0
 62
     7
100
AcDbCircle
 10
78.894453
 20
327.770642
 40
3.5
  0
LINE
  5
12E
100
AcDbEntity
  8
M0
 62
     7
100
AcDbLine
 10
79.905325
 20
329.488598
 11
77.330252
 21
326.913525
  0
LINE
  5
12F
100
AcDbEntity
  8
M0
 62
     7
100
AcDbLine
 10
80.612433
 20
328.781491
 11
78.037359
 21
326.206417
  0
LINE
  5
130
100
AcDbEntity
  8
M0
 62
     7
100
AcDbLine
 10
77.9336
 20
328.731488
 11
79.778448
 21
326.886654
  0
ARC
  5
131
100
AcDbEntity
  8
M0
 62
     7
100
AcDbCircle
 10
96.394454
 20
323.270642
 40
0.5
100
AcDbArc
 50
270.0
 51
360.0
  0
LINE
  5
132
100
AcDbEntity
  8
M0
 62
     7
100
AcDbLine
 10
96.894454
 20
332.270642
 11
96.894454
 21
323.270642
  0
ARC
  5
133
100
AcDbEntity
  8
M0
 62
     7
100
AcDbCircle
 10
96.394454
 20
332.270642
 40
0.5
100
AcDbArc
 50
0.0
 51
90.0
  0
LINE
  5
134
100
AcDbEntity
  8
M0
 62
     7
100
AcDbLine
 10
86.894454
 20
332.270642
 11
86.894454
 21
323.270642
  0
ARC
  5
135
100
AcDbEntity
  8
M0
 62
     7
100
AcDbCircle
 10
87.394454
 20
332.270642
 40
0.5
100
AcDbArc
 50
90.0
 51
180.0
  0
ARC
  5
136
100
AcDbEntity
  8
M0
 62
     7
100
AcDbCircle
 10
87.394454
 20
323.270642
 40
0.5
100
AcDbArc
 50
180.0
 51
270.0
  0
LINE
  5
137
100
AcDbEntity
  8
M0
 62
     7
100
AcDbLine
 10
87.394454
 20
322.770642
 11
96.394454
 21
322.770642
  0
LINE
  5
138
100
AcDbEntity
  8
M0
 62
     7
100
AcDbLine
 10
96.394454
 20
332.770642
 11
87.394454
 21
332.770642
  0
CIRCLE
  5
139
100
AcDbEntity
  8
M0
 62
     7
100
AcDbCircle
 10
91.894454
 20
327.770642
 40
3.5
  0
LINE
  5
13A
100
AcDbEntity
  8
M0
 62
     7
100
AcDbLine
 10
92.905325
 20
329.488598
 11
90.330252
 21
326.913525
  0
LINE
  5
13B
100
AcDbEntity
  8
M0
 62
     7
100
AcDbLine
 10
93.612433
 20
328.781491
 11
91.03736
 21
326.206417
  0
LINE
  5
13C
100
AcDbEntity
  8
M0
 62
     7
100
AcDbLine
 10
90.9336
 20
328.731488
 11
92.778448
 21
326.886654
  0
ARC
  5
13D
100
AcDbEntity
  8
M0
 62
     7
100
AcDbCircle
 10
96.394454
 20
275.870641
 40
0.5
100
AcDbArc
 50
270.0
 51
360.0
  0
LINE
  5
13E
100
AcDbEntity
  8
M0
 62
     7
100
AcDbLine
 10
96.894454
 20
284.870641
 11
96.894454
 21
275.870641
  0
ARC
  5
13F
100
AcDbEntity
  8
M0
 62
     7
100
AcDbCircle
 10
96.394454
 20
284.870641
 40
0.5
100
AcDbArc
 50
0.0
 51
90.0
  0
LINE
  5
140
100
AcDbEntity
  8
M0
 62
     7
100
AcDbLine
 10
86.894454
 20
284.870641
 11
86.894454
 21
275.870641
  0
ARC
  5
141
100
AcDbEntity
  8
M0
 62
     7
100
AcDbCircle
 10
87.394454
 20
284.870641
 40
0.5
100
AcDbArc
 50
90.0
 51
180.0
  0
ARC
  5
142
100
AcDbEntity
  8
M0
 62
     7
100
AcDbCircle
 10
87.394454
 20
275.870641
 40
0.5
100
AcDbArc
 50
180.0
 51
270.0
  0
LINE
  5
143
100
AcDbEntity
  8
M0
 62
     7
100
AcDbLine
 10
87.394454
 20
275.370641
 11
96.394454
 21
275.370641
  0
LINE
  5
144
100
AcDbEntity
  8
M0
 62
     7
100
AcDbLine
 10
96.394454
 20
285.370641
 11
87.394454
 21
285.370641
  0
CIRCLE
  5
145
100
AcDbEntity
  8
M0
 62
     7
100
AcDbCircle
 10
91.894454
 20
280.370641
 40
3.5
  0
LINE
  5
146
100
AcDbEntity
  8
M0
 62
     7
100
AcDbLine
 10
92.905325
 20
282.088598
 11
90.330252
 21
279.513524
  0
LINE
  5
147
100
AcDbEntity
  8
M0
 62
     7
100
AcDbLine
 10
93.612433
 20
281.38149
 11
91.03736
 21
278.806417
  0
LINE
  5
148
100
AcDbEntity
  8
M0
 62
     7
100
AcDbLine
 10
90.9336
 20
281.331487
 11
92.778448
 21
279.486654
  0
ARC
  5
149
100
AcDbEntity
  8
M0
 62
     7
100
AcDbCircle
 10
83.394453
 20
275.870641
 40
0.5
100
AcDbArc
 50
270.0
 51
360.0
  0
LINE
  5
14A
100
AcDbEntity
  8
M0
 62
     7
100
AcDbLine
 10
83.894453
 20
284.870641
 11
83.894453
 21
275.870641
  0
ARC
  5
14B
100
AcDbEntity
  8
M0
 62
     7
100
AcDbCircle
 10
83.394453
 20
284.870641
 40
0.5
100
AcDbArc
 50
0.0
 51
90.0
  0
LINE
  5
14C
100
AcDbEntity
  8
M0
 62
     7
100
AcDbLine
 10
73.894453
 20
284.870641
 11
73.894453
 21
275.870641
  0
ARC
  5
14D
100
AcDbEntity
  8
M0
 62
     7
100
AcDbCircle
 10
74.394453
 20
284.870641
 40
0.5
100
AcDbArc
 50
90.0
 51
180.0
  0
ARC
  5
14E
100
AcDbEntity
  8
M0
 62
     7
100
AcDbCircle
 10
74.394453
 20
275.870641
 40
0.5
100
AcDbArc
 50
180.0
 51
270.0
  0
LINE
  5
14F
100
AcDbEntity
  8
M0
 62
     7
100
AcDbLine
 10
74.394453
 20
275.370641
 11
83.394453
 21
275.370641
  0
LINE
  5
150
100
AcDbEntity
  8
M0
 62
     7
100
AcDbLine
 10
83.394453
 20
285.370641
 11
74.394453
 21
285.370641
  0
CIRCLE
  5
151
100
AcDbEntity
  8
M0
 62
     7
100
AcDbCircle
 10
78.894453
 20
280.370641
 40
3.5
  0
LINE
  5
152
100
AcDbEntity
  8
M0
 62
     7
100
AcDbLine
 10
79.905325
 20
282.088598
 11
77.330252
 21
279.513524
  0
LINE
  5
153
100
AcDbEntity
  8
M0
 62
     7
100
AcDbLine
 10
80.612433
 20
281.38149
 11
78.037359
 21
278.806417
  0
LINE
  5
154
100
AcDbEntity
  8
M0
 62
     7
100
AcDbLine
 10
77.9336
 20
281.331487
 11
79.778448
 21
279.486654
  0
ARC
  5
155
100
AcDbEntity
  8
M0
 62
     7
100
AcDbCircle
 10
70.394457
 20
275.870641
 40
0.5
100
AcDbArc
 50
270.0
 51
360.0
  0
LINE
  5
156
100
AcDbEntity
  8
M0
 62
     7
100
AcDbLine
 10
70.894457
 20
284.870641
 11
70.894457
 21
275.870641
  0
ARC
  5
157
100
AcDbEntity
  8
M0
 62
     7
100
AcDbCircle
 10
70.394457
 20
284.870641
 40
0.5
100
AcDbArc
 50
0.0
 51
90.0
  0
LINE
  5
158
100
AcDbEntity
  8
M0
 62
     7
100
AcDbLine
 10
60.894457
 20
284.870641
 11
60.894457
 21
275.870641
  0
ARC
  5
159
100
AcDbEntity
  8
M0
 62
     7
100
AcDbCircle
 10
61.394457
 20
284.870641
 40
0.5
100
AcDbArc
 50
90.0
 51
180.0
  0
ARC
  5
15A
100
AcDbEntity
  8
M0
 62
     7
100
AcDbCircle
 10
61.394457
 20
275.870641
 40
0.5
100
AcDbArc
 50
180.0
 51
270.0
  0
LINE
  5
15B
100
AcDbEntity
  8
M0
 62
     7
100
AcDbLine
 10
61.394457
 20
275.370641
 11
70.394457
 21
275.370641
  0
LINE
  5
15C
100
AcDbEntity
  8
M0
 62
     7
100
AcDbLine
 10
70.394457
 20
285.370641
 11
61.394457
 21
285.370641
  0
CIRCLE
  5
15D
100
AcDbEntity
  8
M0
 62
     7
100
AcDbCircle
 10
65.894457
 20
280.370641
 40
3.5
  0
LINE
  5
15E
100
AcDbEntity
  8
M0
 62
     7
100
AcDbLine
 10
66.905328
 20
282.088598
 11
64.330255
 21
279.513524
  0
LINE
  5
15F
100
AcDbEntity
  8
M0
 62
     7
100
AcDbLine
 10
67.612436
 20
281.38149
 11
65.037363
 21
278.806417
  0
LINE
  5
160
100
AcDbEntity
  8
M0
 62
     7
100
AcDbLine
 10
64.933603
 20
281.331487
 11
66.778452
 21
279.486654
  0
CIRCLE
  5
161
100
AcDbEntity
  8
M0
 62
     7
100
AcDbCircle
 10
104.094457
 20
283.170641
 40
3.0
  0
LINE
  5
162
100
AcDbEntity
  8
M0
 62
     7
100
AcDbLine
 10
105.68504
 20
281.579996
 11
102.5034
 21
284.761759
  0
LINE
  5
163
100
AcDbEntity
  8
M0
 62
     7
100
AcDbLine
 10
105.508283
 20
283.524332
 11
103.740704
 21
281.756754
  0
LINE
  5
164
100
AcDbEntity
  8
M0
 62
     7
100
AcDbLine
 10
104.447736
 20
284.585001
 11
102.680158
 21
282.817301
  0
LINE
  5
165
100
AcDbEntity
  8
M0
 62
     7
100
AcDbLine
 10
107.419457
 20
286.995641
 11
102.89164
 21
286.995641
  0
ARC
  5
166
100
AcDbEntity
  8
M0
 62
     7
100
AcDbCircle
 10
107.419457
 20
286.495641
 40
0.5
100
AcDbArc
 50
0.0
 51
90.0
  0
LINE
  5
167
100
AcDbEntity
  8
M0
 62
     7
100
AcDbLine
 10
107.919457
 20
279.845641
 11
107.919457
 21
286.495641
  0
ARC
  5
168
100
AcDbEntity
  8
M0
 62
     7
100
AcDbCircle
 10
107.419457
 20
279.845641
 40
0.5
100
AcDbArc
 50
270.0
 51
360.0
  0
LINE
  5
169
100
AcDbEntity
  8
M0
 62
     7
100
AcDbLine
 10
100.769457
 20
279.345641
 11
107.419457
 21
279.345641
  0
LINE
  5
16A
100
AcDbEntity
  8
M0
 62
     7
100
AcDbLine
 10
100.269457
 20
286.070643
 11
100.269457
 21
279.845641
  0
ARC
  5
16B
100
AcDbEntity
  8
M0
 62
     7
100
AcDbCircle
 10
100.769457
 20
279.845641
 40
0.5
100
AcDbArc
 50
180.0
 51
270.0
  0
CIRCLE
  5
16C
100
AcDbEntity
  8
M0
 62
     7
100
AcDbCircle
 10
53.694457
 20
324.970641
 40
3.0
  0
LINE
  5
16D
100
AcDbEntity
  8
M0
 62
     7
100
AcDbLine
 10
55.285041
 20
323.379996
 11
52.1034
 21
326.561759
  0
LINE
  5
16E
100
AcDbEntity
  8
M0
 62
     7
100
AcDbLine
 10
55.108283
 20
325.324332
 11
53.340705
 21
323.556754
  0
LINE
  5
16F
100
AcDbEntity
  8
M0
 62
     7
100
AcDbLine
 10
54.047736
 20
326.385001
 11
52.280158
 21
324.617301
  0
LINE
  5
170
100
AcDbEntity
  8
M0
 62
     7
100
AcDbLine
 10
57.019457
 20
328.795641
 11
50.369457
 21
328.795641
  0
ARC
  5
171
100
AcDbEntity
  8
M0
 62
     7
100
AcDbCircle
 10
57.019457
 20
328.295641
 40
0.5
100
AcDbArc
 50
0.0
 51
90.0
  0
LINE
  5
172
100
AcDbEntity
  8
M0
 62
     7
100
AcDbLine
 10
57.519457
 20
322.070641
 11
57.519457
 21
328.295641
  0
LINE
  5
173
100
AcDbEntity
  8
M0
 62
     7
100
AcDbLine
 10
50.369457
 20
321.145641
 11
54.894457
 21
321.145641
  0
LINE
  5
174
100
AcDbEntity
  8
M0
 62
     7
100
AcDbLine
 10
49.869457
 20
328.295641
 11
49.869457
 21
321.645641
  0
ARC
  5
175
100
AcDbEntity
  8
M0
 62
     7
100
AcDbCircle
 10
50.369457
 20
328.295641
 40
0.5
100
AcDbArc
 50
90.0
 51
180.0
  0
ARC
  5
176
100
AcDbEntity
  8
M0
 62
     7
100
AcDbCircle
 10
50.369457
 20
321.645641
 40
0.5
100
AcDbArc
 50
180.0
 51
270.0
  0
LINE
  5
177
100
AcDbEntity
  8
M0
 62
     7
100
AcDbLine
 10
54.894457
 20
289.570595
 11
52.1034
 21
292.361759
  0
LINE
  5
178
100
AcDbEntity
  8
M0
 62
     7
100
AcDbLine
 10
54.894457
 20
290.910506
 11
53.340705
 21
289.356754
  0
LINE
  5
179
100
AcDbEntity
  8
M0
 62
     7
100
AcDbLine
 10
54.047736
 20
292.185001
 11
52.280158
 21
290.417301
  0
LINE
  5
17A
100
AcDbEntity
  8
M0
 62
     7
100
AcDbLine
 10
54.894457
 20
294.595641
 11
50.369457
 21
294.595641
  0
LINE
  5
17B
100
AcDbEntity
  8
M0
 62
     7
100
AcDbLine
 10
50.369457
 20
286.945641
 11
54.894457
 21
286.945641
  0
LINE
  5
17C
100
AcDbEntity
  8
M0
 62
     7
100
AcDbLine
 10
49.869457
 20
294.095641
 11
49.869457
 21
287.445641
  0
ARC
  5
17D
100
AcDbEntity
  8
M0
 62
     7
100
AcDbCircle
 10
50.369457
 20
294.095641
 40
0.5
100
AcDbArc
 50
90.0
 51
180.0
  0
ARC
  5
17E
100
AcDbEntity
  8
M0
 62
     7
100
AcDbCircle
 10
50.369457
 20
287.445641
 40
0.5
100
AcDbArc
 50
180.0
 51
270.0
  0
CIRCLE
  5
17F
100
AcDbEntity
  8
M0
 62
     7
100
AcDbCircle
 10
65.894457
 20
271.570641
 40
2.75
  0
LINE
  5
180
100
AcDbEntity
  8
M0
 62
     7
100
AcDbLine
 10
65.594457
 20
270.170641
 11
65.594457
 21
270.567002
  0
LINE
  5
181
100
AcDbEntity
  8
M0
 62
     7
100
AcDbLine
 10
66.194457
 20
270.170641
 11
66.194457
 21
270.567002
  0
LINE
  5
182
100
AcDbEntity
  8
M0
 62
     7
100
AcDbLine
 10
65.594457
 20
272.970641
 11
65.594457
 21
272.574281
  0
LINE
  5
183
100
AcDbEntity
  8
M0
 62
     7
100
AcDbLine
 10
66.194457
 20
272.970641
 11
66.194457
 21
272.574281
  0
ARC
  5
184
100
AcDbEntity
  8
M0
 62
     7
100
AcDbCircle
 10
64.869457
 20
270.545641
 40
0.725
100
AcDbArc
 50
0.0
 51
90.0
  0
ARC
  5
185
100
AcDbEntity
  8
M0
 62
     7
100
AcDbCircle
 10
64.869457
 20
272.595641
 40
0.725
100
AcDbArc
 50
-90.0
 51
0.0
  0
ARC
  5
186
100
AcDbEntity
  8
M0
 62
     7
100
AcDbCircle
 10
66.919457
 20
272.595641
 40
0.725
100
AcDbArc
 50
180.0
 51
270.0
  0
ARC
  5
187
100
AcDbEntity
  8
M0
 62
     7
100
AcDbCircle
 10
66.919457
 20
270.545641
 40
0.725
100
AcDbArc
 50
90.0
 51
180.0
  0
LINE
  5
188
100
AcDbEntity
  8
M0
 62
     7
100
AcDbLine
 10
66.919457
 20
271.270641
 11
67.319457
 21
271.270641
  0
LINE
  5
189
100
AcDbEntity
  8
M0
 62
     7
100
AcDbLine
 10
66.919457
 20
271.870641
 11
67.319457
 21
271.870641
  0
LINE
  5
18A
100
AcDbEntity
  8
M0
 62
     7
100
AcDbLine
 10
65.594457
 20
272.970641
 11
66.194457
 21
272.970641
  0
LINE
  5
18B
100
AcDbEntity
  8
M0
 62
     7
100
AcDbLine
 10
65.594457
 20
270.170641
 11
66.194457
 21
270.170641
  0
LINE
  5
18C
100
AcDbEntity
  8
M0
 62
     7
100
AcDbLine
 10
64.494457
 20
271.870641
 11
64.869457
 21
271.870641
  0
LINE
  5
18D
100
AcDbEntity
  8
M0
 62
     7
100
AcDbLine
 10
64.494457
 20
271.870641
 11
64.494457
 21
271.270641
  0
LINE
  5
18E
100
AcDbEntity
  8
M0
 62
     7
100
AcDbLine
 10
64.494457
 20
271.270641
 11
64.869457
 21
271.270641
  0
LINE
  5
18F
100
AcDbEntity
  8
M0
 62
     7
100
AcDbLine
 10
67.319457
 20
271.870641
 11
67.319457
 21
271.270641
  0
CIRCLE
  5
190
100
AcDbEntity
  8
M0
 62
     7
100
AcDbCircle
 10
91.894457
 20
271.570641
 40
2.75
  0
LINE
  5
191
100
AcDbEntity
  8
M0
 62
     7
100
AcDbLine
 10
91.594457
 20
270.170641
 11
91.594457
 21
270.567002
  0
LINE
  5
192
100
AcDbEntity
  8
M0
 62
     7
100
AcDbLine
 10
92.194457
 20
270.170641
 11
92.194457
 21
270.567002
  0
LINE
  5
193
100
AcDbEntity
  8
M0
 62
     7
100
AcDbLine
 10
91.594457
 20
272.970641
 11
91.594457
 21
272.574281
  0
LINE
  5
194
100
AcDbEntity
  8
M0
 62
     7
100
AcDbLine
 10
92.194457
 20
272.970641
 11
92.194457
 21
272.574281
  0
ARC
  5
195
100
AcDbEntity
  8
M0
 62
     7
100
AcDbCircle
 10
90.869457
 20
270.545641
 40
0.725
100
AcDbArc
 50
0.0
 51
90.0
  0
ARC
  5
196
100
AcDbEntity
  8
M0
 62
     7
100
AcDbCircle
 10
90.869457
 20
272.595641
 40
0.725
100
AcDbArc
 50
-90.0
 51
0.0
  0
ARC
  5
197
100
AcDbEntity
  8
M0
 62
     7
100
AcDbCircle
 10
92.919457
 20
272.595641
 40
0.725
100
AcDbArc
 50
180.0
 51
270.0
  0
ARC
  5
198
100
AcDbEntity
  8
M0
 62
     7
100
AcDbCircle
 10
92.919457
 20
270.545641
 40
0.725
100
AcDbArc
 50
90.0
 51
180.0
  0
LINE
  5
199
100
AcDbEntity
  8
M0
 62
     7
100
AcDbLine
 10
92.919457
 20
271.270641
 11
93.319457
 21
271.270641
  0
LINE
  5
19A
100
AcDbEntity
  8
M0
 62
     7
100
AcDbLine
 10
92.919457
 20
271.870641
 11
93.319457
 21
271.870641
  0
LINE
  5
19B
100
AcDbEntity
  8
M0
 62
     7
100
AcDbLine
 10
91.594457
 20
272.970641
 11
92.194457
 21
272.970641
  0
LINE
  5
19C
100
AcDbEntity
  8
M0
 62
     7
100
AcDbLine
 10
91.594457
 20
270.170641
 11
92.194457
 21
270.170641
  0
LINE
  5
19D
100
AcDbEntity
  8
M0
 62
     7
100
AcDbLine
 10
90.494457
 20
271.870641
 11
90.869457
 21
271.870641
  0
LINE
  5
19E
100
AcDbEntity
  8
M0
 62
     7
100
AcDbLine
 10
90.494457
 20
271.870641
 11
90.494457
 21
271.270641
  0
LINE
  5
19F
100
AcDbEntity
  8
M0
 62
     7
100
AcDbLine
 10
90.494457
 20
271.270641
 11
90.869457
 21
271.270641
  0
LINE
  5
1A0
100
AcDbEntity
  8
M0
 62
     7
100
AcDbLine
 10
93.319457
 20
271.870641
 11
93.319457
 21
271.270641
  0
CIRCLE
  5
1A1
100
AcDbEntity
  8
M0
 62
     7
100
AcDbCircle
 10
89.794457
 20
342.670641
 40
3.0
  0
LINE
  5
1A2
100
AcDbEntity
  8
M0
 62
     7
100
AcDbLine
 10
91.385041
 20
341.079996
 11
88.2034
 21
344.261759
  0
LINE
  5
1A3
100
AcDbEntity
  8
M0
 62
     7
100
AcDbLine
 10
91.208283
 20
343.024332
 11
89.440705
 21
341.256754
  0
LINE
  5
1A4
100
AcDbEntity
  8
M0
 62
     7
100
AcDbLine
 10
90.147736
 20
344.085001
 11
88.380158
 21
342.317301
  0
LINE
  5
1A5
100
AcDbEntity
  8
M0
 62
     7
100
AcDbLine
 10
93.119457
 20
346.495641
 11
86.469457
 21
346.495641
  0
ARC
  5
1A6
100
AcDbEntity
  8
M0
 62
     7
100
AcDbCircle
 10
93.119457
 20
345.995641
 40
0.5
100
AcDbArc
 50
0.0
 51
90.0
  0
LINE
  5
1A7
100
AcDbEntity
  8
M0
 62
     7
100
AcDbLine
 10
93.619457
 20
339.345641
 11
93.619457
 21
345.995641
  0
ARC
  5
1A8
100
AcDbEntity
  8
M0
 62
     7
100
AcDbCircle
 10
93.119457
 20
339.345641
 40
0.5
100
AcDbArc
 50
270.0
 51
360.0
  0
LINE
  5
1A9
100
AcDbEntity
  8
M0
 62
     7
100
AcDbLine
 10
86.469457
 20
338.845641
 11
93.119457
 21
338.845641
  0
LINE
  5
1AA
100
AcDbEntity
  8
M0
 62
     7
100
AcDbLine
 10
85.969457
 20
345.995641
 11
85.969457
 21
339.345641
  0
ARC
  5
1AB
100
AcDbEntity
  8
M0
 62
     7
100
AcDbCircle
 10
86.469457
 20
345.995641
 40
0.5
100
AcDbArc
 50
90.0
 51
180.0
  0
ARC
  5
1AC
100
AcDbEntity
  8
M0
 62
     7
100
AcDbCircle
 10
86.469457
 20
339.345641
 40
0.5
100
AcDbArc
 50
180.0
 51
270.0
  0
CIRCLE
  5
1AD
100
AcDbEntity
  8
M0
 62
     7
100
AcDbCircle
 10
104.094457
 20
324.970641
 40
3.0
  0
LINE
  5
1AE
100
AcDbEntity
  8
M0
 62
     7
100
AcDbLine
 10
105.68504
 20
323.379996
 11
102.5034
 21
326.561759
  0
LINE
  5
1AF
100
AcDbEntity
  8
M0
 62
     7
100
AcDbLine
 10
105.508283
 20
325.324332
 11
103.740704
 21
323.556754
  0
LINE
  5
1B0
100
AcDbEntity
  8
M0
 62
     7
100
AcDbLine
 10
104.447736
 20
326.385001
 11
102.680158
 21
324.617301
  0
LINE
  5
1B1
100
AcDbEntity
  8
M0
 62
     7
100
AcDbLine
 10
107.419457
 20
328.795641
 11
100.769457
 21
328.795641
  0
ARC
  5
1B2
100
AcDbEntity
  8
M0
 62
     7
100
AcDbCircle
 10
107.419457
 20
328.295641
 40
0.5
100
AcDbArc
 50
0.0
 51
90.0
  0
LINE
  5
1B3
100
AcDbEntity
  8
M0
 62
     7
100
AcDbLine
 10
107.919457
 20
321.645641
 11
107.919457
 21
328.295641
  0
ARC
  5
1B4
100
AcDbEntity
  8
M0
 62
     7
100
AcDbCircle
 10
107.419457
 20
321.645641
 40
0.5
100
AcDbArc
 50
270.0
 51
360.0
  0
LINE
  5
1B5
100
AcDbEntity
  8
M0
 62
     7
100
AcDbLine
 10
102.894457
 20
321.145641
 11
107.419457
 21
321.145641
  0
LINE
  5
1B6
100
AcDbEntity
  8
M0
 62
     7
100
AcDbLine
 10
100.269457
 20
328.295641
 11
100.269457
 21
322.070641
  0
ARC
  5
1B7
100
AcDbEntity
  8
M0
 62
     7
100
AcDbCircle
 10
100.769457
 20
328.295641
 40
0.5
100
AcDbArc
 50
90.0
 51
180.0
  0
CIRCLE
  5
1B8
100
AcDbEntity
  8
M0
 62
     7
100
AcDbCircle
 10
78.894457
 20
342.270641
 40
2.75
  0
LINE
  5
1B9
100
AcDbEntity
  8
M0
 62
     7
100
AcDbLine
 10
78.594457
 20
340.870641
 11
78.594457
 21
341.267002
  0
LINE
  5
1BA
100
AcDbEntity
  8
M0
 62
     7
100
AcDbLine
 10
79.194457
 20
340.870641
 11
79.194457
 21
341.267002
  0
LINE
  5
1BB
100
AcDbEntity
  8
M0
 62
     7
100
AcDbLine
 10
78.594457
 20
343.670641
 11
78.594457
 21
343.274281
  0
LINE
  5
1BC
100
AcDbEntity
  8
M0
 62
     7
100
AcDbLine
 10
79.194457
 20
343.670641
 11
79.194457
 21
343.274281
  0
ARC
  5
1BD
100
AcDbEntity
  8
M0
 62
     7
100
AcDbCircle
 10
77.869457
 20
341.245641
 40
0.725
100
AcDbArc
 50
0.0
 51
90.0
  0
ARC
  5
1BE
100
AcDbEntity
  8
M0
 62
     7
100
AcDbCircle
 10
77.869457
 20
343.295641
 40
0.725
100
AcDbArc
 50
-90.0
 51
0.0
  0
ARC
  5
1BF
100
AcDbEntity
  8
M0
 62
     7
100
AcDbCircle
 10
79.919457
 20
343.295641
 40
0.725
100
AcDbArc
 50
180.0
 51
270.0
  0
ARC
  5
1C0
100
AcDbEntity
  8
M0
 62
     7
100
AcDbCircle
 10
79.919457
 20
341.245641
 40
0.725
100
AcDbArc
 50
90.0
 51
180.0
  0
LINE
  5
1C1
100
AcDbEntity
  8
M0
 62
     7
100
AcDbLine
 10
79.919457
 20
341.970641
 11
80.319457
 21
341.970641
  0
LINE
  5
1C2
100
AcDbEntity
  8
M0
 62
     7
100
AcDbLine
 10
79.919457
 20
342.570641
 11
80.319457
 21
342.570641
  0
LINE
  5
1C3
100
AcDbEntity
  8
M0
 62
     7
100
AcDbLine
 10
78.594457
 20
343.670641
 11
79.194457
 21
343.670641
  0
LINE
  5
1C4
100
AcDbEntity
  8
M0
 62
     7
100
AcDbLine
 10
78.594457
 20
340.870641
 11
79.194457
 21
340.870641
  0
LINE
  5
1C5
100
AcDbEntity
  8
M0
 62
     7
100
AcDbLine
 10
77.494457
 20
342.570641
 11
77.869457
 21
342.570641
  0
LINE
  5
1C6
100
AcDbEntity
  8
M0
 62
     7
100
AcDbLine
 10
77.494457
 20
342.570641
 11
77.494457
 21
341.970641
  0
LINE
  5
1C7
100
AcDbEntity
  8
M0
 62
     7
100
AcDbLine
 10
77.494457
 20
341.970641
 11
77.869457
 21
341.970641
  0
LINE
  5
1C8
100
AcDbEntity
  8
M0
 62
     7
100
AcDbLine
 10
80.319457
 20
342.570641
 11
80.319457
 21
341.970641
  0
LINE
  5
1C9
100
AcDbEntity
  8
M0
  6
DASHDOT
 62
     7
100
AcDbLine
 10
78.894457
 20
352.070642
 11
78.894457
 21
263.57064
  0
LINE
  5
1CA
100
AcDbEntity
  8
M0
  6
DASHDOT
 62
     7
100
AcDbLine
 10
32.99446
 20
304.070641
 11
124.794454
 21
304.070641
  0
ARC
  5
1CB
100
AcDbEntity
  8
M0
 62
     7
100
AcDbCircle
 10
86.544457
 20
339.420641
 40
0.5
100
AcDbArc
 50
268.473851
 51
270.0
  0
ARC
  5
1CC
100
AcDbEntity
  8
M0
 62
     7
100
AcDbCircle
 10
51.894457
 20
334.070641
 40
2.25
100
AcDbArc
 50
0.0
 51
180.0
  0
ARC
  5
1CD
100
AcDbEntity
  8
M0
 62
     7
100
AcDbCircle
 10
51.894457
 20
332.070641
 40
2.25
100
AcDbArc
 50
180.0
 51
360.0
  0
ARC
  5
1CE
100
AcDbEntity
  8
M0
 62
     7
100
AcDbCircle
 10
52.494457
 20
273.570641
 40
5.0
100
AcDbArc
 50
180.0
 51
270.0
  0
ARC
  5
1CF
100
AcDbEntity
  8
M0
 62
     7
100
AcDbCircle
 10
52.494457
 20
334.570641
 40
5.0
100
AcDbArc
 50
90.0
 51
180.0
  0
ARC
  5
1D0
100
AcDbEntity
  8
M0
 62
     7
100
AcDbCircle
 10
56.694457
 20
272.070641
 40
0.5
100
AcDbArc
 50
180.0
 51
270.0
  0
ARC
  5
1D1
100
AcDbEntity
  8
M0
 62
     7
100
AcDbCircle
 10
101.094457
 20
273.070641
 40
0.5
100
AcDbArc
 50
0.0
 51
90.0
  0
ARC
  5
1D2
100
AcDbEntity
  8
M0
 62
     7
100
AcDbCircle
 10
57.694457
 20
273.070641
 40
0.5
100
AcDbArc
 50
0.0
 51
90.0
  0
ARC
  5
1D3
100
AcDbEntity
  8
M0
 62
     7
100
AcDbCircle
 10
56.694457
 20
273.070641
 40
0.5
100
AcDbArc
 50
90.0
 51
180.0
  0
CIRCLE
  5
1D4
100
AcDbEntity
  8
M0
 62
     7
100
AcDbCircle
 10
51.394457
 20
274.070641
 40
2.25
  0
CIRCLE
  5
1D5
100
AcDbEntity
  8
M0
 62
     7
100
AcDbCircle
 10
106.394457
 20
334.070641
 40
2.25
  0
ARC
  5
1D6
100
AcDbEntity
  8
M0
 62
     7
100
AcDbCircle
 10
101.094457
 20
272.070641
 40
0.5
100
AcDbArc
 50
270.0
 51
360.0
  0
ARC
  5
1D7
100
AcDbEntity
  8
M0
 62
     7
100
AcDbCircle
 10
100.094457
 20
273.070641
 40
0.5
100
AcDbArc
 50
90.0
 51
180.0
  0
ARC
  5
1D8
100
AcDbEntity
  8
M0
 62
     7
100
AcDbCircle
 10
98.894457
 20
338.570641
 40
1.0
100
AcDbArc
 50
90.0
 51
98.626927
  0
ARC
  5
1D9
100
AcDbEntity
  8
M0
 62
     7
100
AcDbCircle
 10
105.894457
 20
274.070641
 40
2.25
100
AcDbArc
 50
180.0
 51
360.0
  0
ARC
  5
1DA
100
AcDbEntity
  8
M0
 62
     7
100
AcDbCircle
 10
58.894457
 20
338.570641
 40
1.0
100
AcDbArc
 50
81.373073
 51
90.0
  0
ARC
  5
1DB
100
AcDbEntity
  8
M0
 62
     7
100
AcDbCircle
 10
105.294457
 20
334.570641
 40
5.0
100
AcDbArc
 50
0.0
 51
90.0
  0
ARC
  5
1DC
100
AcDbEntity
  8
M0
 62
     7
100
AcDbCircle
 10
57.694457
 20
272.070641
 40
0.5
100
AcDbArc
 50
270.0
 51
360.0
  0
ARC
  5
1DD
100
AcDbEntity
  8
M0
 62
     7
100
AcDbCircle
 10
105.894457
 20
276.070641
 40
2.25
100
AcDbArc
 50
0.0
 51
180.0
  0
ARC
  5
1DE
100
AcDbEntity
  8
M0
 62
     7
100
AcDbCircle
 10
105.294457
 20
273.570641
 40
5.0
100
AcDbArc
 50
270.0
 51
360.0
  0
LINE
  5
1DF
100
AcDbEntity
  8
M0
 62
     7
100
AcDbLine
 10
94.094455
 20
338.570642
 11
94.094455
 21
347.970643
  0
LINE
  5
1E0
100
AcDbEntity
  8
M0
 62
     7
100
AcDbLine
 10
95.683917
 20
345.588633
 11
95.894456
 21
338.570642
  0
LINE
  5
1E1
100
AcDbEntity
  8
M0
 62
     7
100
AcDbLine
 10
95.012188
 20
348.570642
 11
94.694458
 21
348.570642
  0
LINE
  5
1E2
100
AcDbEntity
  8
M0
 62
     7
100
AcDbLine
 10
83.894458
 20
271.070641
 11
83.894458
 21
271.570642
  0
LINE
  5
1E3
100
AcDbEntity
  8
M0
 62
     7
100
AcDbLine
 10
83.894458
 20
268.57064
 11
73.894456
 21
268.57064
  0
LINE
  5
1E4
100
AcDbEntity
  8
M0
 62
     7
100
AcDbLine
 10
73.894456
 20
271.570642
 11
73.894456
 21
271.070641
  0
LINE
  5
1E5
100
AcDbEntity
  8
M0
 62
     7
100
AcDbLine
 10
58.194456
 20
269.570641
 11
58.194456
 21
286.070643
  0
LINE
  5
1E6
100
AcDbEntity
  8
M0
 62
     7
100
AcDbLine
 10
74.394457
 20
270.57064
 11
83.394456
 21
270.57064
  0
LINE
  5
1E7
100
AcDbEntity
  8
M0
 62
     7
100
AcDbLine
 10
56.694457
 20
271.570642
 11
57.694457
 21
271.570642
  0
LINE
  5
1E8
100
AcDbEntity
  8
M0
 62
     7
100
AcDbLine
 10
57.694457
 20
273.570643
 11
56.694457
 21
273.570643
  0
LINE
  5
1E9
100
AcDbEntity
  8
M0
 62
     7
100
AcDbLine
 10
101.094458
 20
273.570643
 11
100.094456
 21
273.570643
  0
LINE
  5
1EA
100
AcDbEntity
  8
M0
 62
     7
100
AcDbLine
 10
56.194456
 20
273.070642
 11
56.194456
 21
272.07064
  0
ARC
  5
1EB
100
AcDbEntity
  8
M0
 62
     7
100
AcDbCircle
 10
72.994457
 20
348.070641
 40
0.5
100
AcDbArc
 50
0.0
 51
90.0
  0
ARC
  5
1EC
100
AcDbEntity
  8
M0
 62
     7
100
AcDbCircle
 10
84.794457
 20
348.070641
 40
0.5
100
AcDbArc
 50
90.0
 51
180.0
  0
ARC
  5
1ED
100
AcDbEntity
  8
M0
 62
     7
100
AcDbCircle
 10
72.994457
 20
347.570641
 40
1.0
100
AcDbArc
 50
90.0
 51
180.0
  0
ARC
  5
1EE
100
AcDbEntity
  8
M0
 62
     7
100
AcDbCircle
 10
84.794457
 20
347.570641
 40
1.0
100
AcDbArc
 50
0.0
 51
90.0
  0
LINE
  5
1EF
100
AcDbEntity
  8
M0
 62
     7
100
AcDbLine
 10
101.594455
 20
272.07064
 11
101.594455
 21
273.070642
  0
LINE
  5
1F0
100
AcDbEntity
  8
M0
 62
     7
100
AcDbLine
 10
86.594459
 20
338.570642
 11
95.894456
 21
338.570642
  0
LINE
  5
1F1
100
AcDbEntity
  8
M0
 62
     7
100
AcDbLine
 10
95.894456
 20
337.070641
 11
86.594459
 21
337.070641
  0
LINE
  5
1F2
100
AcDbEntity
  8
M0
 62
     7
100
AcDbLine
 10
95.894456
 20
338.570642
 11
95.894456
 21
337.070641
  0
LINE
  5
1F3
100
AcDbEntity
  8
M0
 62
     7
100
AcDbLine
 10
71.994457
 20
347.070642
 11
63.694456
 21
347.070642
  0
LINE
  5
1F4
100
AcDbEntity
  8
M0
 62
     7
100
AcDbLine
 10
94.094455
 20
347.070642
 11
85.794456
 21
347.070642
  0
LINE
  5
1F5
100
AcDbEntity
  8
M0
 62
     7
100
AcDbLine
 10
85.794456
 20
347.57064
 11
85.794456
 21
339.550436
  0
LINE
  5
1F6
100
AcDbEntity
  8
M0
 62
     7
100
AcDbLine
 10
84.294457
 20
339.006531
 11
84.294457
 21
347.57064
  0
LINE
  5
1F7
100
AcDbEntity
  8
M0
 62
     7
100
AcDbLine
 10
71.194459
 20
337.070641
 11
61.894458
 21
337.070641
  0
LINE
  5
1F8
100
AcDbEntity
  8
M0
 62
     7
100
AcDbLine
 10
95.894456
 20
337.070641
 11
95.894456
 21
335.070641
  0
LINE
  5
1F9
100
AcDbEntity
  8
M0
 62
     7
100
AcDbLine
 10
61.894458
 20
338.570642
 11
71.194459
 21
338.570642
  0
LINE
  5
1FA
100
AcDbEntity
  8
M0
 62
     7
100
AcDbLine
 10
105.294458
 20
268.57064
 11
98.194457
 21
268.57064
  0
LINE
  5
1FB
100
AcDbEntity
  8
M0
 62
     7
100
AcDbLine
 10
56.194456
 20
274.570641
 11
58.194456
 21
274.570641
  0
LINE
  5
1FC
100
AcDbEntity
  8
M0
 62
     7
100
AcDbLine
 10
56.194456
 20
278.370642
 11
56.194456
 21
274.570641
  0
LINE
  5
1FD
100
AcDbEntity
  8
M0
 62
     7
100
AcDbLine
 10
101.594455
 20
274.570641
 11
101.594455
 21
278.370642
  0
LINE
  5
1FE
100
AcDbEntity
  8
M0
 62
     7
100
AcDbLine
 10
99.594455
 20
274.570641
 11
101.594455
 21
274.570641
  0
LINE
  5
1FF
100
AcDbEntity
  8
M0
 62
     7
100
AcDbLine
 10
103.64446
 20
276.07064
 11
103.64446
 21
274.07064
  0
LINE
  5
200
100
AcDbEntity
  8
M0
 62
     7
100
AcDbLine
 10
108.144455
 20
274.07064
 11
108.144455
 21
276.07064
  0
LINE
  5
201
100
AcDbEntity
  8
M0
 62
     7
100
AcDbLine
 10
47.494457
 20
273.570643
 11
47.494457
 21
334.570641
  0
LINE
  5
202
100
AcDbEntity
  8
M0
 62
     7
100
AcDbLine
 10
61.894458
 20
338.570642
 11
61.894458
 21
335.070641
  0
LINE
  5
203
100
AcDbEntity
  8
M0
 62
     7
100
AcDbLine
 10
54.144457
 20
334.07064
 11
54.144457
 21
332.070642
  0
LINE
  5
204
100
AcDbEntity
  8
M0
 62
     7
100
AcDbLine
 10
49.644457
 20
332.070642
 11
49.644457
 21
334.07064
  0
LINE
  5
205
100
AcDbEntity
  8
M0
 62
     7
100
AcDbLine
 10
100.194458
 20
279.370642
 11
101.094458
 21
279.370642
  0
LINE
  5
206
100
AcDbEntity
  8
M0
 62
     7
100
AcDbLine
 10
107.094459
 20
279.370642
 11
107.994459
 21
279.370642
  0
LINE
  5
207
100
AcDbEntity
  8
M0
 62
     7
100
AcDbLine
 10
56.694457
 20
328.770642
 11
57.594457
 21
328.770642
  0
LINE
  5
208
100
AcDbEntity
  8
M0
 62
     7
100
AcDbLine
 10
101.094458
 20
328.770642
 11
100.194458
 21
328.770642
  0
LINE
  5
209
100
AcDbEntity
  8
M0
 62
     7
100
AcDbLine
 10
109.094456
 20
276.370642
 11
108.994454
 21
276.370642
  0
LINE
  5
20A
100
AcDbEntity
  8
M0
 62
     7
100
AcDbLine
 10
107.994459
 20
328.770642
 11
107.094459
 21
328.770642
  0
LINE
  5
20B
100
AcDbEntity
  8
M0
 62
     7
100
AcDbLine
 10
109.094456
 20
331.770641
 11
108.994454
 21
331.770641
  0
LINE
  5
20C
100
AcDbEntity
  8
M0
 62
     7
100
AcDbLine
 10
49.794457
 20
328.770642
 11
50.694457
 21
328.770642
  0
ARC
  5
20D
100
AcDbEntity
  8
M0
 62
     7
100
AcDbCircle
 10
61.894457
 20
269.570641
 40
1.0
100
AcDbArc
 50
180.0
 51
270.0
  0
LINE
  5
20E
100
AcDbEntity
  8
M0
 62
     7
100
AcDbLine
 10
61.894457
 20
268.57064
 11
69.894457
 21
268.57064
  0
LINE
  5
20F
100
AcDbEntity
  8
M0
 62
     7
100
AcDbLine
 10
48.694457
 20
276.370642
 11
48.794457
 21
276.370642
  0
LINE
  5
210
100
AcDbEntity
  8
M0
 62
     7
100
AcDbLine
 10
57.594457
 20
279.370642
 11
56.694457
 21
279.370642
  0
LINE
  5
211
100
AcDbEntity
  8
M0
 62
     7
100
AcDbLine
 10
50.694457
 20
279.370642
 11
49.794457
 21
279.370642
  0
LINE
  5
212
100
AcDbEntity
  8
M0
 62
     7
100
AcDbLine
 10
48.694457
 20
331.770641
 11
48.794457
 21
331.770641
  0
ARC
  5
213
100
AcDbEntity
  8
M0
 62
     7
100
AcDbCircle
 10
83.394457
 20
271.070641
 40
0.5
100
AcDbArc
 50
270.0
 51
360.0
  0
ARC
  5
214
100
AcDbEntity
  8
M0
 62
     7
100
AcDbCircle
 10
83.894457
 20
270.570641
 40
2.0
100
AcDbArc
 50
270.0
 51
292.57935
  0
ARC
  5
215
100
AcDbEntity
  8
M0
 62
     7
100
AcDbCircle
 10
62.776727
 20
347.970641
 40
0.6
100
AcDbArc
 50
90.0
 51
178.281642
  0
ARC
  5
216
100
AcDbEntity
  8
M0
 62
     7
100
AcDbCircle
 10
63.094457
 20
347.970641
 40
0.6
100
AcDbArc
 50
0.0
 51
90.0
  0
ARC
  5
217
100
AcDbEntity
  8
M0
 62
     7
100
AcDbCircle
 10
100.094457
 20
272.070641
 40
0.5
100
AcDbArc
 50
180.0
 51
270.0
  0
ARC
  5
218
100
AcDbEntity
  8
M0
 62
     7
100
AcDbCircle
 10
73.894457
 20
270.570641
 40
2.0
100
AcDbArc
 50
247.42065
 51
270.0
  0
ARC
  5
219
100
AcDbEntity
  8
M0
 62
     7
100
AcDbCircle
 10
74.394457
 20
271.070641
 40
0.5
100
AcDbArc
 50
180.0
 51
270.0
  0
ARC
  5
21A
100
AcDbEntity
  8
M0
 62
     7
100
AcDbCircle
 10
94.694457
 20
347.970641
 40
0.6
100
AcDbArc
 50
90.0
 51
180.0
  0
LINE
  5
21B
100
AcDbEntity
  8
M0
 62
     7
100
AcDbLine
 10
63.694456
 20
347.970643
 11
63.694456
 21
338.570642
  0
LINE
  5
21C
100
AcDbEntity
  8
M0
 62
     7
100
AcDbLine
 10
61.894458
 20
338.570642
 11
62.104996
 21
345.588633
  0
LINE
  5
21D
100
AcDbEntity
  8
M0
 62
     7
100
AcDbLine
 10
62.776727
 20
348.570642
 11
63.094457
 21
348.570642
  0
ARC
  5
21E
100
AcDbEntity
  8
M0
 62
     7
100
AcDbCircle
 10
95.012187
 20
347.970641
 40
0.6
100
AcDbArc
 50
1.718358
 51
90.0
  0
LINE
  5
21F
100
AcDbEntity
  8
M0
 62
     7
100
AcDbLine
 10
100.094456
 20
271.570642
 11
101.094458
 21
271.570642
  0
LINE
  5
220
100
AcDbEntity
  8
M0
 62
     7
100
AcDbLine
 10
99.594455
 20
269.570641
 11
99.594455
 21
286.070643
  0
LINE
  5
221
100
AcDbEntity
  8
M0
 62
     7
100
AcDbLine
 10
84.294457
 20
347.57064
 11
84.294457
 21
348.070641
  0
LINE
  5
222
100
AcDbEntity
  8
M0
 62
     7
100
AcDbLine
 10
73.494457
 20
347.070642
 11
74.594457
 21
347.070642
  0
LINE
  5
223
100
AcDbEntity
  8
M0
 62
     7
100
AcDbLine
 10
83.194457
 20
347.070642
 11
84.294457
 21
347.070642
  0
LINE
  5
224
100
AcDbEntity
  8
M0
 62
     7
100
AcDbLine
 10
73.494457
 20
347.57064
 11
73.494457
 21
339.006531
  0
LINE
  5
225
100
AcDbEntity
  8
M0
 62
     7
100
AcDbLine
 10
71.994457
 20
339.550436
 11
71.994457
 21
347.57064
  0
LINE
  5
226
100
AcDbEntity
  8
M0
 62
     7
100
AcDbLine
 10
73.494457
 20
348.070641
 11
73.494457
 21
347.57064
  0
LINE
  5
227
100
AcDbEntity
  8
M0
 62
     7
100
AcDbLine
 10
109.294459
 20
324.17064
 11
108.994454
 21
324.17064
  0
ARC
  5
228
100
AcDbEntity
  8
M0
 62
     7
100
AcDbCircle
 10
72.194457
 20
338.570641
 40
1.0
100
AcDbArc
 50
90.0
 51
180.0
  0
LINE
  5
229
100
AcDbEntity
  8
M0
 62
     7
100
AcDbLine
 10
108.994454
 20
300.370641
 11
109.294459
 21
300.370641
  0
LINE
  5
22A
100
AcDbEntity
  8
M0
 62
     7
100
AcDbLine
 10
109.294459
 20
307.770641
 11
108.994454
 21
307.770641
  0
ARC
  5
22B
100
AcDbEntity
  8
M0
 62
     7
100
AcDbCircle
 10
85.194457
 20
338.570641
 40
1.0
100
AcDbArc
 50
90.0
 51
180.0
  0
ARC
  5
22C
100
AcDbEntity
  8
M0
 62
     7
100
AcDbCircle
 10
85.194457
 20
269.570641
 40
1.0
100
AcDbArc
 50
180.0
 51
270.0
  0
ARC
  5
22D
100
AcDbEntity
  8
M0
 62
     7
100
AcDbCircle
 10
72.594457
 20
338.570641
 40
1.0
100
AcDbArc
 50
0.0
 51
90.0
  0
ARC
  5
22E
100
AcDbEntity
  8
M0
 62
     7
100
AcDbCircle
 10
72.594457
 20
269.570641
 40
1.0
100
AcDbArc
 50
270.0
 51
360.0
  0
LINE
  5
22F
100
AcDbEntity
  8
M0
 62
     7
100
AcDbLine
 10
108.994454
 20
283.970642
 11
109.294459
 21
283.970642
  0
LINE
  5
230
100
AcDbEntity
  8
M0
 62
     7
100
AcDbLine
 10
107.994459
 20
330.770641
 11
107.994459
 21
308.770641
  0
LINE
  5
231
100
AcDbEntity
  8
M0
 62
     7
100
AcDbLine
 10
72.594456
 20
268.57064
 11
72.194457
 21
268.57064
  0
LINE
  5
232
100
AcDbEntity
  8
M0
 62
     7
100
AcDbLine
 10
72.194457
 20
285.170641
 11
72.594456
 21
285.170641
  0
LINE
  5
233
100
AcDbEntity
  8
M0
 62
     7
100
AcDbLine
 10
72.594456
 20
285.170641
 11
73.594458
 21
285.170641
  0
ARC
  5
234
100
AcDbEntity
  8
M0
 62
     7
100
AcDbCircle
 10
85.594457
 20
338.570641
 40
1.0
100
AcDbArc
 50
0.0
 51
90.0
  0
ARC
  5
235
100
AcDbEntity
  8
M0
 62
     7
100
AcDbCircle
 10
98.194457
 20
338.570641
 40
1.0
100
AcDbArc
 50
90.0
 51
180.0
  0
LINE
  5
236
100
AcDbEntity
  8
M0
 62
     7
100
AcDbLine
 10
107.994459
 20
299.370642
 11
107.994459
 21
277.370641
  0
ARC
  5
237
100
AcDbEntity
  8
M0
 62
     7
100
AcDbCircle
 10
85.594457
 20
269.570641
 40
1.0
100
AcDbArc
 50
270.0
 51
360.0
  0
ARC
  5
238
100
AcDbEntity
  8
M0
 62
     7
100
AcDbCircle
 10
98.594457
 20
269.570641
 40
1.0
100
AcDbArc
 50
270.0
 51
360.0
  0
LINE
  5
239
100
AcDbEntity
  8
M0
 62
     7
100
AcDbLine
 10
72.194457
 20
339.570642
 11
72.594456
 21
339.570642
  0
ARC
  5
23A
100
AcDbEntity
  8
M0
 62
     7
100
AcDbCircle
 10
98.194457
 20
269.570641
 40
1.0
100
AcDbArc
 50
180.0
 51
270.0
  0
ARC
  5
23B
100
AcDbEntity
  8
M0
 62
     7
100
AcDbCircle
 10
98.594457
 20
338.570641
 40
1.0
100
AcDbArc
 50
0.0
 51
90.0
  0
LINE
  5
23C
100
AcDbEntity
  8
M0
 62
     7
100
AcDbLine
 10
109.294459
 20
307.770641
 11
109.294459
 21
300.370641
  0
LINE
  5
23D
100
AcDbEntity
  8
M0
 62
     7
100
AcDbLine
 10
48.494457
 20
300.370641
 11
48.794457
 21
300.370641
  0
LINE
  5
23E
100
AcDbEntity
  8
M0
 62
     7
100
AcDbLine
 10
48.494457
 20
324.17064
 11
48.794457
 21
324.17064
  0
LINE
  5
23F
100
AcDbEntity
  8
M0
 62
     7
100
AcDbLine
 10
107.994459
 20
307.770641
 11
107.994459
 21
300.370641
  0
LINE
  5
240
100
AcDbEntity
  8
M0
 62
     7
100
AcDbLine
 10
107.994459
 20
300.370641
 11
104.994453
 21
300.370641
  0
LINE
  5
241
100
AcDbEntity
  8
M0
 62
     7
100
AcDbLine
 10
48.494457
 20
307.770641
 11
48.494457
 21
300.370641
  0
LINE
  5
242
100
AcDbEntity
  8
M0
 62
     7
100
AcDbLine
 10
104.994453
 20
307.770641
 11
107.994459
 21
307.770641
  0
LINE
  5
243
100
AcDbEntity
  8
M0
 62
     7
100
AcDbLine
 10
104.994453
 20
300.370641
 11
104.994453
 21
307.770641
  0
LINE
  5
244
100
AcDbEntity
  8
M0
 62
     7
100
AcDbLine
 10
48.794457
 20
307.770641
 11
48.494457
 21
307.770641
  0
LINE
  5
245
100
AcDbEntity
  8
M0
 62
     7
100
AcDbLine
 10
48.794457
 20
283.970642
 11
48.494457
 21
283.970642
  0
LINE
  5
246
100
AcDbEntity
  8
M0
 62
     7
100
AcDbLine
 10
49.794457
 20
330.770641
 11
49.794457
 21
308.770641
  0
LINE
  5
247
100
AcDbEntity
  8
M0
 62
     7
100
AcDbLine
 10
49.794457
 20
313.370641
 11
54.894457
 21
313.370641
  0
LINE
  5
248
100
AcDbEntity
  8
M0
 62
     7
100
AcDbLine
 10
102.894457
 20
294.770641
 11
107.994459
 21
294.770641
  0
LINE
  5
249
100
AcDbEntity
  8
M0
 62
     7
100
AcDbLine
 10
54.894457
 20
294.770641
 11
49.794457
 21
294.770641
  0
ARC
  5
24A
100
AcDbEntity
  8
M0
 62
     7
100
AcDbCircle
 10
59.594457
 20
338.570641
 40
1.0
100
AcDbArc
 50
0.0
 51
90.0
  0
ARC
  5
24B
100
AcDbEntity
  8
M0
 62
     7
100
AcDbCircle
 10
72.194457
 20
269.570641
 40
1.0
100
AcDbArc
 50
180.0
 51
270.0
  0
ARC
  5
24C
100
AcDbEntity
  8
M0
 62
     7
100
AcDbCircle
 10
59.194457
 20
338.570641
 40
1.0
100
AcDbArc
 50
90.0
 51
180.0
  0
ARC
  5
24D
100
AcDbEntity
  8
M0
 62
     7
100
AcDbCircle
 10
59.594457
 20
269.570641
 40
1.0
100
AcDbArc
 50
270.0
 51
360.0
  0
LINE
  5
24E
100
AcDbEntity
  8
M0
 62
     7
100
AcDbLine
 10
59.594456
 20
268.57064
 11
59.394456
 21
268.57064
  0
LINE
  5
24F
100
AcDbEntity
  8
M0
 62
     7
100
AcDbLine
 10
59.394456
 20
339.570642
 11
59.594456
 21
339.570642
  0
ARC
  5
250
100
AcDbEntity
  8
M0
 62
     7
100
AcDbCircle
 10
58.194457
 20
284.570641
 40
0.6
100
AcDbArc
 50
180.0
 51
270.0
  0
LINE
  5
251
100
AcDbEntity
  8
M0
 62
     7
100
AcDbLine
 10
107.994459
 20
313.370641
 11
102.894457
 21
313.370641
  0
ARC
  5
252
100
AcDbEntity
  8
M0
 62
     7
100
AcDbCircle
 10
99.594457
 20
284.570641
 40
0.6
100
AcDbArc
 50
270.0
 51
360.0
  0
ARC
  5
253
100
AcDbEntity
  8
M0
 62
     7
100
AcDbCircle
 10
59.194457
 20
269.570641
 40
1.0
100
AcDbArc
 50
180.0
 51
270.0
  0
ARC
  5
254
100
AcDbEntity
  8
M0
 62
     7
100
AcDbCircle
 10
58.194457
 20
323.570641
 40
0.6
100
AcDbArc
 50
90.0
 51
180.0
  0
ARC
  5
255
100
AcDbEntity
  8
M0
 62
     7
100
AcDbCircle
 10
99.594457
 20
323.570641
 40
0.6
100
AcDbArc
 50
0.0
 51
90.0
  0
LINE
  5
256
100
AcDbEntity
  8
M0
 62
     7
100
AcDbLine
 10
86.594459
 20
322.970642
 11
84.194455
 21
322.970642
  0
LINE
  5
257
100
AcDbEntity
  8
M0
 62
     7
100
AcDbLine
 10
86.594459
 20
285.170641
 11
85.594456
 21
285.170641
  0
LINE
  5
258
100
AcDbEntity
  8
M0
 62
     7
100
AcDbLine
 10
85.194457
 20
268.57064
 11
85.594456
 21
268.57064
  0
LINE
  5
259
100
AcDbEntity
  8
M0
 62
     7
100
AcDbLine
 10
85.194457
 20
285.170641
 11
84.194455
 21
285.170641
  0
LINE
  5
25A
100
AcDbEntity
  8
M0
 62
     7
100
AcDbLine
 10
85.594456
 20
285.170641
 11
85.194457
 21
285.170641
  0
LINE
  5
25B
100
AcDbEntity
  8
M0
 62
     7
100
AcDbLine
 10
105.294457
 20
339.570642
 11
98.194457
 21
339.570642
  0
LINE
  5
25C
100
AcDbEntity
  8
M0
 62
     7
100
AcDbLine
 10
99.594455
 20
322.070641
 11
99.594455
 21
338.570642
  0
LINE
  5
25D
100
AcDbEntity
  8
M0
 62
     7
100
AcDbLine
 10
85.594456
 20
339.570642
 11
85.194457
 21
339.570642
  0
LINE
  5
25E
100
AcDbEntity
  8
M0
 62
     7
100
AcDbLine
 10
97.194455
 20
286.070643
 11
97.194455
 21
269.570642
  0
ARC
  5
25F
100
AcDbEntity
  8
M0
 62
     7
100
AcDbCircle
 10
109.294457
 20
308.770641
 40
1.0
100
AcDbArc
 50
270.0
 51
360.0
  0
ARC
  5
260
100
AcDbEntity
  8
M0
 62
     7
100
AcDbCircle
 10
109.294457
 20
323.170641
 40
1.0
100
AcDbArc
 50
0.0
 51
90.0
  0
ARC
  5
261
100
AcDbEntity
  8
M0
 62
     7
100
AcDbCircle
 10
109.294457
 20
284.970641
 40
1.0
100
AcDbArc
 50
270.0
 51
360.0
  0
LINE
  5
262
100
AcDbEntity
  8
M0
 62
     7
100
AcDbLine
 10
110.294454
 20
334.570641
 11
110.294454
 21
273.570641
  0
LINE
  5
263
100
AcDbEntity
  8
M0
 62
     7
100
AcDbLine
 10
107.994459
 20
321.170641
 11
102.894457
 21
321.170641
  0
LINE
  5
264
100
AcDbEntity
  8
M0
 62
     7
100
AcDbLine
 10
86.594459
 20
275.070642
 11
97.194455
 21
275.070642
  0
LINE
  5
265
100
AcDbEntity
  8
M0
 62
     7
100
AcDbLine
 10
84.194455
 20
333.070642
 11
73.594458
 21
333.070642
  0
ARC
  5
266
100
AcDbEntity
  8
M0
 62
     7
100
AcDbCircle
 10
48.794457
 20
323.170641
 40
1.0
100
AcDbArc
 50
0.0
 51
90.0
  0
ARC
  5
267
100
AcDbEntity
  8
M0
 62
     7
100
AcDbCircle
 10
48.794457
 20
299.370641
 40
1.0
100
AcDbArc
 50
0.0
 51
90.0
  0
ARC
  5
268
100
AcDbEntity
  8
M0
 62
     7
100
AcDbCircle
 10
48.494457
 20
308.770641
 40
1.0
100
AcDbArc
 50
180.0
 51
270.0
  0
ARC
  5
269
100
AcDbEntity
  8
M0
 62
     7
100
AcDbCircle
 10
48.494457
 20
323.170641
 40
1.0
100
AcDbArc
 50
90.0
 51
180.0
  0
ARC
  5
26A
100
AcDbEntity
  8
M0
 62
     7
100
AcDbCircle
 10
108.994457
 20
284.970641
 40
1.0
100
AcDbArc
 50
180.0
 51
270.0
  0
ARC
  5
26B
100
AcDbEntity
  8
M0
 62
     7
100
AcDbCircle
 10
108.994457
 20
308.770641
 40
1.0
100
AcDbArc
 50
180.0
 51
270.0
  0
ARC
  5
26C
100
AcDbEntity
  8
M0
 62
     7
100
AcDbCircle
 10
48.794457
 20
284.970641
 40
1.0
100
AcDbArc
 50
270.0
 51
360.0
  0
ARC
  5
26D
100
AcDbEntity
  8
M0
 62
     7
100
AcDbCircle
 10
48.794457
 20
308.770641
 40
1.0
100
AcDbArc
 50
270.0
 51
360.0
  0
ARC
  5
26E
100
AcDbEntity
  8
M0
 62
     7
100
AcDbCircle
 10
48.494457
 20
299.370641
 40
1.0
100
AcDbArc
 50
90.0
 51
180.0
  0
ARC
  5
26F
100
AcDbEntity
  8
M0
 62
     7
100
AcDbCircle
 10
48.494457
 20
284.970641
 40
1.0
100
AcDbArc
 50
180.0
 51
270.0
  0
LINE
  5
270
100
AcDbEntity
  8
M0
 62
     7
100
AcDbLine
 10
49.794457
 20
307.770641
 11
49.794457
 21
300.370641
  0
LINE
  5
271
100
AcDbEntity
  8
M0
 62
     7
100
AcDbLine
 10
52.794457
 20
300.370641
 11
52.794457
 21
307.770641
  0
LINE
  5
272
100
AcDbEntity
  8
M0
 62
     7
100
AcDbLine
 10
49.794457
 20
300.370641
 11
52.794457
 21
300.370641
  0
ARC
  5
273
100
AcDbEntity
  8
M0
 62
     7
100
AcDbCircle
 10
108.994457
 20
323.170641
 40
1.0
100
AcDbArc
 50
90.0
 51
180.0
  0
ARC
  5
274
100
AcDbEntity
  8
M0
 62
     7
100
AcDbCircle
 10
109.294457
 20
299.370641
 40
1.0
100
AcDbArc
 50
0.0
 51
90.0
  0
LINE
  5
275
100
AcDbEntity
  8
M0
 62
     7
100
AcDbLine
 10
97.194455
 20
333.070642
 11
86.594459
 21
333.070642
  0
ARC
  5
276
100
AcDbEntity
  8
M0
 62
     7
100
AcDbCircle
 10
108.994457
 20
299.370641
 40
1.0
100
AcDbArc
 50
90.0
 51
180.0
  0
LINE
  5
277
100
AcDbEntity
  8
M0
 62
     7
100
AcDbLine
 10
52.794457
 20
307.770641
 11
49.794457
 21
307.770641
  0
LINE
  5
278
100
AcDbEntity
  8
M0
 62
     7
100
AcDbLine
 10
60.594456
 20
275.070642
 11
71.194459
 21
275.070642
  0
ELLIPSE
  5
279
100
AcDbEntity
  8
M0
 62
     7
100
AcDbEllipse
 10
74.594457
 20
338.987308
 11
1.0
 21
0.0
210
0.0
220
0.0
230
1.0
 40
0.416667
 41
3.141592653589793
 42
4.71238898038469
  0
ELLIPSE
  5
27A
100
AcDbEntity
  8
M0
 62
     7
100
AcDbEllipse
 10
83.194457
 20
338.987308
 11
1.0
 21
0.0
210
0.0
220
0.0
230
1.0
 40
0.416667
 41
4.71238898038469
 42
6.283185307179586
  0
LINE
  5
27B
100
AcDbEntity
  8
M0
 62
     7
100
AcDbLine
 10
83.194457
 20
338.570642
 11
74.594457
 21
338.570642
  0
LINE
  5
27C
100
AcDbEntity
  8
M0
 62
     7
100
AcDbLine
 10
74.594457
 20
347.070642
 11
83.194457
 21
347.070642
  0
LINE
  5
27D
100
AcDbEntity
  8
M0
 62
     7
100
AcDbLine
 10
60.594456
 20
335.070641
 11
71.194459
 21
335.070641
  0
LINE
  5
27E
100
AcDbEntity
  8
M0
 62
     7
100
AcDbLine
 10
73.594458
 20
335.070641
 11
84.194455
 21
335.070641
  0
LINE
  5
27F
100
AcDbEntity
  8
M0
 62
     7
100
AcDbLine
 10
73.594458
 20
346.070641
 11
73.594458
 21
322.070641
  0
LINE
  5
280
100
AcDbEntity
  8
M0
 62
     7
100
AcDbLine
 10
84.194455
 20
337.070641
 11
73.594458
 21
337.070641
  0
LINE
  5
281
100
AcDbEntity
  8
M0
 62
     7
100
AcDbLine
 10
88.644456
 20
269.070641
 11
88.644456
 21
269.570642
  0
LINE
  5
282
100
AcDbEntity
  8
M0
 62
     7
100
AcDbLine
 10
95.144458
 20
271.570642
 11
95.144458
 21
269.570642
  0
LINE
  5
283
100
AcDbEntity
  8
M0
 62
     7
100
AcDbLine
 10
87.894458
 20
268.57064
 11
95.894457
 21
268.57064
  0
LINE
  5
284
100
AcDbEntity
  8
M0
 62
     7
100
AcDbLine
 10
88.644456
 20
269.570642
 11
88.644456
 21
271.570642
  0
LINE
  5
285
100
AcDbEntity
  8
M0
 62
     7
100
AcDbLine
 10
96.894458
 20
269.570642
 11
96.894458
 21
273.070642
  0
LINE
  5
286
100
AcDbEntity
  8
M0
 62
     7
100
AcDbLine
 10
96.894458
 20
273.070642
 11
97.194455
 21
273.070642
  0
LINE
  5
287
100
AcDbEntity
  8
M0
 62
     7
100
AcDbLine
 10
48.794457
 20
276.370642
 11
48.494457
 21
276.370642
  0
LINE
  5
288
100
AcDbEntity
  8
M0
 62
     7
100
AcDbLine
 10
60.894457
 20
273.070642
 11
60.594456
 21
273.070642
  0
LINE
  5
289
100
AcDbEntity
  8
M0
 62
     7
100
AcDbLine
 10
95.894456
 20
275.070642
 11
95.894456
 21
274.07064
  0
LINE
  5
28A
100
AcDbEntity
  8
M0
 62
     7
100
AcDbLine
 10
48.494457
 20
331.770641
 11
48.794457
 21
331.770641
  0
LINE
  5
28B
100
AcDbEntity
  8
M0
 62
     7
100
AcDbLine
 10
69.894457
 20
272.570641
 11
69.894457
 21
275.070642
  0
LINE
  5
28C
100
AcDbEntity
  8
M0
 62
     7
100
AcDbLine
 10
71.194459
 20
271.570642
 11
70.894457
 21
271.570642
  0
LINE
  5
28D
100
AcDbEntity
  8
M0
 62
     7
100
AcDbLine
 10
95.144458
 20
269.570642
 11
95.144458
 21
269.070641
  0
LINE
  5
28E
100
AcDbEntity
  8
M0
 62
     7
100
AcDbLine
 10
97.194455
 20
335.070641
 11
86.594459
 21
335.070641
  0
LINE
  5
28F
100
AcDbEntity
  8
M0
 62
     7
100
AcDbLine
 10
87.894458
 20
272.570641
 11
87.894458
 21
275.070642
  0
LINE
  5
290
100
AcDbEntity
  8
M0
 62
     7
100
AcDbLine
 10
61.894458
 20
275.070642
 11
61.894458
 21
274.07064
  0
LINE
  5
291
100
AcDbEntity
  8
M0
 62
     7
100
AcDbLine
 10
84.194455
 20
271.570642
 11
73.594458
 21
271.570642
  0
LINE
  5
292
100
AcDbEntity
  8
M0
 62
     7
100
AcDbLine
 10
86.894456
 20
271.570642
 11
86.594459
 21
271.570642
  0
ARC
  5
293
100
AcDbEntity
  8
M0
 62
     7
100
AcDbCircle
 10
95.644457
 20
269.070641
 40
0.5
100
AcDbArc
 50
180.0
 51
270.0
  0
ARC
  5
294
100
AcDbEntity
  8
M0
 62
     7
100
AcDbCircle
 10
88.144457
 20
269.070641
 40
0.5
100
AcDbArc
 50
270.0
 51
360.0
  0
ARC
  5
295
100
AcDbEntity
  8
M0
 62
     7
100
AcDbCircle
 10
91.894457
 20
271.570641
 40
3.25
100
AcDbArc
 50
0.0
 51
180.0
  0
ARC
  5
296
100
AcDbEntity
  8
M0
 62
     7
100
AcDbCircle
 10
74.594457
 20
346.070641
 40
1.0
100
AcDbArc
 50
90.0
 51
180.0
  0
ARC
  5
297
100
AcDbEntity
  8
M0
 62
     7
100
AcDbCircle
 10
83.194457
 20
346.070641
 40
1.0
100
AcDbArc
 50
0.0
 51
90.0
  0
ARC
  5
298
100
AcDbEntity
  8
M0
 62
     7
100
AcDbCircle
 10
95.894457
 20
269.570641
 40
1.0
100
AcDbArc
 50
270.0
 51
360.0
  0
ARC
  5
299
100
AcDbEntity
  8
M0
 62
     7
100
AcDbCircle
 10
62.144457
 20
269.070641
 40
0.5
100
AcDbArc
 50
270.0
 51
360.0
  0
ARC
  5
29A
100
AcDbEntity
  8
M0
 62
     7
100
AcDbCircle
 10
69.894457
 20
269.570641
 40
1.0
100
AcDbArc
 50
270.0
 51
360.0
  0
ARC
  5
29B
100
AcDbEntity
  8
M0
 62
     7
100
AcDbCircle
 10
87.894457
 20
269.570641
 40
1.0
100
AcDbArc
 50
180.0
 51
270.0
  0
ARC
  5
29C
100
AcDbEntity
  8
M0
 62
     7
100
AcDbCircle
 10
65.894457
 20
271.570641
 40
3.25
100
AcDbArc
 50
0.0
 51
180.0
  0
LINE
  5
29D
100
AcDbEntity
  8
M0
 62
     7
100
AcDbLine
 10
62.644457
 20
271.570641
 11
62.644457
 21
269.070641
  0
LINE
  5
29E
100
AcDbEntity
  8
M0
 62
     7
100
AcDbLine
 10
70.894457
 20
271.570642
 11
70.894457
 21
269.570642
  0
LINE
  5
29F
100
AcDbEntity
  8
M0
 62
     7
100
AcDbLine
 10
86.894456
 20
271.570642
 11
86.894456
 21
269.570642
  0
LINE
  5
2A0
100
AcDbEntity
  8
M0
 62
     7
100
AcDbLine
 10
69.144457
 20
269.070641
 11
69.144457
 21
271.570641
  0
ARC
  5
2A1
100
AcDbEntity
  8
M0
 62
     7
100
AcDbCircle
 10
86.894457
 20
272.570641
 40
1.0
100
AcDbArc
 50
270.0
 51
360.0
  0
ARC
  5
2A2
100
AcDbEntity
  8
M0
 62
     7
100
AcDbCircle
 10
60.894457
 20
274.070641
 40
1.0
100
AcDbArc
 50
270.0
 51
360.0
  0
ARC
  5
2A3
100
AcDbEntity
  8
M0
 62
     7
100
AcDbCircle
 10
69.644457
 20
269.070641
 40
0.5
100
AcDbArc
 50
180.0
 51
270.0
  0
ARC
  5
2A4
100
AcDbEntity
  8
M0
 62
     7
100
AcDbCircle
 10
70.894457
 20
272.570641
 40
1.0
100
AcDbArc
 50
180.0
 51
270.0
  0
LINE
  5
2A5
100
AcDbEntity
  8
M0
 62
     7
100
AcDbLine
 10
60.894457
 20
269.570642
 11
60.894457
 21
273.070642
  0
ARC
  5
2A6
100
AcDbEntity
  8
M0
 62
     7
100
AcDbCircle
 10
96.894457
 20
274.070641
 40
1.0
100
AcDbArc
 50
180.0
 51
270.0
  0
ARC
  5
2A7
100
AcDbEntity
  8
M0
 62
     7
100
AcDbCircle
 10
48.494457
 20
330.770641
 40
1.0
100
AcDbArc
 50
90.0
 51
180.0
  0
LINE
  5
2A8
100
AcDbEntity
  8
M0
 62
     7
100
AcDbLine
 10
59.594456
 20
268.57064
 11
52.494457
 21
268.57064
  0
LINE
  5
2A9
100
AcDbEntity
  8
M0
 62
     7
100
AcDbLine
 10
52.494457
 20
339.570642
 11
59.594456
 21
339.570642
  0
LINE
  5
2AA
100
AcDbEntity
  8
M0
 62
     7
100
AcDbLine
 10
58.194456
 20
338.570641
 11
58.194456
 21
322.070641
  0
LINE
  5
2AB
100
AcDbEntity
  8
M0
 62
     7
100
AcDbLine
 10
100.194458
 20
276.970641
 11
100.194458
 21
286.070643
  0
LINE
  5
2AC
100
AcDbEntity
  8
M0
 62
     7
100
AcDbLine
 10
100.194458
 20
322.070641
 11
100.194458
 21
331.170641
  0
ARC
  5
2AD
100
AcDbEntity
  8
M0
 62
     7
100
AcDbCircle
 10
48.494457
 20
277.370641
 40
1.0
100
AcDbArc
 50
180.0
 51
270.0
  0
ARC
  5
2AE
100
AcDbEntity
  8
M0
 62
     7
100
AcDbCircle
 10
48.794457
 20
277.370641
 40
1.0
100
AcDbArc
 50
270.0
 51
360.0
  0
LINE
  5
2AF
100
AcDbEntity
  8
M0
 62
     7
100
AcDbLine
 10
71.194459
 20
322.970642
 11
73.594458
 21
322.970642
  0
ARC
  5
2B0
100
AcDbEntity
  8
M0
 62
     7
100
AcDbCircle
 10
58.194457
 20
276.970641
 40
0.6
100
AcDbArc
 50
180.0
 51
270.0
  0
ARC
  5
2B1
100
AcDbEntity
  8
M0
 62
     7
100
AcDbCircle
 10
99.594457
 20
331.170641
 40
0.6
100
AcDbArc
 50
0.0
 51
90.0
  0
ARC
  5
2B2
100
AcDbEntity
  8
M0
 62
     7
100
AcDbCircle
 10
48.794457
 20
330.770641
 40
1.0
100
AcDbArc
 50
0.0
 51
90.0
  0
ARC
  5
2B3
100
AcDbEntity
  8
M0
 62
     7
100
AcDbCircle
 10
58.194457
 20
331.170641
 40
0.6
100
AcDbArc
 50
90.0
 51
180.0
  0
LINE
  5
2B4
100
AcDbEntity
  8
M0
 62
     7
100
AcDbLine
 10
60.594456
 20
286.070643
 11
60.594456
 21
269.570642
  0
LINE
  5
2B5
100
AcDbEntity
  8
M0
 62
     7
100
AcDbLine
 10
71.194459
 20
269.570642
 11
71.194459
 21
286.070643
  0
LINE
  5
2B6
100
AcDbEntity
  8
M0
 62
     7
100
AcDbLine
 10
71.194459
 20
285.170641
 11
72.194457
 21
285.170641
  0
LINE
  5
2B7
100
AcDbEntity
  8
M0
 62
     7
100
AcDbLine
 10
98.394457
 20
339.570642
 11
98.194457
 21
339.570642
  0
LINE
  5
2B8
100
AcDbEntity
  8
M0
 62
     7
100
AcDbLine
 10
97.194455
 20
338.570642
 11
97.194455
 21
322.070641
  0
LINE
  5
2B9
100
AcDbEntity
  8
M0
 62
     7
100
AcDbLine
 10
73.594458
 20
269.570641
 11
73.594458
 21
286.070643
  0
LINE
  5
2BA
100
AcDbEntity
  8
M0
 62
     7
100
AcDbLine
 10
71.194459
 20
338.570641
 11
71.194459
 21
322.070641
  0
LINE
  5
2BB
100
AcDbEntity
  8
M0
 62
     7
100
AcDbLine
 10
86.594459
 20
286.070643
 11
86.594459
 21
269.570641
  0
LINE
  5
2BC
100
AcDbEntity
  8
M0
 62
     7
100
AcDbLine
 10
84.194455
 20
269.570641
 11
84.194455
 21
286.070643
  0
LINE
  5
2BD
100
AcDbEntity
  8
M0
 62
     7
100
AcDbLine
 10
86.594459
 20
338.570641
 11
86.594459
 21
322.070641
  0
LINE
  5
2BE
100
AcDbEntity
  8
M0
 62
     7
100
AcDbLine
 10
84.194455
 20
322.070641
 11
84.194455
 21
346.070641
  0
LINE
  5
2BF
100
AcDbEntity
  8
M0
 62
     7
100
AcDbLine
 10
84.194455
 20
271.570642
 11
84.194455
 21
272.570641
  0
LINE
  5
2C0
100
AcDbEntity
  8
M0
 62
     7
100
AcDbLine
 10
84.194455
 20
336.570642
 11
84.194455
 21
335.570642
  0
LINE
  5
2C1
100
AcDbEntity
  8
M0
 62
     7
100
AcDbLine
 10
108.994454
 20
276.370642
 11
109.294459
 21
276.370642
  0
LINE
  5
2C2
100
AcDbEntity
  8
M0
 62
     7
100
AcDbLine
 10
109.294459
 20
331.770641
 11
108.994454
 21
331.770641
  0
LINE
  5
2C3
100
AcDbEntity
  8
M0
 62
     7
100
AcDbLine
 10
109.094456
 20
324.17064
 11
108.994454
 21
324.17064
  0
LINE
  5
2C4
100
AcDbEntity
  8
M0
 62
     7
100
AcDbLine
 10
60.594456
 20
338.570642
 11
60.594456
 21
322.070641
  0
LINE
  5
2C5
100
AcDbEntity
  8
M0
 62
     7
100
AcDbLine
 10
48.694457
 20
324.17064
 11
48.794457
 21
324.17064
  0
LINE
  5
2C6
100
AcDbEntity
  8
M0
 62
     7
100
AcDbLine
 10
109.094456
 20
283.970642
 11
108.994454
 21
283.970642
  0
LINE
  5
2C7
100
AcDbEntity
  8
M0
 62
     7
100
AcDbLine
 10
48.694457
 20
283.970642
 11
48.794457
 21
283.970642
  0
ARC
  5
2C8
100
AcDbEntity
  8
M0
 62
     7
100
AcDbCircle
 10
108.994457
 20
277.370641
 40
1.0
100
AcDbArc
 50
180.0
 51
270.0
  0
ARC
  5
2C9
100
AcDbEntity
  8
M0
 62
     7
100
AcDbCircle
 10
108.994457
 20
330.770641
 40
1.0
100
AcDbArc
 50
90.0
 51
180.0
  0
ARC
  5
2CA
100
AcDbEntity
  8
M0
 62
     7
100
AcDbCircle
 10
99.594457
 20
276.970641
 40
0.6
100
AcDbArc
 50
270.0
 51
360.0
  0
ARC
  5
2CB
100
AcDbEntity
  8
M0
 62
     7
100
AcDbCircle
 10
109.294457
 20
330.770641
 40
1.0
100
AcDbArc
 50
0.0
 51
90.0
  0
LINE
  5
2CC
100
AcDbEntity
  8
M0
 62
     7
100
AcDbLine
 10
57.594457
 20
276.97064
 11
57.594457
 21
286.070643
  0
LINE
  5
2CD
100
AcDbEntity
  8
M0
 62
     7
100
AcDbLine
 10
57.594457
 20
322.070641
 11
57.594457
 21
331.170641
  0
ARC
  5
2CE
100
AcDbEntity
  8
M0
 62
     7
100
AcDbCircle
 10
109.294457
 20
277.370641
 40
1.0
100
AcDbArc
 50
270.0
 51
360.0
  0
LINE
  5
2CF
100
AcDbEntity
  8
M0
 62
     7
100
AcDbLine
 10
49.794457
 20
299.370641
 11
49.794457
 21
277.370642
  0
LINE
  5
2D0
100
AcDbEntity
  8
M0
 62
     7
100
AcDbLine
 10
101.094458
 20
278.370642
 11
101.094458
 21
279.370642
  0
LINE
  5
2D1
100
AcDbEntity
  8
M0
 62
     7
100
AcDbLine
 10
107.094459
 20
278.370642
 11
101.094458
 21
278.370642
  0
LINE
  5
2D2
100
AcDbEntity
  8
M0
 62
     7
100
AcDbLine
 10
107.094459
 20
279.370642
 11
107.094459
 21
278.370642
  0
LINE
  5
2D3
100
AcDbEntity
  8
M0
 62
     7
100
AcDbLine
 10
54.894457
 20
321.170641
 11
49.794457
 21
321.170641
  0
LINE
  5
2D4
100
AcDbEntity
  8
M0
 62
     7
100
AcDbLine
 10
101.094458
 20
329.770642
 11
107.094459
 21
329.770642
  0
LINE
  5
2D5
100
AcDbEntity
  8
M0
 62
     7
100
AcDbLine
 10
101.094458
 20
328.770642
 11
101.094458
 21
329.770642
  0
LINE
  5
2D6
100
AcDbEntity
  8
M0
 62
     7
100
AcDbLine
 10
107.094459
 20
329.770642
 11
107.094459
 21
328.770642
  0
LINE
  5
2D7
100
AcDbEntity
  8
M0
 62
     7
100
AcDbLine
 10
49.794457
 20
286.97064
 11
54.894457
 21
286.97064
  0
LINE
  5
2D8
100
AcDbEntity
  8
M0
 62
     7
100
AcDbLine
 10
102.889444
 20
286.97064
 11
107.994459
 21
286.97064
  0
LINE
  5
2D9
100
AcDbEntity
  8
M0
 62
     7
100
AcDbLine
 10
71.194459
 20
333.070642
 11
60.594456
 21
333.070642
  0
LINE
  5
2DA
100
AcDbEntity
  8
M0
 62
     7
100
AcDbLine
 10
73.594458
 20
275.070642
 11
84.194455
 21
275.070642
  0
LINE
  5
2DB
100
AcDbEntity
  8
M0
 62
     7
100
AcDbLine
 10
50.694457
 20
329.770642
 11
56.694457
 21
329.770642
  0
LINE
  5
2DC
100
AcDbEntity
  8
M0
 62
     7
100
AcDbLine
 10
50.694457
 20
328.770642
 11
50.694457
 21
329.770642
  0
LINE
  5
2DD
100
AcDbEntity
  8
M0
 62
     7
100
AcDbLine
 10
56.694457
 20
329.770642
 11
56.694457
 21
328.770642
  0
LINE
  5
2DE
100
AcDbEntity
  8
M0
 62
     7
100
AcDbLine
 10
56.694457
 20
278.370642
 11
50.694457
 21
278.370642
  0
LINE
  5
2DF
100
AcDbEntity
  8
M0
 62
     7
100
AcDbLine
 10
56.694457
 20
279.370642
 11
56.694457
 21
278.370642
  0
LINE
  5
2E0
100
AcDbEntity
  8
M0
 62
     7
100
AcDbLine
 10
50.694457
 20
278.370642
 11
50.694457
 21
279.370642
  0
LINE
  5
2E1
100
AcDbEntity
  8
M0
 62
     7
100
AcDbLine
 10
95.611919
 20
347.988632
 11
95.61301
 21
347.952173
  0
LINE
  5
2E2
100
AcDbEntity
  8
M0
 62
     7
100
AcDbLine
 10
95.61301
 20
347.952173
 11
95.616259
 21
347.843894
  0
LINE
  5
2E3
100
AcDbEntity
  8
M0
 62
     7
100
AcDbLine
 10
95.616259
 20
347.843894
 11
95.621563
 21
347.667095
  0
LINE
  5
2E4
100
AcDbEntity
  8
M0
 62
     7
100
AcDbLine
 10
95.621563
 20
347.667095
 11
95.628761
 21
347.427142
  0
LINE
  5
2E5
100
AcDbEntity
  8
M0
 62
     7
100
AcDbLine
 10
95.628761
 20
347.427142
 11
95.637638
 21
347.131324
  0
LINE
  5
2E6
100
AcDbEntity
  8
M0
 62
     7
100
AcDbLine
 10
95.637638
 20
347.131324
 11
95.647916
 21
346.788634
  0
LINE
  5
2E7
100
AcDbEntity
  8
M0
 62
     7
100
AcDbLine
 10
95.647916
 20
346.788634
 11
95.659293
 21
346.409482
  0
LINE
  5
2E8
100
AcDbEntity
  8
M0
 62
     7
100
AcDbLine
 10
95.659293
 20
346.409482
 11
95.671415
 21
346.005388
  0
LINE
  5
2E9
100
AcDbEntity
  8
M0
 62
     7
100
AcDbLine
 10
95.671415
 20
346.005388
 11
95.683917
 21
345.588633
  0
LINE
  5
2EA
100
AcDbEntity
  8
M0
 62
     7
100
AcDbLine
 10
62.104996
 20
345.588633
 11
62.119042
 21
346.056849
  0
LINE
  5
2EB
100
AcDbEntity
  8
M0
 62
     7
100
AcDbLine
 10
62.119042
 20
346.056849
 11
62.13255
 21
346.507073
  0
LINE
  5
2EC
100
AcDbEntity
  8
M0
 62
     7
100
AcDbLine
 10
62.13255
 20
346.507073
 11
62.144998
 21
346.922003
  0
LINE
  5
2ED
100
AcDbEntity
  8
M0
 62
     7
100
AcDbLine
 10
62.144998
 20
346.922003
 11
62.155908
 21
347.285689
  0
LINE
  5
2EE
100
AcDbEntity
  8
M0
 62
     7
100
AcDbLine
 10
62.155908
 20
347.285689
 11
62.164862
 21
347.584159
  0
LINE
  5
2EF
100
AcDbEntity
  8
M0
 62
     7
100
AcDbLine
 10
62.164862
 20
347.584159
 11
62.171517
 21
347.805944
  0
LINE
  5
2F0
100
AcDbEntity
  8
M0
 62
     7
100
AcDbLine
 10
62.171517
 20
347.805944
 11
62.175613
 21
347.942517
  0
LINE
  5
2F1
100
AcDbEntity
  8
M0
 62
     7
100
AcDbLine
 10
62.175613
 20
347.942517
 11
62.176997
 21
347.988632
  0
LINE
  5
2F2
100
AcDbEntity
  8
M0
  6
DASHDOT
 62
     7
100
AcDbLine
 10
65.394457
 20
280.370641
 11
66.394457
 21
280.370641
  0
LINE
  5
2F3
100
AcDbEntity
  8
M0
  6
DASHDOT
 62
     7
100
AcDbLine
 10
65.894457
 20
279.870641
 11
65.894457
 21
280.870641
  0
LINE
  5
2F4
100
AcDbEntity
  8
M0
  6
DASHDOT
 62
     7
100
AcDbLine
 10
78.894453
 20
279.870641
 11
78.894453
 21
280.870641
  0
LINE
  5
2F5
100
AcDbEntity
  8
M0
  6
DASHDOT
 62
     7
100
AcDbLine
 10
78.394453
 20
280.370641
 11
79.394453
 21
280.370641
  0
LINE
  5
2F6
100
AcDbEntity
  8
M0
  6
DASHDOT
 62
     7
100
AcDbLine
 10
91.894454
 20
279.870641
 11
91.894454
 21
280.870641
  0
LINE
  5
2F7
100
AcDbEntity
  8
M0
  6
DASHDOT
 62
     7
100
AcDbLine
 10
91.394454
 20
280.370641
 11
92.394454
 21
280.370641
  0
LINE
  5
2F8
100
AcDbEntity
  8
M0
  6
DASHDOT
 62
     7
100
AcDbLine
 10
91.894454
 20
328.270642
 11
91.894454
 21
327.270642
  0
LINE
  5
2F9
100
AcDbEntity
  8
M0
  6
DASHDOT
 62
     7
100
AcDbLine
 10
91.394454
 20
327.770642
 11
92.394454
 21
327.770642
  0
LINE
  5
2FA
100
AcDbEntity
  8
M0
  6
DASHDOT
 62
     7
100
AcDbLine
 10
78.394453
 20
327.770642
 11
79.394453
 21
327.770642
  0
LINE
  5
2FB
100
AcDbEntity
  8
M0
  6
DASHDOT
 62
     7
100
AcDbLine
 10
65.894457
 20
328.270642
 11
65.894457
 21
327.270642
  0
LINE
  5
2FC
100
AcDbEntity
  8
M0
  6
DASHDOT
 62
     7
100
AcDbLine
 10
78.894453
 20
328.270642
 11
78.894453
 21
327.270642
  0
LINE
  5
2FD
100
AcDbEntity
  8
M0
  6
DASHDOT
 62
     7
100
AcDbLine
 10
65.394457
 20
327.770642
 11
66.394457
 21
327.770642
  0
LINE
  5
2FE
100
AcDbEntity
  8
M0
  6
DASHDOT
 62
     7
100
AcDbLine
 10
104.594457
 20
324.970641
 11
103.594457
 21
324.970641
  0
LINE
  5
2FF
100
AcDbEntity
  8
M0
  6
DASHDOT
 62
     7
100
AcDbLine
 10
104.094457
 20
324.470641
 11
104.094457
 21
325.470641
  0
LINE
  5
300
100
AcDbEntity
  8
M0
  6
DASHDOT
 62
     7
100
AcDbLine
 10
104.594457
 20
317.370641
 11
103.594457
 21
317.370641
  0
LINE
  5
301
100
AcDbEntity
  8
M0
  6
DASHDOT
 62
     7
100
AcDbLine
 10
104.094457
 20
316.870641
 11
104.094457
 21
317.870641
  0
LINE
  5
302
100
AcDbEntity
  8
M0
  6
DASHDOT
 62
     7
100
AcDbLine
 10
104.594457
 20
290.770641
 11
103.594457
 21
290.770641
  0
LINE
  5
303
100
AcDbEntity
  8
M0
  6
DASHDOT
 62
     7
100
AcDbLine
 10
104.094457
 20
290.270641
 11
104.094457
 21
291.270641
  0
LINE
  5
304
100
AcDbEntity
  8
M0
  6
DASHDOT
 62
     7
100
AcDbLine
 10
104.594457
 20
283.170641
 11
103.594457
 21
283.170641
  0
LINE
  5
305
100
AcDbEntity
  8
M0
  6
DASHDOT
 62
     7
100
AcDbLine
 10
104.094457
 20
282.670641
 11
104.094457
 21
283.670641
  0
LINE
  5
306
100
AcDbEntity
  8
M0
  6
DASHDOT
 62
     7
100
AcDbLine
 10
53.194457
 20
317.370641
 11
54.194457
 21
317.370641
  0
LINE
  5
307
100
AcDbEntity
  8
M0
  6
DASHDOT
 62
     7
100
AcDbLine
 10
53.694457
 20
316.870641
 11
53.694457
 21
317.870641
  0
LINE
  5
308
100
AcDbEntity
  8
M0
  6
DASHDOT
 62
     7
100
AcDbLine
 10
53.194457
 20
324.970641
 11
54.194457
 21
324.970641
  0
LINE
  5
309
100
AcDbEntity
  8
M0
  6
DASHDOT
 62
     7
100
AcDbLine
 10
53.694457
 20
324.470641
 11
53.694457
 21
325.470641
  0
LINE
  5
30A
100
AcDbEntity
  8
M0
  6
DASHDOT
 62
     7
100
AcDbLine
 10
53.194457
 20
283.170641
 11
54.194457
 21
283.170641
  0
LINE
  5
30B
100
AcDbEntity
  8
M0
  6
DASHDOT
 62
     7
100
AcDbLine
 10
53.694457
 20
282.670641
 11
53.694457
 21
283.670641
  0
LINE
  5
30C
100
AcDbEntity
  8
M0
  6
DASHDOT
 62
     7
100
AcDbLine
 10
53.194457
 20
290.770641
 11
54.194457
 21
290.770641
  0
LINE
  5
30D
100
AcDbEntity
  8
M0
  6
DASHDOT
 62
     7
100
AcDbLine
 10
53.694457
 20
290.270641
 11
53.694457
 21
291.270641
  0
LINE
  5
30E
100
AcDbEntity
  8
M0
  6
DASHDOT
 62
     7
100
AcDbLine
 10
65.394457
 20
271.570641
 11
66.394457
 21
271.570641
  0
LINE
  5
30F
100
AcDbEntity
  8
M0
  6
DASHDOT
 62
     7
100
AcDbLine
 10
65.894457
 20
271.070641
 11
65.894457
 21
272.070641
  0
LINE
  5
310
100
AcDbEntity
  8
M0
  6
DASHDOT
 62
     7
100
AcDbLine
 10
91.394457
 20
271.570641
 11
92.394457
 21
271.570641
  0
LINE
  5
311
100
AcDbEntity
  8
M0
  6
DASHDOT
 62
     7
100
AcDbLine
 10
91.894457
 20
271.070641
 11
91.894457
 21
272.070641
  0
LINE
  5
312
100
AcDbEntity
  8
M0
  6
DASHDOT
 62
     7
100
AcDbLine
 10
89.294457
 20
342.670641
 11
90.294457
 21
342.670641
  0
LINE
  5
313
100
AcDbEntity
  8
M0
  6
DASHDOT
 62
     7
100
AcDbLine
 10
89.794457
 20
342.170641
 11
89.794457
 21
343.170641
  0
LINE
  5
314
100
AcDbEntity
  8
M0
  6
DASHDOT
 62
     7
100
AcDbLine
 10
78.394457
 20
342.270641
 11
79.394457
 21
342.270641
  0
LINE
  5
315
100
AcDbEntity
  8
M0
  6
DASHDOT
 62
     7
100
AcDbLine
 10
78.894457
 20
341.770641
 11
78.894457
 21
342.770641
  0
LINE
  5
316
100
AcDbEntity
  8
M0
  6
DASHDOT
 62
     7
100
AcDbLine
 10
68.494457
 20
342.670641
 11
67.494457
 21
342.670641
  0
LINE
  5
317
100
AcDbEntity
  8
M0
  6
DASHDOT
 62
     7
100
AcDbLine
 10
67.994457
 20
342.170641
 11
67.994457
 21
343.170641
  0
CIRCLE
  5
318
100
AcDbEntity
  8
M0
 62
     7
100
AcDbCircle
 10
67.994457
 20
342.670641
 40
3.0
  0
LINE
  5
319
100
AcDbEntity
  8
M0
 62
     7
100
AcDbLine
 10
69.58504
 20
341.079996
 11
66.4034
 21
344.261759
  0
LINE
  5
31A
100
AcDbEntity
  8
M0
 62
     7
100
AcDbLine
 10
69.408283
 20
343.024332
 11
67.640704
 21
341.256754
  0
LINE
  5
31B
100
AcDbEntity
  8
M0
 62
     7
100
AcDbLine
 10
68.347736
 20
344.085001
 11
66.580158
 21
342.317301
  0
LINE
  5
31C
100
AcDbEntity
  8
M0
 62
     7
100
AcDbLine
 10
71.319457
 20
346.495641
 11
64.669457
 21
346.495641
  0
ARC
  5
31D
100
AcDbEntity
  8
M0
 62
     7
100
AcDbCircle
 10
71.319457
 20
345.995641
 40
0.5
100
AcDbArc
 50
0.0
 51
90.0
  0
LINE
  5
31E
100
AcDbEntity
  8
M0
 62
     7
100
AcDbLine
 10
71.819457
 20
339.345641
 11
71.819457
 21
345.995641
  0
ARC
  5
31F
100
AcDbEntity
  8
M0
 62
     7
100
AcDbCircle
 10
71.319457
 20
339.345641
 40
0.5
100
AcDbArc
 50
270.0
 51
360.0
  0
LINE
  5
320
100
AcDbEntity
  8
M0
 62
     7
100
AcDbLine
 10
64.669457
 20
338.845641
 11
71.319457
 21
338.845641
  0
LINE
  5
321
100
AcDbEntity
  8
M0
 62
     7
100
AcDbLine
 10
64.169457
 20
345.995641
 11
64.169457
 21
339.345641
  0
ARC
  5
322
100
AcDbEntity
  8
M0
 62
     7
100
AcDbCircle
 10
64.669457
 20
345.995641
 40
0.5
100
AcDbArc
 50
90.0
 51
180.0
  0
ARC
  5
323
100
AcDbEntity
  8
M0
 62
     7
100
AcDbCircle
 10
64.669457
 20
339.345641
 40
0.5
100
AcDbArc
 50
180.0
 51
270.0
  0
ARC
  5
324
100
AcDbEntity
  8
M0
 62
     7
100
AcDbCircle
 10
53.694457
 20
290.770641
 40
3.0
100
AcDbArc
 50
66.421825
 51
293.578175
  0
ARC
  5
325
100
AcDbEntity
  8
M0
 62
     7
100
AcDbCircle
 10
104.094457
 20
290.770641
 40
3.0
100
AcDbArc
 50
246.421834
 51
473.578166
  0
ARC
  5
326
100
AcDbEntity
  8
M0
 62
     7
100
AcDbCircle
 10
104.094457
 20
317.370641
 40
3.0
100
AcDbArc
 50
246.421832
 51
473.578168
  0
ARC
  5
327
100
AcDbEntity
  8
M0
 62
     7
100
AcDbCircle
 10
53.694457
 20
317.370641
 40
3.0
100
AcDbArc
 50
66.421824
 51
293.578176
  0
LINE
  5
328
100
AcDbEntity
  8
M0
  6
DIVIDE
 62
     7
100
AcDbLine
 10
289.880214
 20
317.570641
 11
283.380214
 21
317.570641
  0
LINE
  5
329
100
AcDbEntity
  8
M0
  6
DIVIDE
 62
     7
100
AcDbLine
 10
289.880214
 20
290.570641
 11
283.380214
 21
290.570641
  0
LINE
  5
32A
100
AcDbEntity
  8
M0
  6
DIVIDE
 62
     7
100
AcDbLine
 10
288.880214
 20
316.570641
 11
282.380214
 21
316.570641
  0
LINE
  5
32B
100
AcDbEntity
  8
M0
  6
DIVIDE
 62
     7
100
AcDbLine
 10
283.380214
 20
290.570641
 11
283.380214
 21
286.570641
  0
LINE
  5
32C
100
AcDbEntity
  8
M0
  6
DIVIDE
 62
     7
100
AcDbLine
 10
288.880214
 20
291.570641
 11
282.380214
 21
291.570641
  0
LINE
  5
32D
100
AcDbEntity
  8
M0
  6
DIVIDE
 62
     7
100
AcDbLine
 10
282.380214
 20
291.570641
 11
282.380214
 21
286.570641
  0
LINE
  5
32E
100
AcDbEntity
  8
M0
  6
DIVIDE
 62
     7
100
AcDbLine
 10
283.380214
 20
321.570641
 11
282.380214
 21
321.570641
  0
LINE
  5
32F
100
AcDbEntity
  8
M0
  6
DIVIDE
 62
     7
100
AcDbLine
 10
289.880214
 20
290.570641
 11
289.880214
 21
317.570641
  0
LINE
  5
330
100
AcDbEntity
  8
M0
  6
DIVIDE
 62
     7
100
AcDbLine
 10
282.380214
 20
321.570641
 11
282.380214
 21
316.570641
  0
LINE
  5
331
100
AcDbEntity
  8
M0
  6
DIVIDE
 62
     7
100
AcDbLine
 10
283.380214
 20
321.570641
 11
283.380214
 21
317.570641
  0
LINE
  5
332
100
AcDbEntity
  8
M0
  6
DIVIDE
 62
     7
100
AcDbLine
 10
282.380214
 20
286.570641
 11
283.380214
 21
286.570641
  0
LINE
  5
333
100
AcDbEntity
  8
M0
  6
DIVIDE
 62
     7
100
AcDbLine
 10
288.880214
 20
316.570641
 11
288.880214
 21
291.570641
  0
LINE
  5
334
100
AcDbEntity
  8
M0
 62
     7
100
AcDbLine
 10
211.080215
 20
301.570641
 11
211.080215
 21
300.570641
  0
LINE
  5
335
100
AcDbEntity
  8
M0
 62
     7
100
AcDbLine
 10
211.080215
 20
306.570641
 11
211.080215
 21
307.570641
  0
LINE
  5
336
100
AcDbEntity
  8
M0
 62
     7
100
AcDbLine
 10
283.080215
 20
287.070642
 11
284.580215
 21
287.070642
  0
LINE
  5
337
100
AcDbEntity
  8
M0
 62
     7
100
AcDbLine
 10
284.580215
 20
287.070642
 11
284.580215
 21
286.270641
  0
LINE
  5
338
100
AcDbEntity
  8
M0
 62
     7
100
AcDbLine
 10
286.280215
 20
268.57064
 11
276.880215
 21
268.57064
  0
LINE
  5
339
100
AcDbEntity
  8
M0
 62
     7
100
AcDbLine
 10
286.280215
 20
268.612385
 11
286.280215
 21
268.57064
  0
LINE
  5
33A
100
AcDbEntity
  8
M0
 62
     7
100
AcDbLine
 10
211.080215
 20
300.570641
 11
210.080216
 21
300.570641
  0
LINE
  5
33B
100
AcDbEntity
  8
M0
 62
     7
100
AcDbLine
 10
210.080216
 20
306.570641
 11
211.080215
 21
306.570641
  0
LINE
  5
33C
100
AcDbEntity
  8
M0
 62
     7
100
AcDbLine
 10
211.080215
 20
300.570641
 11
211.580216
 21
300.570641
  0
LINE
  5
33D
100
AcDbEntity
  8
M0
 62
     7
100
AcDbLine
 10
210.080216
 20
301.570641
 11
211.080215
 21
301.570641
  0
LINE
  5
33E
100
AcDbEntity
  8
M0
 62
     7
100
AcDbLine
 10
211.080215
 20
307.570641
 11
210.080216
 21
307.570641
  0
LINE
  5
33F
100
AcDbEntity
  8
M0
 62
     7
100
AcDbLine
 10
211.080215
 20
307.570641
 11
211.580216
 21
307.570641
  0
LINE
  5
340
100
AcDbEntity
  8
M0
 62
     7
100
AcDbLine
 10
211.580216
 20
301.570641
 11
211.080215
 21
301.570641
  0
ARC
  5
341
100
AcDbEntity
  8
M0
 62
     7
100
AcDbCircle
 10
279.080215
 20
286.354413
 40
0.3
100
AcDbArc
 50
0.0
 51
90.0
  0
ARC
  5
342
100
AcDbEntity
  8
M0
 62
     7
100
AcDbCircle
 10
279.080215
 20
321.786869
 40
0.3
100
AcDbArc
 50
270.0
 51
360.0
  0
ARC
  5
343
100
AcDbEntity
  8
M0
 62
     7
100
AcDbCircle
 10
283.080215
 20
286.570641
 40
0.5
100
AcDbArc
 50
90.0
 51
180.0
  0
ARC
  5
344
100
AcDbEntity
  8
M0
 62
     7
100
AcDbCircle
 10
279.080215
 20
318.310086
 40
0.3
100
AcDbArc
 50
0.0
 51
90.0
  0
ARC
  5
345
100
AcDbEntity
  8
M0
 62
     7
100
AcDbCircle
 10
279.080215
 20
289.831196
 40
0.3
100
AcDbArc
 50
270.0
 51
360.0
  0
LINE
  5
346
100
AcDbEntity
  8
M0
 62
     7
100
AcDbLine
 10
286.104745
 20
286.27004
 11
284.520215
 21
288.07064
  0
LINE
  5
347
100
AcDbEntity
  8
M0
 62
     7
100
AcDbLine
 10
283.380215
 20
288.570641
 11
284.080215
 21
288.570641
  0
LINE
  5
348
100
AcDbEntity
  8
M0
 62
     7
100
AcDbLine
 10
282.580214
 20
286.270641
 11
282.580214
 21
286.570641
  0
LINE
  5
349
100
AcDbEntity
  8
M0
 62
     7
100
AcDbLine
 10
286.580215
 20
285.770641
 11
286.580215
 21
269.070641
  0
LINE
  5
34A
100
AcDbEntity
  8
M0
 62
     7
100
AcDbLine
 10
283.380215
 20
287.070642
 11
283.380215
 21
288.570641
  0
ARC
  5
34B
100
AcDbEntity
  8
M0
 62
     7
100
AcDbCircle
 10
240.680215
 20
269.570641
 40
1.0
100
AcDbArc
 50
180.0
 51
270.0
  0
LINE
  5
34C
100
AcDbEntity
  8
M0
 62
     7
100
AcDbLine
 10
234.780215
 20
271.570642
 11
239.680215
 21
271.570642
  0
LINE
  5
34D
100
AcDbEntity
  8
M0
 62
     7
100
AcDbLine
 10
286.880214
 20
337.820641
 11
286.580215
 21
337.820641
  0
LINE
  5
34E
100
AcDbEntity
  8
M0
 62
     7
100
AcDbLine
 10
286.580215
 20
328.320642
 11
286.880214
 21
328.320642
  0
LINE
  5
34F
100
AcDbEntity
  8
M0
 62
     7
100
AcDbLine
 10
286.880214
 20
279.82064
 11
286.580215
 21
279.82064
  0
LINE
  5
350
100
AcDbEntity
  8
M0
 62
     7
100
AcDbLine
 10
286.580215
 20
270.32064
 11
286.880214
 21
270.32064
  0
LINE
  5
351
100
AcDbEntity
  8
M0
 62
     7
100
AcDbLine
 10
211.580216
 20
305.570641
 11
211.080215
 21
305.570641
  0
LINE
  5
352
100
AcDbEntity
  8
M0
 62
     7
100
AcDbLine
 10
211.580216
 20
306.570641
 11
211.080215
 21
306.570641
  0
LINE
  5
353
100
AcDbEntity
  8
M0
 62
     7
100
AcDbLine
 10
211.080215
 20
302.570641
 11
211.080215
 21
305.570641
  0
LINE
  5
354
100
AcDbEntity
  8
M0
 62
     7
100
AcDbLine
 10
211.080215
 20
302.570641
 11
211.580216
 21
302.570641
  0
LINE
  5
355
100
AcDbEntity
  8
M0
 62
     7
100
AcDbLine
 10
263.580214
 20
321.486869
 11
279.080215
 21
321.486869
  0
ARC
  5
356
100
AcDbEntity
  8
M0
 62
     7
100
AcDbCircle
 10
234.780215
 20
272.570641
 40
1.0
100
AcDbArc
 50
237.247324
 51
270.0
  0
LINE
  5
357
100
AcDbEntity
  8
M0
 62
     7
100
AcDbLine
 10
279.080215
 20
318.610086
 11
263.580214
 21
318.610086
  0
LINE
  5
358
100
AcDbEntity
  8
M0
 62
     7
100
AcDbLine
 10
263.580214
 20
289.531196
 11
279.080215
 21
289.531196
  0
LINE
  5
359
100
AcDbEntity
  8
M0
 62
     7
100
AcDbLine
 10
279.080215
 20
286.654413
 11
263.580214
 21
286.654413
  0
LINE
  5
35A
100
AcDbEntity
  8
M0
 62
     7
100
AcDbLine
 10
235.880215
 20
337.070641
 11
235.880215
 21
335.070641
  0
LINE
  5
35B
100
AcDbEntity
  8
M0
 62
     7
100
AcDbLine
 10
239.480215
 20
338.570642
 11
235.880215
 21
337.070641
  0
LINE
  5
35C
100
AcDbEntity
  8
M0
 62
     7
100
AcDbLine
 10
239.680215
 20
337.570642
 11
236.880214
 21
336.403974
  0
LINE
  5
35D
100
AcDbEntity
  8
M0
 62
     7
100
AcDbLine
 10
245.180215
 20
335.070641
 11
245.180215
 21
338.570642
  0
LINE
  5
35E
100
AcDbEntity
  8
M0
 62
     7
100
AcDbLine
 10
239.480215
 20
338.570642
 11
239.480215
 21
347.57064
  0
LINE
  5
35F
100
AcDbEntity
  8
M0
 62
     7
100
AcDbLine
 10
250.180214
 20
308.170641
 11
250.280215
 21
308.170641
  0
LINE
  5
360
100
AcDbEntity
  8
M0
 62
     7
100
AcDbLine
 10
245.180215
 20
338.570642
 11
239.480215
 21
338.570642
  0
LINE
  5
361
100
AcDbEntity
  8
M0
 62
     7
100
AcDbLine
 10
256.966001
 20
348.570642
 11
240.480215
 21
348.570642
  0
LINE
  5
362
100
AcDbEntity
  8
M0
 62
     7
100
AcDbLine
 10
244.180214
 20
337.570642
 11
239.680215
 21
337.570642
  0
LINE
  5
363
100
AcDbEntity
  8
M0
 62
     7
100
AcDbLine
 10
286.880214
 20
337.820641
 11
286.880214
 21
328.320642
  0
LINE
  5
364
100
AcDbEntity
  8
M0
 62
     7
100
AcDbLine
 10
236.880214
 20
336.070641
 11
244.180214
 21
336.070641
  0
LINE
  5
365
100
AcDbEntity
  8
M0
 62
     7
100
AcDbLine
 10
244.180214
 20
336.070641
 11
244.180214
 21
337.570642
  0
LINE
  5
366
100
AcDbEntity
  8
M0
 62
     7
100
AcDbLine
 10
236.880214
 20
336.403974
 11
236.880214
 21
336.070641
  0
LINE
  5
367
100
AcDbEntity
  8
M0
 62
     7
100
AcDbLine
 10
286.580215
 20
339.070641
 11
286.580215
 21
319.670641
  0
ARC
  5
368
100
AcDbEntity
  8
M0
 62
     7
100
AcDbCircle
 10
256.966001
 20
347.570641
 40
1.0
100
AcDbArc
 50
45.0
 51
90.0
  0
ARC
  5
369
100
AcDbEntity
  8
M0
 62
     7
100
AcDbCircle
 10
240.480215
 20
347.570641
 40
1.0
100
AcDbArc
 50
90.0
 51
180.0
  0
ARC
  5
36A
100
AcDbEntity
  8
M0
 62
     7
100
AcDbCircle
 10
261.380215
 20
343.156428
 40
1.0
100
AcDbArc
 50
0.0
 51
45.0
  0
ARC
  5
36B
100
AcDbEntity
  8
M0
 62
     7
100
AcDbCircle
 10
242.980215
 20
345.570641
 40
3.0
100
AcDbArc
 50
90.0
 51
180.0
  0
ELLIPSE
  5
36C
100
AcDbEntity
  8
M0
 62
     7
100
AcDbEllipse
 10
261.780215
 20
318.561643
 11
0.0
 21
20.008998
210
0.0
220
0.0
230
1.0
 40
0.029987
 41
5.682730448278159
 42
6.283185307179586
  0
ARC
  5
36D
100
AcDbEntity
  8
M0
 62
     7
100
AcDbCircle
 10
212.380215
 20
307.370641
 40
1.0
100
AcDbArc
 50
168.463041
 51
180.0
  0
ARC
  5
36E
100
AcDbEntity
  8
M0
 62
     7
100
AcDbCircle
 10
268.680215
 20
269.570641
 40
1.0
100
AcDbArc
 50
270.0
 51
360.0
  0
LINE
  5
36F
100
AcDbEntity
  8
M0
 62
     7
100
AcDbLine
 10
211.380216
 20
307.370641
 11
211.380216
 21
306.570641
  0
LINE
  5
370
100
AcDbEntity
  8
M0
 62
     7
100
AcDbLine
 10
211.380216
 20
301.570641
 11
211.380216
 21
300.570641
  0
LINE
  5
371
100
AcDbEntity
  8
M0
 62
     7
100
AcDbLine
 10
241.780215
 20
301.370641
 11
241.780215
 21
306.770641
  0
LINE
  5
372
100
AcDbEntity
  8
M0
 62
     7
100
AcDbLine
 10
238.280215
 20
306.770641
 11
238.280215
 21
301.370641
  0
ARC
  5
373
100
AcDbEntity
  8
M0
 62
     7
100
AcDbCircle
 10
286.280215
 20
319.670641
 40
0.3
100
AcDbArc
 50
270.0
 51
360.0
  0
LINE
  5
374
100
AcDbEntity
  8
M0
 62
     7
100
AcDbLine
 10
269.680215
 20
269.570642
 11
269.680215
 21
273.070642
  0
LINE
  5
375
100
AcDbEntity
  8
M0
 62
     7
100
AcDbLine
 10
251.680215
 20
269.570642
 11
251.680215
 21
268.57064
  0
LINE
  5
376
100
AcDbEntity
  8
M0
 62
     7
100
AcDbLine
 10
262.380215
 20
343.156428
 11
262.380215
 21
335.070641
  0
LINE
  5
377
100
AcDbEntity
  8
M0
 62
     7
100
AcDbLine
 10
245.280214
 20
338.570642
 11
240.580215
 21
338.570642
  0
LINE
  5
378
100
AcDbEntity
  8
M0
 62
     7
100
AcDbLine
 10
245.280214
 20
338.570642
 11
245.280214
 21
335.070641
  0
LINE
  5
379
100
AcDbEntity
  8
M0
 62
     7
100
AcDbLine
 10
261.780215
 20
338.570642
 11
245.280214
 21
338.570642
  0
LINE
  5
37A
100
AcDbEntity
  8
M0
 62
     7
100
AcDbLine
 10
284.380215
 20
319.370641
 11
286.280215
 21
319.370641
  0
ARC
  5
37B
100
AcDbEntity
  8
M0
 62
     7
100
AcDbCircle
 10
286.080215
 20
285.770641
 40
0.5
100
AcDbArc
 50
0.0
 51
90.0
  0
LINE
  5
37C
100
AcDbEntity
  8
M0
 62
     7
100
AcDbLine
 10
251.680215
 20
314.170641
 11
251.680215
 21
335.070641
  0
ARC
  5
37D
100
AcDbEntity
  8
M0
 62
     7
100
AcDbCircle
 10
286.080215
 20
269.070641
 40
0.5
100
AcDbArc
 50
270.0
 51
360.0
  0
ARC
  5
37E
100
AcDbEntity
  8
M0
 62
     7
100
AcDbCircle
 10
286.080215
 20
322.370641
 40
0.5
100
AcDbArc
 50
270.0
 51
360.0
  0
LINE
  5
37F
100
AcDbEntity
  8
M0
 62
     7
100
AcDbLine
 10
284.380215
 20
319.370641
 11
283.380215
 21
320.370641
  0
LINE
  5
380
100
AcDbEntity
  8
M0
 62
     7
100
AcDbLine
 10
283.380215
 20
320.370641
 11
283.380215
 21
321.870642
  0
LINE
  5
381
100
AcDbEntity
  8
M0
 62
     7
100
AcDbLine
 10
270.980214
 20
338.570642
 11
275.880215
 21
338.570642
  0
LINE
  5
382
100
AcDbEntity
  8
M0
 62
     7
100
AcDbLine
 10
262.380215
 20
343.156428
 11
262.380215
 21
341.020641
  0
LINE
  5
383
100
AcDbEntity
  8
M0
 62
     7
100
AcDbLine
 10
270.080215
 20
338.270641
 11
270.080215
 21
335.070641
  0
LINE
  5
384
100
AcDbEntity
  8
M0
 62
     7
100
AcDbLine
 10
282.380215
 20
319.370641
 11
282.380215
 21
321.870642
  0
LINE
  5
385
100
AcDbEntity
  8
M0
 62
     7
100
AcDbLine
 10
257.673108
 20
348.277748
 11
262.087322
 21
343.863533
  0
LINE
  5
386
100
AcDbEntity
  8
M0
 62
     7
100
AcDbLine
 10
270.080215
 20
338.270641
 11
270.080215
 21
338.570642
  0
LINE
  5
387
100
AcDbEntity
  8
M0
 62
     7
100
AcDbLine
 10
270.080215
 20
338.570642
 11
275.880215
 21
338.570642
  0
LINE
  5
388
100
AcDbEntity
  8
M0
 62
     7
100
AcDbLine
 10
286.580215
 20
338.070641
 11
286.580215
 21
337.520641
  0
LINE
  5
389
100
AcDbEntity
  8
M0
 62
     7
100
AcDbLine
 10
262.380215
 20
338.570642
 11
262.380215
 21
335.070641
  0
ARC
  5
38A
100
AcDbEntity
  8
M0
 62
     7
100
AcDbCircle
 10
231.980215
 20
328.770641
 40
3.0
100
AcDbArc
 50
90.0
 51
180.0
  0
ARC
  5
38B
100
AcDbEntity
  8
M0
 62
     7
100
AcDbCircle
 10
231.980215
 20
279.370641
 40
3.0
100
AcDbArc
 50
180.0
 51
270.0
  0
ARC
  5
38C
100
AcDbEntity
  8
M0
 62
     7
100
AcDbCircle
 10
242.937574
 20
328.770641
 40
3.0
100
AcDbArc
 50
45.0
 51
90.0
  0
ARC
  5
38D
100
AcDbEntity
  8
M0
 62
     7
100
AcDbCircle
 10
242.937574
 20
279.370641
 40
3.0
100
AcDbArc
 50
270.0
 51
315.0
  0
ARC
  5
38E
100
AcDbEntity
  8
M0
 62
     7
100
AcDbCircle
 10
213.080215
 20
321.170641
 40
3.0
100
AcDbArc
 50
90.0
 51
180.0
  0
ARC
  5
38F
100
AcDbEntity
  8
M0
 62
     7
100
AcDbCircle
 10
211.580215
 20
299.370641
 40
1.0
100
AcDbArc
 50
0.0
 51
90.0
  0
ARC
  5
390
100
AcDbEntity
  8
M0
 62
     7
100
AcDbCircle
 10
225.980215
 20
327.170641
 40
3.0
100
AcDbArc
 50
270.0
 51
360.0
  0
ARC
  5
391
100
AcDbEntity
  8
M0
 62
     7
100
AcDbCircle
 10
225.980215
 20
280.970641
 40
3.0
100
AcDbArc
 50
0.0
 51
90.0
  0
ARC
  5
392
100
AcDbEntity
  8
M0
 62
     7
100
AcDbCircle
 10
238.080215
 20
306.270641
 40
0.5
100
AcDbArc
 50
90.0
 51
180.0
  0
LINE
  5
393
100
AcDbEntity
  8
M0
 62
     7
100
AcDbLine
 10
212.080213
 20
284.142214
 11
212.080213
 21
271.570642
  0
ARC
  5
394
100
AcDbEntity
  8
M0
 62
     7
100
AcDbCircle
 10
238.080215
 20
301.870641
 40
0.5
100
AcDbArc
 50
180.0
 51
270.0
  0
LINE
  5
395
100
AcDbEntity
  8
M0
 62
     7
100
AcDbLine
 10
212.080213
 20
336.570642
 11
212.080213
 21
323.999068
  0
LINE
  5
396
100
AcDbEntity
  8
M0
 62
     7
100
AcDbLine
 10
251.680215
 20
319.170641
 11
259.080215
 21
319.170641
  0
LINE
  5
397
100
AcDbEntity
  8
M0
 62
     7
100
AcDbLine
 10
259.080215
 20
324.17064
 11
251.680215
 21
324.17064
  0
LINE
  5
398
100
AcDbEntity
  8
M0
 62
     7
100
AcDbLine
 10
251.680215
 20
314.170641
 11
250.780215
 21
314.170641
  0
LINE
  5
399
100
AcDbEntity
  8
M0
 62
     7
100
AcDbLine
 10
263.580214
 20
289.531196
 11
263.580214
 21
286.654413
  0
LINE
  5
39A
100
AcDbEntity
  8
M0
 62
     7
100
AcDbLine
 10
263.580214
 20
321.486869
 11
263.580214
 21
318.610086
  0
LINE
  5
39B
100
AcDbEntity
  8
M0
 62
     7
100
AcDbLine
 10
276.880215
 20
339.570642
 11
286.080214
 21
339.570642
  0
ARC
  5
39C
100
AcDbEntity
  8
M0
 62
     7
100
AcDbCircle
 10
211.080215
 20
308.770641
 40
1.0
100
AcDbArc
 50
180.0
 51
270.0
  0
ARC
  5
39D
100
AcDbEntity
  8
M0
 62
     7
100
AcDbCircle
 10
229.837574
 20
271.570641
 40
3.0
100
AcDbArc
 50
270.0
 51
315.0
  0
ARC
  5
39E
100
AcDbEntity
  8
M0
 62
     7
100
AcDbCircle
 10
213.080215
 20
286.970641
 40
3.0
100
AcDbArc
 50
180.0
 51
270.0
  0
ARC
  5
39F
100
AcDbEntity
  8
M0
 62
     7
100
AcDbCircle
 10
211.080215
 20
299.370641
 40
1.0
100
AcDbArc
 50
90.0
 51
180.0
  0
ARC
  5
3A0
100
AcDbEntity
  8
M0
 62
     7
100
AcDbCircle
 10
215.080215
 20
271.570641
 40
3.0
100
AcDbArc
 50
180.0
 51
270.0
  0
LINE
  5
3A1
100
AcDbEntity
  8
M0
 62
     7
100
AcDbLine
 10
279.380214
 20
286.270641
 11
286.080214
 21
286.270641
  0
ARC
  5
3A2
100
AcDbEntity
  8
M0
 62
     7
100
AcDbCircle
 10
229.837574
 20
336.570641
 40
3.0
100
AcDbArc
 50
45.0
 51
90.0
  0
ARC
  5
3A3
100
AcDbEntity
  8
M0
 62
     7
100
AcDbCircle
 10
215.080215
 20
336.570641
 40
3.0
100
AcDbArc
 50
90.0
 51
180.0
  0
ARC
  5
3A4
100
AcDbEntity
  8
M0
 62
     7
100
AcDbCircle
 10
211.580215
 20
308.770641
 40
1.0
100
AcDbArc
 50
270.0
 51
360.0
  0
LINE
  5
3A5
100
AcDbEntity
  8
M0
 62
     7
100
AcDbLine
 10
247.180215
 20
279.370642
 11
245.058894
 21
277.24932
  0
LINE
  5
3A6
100
AcDbEntity
  8
M0
 62
     7
100
AcDbLine
 10
212.580214
 20
299.370642
 11
212.580214
 21
308.770641
  0
LINE
  5
3A7
100
AcDbEntity
  8
M0
 62
     7
100
AcDbLine
 10
242.937574
 20
276.370642
 11
231.980215
 21
276.370642
  0
LINE
  5
3A8
100
AcDbEntity
  8
M0
 62
     7
100
AcDbLine
 10
228.980214
 20
327.170641
 11
228.980214
 21
328.770642
  0
LINE
  5
3A9
100
AcDbEntity
  8
M0
 62
     7
100
AcDbLine
 10
245.058894
 20
330.891962
 11
247.180215
 21
328.770642
  0
LINE
  5
3AA
100
AcDbEntity
  8
M0
 62
     7
100
AcDbLine
 10
231.980215
 20
331.770641
 11
242.937574
 21
331.770641
  0
LINE
  5
3AB
100
AcDbEntity
  8
M0
 62
     7
100
AcDbLine
 10
247.180215
 20
328.770642
 11
275.880215
 21
328.770642
  0
LINE
  5
3AC
100
AcDbEntity
  8
M0
 62
     7
100
AcDbLine
 10
237.580214
 20
306.270641
 11
237.580214
 21
301.870641
  0
LINE
  5
3AD
100
AcDbEntity
  8
M0
 62
     7
100
AcDbLine
 10
238.080215
 20
301.370641
 11
250.280215
 21
301.370641
  0
LINE
  5
3AE
100
AcDbEntity
  8
M0
 62
     7
100
AcDbLine
 10
250.280215
 20
306.770641
 11
238.080215
 21
306.770641
  0
LINE
  5
3AF
100
AcDbEntity
  8
M0
 62
     7
100
AcDbLine
 10
251.680215
 20
279.570642
 11
247.180215
 21
279.370642
  0
LINE
  5
3B0
100
AcDbEntity
  8
M0
 62
     7
100
AcDbLine
 10
275.880215
 20
335.070641
 11
235.580214
 21
335.070641
  0
LINE
  5
3B1
100
AcDbEntity
  8
M0
 62
     7
100
AcDbLine
 10
215.080215
 20
268.57064
 11
229.837575
 21
268.57064
  0
LINE
  5
3B2
100
AcDbEntity
  8
M0
 62
     7
100
AcDbLine
 10
229.837575
 20
339.570642
 11
215.080215
 21
339.570642
  0
LINE
  5
3B3
100
AcDbEntity
  8
M0
 62
     7
100
AcDbLine
 10
235.580214
 20
335.070641
 11
231.958895
 21
338.691962
  0
LINE
  5
3B4
100
AcDbEntity
  8
M0
 62
     7
100
AcDbLine
 10
231.958895
 20
269.44932
 11
235.580214
 21
273.070642
  0
LINE
  5
3B5
100
AcDbEntity
  8
M0
 62
     7
100
AcDbLine
 10
211.580216
 20
307.770641
 11
211.580216
 21
300.370641
  0
LINE
  5
3B6
100
AcDbEntity
  8
M0
 62
     7
100
AcDbLine
 10
211.080215
 20
307.770641
 11
211.580216
 21
307.770641
  0
LINE
  5
3B7
100
AcDbEntity
  8
M0
 62
     7
100
AcDbLine
 10
225.980215
 20
283.970642
 11
213.080215
 21
283.970642
  0
LINE
  5
3B8
100
AcDbEntity
  8
M0
 62
     7
100
AcDbLine
 10
213.080215
 20
324.17064
 11
225.980215
 21
324.17064
  0
LINE
  5
3B9
100
AcDbEntity
  8
M0
 62
     7
100
AcDbLine
 10
211.580216
 20
300.370641
 11
211.080215
 21
300.370641
  0
LINE
  5
3BA
100
AcDbEntity
  8
M0
 62
     7
100
AcDbLine
 10
210.080216
 20
286.97064
 11
210.080216
 21
321.170641
  0
ARC
  5
3BB
100
AcDbEntity
  8
M0
 62
     7
100
AcDbCircle
 10
250.780215
 20
313.670641
 40
0.5
100
AcDbArc
 50
90.0
 51
180.0
  0
ARC
  5
3BC
100
AcDbEntity
  8
M0
 62
     7
100
AcDbCircle
 10
281.880215
 20
290.770641
 40
0.5
100
AcDbArc
 50
270.0
 51
360.0
  0
ARC
  5
3BD
100
AcDbEntity
  8
M0
 62
     7
100
AcDbCircle
 10
281.880215
 20
317.370641
 40
0.5
100
AcDbArc
 50
0.0
 51
90.0
  0
ARC
  5
3BE
100
AcDbEntity
  8
M0
 62
     7
100
AcDbCircle
 10
250.780215
 20
294.470641
 40
0.5
100
AcDbArc
 50
180.0
 51
270.0
  0
LINE
  5
3BF
100
AcDbEntity
  8
M0
 62
     7
100
AcDbLine
 10
274.880214
 20
273.070642
 11
235.580214
 21
273.070642
  0
LINE
  5
3C0
100
AcDbEntity
  8
M0
 62
     7
100
AcDbLine
 10
274.880214
 20
273.070642
 11
274.880214
 21
273.570643
  0
LINE
  5
3C1
100
AcDbEntity
  8
M0
 62
     7
100
AcDbLine
 10
275.880215
 20
271.570642
 11
274.880214
 21
271.570642
  0
LINE
  5
3C2
100
AcDbEntity
  8
M0
 62
     7
100
AcDbLine
 10
274.880214
 20
272.07064
 11
274.880214
 21
273.070642
  0
LINE
  5
3C3
100
AcDbEntity
  8
M0
 62
     7
100
AcDbLine
 10
274.880214
 20
273.570643
 11
275.880215
 21
273.570643
  0
LINE
  5
3C4
100
AcDbEntity
  8
M0
 62
     7
100
AcDbLine
 10
286.580215
 20
330.620642
 11
286.580215
 21
328.470641
  0
LINE
  5
3C5
100
AcDbEntity
  8
M0
 62
     7
100
AcDbLine
 10
274.880214
 20
271.570642
 11
274.880214
 21
272.07064
  0
LINE
  5
3C6
100
AcDbEntity
  8
M0
 62
     7
100
AcDbLine
 10
282.680214
 20
316.370642
 11
282.680214
 21
318.370641
  0
LINE
  5
3C7
100
AcDbEntity
  8
M0
 62
     7
100
AcDbLine
 10
239.980214
 20
338.570642
 11
239.980214
 21
345.570639
  0
LINE
  5
3C8
100
AcDbEntity
  8
M0
 62
     7
100
AcDbLine
 10
240.680215
 20
268.57064
 11
243.680214
 21
268.57064
  0
ARC
  5
3C9
100
AcDbEntity
  8
M0
 62
     7
100
AcDbCircle
 10
276.880215
 20
269.570641
 40
1.0
100
AcDbArc
 50
180.0
 51
270.0
  0
ARC
  5
3CA
100
AcDbEntity
  8
M0
 62
     7
100
AcDbCircle
 10
286.080215
 20
339.070641
 40
0.5
100
AcDbArc
 50
0.0
 51
90.0
  0
ARC
  5
3CB
100
AcDbEntity
  8
M0
 62
     7
100
AcDbCircle
 10
276.880215
 20
338.570641
 40
1.0
100
AcDbArc
 50
90.0
 51
180.0
  0
LINE
  5
3CC
100
AcDbEntity
  8
M0
 62
     7
100
AcDbLine
 10
251.680215
 20
268.57064
 11
251.680215
 21
293.970641
  0
LINE
  5
3CD
100
AcDbEntity
  8
M0
 62
     7
100
AcDbLine
 10
239.680215
 20
273.070642
 11
239.680215
 21
269.570642
  0
LINE
  5
3CE
100
AcDbEntity
  8
M0
 62
     7
100
AcDbLine
 10
240.680215
 20
268.57064
 11
268.680215
 21
268.57064
  0
LINE
  5
3CF
100
AcDbEntity
  8
M0
 62
     7
100
AcDbLine
 10
281.880215
 20
290.27064
 11
279.380214
 21
290.27064
  0
LINE
  5
3D0
100
AcDbEntity
  8
M0
 62
     7
100
AcDbLine
 10
279.380214
 20
317.870641
 11
281.880215
 21
317.870641
  0
LINE
  5
3D1
100
AcDbEntity
  8
M0
 62
     7
100
AcDbLine
 10
279.380214
 20
318.310086
 11
279.380214
 21
317.870641
  0
LINE
  5
3D2
100
AcDbEntity
  8
M0
 62
     7
100
AcDbLine
 10
279.380214
 20
290.27064
 11
279.380214
 21
289.831196
  0
LINE
  5
3D3
100
AcDbEntity
  8
M0
 62
     7
100
AcDbLine
 10
251.680215
 20
293.970641
 11
250.780215
 21
293.970641
  0
LINE
  5
3D4
100
AcDbEntity
  8
M0
 62
     7
100
AcDbLine
 10
251.680215
 20
283.970642
 11
259.080215
 21
283.970642
  0
LINE
  5
3D5
100
AcDbEntity
  8
M0
 62
     7
100
AcDbLine
 10
259.080215
 20
288.970641
 11
251.680215
 21
288.970641
  0
LINE
  5
3D6
100
AcDbEntity
  8
M0
 62
     7
100
AcDbLine
 10
250.280215
 20
313.670641
 11
250.280215
 21
294.470642
  0
LINE
  5
3D7
100
AcDbEntity
  8
M0
 62
     7
100
AcDbLine
 10
286.080214
 20
321.870642
 11
279.380214
 21
321.870642
  0
LINE
  5
3D8
100
AcDbEntity
  8
M0
 62
     7
100
AcDbLine
 10
228.980214
 20
279.370642
 11
228.980214
 21
280.970641
  0
LINE
  5
3D9
100
AcDbEntity
  8
M0
 62
     7
100
AcDbLine
 10
286.880214
 20
279.82064
 11
286.880214
 21
270.32064
  0
LINE
  5
3DA
100
AcDbEntity
  8
M0
 62
     7
100
AcDbLine
 10
282.380215
 20
315.870641
 11
282.680214
 21
316.370642
  0
LINE
  5
3DB
100
AcDbEntity
  8
M0
 62
     7
100
AcDbLine
 10
282.680214
 20
318.370641
 11
282.380215
 21
319.370641
  0
LINE
  5
3DC
100
AcDbEntity
  8
M0
 62
     7
100
AcDbLine
 10
282.380215
 20
321.870642
 11
282.380215
 21
286.270641
  0
LINE
  5
3DD
100
AcDbEntity
  8
M0
 62
     7
100
AcDbLine
 10
275.880215
 20
328.770642
 11
275.880215
 21
338.570641
  0
LINE
  5
3DE
100
AcDbEntity
  8
M0
 62
     7
100
AcDbLine
 10
259.080215
 20
319.170641
 11
259.080215
 21
324.17064
  0
LINE
  5
3DF
100
AcDbEntity
  8
M0
 62
     7
100
AcDbLine
 10
259.080215
 20
283.970642
 11
259.080215
 21
288.970641
  0
LINE
  5
3E0
100
AcDbEntity
  8
M0
 62
     7
100
AcDbLine
 10
275.880215
 20
279.570642
 11
251.680215
 21
279.570642
  0
LINE
  5
3E1
100
AcDbEntity
  8
M0
 62
     7
100
AcDbLine
 10
275.880215
 20
269.570641
 11
275.880215
 21
279.570642
  0
LINE
  5
3E2
100
AcDbEntity
  8
M0
 62
     7
100
AcDbLine
 10
284.080215
 20
288.570641
 11
284.086899
 21
288.563045
  0
LINE
  5
3E3
100
AcDbEntity
  8
M0
 62
     7
100
AcDbLine
 10
284.086899
 20
288.563045
 11
284.106751
 21
288.540487
  0
LINE
  5
3E4
100
AcDbEntity
  8
M0
 62
     7
100
AcDbLine
 10
284.106751
 20
288.540487
 11
284.139163
 21
288.503653
  0
LINE
  5
3E5
100
AcDbEntity
  8
M0
 62
     7
100
AcDbLine
 10
284.139163
 20
288.503653
 11
284.183155
 21
288.453663
  0
LINE
  5
3E6
100
AcDbEntity
  8
M0
 62
     7
100
AcDbLine
 10
284.183155
 20
288.453663
 11
284.237387
 21
288.392034
  0
LINE
  5
3E7
100
AcDbEntity
  8
M0
 62
     7
100
AcDbLine
 10
284.237387
 20
288.392034
 11
284.300214
 21
288.320641
  0
LINE
  5
3E8
100
AcDbEntity
  8
M0
 62
     7
100
AcDbLine
 10
284.300214
 20
288.320641
 11
284.369726
 21
288.241652
  0
LINE
  5
3E9
100
AcDbEntity
  8
M0
 62
     7
100
AcDbLine
 10
284.369726
 20
288.241652
 11
284.443809
 21
288.157466
  0
LINE
  5
3EA
100
AcDbEntity
  8
M0
 62
     7
100
AcDbLine
 10
284.443809
 20
288.157466
 11
284.520215
 21
288.07064
  0
HATCH
  5
3EB
100
AcDbEntity
  8
M0
 62
     7
100
AcDbHatch
 10
0.0
 20
0.0
210
0.0
220
0.0
230
1.0
  2
SOLID
 70
     1
 71
     0
 91
        1
 92
        1
 93
       12
 72
     1
 10
60.628295
 20
305.801442
 11
60.628295
 21
307.01989
 72
     1
 10
60.628295
 20
307.01989
 11
62.109817
 21
307.01989
 72
     1
 10
62.109817
 20
307.01989
 11
62.109817
 21
305.801442
 72
     1
 10
62.109817
 20
305.801442
 11
62.843655
 21
305.801442
 72
     1
 10
62.843655
 20
305.801442
 11
62.843655
 21
308.570642
 72
     1
 10
62.843655
 20
308.570642
 11
62.109817
 21
308.570642
 72
     1
 10
62.109817
 20
308.570642
 11
62.109817
 21
307.462962
 72
     1
 10
62.109817
 20
307.462962
 11
60.628295
 21
307.462962
 72
     1
 10
60.628295
 20
307.462962
 11
60.628295
 21
308.570642
 72
     1
 10
60.628295
 20
308.570642
 11
59.894457
 21
308.570642
 72
     1
 10
59.894457
 20
308.570642
 11
59.894457
 21
305.801442
 72
     1
 10
59.894457
 20
305.801442
 11
60.628295
 21
305.801442
 97
        0
 75
     0
 76
     1
 98
        1
 10
0.0
 20
0.0
  0
HATCH
  5
3EE
100
AcDbEntity
  8
M0
 62
     7
100
AcDbHatch
 10
0.0
 20
0.0
210
0.0
220
0.0
230
1.0
  2
SOLID
 70
     1
 71
     0
 91
        1
 92
        1
 93
        8
 72
     1
 10
66.277462
 20
305.801442
 11
66.277462
 21
308.099878
 72
     1
 10
66.277462
 20
308.099878
 11
67.398988
 21
308.099878
 72
     1
 10
67.398988
 20
308.099878
 11
67.398988
 21
308.570642
 72
     1
 10
67.398988
 20
308.570642
 11
64.422099
 21
308.570642
 72
     1
 10
64.422099
 20
308.570642
 11
64.422099
 21
308.099878
 72
     1
 10
64.422099
 20
308.099878
 11
65.543624
 21
308.099878
 72
     1
 10
65.543624
 20
308.099878
 11
65.543624
 21
305.801442
 72
     1
 10
65.543624
 20
305.801442
 11
66.277462
 21
305.801442
 97
        0
 75
     0
 76
     1
 98
        1
 10
0.0
 20
0.0
  0
HATCH
  5
3EF
100
AcDbEntity
  8
M0
 62
     7
100
AcDbHatch
 10
0.0
 20
0.0
210
0.0
220
0.0
230
1.0
  2
SOLID
 70
     1
 71
     0
 91
        1
 92
        1
 93
       20
 72
     2
 10
71.760479
 20
308.169108
 40
2.436895
 50
252.447306
 51
292.422669
 73
     1
 72
     2
 10
72.351992
 20
306.735601
 40
0.886144
 50
292.422669
 51
346.150662
 73
     1
 72
     2
 10
71.760479
 20
306.88143
 40
1.495367
 50
346.150662
 51
356.81526
 73
     1
 72
     1
 10
73.253537
 20
306.798354
 11
72.480471
 21
306.798354
 72
     2
 10
71.760479
 20
306.798354
 40
0.719992
 50
0.0
 51
25.643738
 73
     0
 72
     2
 10
71.935229
 20
306.714464
 40
0.526148
 50
25.643738
 51
72.512342
 73
     0
 72
     2
 10
71.760479
 20
307.269118
 40
1.10768
 50
72.512342
 51
111.534322
 73
     0
 72
     2
 10
71.592763
 20
306.844094
 40
0.650762
 50
111.534322
 51
163.518484
 73
     0
 72
     2
 10
72.65493
 20
307.158349
 40
1.758441
 50
163.518484
 51
199.911347
 73
     0
 72
     2
 10
71.613466
 20
307.535587
 40
0.650762
 50
199.911347
 51
251.231339
 73
     0
 72
     2
 10
71.760479
 20
307.102965
 40
1.10768
 50
251.231339
 51
287.055921
 73
     0
 72
     2
 10
71.931045
 20
307.658921
 40
0.526148
 50
287.055921
 51
341.370551
 73
     0
 72
     2
 10
71.760479
 20
307.601422
 40
0.706146
 50
341.370551
 51
357.752539
 73
     0
 72
     1
 10
72.466082
 20
307.629114
 11
73.23675
 21
307.629114
 72
     2
 10
71.760479
 20
307.5045
 40
1.481521
 50
4.824977
 51
11.570993
 73
     1
 72
     2
 10
72.330192
 20
307.621144
 40
0.89999
 50
11.570993
 51
66.454336
 73
     1
 72
     2
 10
71.760479
 20
306.313744
 40
2.326127
 50
66.454336
 51
109.456965
 73
     1
 72
     2
 10
71.400736
 20
307.332056
 40
1.246139
 50
109.456965
 51
161.721239
 73
     1
 72
     2
 10
71.92663
 20
307.158349
 40
1.799979
 50
161.721239
 51
190.751611
 73
     1
 72
     2
 10
71.409718
 20
307.060195
 40
1.273831
 50
190.751611
 51
252.447306
 73
     1
 97
        0
 75
     0
 76
     1
 98
        1
 10
0.0
 20
0.0
  0
HATCH
  5
3F0
100
AcDbEntity
  8
M0
 62
     7
100
AcDbHatch
 10
0.0
 20
0.0
210
0.0
220
0.0
230
1.0
  2
SOLID
 70
     1
 71
     0
 91
        1
 92
        1
 93
        7
 72
     1
 10
88.894457
 20
302.962555
 11
85.894457
 21
301.870645
 72
     1
 10
85.894457
 20
301.870645
 11
88.894457
 21
300.778734
 72
     1
 10
88.894457
 20
300.778734
 11
88.894457
 21
301.370645
 72
     1
 10
88.894457
 20
301.370645
 11
94.894457
 21
301.370645
 72
     1
 10
94.894457
 20
301.370645
 11
94.894457
 21
302.370645
 72
     1
 10
94.894457
 20
302.370645
 11
88.894457
 21
302.370645
 72
     1
 10
88.894457
 20
302.370645
 11
88.894457
 21
302.962555
 97
        0
 75
     0
 76
     1
 98
        1
 10
0.0
 20
0.0
  0
HATCH
  5
3F1
100
AcDbEntity
  8
M0
 62
     7
100
AcDbHatch
 10
0.0
 20
0.0
210
0.0
220
0.0
230
1.0
  2
SOLID
 70
     1
 71
     0
 91
        1
 92
        1
 93
        4
 72
     1
 10
64.159024
 20
305.801442
 11
64.159024
 21
308.570642
 72
     1
 10
64.159024
 20
308.570642
 11
63.425186
 21
308.570642
 72
     1
 10
63.425186
 20
308.570642
 11
63.425186
 21
305.801442
 72
     1
 10
63.425186
 20
305.801442
 11
64.159024
 21
305.801442
 97
        0
 75
     0
 76
     1
 98
        1
 10
0.0
 20
0.0
  0
LINE
  5
3F2
100
AcDbEntity
  8
M0
  6
DASHED
100
AcDbLine
 10
163.180217
 20
294.896198
 11
163.180217
 21
292.046198
  0
LINE
  5
3F3
100
AcDbEntity
  8
M0
  6
DASHED
100
AcDbLine
 10
164.180217
 20
321.696196
 11
163.180217
 21
321.696196
  0
LINE
  5
3F4
100
AcDbEntity
  8
M0
  6
DASHED
100
AcDbLine
 10
163.180217
 20
319.296196
 11
163.180217
 21
316.446196
  0
LINE
  5
3F5
100
AcDbEntity
  8
M0
  6
DASHED
100
AcDbLine
 10
163.180217
 20
321.696196
 11
163.180217
 21
314.046196
  0
LINE
  5
3F6
100
AcDbEntity
  8
M0
100
AcDbLine
 10
162.780217
 20
308.561094
 11
162.780217
 21
308.771196
  0
LINE
  5
3F7
100
AcDbEntity
  8
M0
100
AcDbLine
 10
159.080217
 20
304.821196
 11
158.580216
 21
304.821196
  0
LINE
  5
3F8
100
AcDbEntity
  8
M0
100
AcDbLine
 10
157.080217
 20
286.771196
 11
157.080217
 21
320.771196
  0
LINE
  5
3F9
100
AcDbEntity
  8
M0
100
AcDbLine
 10
159.250396
 20
308.771196
 11
159.250396
 21
308.446985
  0
LINE
  5
3FA
100
AcDbEntity
  8
M0
100
AcDbLine
 10
208.080216
 20
320.771196
 11
208.080216
 21
321.771196
  0
LINE
  5
3FB
100
AcDbEntity
  8
M0
100
AcDbLine
 10
208.080216
 20
321.771196
 11
209.080216
 21
321.771196
  0
LINE
  5
3FC
100
AcDbEntity
  8
M0
100
AcDbLine
 10
208.080216
 20
316.871196
 11
208.080216
 21
320.771196
  0
LINE
  5
3FD
100
AcDbEntity
  8
M0
100
AcDbLine
 10
210.080216
 20
318.271196
 11
209.080216
 21
321.771196
  0
LINE
  5
3FE
100
AcDbEntity
  8
M0
100
AcDbLine
 10
205.782942
 20
307.771196
 11
205.782942
 21
303.771197
  0
LINE
  5
3FF
100
AcDbEntity
  8
M0
100
AcDbLine
 10
208.523958
 20
316.871196
 11
209.080216
 21
316.871196
  0
LINE
  5
400
100
AcDbEntity
  8
M0
100
AcDbLine
 10
204.080216
 20
321.771196
 11
204.77587
 21
321.771196
  0
LINE
  5
401
100
AcDbEntity
  8
M0
100
AcDbLine
 10
210.080216
 20
307.771196
 11
205.782942
 21
307.771196
  0
LINE
  5
402
100
AcDbEntity
  8
M0
100
AcDbLine
 10
205.780216
 20
321.029382
 11
205.780216
 21
316.871196
  0
LINE
  5
403
100
AcDbEntity
  8
M0
100
AcDbLine
 10
208.830216
 20
316.871196
 11
205.780216
 21
316.871196
  0
LINE
  5
404
100
AcDbEntity
  8
M0
100
AcDbLine
 10
205.780216
 20
316.871196
 11
208.523958
 21
316.871196
  0
LINE
  5
405
100
AcDbEntity
  8
M0
100
AcDbLine
 10
205.580217
 20
320.771196
 11
205.580217
 21
286.771196
  0
LINE
  5
406
100
AcDbEntity
  8
M0
100
AcDbLine
 10
160.080216
 20
308.571196
 11
159.580215
 21
308.571196
  0
LINE
  5
407
100
AcDbEntity
  8
M0
100
AcDbLine
 10
159.080217
 20
299.471197
 11
159.080217
 21
308.071196
  0
LINE
  5
408
100
AcDbEntity
  8
M0
100
AcDbLine
 10
208.730216
 20
303.771197
 11
208.730216
 21
307.771196
  0
LINE
  5
409
100
AcDbEntity
  8
M0
100
AcDbLine
 10
159.580215
 20
298.971196
 11
160.080216
 21
298.971196
  0
ARC
  5
40A
100
AcDbEntity
  8
M0
100
AcDbCircle
 10
159.580216
 20
299.471196
 40
0.5
100
AcDbArc
 50
180.0
 51
270.0
  0
ARC
  5
40B
100
AcDbEntity
  8
M0
100
AcDbCircle
 10
159.580216
 20
308.071196
 40
0.5
100
AcDbArc
 50
90.0
 51
180.0
  0
LINE
  5
40C
100
AcDbEntity
  8
M0
100
AcDbLine
 10
162.680215
 20
298.971196
 11
160.080216
 21
298.971196
  0
ARC
  5
40D
100
AcDbEntity
  8
M0
100
AcDbCircle
 10
205.280216
 20
321.029382
 40
0.5
100
AcDbArc
 50
0.0
 51
44.92732
  0
ARC
  5
40E
100
AcDbEntity
  8
M0
100
AcDbCircle
 10
164.180216
 20
320.771196
 40
1.0
100
AcDbArc
 50
90.0
 51
180.0
  0
ARC
  5
40F
100
AcDbEntity
  8
M0
100
AcDbCircle
 10
205.080216
 20
321.271196
 40
0.5
100
AcDbArc
 50
0.0
 51
90.0
  0
ARC
  5
410
100
AcDbEntity
  8
M0
100
AcDbCircle
 10
158.080216
 20
309.971196
 40
1.0
100
AcDbArc
 50
90.0
 51
180.0
  0
LINE
  5
411
100
AcDbEntity
  8
M0
100
AcDbLine
 10
208.730216
 20
299.771196
 11
208.730216
 21
303.771197
  0
LINE
  5
412
100
AcDbEntity
  8
M0
100
AcDbLine
 10
205.631975
 20
321.379132
 11
205.540866
 21
321.464985
  0
ARC
  5
413
100
AcDbEntity
  8
M0
100
AcDbCircle
 10
209.080216
 20
315.871196
 40
1.0
100
AcDbArc
 50
0.0
 51
90.0
  0
ARC
  5
414
100
AcDbEntity
  8
M0
100
AcDbCircle
 10
158.080216
 20
320.771196
 40
1.0
100
AcDbArc
 50
90.0
 51
180.0
  0
LINE
  5
415
100
AcDbEntity
  8
M0
100
AcDbLine
 10
158.580216
 20
308.771196
 11
158.580216
 21
298.771196
  0
LINE
  5
416
100
AcDbEntity
  8
M0
100
AcDbLine
 10
205.780216
 20
290.671197
 11
205.780216
 21
286.771196
  0
LINE
  5
417
100
AcDbEntity
  8
M0
100
AcDbLine
 10
208.523958
 20
290.671197
 11
205.780216
 21
290.671197
  0
LINE
  5
418
100
AcDbEntity
  8
M0
100
AcDbLine
 10
164.180218
 20
285.771198
 11
158.080215
 21
285.771198
  0
LINE
  5
419
100
AcDbEntity
  8
M0
100
AcDbLine
 10
162.780217
 20
298.981299
 11
162.780217
 21
298.771196
  0
LINE
  5
41A
100
AcDbEntity
  8
M0
100
AcDbLine
 10
158.580216
 20
304.771195
 11
159.080217
 21
304.771195
  0
LINE
  5
41B
100
AcDbEntity
  8
M0
100
AcDbLine
 10
164.680215
 20
285.771198
 11
158.080215
 21
285.771198
  0
LINE
  5
41C
100
AcDbEntity
  8
M0
100
AcDbLine
 10
159.250396
 20
298.771196
 11
159.250396
 21
299.095406
  0
LINE
  5
41D
100
AcDbEntity
  8
M0
100
AcDbLine
 10
163.180216
 20
286.771196
 11
163.180216
 21
296.571196
  0
LINE
  5
41E
100
AcDbEntity
  8
M0
100
AcDbLine
 10
163.180216
 20
298.771196
 11
163.180216
 21
308.771196
  0
LINE
  5
41F
100
AcDbEntity
  8
M0
100
AcDbLine
 10
158.080216
 20
298.771196
 11
163.180216
 21
298.771196
  0
LINE
  5
420
100
AcDbEntity
  8
M0
100
AcDbLine
 10
163.180216
 20
296.571196
 11
158.080216
 21
296.571196
  0
LINE
  5
421
100
AcDbEntity
  8
M0
100
AcDbLine
 10
209.080216
 20
290.671197
 11
208.523958
 21
290.671197
  0
LINE
  5
422
100
AcDbEntity
  8
M0
100
AcDbLine
 10
210.080216
 20
318.271196
 11
210.080216
 21
291.671197
  0
LINE
  5
423
100
AcDbEntity
  8
M0
100
AcDbLine
 10
205.780216
 20
303.771197
 11
205.780216
 21
299.771196
  0
LINE
  5
424
100
AcDbEntity
  8
M0
100
AcDbLine
 10
210.080216
 20
299.771196
 11
205.780216
 21
299.771196
  0
LINE
  5
425
100
AcDbEntity
  8
M0
100
AcDbLine
 10
160.080216
 20
308.571196
 11
162.680215
 21
308.571196
  0
ARC
  5
426
100
AcDbEntity
  8
M0
100
AcDbCircle
 10
158.080216
 20
286.771196
 40
1.0
100
AcDbArc
 50
180.0
 51
270.0
  0
ARC
  5
427
100
AcDbEntity
  8
M0
100
AcDbCircle
 10
158.080216
 20
309.771196
 40
1.0
100
AcDbArc
 50
180.0
 51
270.0
  0
ARC
  5
428
100
AcDbEntity
  8
M0
100
AcDbCircle
 10
209.080216
 20
291.671196
 40
1.0
100
AcDbArc
 50
270.0
 51
360.0
  0
ARC
  5
429
100
AcDbEntity
  8
M0
100
AcDbCircle
 10
204.780222
 20
286.771191
 40
0.999994
100
AcDbArc
 50
270.0
 51
360.0
  0
LINE
  5
42A
100
AcDbEntity
  8
M0
100
AcDbLine
 10
205.580217
 20
320.771196
 11
205.580217
 21
321.271196
  0
LINE
  5
42B
100
AcDbEntity
  8
M0
100
AcDbLine
 10
158.080216
 20
321.771196
 11
205.080216
 21
321.771196
  0
LINE
  5
42C
100
AcDbEntity
  8
M0
100
AcDbLine
 10
158.080215
 20
310.971196
 11
163.180216
 21
310.971196
  0
LINE
  5
42D
100
AcDbEntity
  8
M0
100
AcDbLine
 10
163.180216
 20
310.971196
 11
163.180216
 21
320.771196
  0
ARC
  5
42E
100
AcDbEntity
  8
M0
100
AcDbCircle
 10
162.680216
 20
308.071196
 40
0.5
100
AcDbArc
 50
0.0
 51
90.0
  0
ARC
  5
42F
100
AcDbEntity
  8
M0
100
AcDbCircle
 10
162.680216
 20
299.471196
 40
0.5
100
AcDbArc
 50
270.0
 51
360.0
  0
LINE
  5
430
100
AcDbEntity
  8
M0
100
AcDbLine
 10
204.580216
 20
285.771198
 11
158.080215
 21
285.771198
  0
LINE
  5
431
100
AcDbEntity
  8
M0
100
AcDbLine
 10
163.180216
 20
308.771196
 11
158.080215
 21
308.771196
  0
ARC
  5
432
100
AcDbEntity
  8
M0
100
AcDbCircle
 10
164.180216
 20
286.771196
 40
1.0
100
AcDbArc
 50
180.0
 51
270.0
  0
ARC
  5
433
100
AcDbEntity
  8
M0
100
AcDbCircle
 10
204.580216
 20
286.771196
 40
1.0
100
AcDbArc
 50
270.0
 51
360.0
  0
ARC
  5
434
100
AcDbEntity
  8
M0
100
AcDbCircle
 10
158.080216
 20
297.771196
 40
1.0
100
AcDbArc
 50
90.0
 51
180.0
  0
ARC
  5
435
100
AcDbEntity
  8
M0
100
AcDbCircle
 10
158.080216
 20
297.571196
 40
1.0
100
AcDbArc
 50
180.0
 51
270.0
  0
LINE
  5
436
100
AcDbEntity
  8
M0
100
AcDbLine
 10
164.880215
 20
285.771198
 11
158.080215
 21
285.771198
  0
LINE
  5
437
100
AcDbEntity
  8
M0
 62
     7
100
AcDbLine
 10
152.080217
 20
320.771196
 11
152.080217
 21
286.771196
  0
HATCH
  5
438
100
AcDbEntity
  8
M0
 62
     7
100
AcDbHatch
 10
0.0
 20
0.0
210
0.0
220
0.0
230
1.0
  2
SOLID
 70
     1
 71
     0
 91
        2
 92
        1
 93
        8
 72
     1
 10
67.819289
 20
306.39682
 11
69.194047
 21
306.39682
 72
     1
 10
69.194047
 20
306.39682
 11
69.43435
 21
305.801442
 72
     1
 10
69.43435
 20
305.801442
 11
70.251264
 21
305.801442
 72
     1
 10
70.251264
 20
305.801442
 11
68.956663
 21
308.570642
 72
     1
 10
68.956663
 20
308.570642
 11
68.056674
 21
308.570642
 72
     1
 10
68.056674
 20
308.570642
 11
66.762073
 21
305.801442
 72
     1
 10
66.762073
 20
305.801442
 11
67.578986
 21
305.801442
 72
     1
 10
67.578986
 20
305.801442
 11
67.819289
 21
306.39682
 97
        0
 92
       16
 93
        3
 72
     1
 10
68.506668
 20
308.099878
 11
67.99812
 21
306.839892
 72
     1
 10
67.99812
 20
306.839892
 11
69.015217
 21
306.839892
 72
     1
 10
69.015217
 20
306.839892
 11
68.506668
 21
308.099878
 97
        0
 75
     0
 76
     1
 98
        1
 10
0.0
 20
0.0
  0
HATCH
  5
439
100
AcDbEntity
  8
M0
 62
     7
100
AcDbHatch
 10
0.0
 20
0.0
210
0.0
220
0.0
230
1.0
  2
SOLID
 70
     1
 71
     0
 91
        1
 92
        1
 93
        4
 72
     1
 10
152.080217
 20
320.771196
 11
150.080217
 21
320.771196
 72
     1
 10
150.080217
 20
320.771196
 11
150.080217
 21
286.771196
 72
     1
 10
150.080217
 20
286.771196
 11
152.080217
 21
286.771196
 72
     1
 10
152.080217
 20
286.771196
 11
152.080217
 21
320.771196
 97
        0
 75
     0
 76
     1
 98
        1
 10
0.0
 20
0.0
  0
LINE
  5
43A
100
AcDbEntity
  8
M0
100
AcDbLine
 10
68.956663
 20
308.570642
 11
70.251264
 21
305.801442
  0
LINE
  5
43B
100
AcDbEntity
  8
M0
100
AcDbLine
 10
65.543624
 20
305.801442
 11
66.277462
 21
305.801442
  0
LINE
  5
43C
100
AcDbEntity
  8
M0
100
AcDbLine
 10
77.894257
 20
308.570642
 11
77.160418
 21
308.570642
  0
LINE
  5
43D
100
AcDbEntity
  8
M0
100
AcDbLine
 10
69.43435
 20
305.801442
 11
70.251264
 21
305.801442
  0
LINE
  5
43E
100
AcDbEntity
  8
M0
100
AcDbLine
 10
67.578986
 20
305.801442
 11
67.819289
 21
306.39682
  0
LINE
  5
43F
100
AcDbEntity
  8
M0
100
AcDbLine
 10
63.425186
 20
308.570642
 11
63.425186
 21
305.801442
  0
LINE
  5
440
100
AcDbEntity
  8
M0
100
AcDbLine
 10
94.894457
 20
301.370645
 11
88.894457
 21
301.370645
  0
LINE
  5
441
100
AcDbEntity
  8
M0
100
AcDbLine
 10
76.578886
 20
308.570642
 11
75.845048
 21
308.570642
  0
TEXT
  5
442
100
AcDbEntity
  8
M0
100
AcDbText
 10
82.019456
 20
296.570645
 40
2.0
  1
５６
 41
0.625
  7
STANDARD
100
AcDbText
  0
LINE
  5
443
100
AcDbEntity
  8
M0
100
AcDbLine
 10
75.845048
 20
307.462962
 11
74.363526
 21
307.462962
  0
TEXT
  5
444
100
AcDbEntity
  8
M0
100
AcDbText
 10
60.019449
 20
302.570645
 40
2.0
  1
ＬＡＴＣＨＥＤ
 41
0.625
  7
STANDARD
100
AcDbText
  0
LINE
  5
445
100
AcDbEntity
  8
M0
100
AcDbLine
 10
75.845048
 20
307.462962
 11
75.845048
 21
308.570642
  0
LINE
  5
446
100
AcDbEntity
  8
M0
100
AcDbLine
 10
73.253536
 20
306.798354
 11
72.48047
 21
306.798354
  0
TEXT
  5
447
100
AcDbEntity
  8
M0
100
AcDbText
 10
82.019456
 20
309.570643
 40
2.0
  1
５５
 41
0.625
  7
STANDARD
100
AcDbText
  0
LINE
  5
448
100
AcDbEntity
  8
M0
100
AcDbLine
 10
85.894457
 20
301.870645
 11
88.894457
 21
300.778734
  0
LINE
  5
449
100
AcDbEntity
  8
M0
100
AcDbLine
 10
67.398988
 20
308.570642
 11
64.422099
 21
308.570642
  0
LINE
  5
44A
100
AcDbEntity
  8
M0
100
AcDbLine
 10
94.894457
 20
302.370645
 11
88.894457
 21
302.370645
  0
LINE
  5
44B
100
AcDbEntity
  8
M0
100
AcDbLine
 10
68.056674
 20
308.570642
 11
66.762073
 21
305.801442
  0
LINE
  5
44C
100
AcDbEntity
  8
M0
100
AcDbLine
 10
88.894457
 20
300.778734
 11
88.894457
 21
301.370645
  0
LINE
  5
44D
100
AcDbEntity
  8
M0
100
AcDbLine
 10
65.543624
 20
308.099878
 11
65.543624
 21
305.801442
  0
LINE
  5
44E
100
AcDbEntity
  8
M0
100
AcDbLine
 10
88.894457
 20
302.370645
 11
88.894457
 21
302.962555
  0
LINE
  5
44F
100
AcDbEntity
  8
M0
100
AcDbLine
 10
85.894457
 20
301.870645
 11
88.894457
 21
302.962555
  0
LINE
  5
450
100
AcDbEntity
  8
M0
100
AcDbLine
 10
67.819289
 20
306.39682
 11
69.194047
 21
306.39682
  0
LINE
  5
451
100
AcDbEntity
  8
M0
100
AcDbLine
 10
69.015217
 20
306.839892
 11
68.506668
 21
308.099878
  0
LINE
  5
452
100
AcDbEntity
  8
M0
100
AcDbLine
 10
60.628295
 20
308.570642
 11
59.894457
 21
308.570642
  0
LINE
  5
453
100
AcDbEntity
  8
M0
100
AcDbLine
 10
62.843655
 20
308.570642
 11
62.109817
 21
308.570642
  0
LINE
  5
454
100
AcDbEntity
  8
M0
100
AcDbLine
 10
62.109817
 20
305.801442
 11
62.843655
 21
305.801442
  0
LINE
  5
455
100
AcDbEntity
  8
M0
100
AcDbLine
 10
94.894457
 20
301.370645
 11
94.894457
 21
302.370645
  0
ARC
  5
456
100
AcDbEntity
  8
M0
100
AcDbCircle
 10
102.357415
 20
299.770641
 40
0.5
100
AcDbArc
 50
270.0
 51
360.0
  0
ARC
  5
457
100
AcDbEntity
  8
M0
100
AcDbCircle
 10
102.357415
 20
308.370641
 40
0.5
100
AcDbArc
 50
0.0
 51
90.0
  0
LINE
  5
458
100
AcDbEntity
  8
M0
100
AcDbLine
 10
102.857415
 20
308.370641
 11
102.857415
 21
299.770642
  0
LINE
  5
459
100
AcDbEntity
  8
M0
100
AcDbLine
 10
74.363526
 20
305.801442
 11
74.363526
 21
307.01989
  0
LINE
  5
45A
100
AcDbEntity
  8
M0
100
AcDbLine
 10
64.422099
 20
308.099878
 11
65.543624
 21
308.099878
  0
LINE
  5
45B
100
AcDbEntity
  8
M0
100
AcDbLine
 10
97.994456
 20
308.870641
 11
102.357415
 21
308.870641
  0
LINE
  5
45C
100
AcDbEntity
  8
M0
100
AcDbLine
 10
64.422099
 20
308.570642
 11
64.422099
 21
308.099878
  0
LINE
  5
45D
100
AcDbEntity
  8
M0
100
AcDbLine
 10
87.294457
 20
288.870642
 11
95.094457
 21
288.870642
  0
LINE
  5
45E
100
AcDbEntity
  8
M0
100
AcDbLine
 10
72.094457
 20
287.570642
 11
72.094457
 21
286.070643
  0
ARC
  5
45F
100
AcDbEntity
  8
M0
100
AcDbCircle
 10
81.294457
 20
288.470641
 40
0.5
100
AcDbArc
 50
270.0
 51
360.0
  0
LINE
  5
460
100
AcDbEntity
  8
M0
100
AcDbLine
 10
64.494457
 20
287.070641
 11
64.394457
 21
287.070641
  0
LINE
  5
461
100
AcDbEntity
  8
M0
100
AcDbLine
 10
72.194457
 20
287.570642
 11
72.094457
 21
287.570642
  0
ARC
  5
462
100
AcDbEntity
  8
M0
100
AcDbCircle
 10
81.294457
 20
291.370641
 40
0.5
100
AcDbArc
 50
0.0
 51
90.0
  0
LINE
  5
463
100
AcDbEntity
  8
M0
100
AcDbLine
 10
64.494457
 20
286.070643
 11
64.494457
 21
287.070641
  0
LINE
  5
464
100
AcDbEntity
  8
M0
100
AcDbLine
 10
74.363526
 20
307.01989
 11
75.845048
 21
307.01989
  0
LINE
  5
465
100
AcDbEntity
  8
M0
100
AcDbLine
 10
74.363526
 20
308.570642
 11
73.629688
 21
308.570642
  0
LINE
  5
466
100
AcDbEntity
  8
M0
100
AcDbLine
 10
66.277462
 20
308.099878
 11
66.277462
 21
305.801442
  0
LINE
  5
467
100
AcDbEntity
  8
M0
100
AcDbLine
 10
77.160418
 20
305.801442
 11
77.894257
 21
305.801442
  0
LINE
  5
468
100
AcDbEntity
  8
M0
100
AcDbLine
 10
66.277462
 20
308.099878
 11
67.398988
 21
308.099878
  0
LINE
  5
469
100
AcDbEntity
  8
M0
100
AcDbLine
 10
59.894457
 20
305.801442
 11
60.628295
 21
305.801442
  0
LINE
  5
46A
100
AcDbEntity
  8
M0
100
AcDbLine
 10
69.015217
 20
306.839892
 11
67.99812
 21
306.839892
  0
LINE
  5
46B
100
AcDbEntity
  8
M0
100
AcDbLine
 10
76.578886
 20
305.801442
 11
76.578886
 21
308.570642
  0
LINE
  5
46C
100
AcDbEntity
  8
M0
100
AcDbLine
 10
73.629688
 20
308.570642
 11
73.629688
 21
305.801442
  0
LINE
  5
46D
100
AcDbEntity
  8
M0
100
AcDbLine
 10
64.159024
 20
308.570642
 11
64.159024
 21
305.801442
  0
LINE
  5
46E
100
AcDbEntity
  8
M0
100
AcDbLine
 10
67.398988
 20
308.570642
 11
67.398988
 21
308.099878
  0
LINE
  5
46F
100
AcDbEntity
  8
M0
100
AcDbLine
 10
75.845048
 20
305.801442
 11
75.845048
 21
307.01989
  0
LINE
  5
470
100
AcDbEntity
  8
M0
100
AcDbLine
 10
74.363526
 20
307.462962
 11
74.363526
 21
308.570642
  0
LINE
  5
471
100
AcDbEntity
  8
M0
100
AcDbLine
 10
68.647736
 20
291.385005
 11
66.880158
 21
289.617305
  0
LINE
  5
472
100
AcDbEntity
  8
M0
100
AcDbLine
 10
92.608283
 20
294.124335
 11
90.840705
 21
292.356757
  0
LINE
  5
473
100
AcDbEntity
  8
M0
100
AcDbLine
 10
69.885041
 20
288.38
 11
66.7034
 21
291.561763
  0
LINE
  5
474
100
AcDbEntity
  8
M0
100
AcDbLine
 10
92.785041
 20
292.179999
 11
89.6034
 21
295.361762
  0
CIRCLE
  5
475
100
AcDbEntity
  8
M0
100
AcDbCircle
 10
91.194457
 20
314.370641
 40
3.0
  0
LINE
  5
476
100
AcDbEntity
  8
M0
100
AcDbLine
 10
69.708283
 20
290.324336
 11
67.940705
 21
288.556758
  0
LINE
  5
477
100
AcDbEntity
  8
M0
100
AcDbLine
 10
91.547736
 20
295.185004
 11
89.780158
 21
293.417304
  0
LINE
  5
478
100
AcDbEntity
  8
M0
100
AcDbLine
 10
91.547736
 20
315.785004
 11
89.780158
 21
314.017304
  0
LINE
  5
479
100
AcDbEntity
  8
M0
100
AcDbLine
 10
92.608283
 20
314.724335
 11
90.840705
 21
312.956757
  0
LINE
  5
47A
100
AcDbEntity
  8
M0
100
AcDbLine
 10
69.885041
 20
316.579999
 11
66.7034
 21
319.761762
  0
LINE
  5
47B
100
AcDbEntity
  8
M0
100
AcDbLine
 10
69.708283
 20
318.524335
 11
67.940705
 21
316.756757
  0
LINE
  5
47C
100
AcDbEntity
  8
M0
100
AcDbLine
 10
92.785041
 20
312.779999
 11
89.6034
 21
315.961762
  0
LINE
  5
47D
100
AcDbEntity
  8
M0
100
AcDbLine
 10
68.647736
 20
319.585004
 11
66.880158
 21
317.817304
  0
ARC
  5
47E
100
AcDbEntity
  8
M0
100
AcDbCircle
 10
71.760479
 20
307.601422
 40
0.706146
100
AcDbArc
 50
2.247463
 51
18.629353
  0
ARC
  5
47F
100
AcDbEntity
  8
M0
100
AcDbCircle
 10
72.330192
 20
307.621144
 40
0.89999
100
AcDbArc
 50
11.57091
 51
66.454309
  0
ARC
  5
480
100
AcDbEntity
  8
M0
100
AcDbCircle
 10
71.760479
 20
307.269118
 40
1.10768
100
AcDbArc
 50
248.465704
 51
287.487613
  0
ARC
  5
481
100
AcDbEntity
  8
M0
100
AcDbCircle
 10
71.760479
 20
307.102965
 40
1.10768
100
AcDbArc
 50
72.944058
 51
108.768683
  0
ARC
  5
482
100
AcDbEntity
  8
M0
100
AcDbCircle
 10
72.65493
 20
307.158349
 40
1.758441
100
AcDbArc
 50
160.088603
 51
196.481482
  0
ARC
  5
483
100
AcDbEntity
  8
M0
100
AcDbCircle
 10
71.760479
 20
306.798354
 40
0.719992
100
AcDbArc
 50
334.356275
 51
360.0
  0
ARC
  5
484
100
AcDbEntity
  8
M0
100
AcDbCircle
 10
71.592763
 20
306.844094
 40
0.650762
100
AcDbArc
 50
196.481517
 51
248.465722
  0
CIRCLE
  5
485
100
AcDbEntity
  8
M0
100
AcDbCircle
 10
91.194457
 20
293.770641
 40
3.0
  0
ARC
  5
486
100
AcDbEntity
  8
M0
100
AcDbCircle
 10
71.931045
 20
307.658921
 40
0.526148
100
AcDbArc
 50
18.629246
 51
72.943922
  0
CIRCLE
  5
487
100
AcDbEntity
  8
M0
100
AcDbCircle
 10
68.294457
 20
318.170641
 40
3.0
  0
ARC
  5
488
100
AcDbEntity
  8
M0
100
AcDbCircle
 10
71.613466
 20
307.535587
 40
0.650762
100
AcDbArc
 50
108.768698
 51
160.088638
  0
ARC
  5
489
100
AcDbEntity
  8
M0
100
AcDbCircle
 10
72.351992
 20
306.735601
 40
0.886144
100
AcDbArc
 50
292.42259
 51
346.150643
  0
CIRCLE
  5
48A
100
AcDbEntity
  8
M0
100
AcDbCircle
 10
68.294457
 20
289.970642
 40
3.0
  0
ARC
  5
48B
100
AcDbEntity
  8
M0
100
AcDbCircle
 10
71.760479
 20
307.5045
 40
1.481521
100
AcDbArc
 50
4.824937
 51
11.570943
  0
LINE
  5
48C
100
AcDbEntity
  8
M0
100
AcDbLine
 10
60.628295
 20
307.01989
 11
62.109817
 21
307.01989
  0
LINE
  5
48D
100
AcDbEntity
  8
M0
100
AcDbLine
 10
69.43435
 20
305.801442
 11
69.194047
 21
306.39682
  0
LINE
  5
48E
100
AcDbEntity
  8
M0
100
AcDbLine
 10
63.425186
 20
305.801442
 11
64.159024
 21
305.801442
  0
ARC
  5
48F
100
AcDbEntity
  8
M0
100
AcDbCircle
 10
71.92663
 20
307.158349
 40
1.799979
100
AcDbArc
 50
161.72132
 51
190.751551
  0
ARC
  5
490
100
AcDbEntity
  8
M0
100
AcDbCircle
 10
71.400736
 20
307.332056
 40
1.246139
100
AcDbArc
 50
109.456972
 51
161.721309
  0
LINE
  5
491
100
AcDbEntity
  8
M0
100
AcDbLine
 10
73.23675
 20
307.629114
 11
72.466081
 21
307.629114
  0
LINE
  5
492
100
AcDbEntity
  8
M0
100
AcDbLine
 10
62.109817
 20
308.570642
 11
62.109817
 21
307.462962
  0
LINE
  5
493
100
AcDbEntity
  8
M0
100
AcDbLine
 10
68.956663
 20
308.570642
 11
68.056674
 21
308.570642
  0
LINE
  5
494
100
AcDbEntity
  8
M0
100
AcDbLine
 10
60.628295
 20
308.570642
 11
60.628295
 21
307.462962
  0
LINE
  5
495
100
AcDbEntity
  8
M0
100
AcDbLine
 10
67.99812
 20
306.839892
 11
68.506668
 21
308.099878
  0
LINE
  5
496
100
AcDbEntity
  8
M0
100
AcDbLine
 10
62.843655
 20
308.570642
 11
62.843655
 21
305.801442
  0
LINE
  5
497
100
AcDbEntity
  8
M0
100
AcDbLine
 10
66.762073
 20
305.801442
 11
67.578986
 21
305.801442
  0
LINE
  5
498
100
AcDbEntity
  8
M0
100
AcDbLine
 10
60.628295
 20
307.01989
 11
60.628295
 21
305.801442
  0
LINE
  5
499
100
AcDbEntity
  8
M0
100
AcDbLine
 10
73.629688
 20
305.801442
 11
74.363526
 21
305.801442
  0
LINE
  5
49A
100
AcDbEntity
  8
M0
100
AcDbLine
 10
75.845048
 20
305.801442
 11
76.578886
 21
305.801442
  0
LINE
  5
49B
100
AcDbEntity
  8
M0
100
AcDbLine
 10
62.109817
 20
307.01989
 11
62.109817
 21
305.801442
  0
TEXT
  5
49C
100
AcDbEntity
  8
M0
100
AcDbText
 10
88.41945
 20
304.770642
 40
2.0
  1
ＯＦＦ
 41
0.625
  7
STANDARD
100
AcDbText
  0
LINE
  5
49D
100
AcDbEntity
  8
M0
100
AcDbLine
 10
64.159024
 20
308.570642
 11
63.425186
 21
308.570642
  0
LINE
  5
49E
100
AcDbEntity
  8
M0
100
AcDbLine
 10
62.109817
 20
307.462962
 11
60.628295
 21
307.462962
  0
TEXT
  5
49F
100
AcDbEntity
  8
M0
100
AcDbText
 10
66.919452
 20
296.570645
 40
2.0
  1
Ｅ２
 41
0.625
  7
STANDARD
100
AcDbText
  0
LINE
  5
4A0
100
AcDbEntity
  8
M0
100
AcDbLine
 10
77.160418
 20
305.801442
 11
77.160418
 21
308.570642
  0
ARC
  5
4A1
100
AcDbEntity
  8
M0
100
AcDbCircle
 10
71.935229
 20
306.714464
 40
0.526148
100
AcDbArc
 50
287.487588
 51
334.356243
  0
ARC
  5
4A2
100
AcDbEntity
  8
M0
100
AcDbCircle
 10
71.409718
 20
307.060195
 40
1.273831
100
AcDbArc
 50
190.75155
 51
252.447271
  0
ARC
  5
4A3
100
AcDbEntity
  8
M0
100
AcDbCircle
 10
71.760479
 20
306.88143
 40
1.495367
100
AcDbArc
 50
346.150651
 51
356.815254
  0
TEXT
  5
4A4
100
AcDbEntity
  8
M0
100
AcDbText
 10
60.019449
 20
300.070645
 40
2.0
  1
ＣＯＮＴＡＣＴＯＲ
 41
0.625
  7
STANDARD
100
AcDbText
  0
TEXT
  5
4A5
100
AcDbEntity
  8
M0
100
AcDbText
 10
66.919452
 20
309.570643
 40
2.0
  1
Ｅ１
 41
0.625
  7
STANDARD
100
AcDbText
  0
ARC
  5
4A6
100
AcDbEntity
  8
M0
100
AcDbCircle
 10
71.760479
 20
308.169108
 40
2.436895
100
AcDbArc
 50
252.447278
 51
292.42262
  0
LINE
  5
4A7
100
AcDbEntity
  8
M0
100
AcDbLine
 10
98.394457
 20
321.070641
 11
98.394457
 21
311.270641
  0
LINE
  5
4A8
100
AcDbEntity
  8
M0
100
AcDbLine
 10
95.094457
 20
310.270641
 11
95.094457
 21
321.070641
  0
LINE
  5
4A9
100
AcDbEntity
  8
M0
100
AcDbLine
 10
98.394457
 20
311.270641
 11
100.894457
 21
311.270641
  0
LINE
  5
4AA
100
AcDbEntity
  8
M0
100
AcDbLine
 10
87.294457
 20
321.070641
 11
87.294457
 21
310.270641
  0
LINE
  5
4AB
100
AcDbEntity
  8
M0
100
AcDbLine
 10
64.394457
 20
314.070641
 11
72.194457
 21
314.070641
  0
LINE
  5
4AC
100
AcDbEntity
  8
M0
100
AcDbLine
 10
100.894457
 20
309.070641
 11
98.394457
 21
309.070641
  0
LINE
  5
4AD
100
AcDbEntity
  8
M0
100
AcDbLine
 10
87.294457
 20
310.270641
 11
95.094457
 21
310.270641
  0
LINE
  5
4AE
100
AcDbEntity
  8
M0
100
AcDbLine
 10
64.394457
 20
322.070641
 11
64.394457
 21
321.070641
  0
LINE
  5
4AF
100
AcDbEntity
  8
M0
100
AcDbLine
 10
72.194457
 20
321.070641
 11
72.194457
 21
322.070641
  0
LINE
  5
4B0
100
AcDbEntity
  8
M0
100
AcDbLine
 10
79.894457
 20
291.970642
 11
79.894457
 21
291.870641
  0
LINE
  5
4B1
100
AcDbEntity
  8
M0
100
AcDbLine
 10
102.894457
 20
310.270641
 11
102.894457
 21
310.070641
  0
LINE
  5
4B2
100
AcDbEntity
  8
M0
100
AcDbLine
 10
100.894457
 20
311.270641
 11
101.894457
 21
311.270641
  0
LINE
  5
4B3
100
AcDbEntity
  8
M0
100
AcDbLine
 10
81.794457
 20
291.970642
 11
81.794457
 21
291.870641
  0
LINE
  5
4B4
100
AcDbEntity
  8
M0
100
AcDbLine
 10
101.894457
 20
309.070641
 11
100.894457
 21
309.070641
  0
ARC
  5
4B5
100
AcDbEntity
  8
M0
100
AcDbCircle
 10
76.694457
 20
291.370641
 40
0.5
100
AcDbArc
 50
90.0
 51
180.0
  0
ARC
  5
4B6
100
AcDbEntity
  8
M0
100
AcDbCircle
 10
101.894457
 20
310.070641
 40
1.0
100
AcDbArc
 50
270.0
 51
360.0
  0
LINE
  5
4B7
100
AcDbEntity
  8
M0
100
AcDbLine
 10
94.944457
 20
317.620641
 11
94.944457
 21
311.120641
  0
ARC
  5
4B8
100
AcDbEntity
  8
M0
100
AcDbCircle
 10
97.394457
 20
321.070641
 40
1.0
100
AcDbArc
 50
0.0
 51
90.0
  0
ARC
  5
4B9
100
AcDbEntity
  8
M0
100
AcDbCircle
 10
98.394457
 20
308.570641
 40
0.5
100
AcDbArc
 50
90.0
 51
180.0
  0
ARC
  5
4BA
100
AcDbEntity
  8
M0
100
AcDbCircle
 10
76.694457
 20
288.470641
 40
0.5
100
AcDbArc
 50
180.0
 51
270.0
  0
ARC
  5
4BB
100
AcDbEntity
  8
M0
100
AcDbCircle
 10
101.894457
 20
310.270641
 40
1.0
100
AcDbArc
 50
0.0
 51
90.0
  0
LINE
  5
4BC
100
AcDbEntity
  8
M0
100
AcDbLine
 10
55.894457
 20
322.070641
 11
101.894457
 21
322.070641
  0
LINE
  5
4BD
100
AcDbEntity
  8
M0
100
AcDbLine
 10
55.894457
 20
307.270641
 11
55.394458
 21
307.270641
  0
LINE
  5
4BE
100
AcDbEntity
  8
M0
100
AcDbLine
 10
72.194457
 20
314.070641
 11
72.194457
 21
321.070641
  0
LINE
  5
4BF
100
AcDbEntity
  8
M0
100
AcDbLine
 10
87.944457
 20
318.120642
 11
94.444457
 21
318.120642
  0
LINE
  5
4C0
100
AcDbEntity
  8
M0
100
AcDbLine
 10
94.444457
 20
310.620641
 11
87.944457
 21
310.620641
  0
LINE
  5
4C1
100
AcDbEntity
  8
M0
100
AcDbLine
 10
64.394457
 20
321.070641
 11
64.394457
 21
314.070641
  0
LINE
  5
4C2
100
AcDbEntity
  8
M0
100
AcDbLine
 10
102.894457
 20
304.070642
 11
102.857415
 21
304.070642
  0
LINE
  5
4C3
100
AcDbEntity
  8
M0
100
AcDbLine
 10
65.044457
 20
321.920641
 11
71.544457
 21
321.920641
  0
ARC
  5
4C4
100
AcDbEntity
  8
M0
100
AcDbCircle
 10
87.944457
 20
290.520641
 40
0.5
100
AcDbArc
 50
180.0
 51
270.0
  0
LINE
  5
4C5
100
AcDbEntity
  8
M0
100
AcDbLine
 10
71.544457
 20
286.220642
 11
65.044457
 21
286.220642
  0
ARC
  5
4C6
100
AcDbEntity
  8
M0
100
AcDbCircle
 10
71.544457
 20
293.220641
 40
0.5
100
AcDbArc
 50
0.0
 51
90.0
  0
ARC
  5
4C7
100
AcDbEntity
  8
M0
100
AcDbCircle
 10
71.544457
 20
286.720641
 40
0.5
100
AcDbArc
 50
270.0
 51
360.0
  0
LINE
  5
4C8
100
AcDbEntity
  8
M0
100
AcDbLine
 10
64.544457
 20
286.720641
 11
64.544457
 21
293.220641
  0
ARC
  5
4C9
100
AcDbEntity
  8
M0
100
AcDbCircle
 10
87.944457
 20
297.020641
 40
0.5
100
AcDbArc
 50
90.0
 51
180.0
  0
LINE
  5
4CA
100
AcDbEntity
  8
M0
100
AcDbLine
 10
64.544457
 20
314.920641
 11
64.544457
 21
321.420641
  0
ARC
  5
4CB
100
AcDbEntity
  8
M0
100
AcDbCircle
 10
65.044457
 20
321.420641
 40
0.5
100
AcDbArc
 50
90.0
 51
180.0
  0
LINE
  5
4CC
100
AcDbEntity
  8
M0
100
AcDbLine
 10
72.044457
 20
321.420641
 11
72.044457
 21
314.920641
  0
LINE
  5
4CD
100
AcDbEntity
  8
M0
100
AcDbLine
 10
65.044457
 20
293.720642
 11
71.544457
 21
293.720642
  0
LINE
  5
4CE
100
AcDbEntity
  8
M0
100
AcDbLine
 10
72.044457
 20
293.220641
 11
72.044457
 21
286.720643
  0
LINE
  5
4CF
100
AcDbEntity
  8
M0
100
AcDbLine
 10
71.544457
 20
314.420641
 11
65.044457
 21
314.420641
  0
ARC
  5
4D0
100
AcDbEntity
  8
M0
100
AcDbCircle
 10
65.044457
 20
314.920641
 40
0.5
100
AcDbArc
 50
180.0
 51
270.0
  0
ARC
  5
4D1
100
AcDbEntity
  8
M0
100
AcDbCircle
 10
87.944457
 20
317.620641
 40
0.5
100
AcDbArc
 50
90.0
 51
180.0
  0
ARC
  5
4D2
100
AcDbEntity
  8
M0
100
AcDbCircle
 10
87.944457
 20
311.120641
 40
0.5
100
AcDbArc
 50
180.0
 51
270.0
  0
LINE
  5
4D3
100
AcDbEntity
  8
M0
100
AcDbLine
 10
94.444457
 20
290.020643
 11
87.944457
 21
290.020643
  0
ARC
  5
4D4
100
AcDbEntity
  8
M0
100
AcDbCircle
 10
94.444457
 20
290.520641
 40
0.5
100
AcDbArc
 50
270.0
 51
360.0
  0
LINE
  5
4D5
100
AcDbEntity
  8
M0
100
AcDbLine
 10
81.794457
 20
291.870641
 11
81.794457
 21
290.07064
  0
LINE
  5
4D6
100
AcDbEntity
  8
M0
100
AcDbLine
 10
87.444457
 20
290.52064
 11
87.444457
 21
297.020641
  0
ARC
  5
4D7
100
AcDbEntity
  8
M0
100
AcDbCircle
 10
94.444457
 20
297.020641
 40
0.5
100
AcDbArc
 50
0.0
 51
90.0
  0
ARC
  5
4D8
100
AcDbEntity
  8
M0
100
AcDbCircle
 10
71.544457
 20
314.920641
 40
0.5
100
AcDbArc
 50
270.0
 51
360.0
  0
ARC
  5
4D9
100
AcDbEntity
  8
M0
100
AcDbCircle
 10
71.544457
 20
321.420641
 40
0.5
100
AcDbArc
 50
0.0
 51
90.0
  0
ARC
  5
4DA
100
AcDbEntity
  8
M0
100
AcDbCircle
 10
65.044457
 20
293.220641
 40
0.5
100
AcDbArc
 50
90.0
 51
180.0
  0
LINE
  5
4DB
100
AcDbEntity
  8
M0
100
AcDbLine
 10
94.944457
 20
297.020641
 11
94.944457
 21
290.52064
  0
LINE
  5
4DC
100
AcDbEntity
  8
M0
100
AcDbLine
 10
87.944457
 20
297.520641
 11
94.444457
 21
297.520641
  0
ARC
  5
4DD
100
AcDbEntity
  8
M0
100
AcDbCircle
 10
65.044457
 20
286.720641
 40
0.5
100
AcDbArc
 50
180.0
 51
270.0
  0
LINE
  5
4DE
100
AcDbEntity
  8
M0
100
AcDbLine
 10
95.094457
 20
319.270641
 11
87.294457
 21
319.270641
  0
LINE
  5
4DF
100
AcDbEntity
  8
M0
100
AcDbLine
 10
81.794457
 20
288.470643
 11
81.794457
 21
288.97064
  0
LINE
  5
4E0
100
AcDbEntity
  8
M0
100
AcDbLine
 10
54.894457
 20
287.070641
 11
54.894457
 21
293.570641
  0
LINE
  5
4E1
100
AcDbEntity
  8
M0
100
AcDbLine
 10
76.694457
 20
291.870641
 11
81.294457
 21
291.870641
  0
LINE
  5
4E2
100
AcDbEntity
  8
M0
100
AcDbLine
 10
81.294457
 20
287.970642
 11
76.694457
 21
287.970642
  0
LINE
  5
4E3
100
AcDbEntity
  8
M0
100
AcDbLine
 10
82.094457
 20
291.770641
 11
82.094457
 21
290.07064
  0
LINE
  5
4E4
100
AcDbEntity
  8
M0
100
AcDbLine
 10
81.794457
 20
291.370641
 11
81.794457
 21
288.97064
  0
LINE
  5
4E5
100
AcDbEntity
  8
M0
100
AcDbLine
 10
55.394458
 20
300.870642
 11
55.894457
 21
300.870642
  0
LINE
  5
4E6
100
AcDbEntity
  8
M0
100
AcDbLine
 10
102.894457
 20
321.070641
 11
102.894457
 21
287.070641
  0
LINE
  5
4E7
100
AcDbEntity
  8
M0
100
AcDbLine
 10
55.894457
 20
300.870642
 11
55.894457
 21
307.270641
  0
LINE
  5
4E8
100
AcDbEntity
  8
M0
100
AcDbLine
 10
82.094457
 20
287.570642
 11
76.194457
 21
287.570642
  0
LINE
  5
4E9
100
AcDbEntity
  8
M0
100
AcDbLine
 10
58.394456
 20
286.070643
 11
55.894457
 21
286.070643
  0
LINE
  5
4EA
100
AcDbEntity
  8
M0
100
AcDbLine
 10
54.894457
 20
287.070641
 11
54.894457
 21
321.070641
  0
LINE
  5
4EB
100
AcDbEntity
  8
M0
100
AcDbLine
 10
102.857415
 20
304.070642
 11
102.894457
 21
304.070642
  0
ARC
  5
4EC
100
AcDbEntity
  8
M0
100
AcDbCircle
 10
63.394457
 20
287.070641
 40
1.0
100
AcDbArc
 50
270.0
 51
360.0
  0
ARC
  5
4ED
100
AcDbEntity
  8
M0
100
AcDbCircle
 10
55.894457
 20
287.070641
 40
1.0
100
AcDbArc
 50
180.0
 51
270.0
  0
ARC
  5
4EE
100
AcDbEntity
  8
M0
100
AcDbCircle
 10
75.194457
 20
287.070641
 40
1.0
100
AcDbArc
 50
270.0
 51
360.0
  0
ARC
  5
4EF
100
AcDbEntity
  8
M0
100
AcDbCircle
 10
101.894457
 20
287.070641
 40
1.0
100
AcDbArc
 50
270.0
 51
360.0
  0
ARC
  5
4F0
100
AcDbEntity
  8
M0
100
AcDbCircle
 10
71.760479
 20
306.313744
 40
2.326127
100
AcDbArc
 50
66.454301
 51
109.456969
  0
ARC
  5
4F1
100
AcDbEntity
  8
M0
100
AcDbCircle
 10
73.194457
 20
287.070641
 40
1.0
100
AcDbArc
 50
180.0
 51
270.0
  0
ARC
  5
4F2
100
AcDbEntity
  8
M0
100
AcDbCircle
 10
55.394457
 20
300.370641
 40
0.5
100
AcDbArc
 50
90.0
 51
180.0
  0
ARC
  5
4F3
100
AcDbEntity
  8
M0
100
AcDbCircle
 10
98.394457
 20
299.570641
 40
0.5
100
AcDbArc
 50
180.0
 51
270.0
  0
ARC
  5
4F4
100
AcDbEntity
  8
M0
100
AcDbCircle
 10
97.394457
 20
287.070641
 40
1.0
100
AcDbArc
 50
270.0
 51
360.0
  0
ARC
  5
4F5
100
AcDbEntity
  8
M0
100
AcDbCircle
 10
101.894457
 20
298.070641
 40
1.0
100
AcDbArc
 50
0.0
 51
90.0
  0
ARC
  5
4F6
100
AcDbEntity
  8
M0
100
AcDbCircle
 10
86.294457
 20
287.070641
 40
1.0
100
AcDbArc
 50
270.0
 51
360.0
  0
ARC
  5
4F7
100
AcDbEntity
  8
M0
100
AcDbCircle
 10
83.094457
 20
287.070641
 40
1.0
100
AcDbArc
 50
180.0
 51
270.0
  0
ARC
  5
4F8
100
AcDbEntity
  8
M0
100
AcDbCircle
 10
101.894457
 20
297.870641
 40
1.0
100
AcDbArc
 50
270.0
 51
360.0
  0
ARC
  5
4F9
100
AcDbEntity
  8
M0
100
AcDbCircle
 10
96.094457
 20
287.070641
 40
1.0
100
AcDbArc
 50
180.0
 51
270.0
  0
ARC
  5
4FA
100
AcDbEntity
  8
M0
100
AcDbCircle
 10
94.444457
 20
311.120641
 40
0.5
100
AcDbArc
 50
270.0
 51
360.0
  0
LINE
  5
4FB
100
AcDbEntity
  8
M0
100
AcDbLine
 10
102.357415
 20
299.270641
 11
97.994456
 21
299.270641
  0
ARC
  5
4FC
100
AcDbEntity
  8
M0
100
AcDbCircle
 10
101.894457
 20
321.070641
 40
1.0
100
AcDbArc
 50
0.0
 51
90.0
  0
LINE
  5
4FD
100
AcDbEntity
  8
M0
100
AcDbLine
 10
100.894457
 20
296.870641
 11
101.894457
 21
296.870641
  0
LINE
  5
4FE
100
AcDbEntity
  8
M0
100
AcDbLine
 10
102.894457
 20
298.070641
 11
102.894457
 21
297.870642
  0
ARC
  5
4FF
100
AcDbEntity
  8
M0
100
AcDbCircle
 10
94.444457
 20
317.620641
 40
0.5
100
AcDbArc
 50
0.0
 51
90.0
  0
LINE
  5
500
100
AcDbEntity
  8
M0
100
AcDbLine
 10
100.894457
 20
299.070641
 11
101.894457
 21
299.070641
  0
ARC
  5
501
100
AcDbEntity
  8
M0
100
AcDbCircle
 10
86.294457
 20
321.070641
 40
1.0
100
AcDbArc
 50
0.0
 51
90.0
  0
ARC
  5
502
100
AcDbEntity
  8
M0
100
AcDbCircle
 10
73.194457
 20
321.070641
 40
1.0
100
AcDbArc
 50
90.0
 51
180.0
  0
LINE
  5
503
100
AcDbEntity
  8
M0
100
AcDbLine
 10
87.444457
 20
311.120641
 11
87.444457
 21
317.620641
  0
ARC
  5
504
100
AcDbEntity
  8
M0
100
AcDbCircle
 10
55.894457
 20
321.070641
 40
1.0
100
AcDbArc
 50
90.0
 51
180.0
  0
ARC
  5
505
100
AcDbEntity
  8
M0
100
AcDbCircle
 10
55.394457
 20
307.770641
 40
0.5
100
AcDbArc
 50
180.0
 51
270.0
  0
ARC
  5
506
100
AcDbEntity
  8
M0
100
AcDbCircle
 10
96.094457
 20
321.070641
 40
1.0
100
AcDbArc
 50
90.0
 51
180.0
  0
ARC
  5
507
100
AcDbEntity
  8
M0
100
AcDbCircle
 10
63.394457
 20
321.070641
 40
1.0
100
AcDbArc
 50
0.0
 51
90.0
  0
LINE
  5
508
100
AcDbEntity
  8
M0
100
AcDbLine
 10
76.194457
 20
291.970642
 11
76.194457
 21
287.070641
  0
LINE
  5
509
100
AcDbEntity
  8
M0
100
AcDbLine
 10
72.194457
 20
287.070641
 11
72.194457
 21
294.070641
  0
LINE
  5
50A
100
AcDbEntity
  8
M0
100
AcDbLine
 10
82.094457
 20
287.070641
 11
82.094457
 21
291.970642
  0
LINE
  5
50B
100
AcDbEntity
  8
M0
100
AcDbLine
 10
64.394457
 20
294.070641
 11
64.394457
 21
287.070641
  0
LINE
  5
50C
100
AcDbEntity
  8
M0
100
AcDbLine
 10
101.894457
 20
286.070643
 11
55.894457
 21
286.070643
  0
LINE
  5
50D
100
AcDbEntity
  8
M0
100
AcDbLine
 10
82.094457
 20
291.970642
 11
76.194457
 21
291.970642
  0
LINE
  5
50E
100
AcDbEntity
  8
M0
100
AcDbLine
 10
72.194457
 20
294.070641
 11
64.394457
 21
294.070641
  0
LINE
  5
50F
100
AcDbEntity
  8
M0
100
AcDbLine
 10
98.394457
 20
296.870641
 11
98.394457
 21
287.070641
  0
LINE
  5
510
100
AcDbEntity
  8
M0
100
AcDbLine
 10
97.894456
 20
308.570641
 11
97.894456
 21
299.57064
  0
LINE
  5
511
100
AcDbEntity
  8
M0
100
AcDbLine
 10
100.894457
 20
296.870641
 11
98.394457
 21
296.870641
  0
LINE
  5
512
100
AcDbEntity
  8
M0
100
AcDbLine
 10
95.094457
 20
297.870642
 11
87.294457
 21
297.870642
  0
LINE
  5
513
100
AcDbEntity
  8
M0
100
AcDbLine
 10
87.294457
 20
297.870642
 11
87.294457
 21
287.070641
  0
LINE
  5
514
100
AcDbEntity
  8
M0
100
AcDbLine
 10
98.394457
 20
299.070641
 11
100.894457
 21
299.070641
  0
LINE
  5
515
100
AcDbEntity
  8
M0
100
AcDbLine
 10
95.094457
 20
287.070641
 11
95.094457
 21
297.870642
  0
LINE
  5
516
100
AcDbEntity
  8
M0
100
AcDbLine
 10
58.394457
 20
312.570642
 11
85.394457
 21
312.570642
  0
LINE
  5
517
100
AcDbEntity
  8
M0
100
AcDbLine
 10
57.894457
 20
312.070642
 11
57.894457
 21
296.070642
  0
LINE
  5
518
100
AcDbEntity
  8
M0
100
AcDbLine
 10
58.394457
 20
295.570642
 11
85.394457
 21
295.570642
  0
LINE
  5
519
100
AcDbEntity
  8
M0
100
AcDbLine
 10
95.894457
 20
300.070642
 11
95.894457
 21
308.070642
  0
LINE
  5
51A
100
AcDbEntity
  8
M0
100
AcDbLine
 10
95.394457
 20
299.570642
 11
86.394457
 21
299.570642
  0
LINE
  5
51B
100
AcDbEntity
  8
M0
100
AcDbLine
 10
95.394457
 20
308.570642
 11
86.394457
 21
308.570642
  0
LINE
  5
51C
100
AcDbEntity
  8
M0
100
AcDbLine
 10
85.894457
 20
296.070642
 11
85.894457
 21
299.070642
  0
LINE
  5
51D
100
AcDbEntity
  8
M0
100
AcDbLine
 10
85.894457
 20
309.070642
 11
85.894457
 21
312.070642
  0
ARC
  5
51E
100
AcDbEntity
  8
M0
100
AcDbCircle
 10
58.394457
 20
312.070642
 40
0.5
100
AcDbArc
 50
90.0
 51
180.0
  0
ARC
  5
51F
100
AcDbEntity
  8
M0
100
AcDbCircle
 10
85.394457
 20
312.070642
 40
0.5
100
AcDbArc
 50
0.0
 51
90.0
  0
ARC
  5
520
100
AcDbEntity
  8
M0
100
AcDbCircle
 10
86.394457
 20
309.070642
 40
0.5
100
AcDbArc
 50
180.0
 51
270.0
  0
ARC
  5
521
100
AcDbEntity
  8
M0
100
AcDbCircle
 10
95.394457
 20
308.070642
 40
0.5
100
AcDbArc
 50
0.0
 51
90.0
  0
ARC
  5
522
100
AcDbEntity
  8
M0
100
AcDbCircle
 10
95.394457
 20
300.070642
 40
0.5
100
AcDbArc
 50
270.0
 51
360.0
  0
ARC
  5
523
100
AcDbEntity
  8
M0
100
AcDbCircle
 10
86.394457
 20
299.070642
 40
0.5
100
AcDbArc
 50
90.0
 51
180.0
  0
ARC
  5
524
100
AcDbEntity
  8
M0
100
AcDbCircle
 10
85.394457
 20
296.070642
 40
0.5
100
AcDbArc
 50
270.0
 51
360.0
  0
ARC
  5
525
100
AcDbEntity
  8
M0
100
AcDbCircle
 10
58.394457
 20
296.070642
 40
0.5
100
AcDbArc
 50
180.0
 51
270.0
  0
HATCH
  5
526
100
AcDbEntity
  8
M0
 62
     7
100
AcDbHatch
 10
0.0
 20
0.0
210
0.0
220
0.0
230
1.0
  2
SOLID
 70
     1
 71
     0
 91
        1
 92
        1
 93
       12
 72
     1
 10
74.363526
 20
305.801442
 11
74.363526
 21
307.01989
 72
     1
 10
74.363526
 20
307.01989
 11
75.845048
 21
307.01989
 72
     1
 10
75.845048
 20
307.01989
 11
75.845048
 21
305.801442
 72
     1
 10
75.845048
 20
305.801442
 11
76.578886
 21
305.801442
 72
     1
 10
76.578886
 20
305.801442
 11
76.578886
 21
308.570642
 72
     1
 10
76.578886
 20
308.570642
 11
75.845048
 21
308.570642
 72
     1
 10
75.845048
 20
308.570642
 11
75.845048
 21
307.462962
 72
     1
 10
75.845048
 20
307.462962
 11
74.363526
 21
307.462962
 72
     1
 10
74.363526
 20
307.462962
 11
74.363526
 21
308.570642
 72
     1
 10
74.363526
 20
308.570642
 11
73.629688
 21
308.570642
 72
     1
 10
73.629688
 20
308.570642
 11
73.629688
 21
305.801442
 72
     1
 10
73.629688
 20
305.801442
 11
74.363526
 21
305.801442
 97
        0
 75
     0
 76
     1
 98
        1
 10
0.0
 20
0.0
  0
HATCH
  5
527
100
AcDbEntity
  8
M0
 62
     7
100
AcDbHatch
 10
0.0
 20
0.0
210
0.0
220
0.0
230
1.0
  2
SOLID
 70
     1
 71
     0
 91
        1
 92
        1
 93
        4
 72
     1
 10
77.894257
 20
305.801442
 11
77.894257
 21
308.570642
 72
     1
 10
77.894257
 20
308.570642
 11
77.160418
 21
308.570642
 72
     1
 10
77.160418
 20
308.570642
 11
77.160418
 21
305.801442
 72
     1
 10
77.160418
 20
305.801442
 11
77.894257
 21
305.801442
 97
        0
 75
     0
 76
     1
 98
        1
 10
0.0
 20
0.0
  0
CIRCLE
  5
528
100
AcDbEntity
  8
M0
 62
     7
100
AcDbCircle
 10
105.894456
 20
130.159254
 40
2.0
  0
CIRCLE
  5
529
100
AcDbEntity
  8
M0
 62
     7
100
AcDbCircle
 10
51.894457
 20
189.159254
 40
2.0
  0
CIRCLE
  5
52A
100
AcDbEntity
  8
M0
 62
     7
100
AcDbCircle
 10
51.894457
 20
189.159246
 40
1.7
  0
CIRCLE
  5
52B
100
AcDbEntity
  8
M0
 62
     7
100
AcDbCircle
 10
105.894456
 20
130.159254
 40
1.7
  0
LINE
  5
52C
100
AcDbEntity
  8
M0
  6
DIVIDE
 62
     7
100
AcDbLine
 10
61.924457
 20
203.659254
 11
61.924457
 21
194.659255
  0
LINE
  5
52D
100
AcDbEntity
  8
M0
  6
DIVIDE
 62
     7
100
AcDbLine
 10
95.864456
 20
203.659254
 11
95.864456
 21
194.659255
  0
LINE
  5
52E
100
AcDbEntity
  8
M0
  6
DIVIDE
 62
     7
100
AcDbLine
 10
47.49446
 20
194.659255
 11
47.49446
 21
123.659252
  0
LINE
  5
52F
100
AcDbEntity
  8
M0
  6
DIVIDE
 62
     7
100
AcDbLine
 10
61.924457
 20
194.659255
 11
47.49446
 21
194.659255
  0
LINE
  5
530
100
AcDbEntity
  8
M0
  6
DIVIDE
 62
     7
100
AcDbLine
 10
59.394456
 20
194.659255
 11
59.594456
 21
194.659255
  0
LINE
  5
531
100
AcDbEntity
  8
M0
  6
DIVIDE
 62
     7
100
AcDbLine
 10
59.194457
 20
194.659255
 11
59.594456
 21
194.659255
  0
ARC
  5
532
100
AcDbEntity
  8
M0
  6
DIVIDE
 62
     7
100
AcDbCircle
 10
58.894457
 20
193.659254
 40
1.0
100
AcDbArc
 50
81.373073
 51
90.0
  0
LINE
  5
533
100
AcDbEntity
  8
M0
  6
DASHDOT
 62
     7
100
AcDbLine
 10
55.991861
 20
189.159254
 11
47.797052
 21
189.159254
  0
LINE
  5
534
100
AcDbEntity
  8
M0
  6
DASHDOT
 62
     7
100
AcDbLine
 10
51.894449
 20
193.25665
 11
51.894464
 21
185.061841
  0
LINE
  5
535
100
AcDbEntity
  8
M0
  6
DASHDOT
 62
     7
100
AcDbLine
 10
109.991861
 20
130.159254
 11
101.797052
 21
130.159254
  0
LINE
  5
536
100
AcDbEntity
  8
M0
  6
DASHDOT
 62
     7
100
AcDbLine
 10
105.894449
 20
134.25665
 11
105.894464
 21
125.061841
  0
LINE
  5
537
100
AcDbEntity
  8
M0
  6
DIVIDE
 62
     7
100
AcDbLine
 10
110.294454
 20
123.659252
 11
47.49446
 21
123.659252
  0
LINE
  5
538
100
AcDbEntity
  8
M0
  6
DIVIDE
 62
     7
100
AcDbLine
 10
95.864456
 20
194.659255
 11
110.294454
 21
194.659255
  0
LINE
  5
539
100
AcDbEntity
  8
M0
  6
DIVIDE
 62
     7
100
AcDbLine
 10
95.864456
 20
203.659254
 11
61.924457
 21
203.659254
  0
LINE
  5
53A
100
AcDbEntity
  8
M0
  6
DIVIDE
 62
     7
100
AcDbLine
 10
110.294454
 20
194.659255
 11
110.294454
 21
123.659252
  0
LINE
  5
53B
100
AcDbEntity
  8
M1
 62
     2
100
AcDbLine
 10
15.384616
 20
15.384616
 11
15.384616
 21
438.461555
  0
LINE
  5
53C
100
AcDbEntity
  8
M1
 62
     2
100
AcDbLine
 10
15.384616
 20
438.461555
 11
307.692319
 21
438.461555
  0
LINE
  5
53D
100
AcDbEntity
  8
M1
 62
     2
100
AcDbLine
 10
307.692319
 20
438.461555
 11
307.692319
 21
15.384616
  0
LINE
  5
53E
100
AcDbEntity
  8
M1
 62
     2
100
AcDbLine
 10
307.692319
 20
15.384616
 11
15.384616
 21
15.384616
  0
LINE
  5
53F
100
AcDbEntity
  8
M1
 62
     2
100
AcDbLine
 10
307.692319
 20
30.769232
 11
153.846159
 21
30.769232
  0
LINE
  5
540
100
AcDbEntity
  8
M1
 62
     2
100
AcDbLine
 10
307.692319
 20
46.153848
 11
153.846159
 21
46.153848
  0
LINE
  5
541
100
AcDbEntity
  8
M1
 62
     2
100
AcDbLine
 10
307.692319
 20
61.538464
 11
153.846159
 21
61.538464
  0
LINE
  5
542
100
AcDbEntity
  8
M1
 62
     2
100
AcDbLine
 10
153.846159
 20
15.384616
 11
153.846159
 21
61.538464
  0
TEXT
  5
543
100
AcDbEntity
  8
M1
 62
     2
100
AcDbText
 10
157.692313
 20
19.23077
 40
7.692308
  1
適　用；
 41
1.0
  7
STANDARD
100
AcDbText
  0
TEXT
  5
544
100
AcDbEntity
  8
M1
 62
     2
100
AcDbText
 10
157.692313
 20
50.000002
 40
7.692308
  1
登録名：
 41
1.0
  7
STANDARD
100
AcDbText
  0
TEXT
  5
545
100
AcDbEntity
  8
M1
 62
     2
100
AcDbText
 10
194.615392
 20
50.000002
 40
7.692308
  1
ＤＭＨＳ２０ＬＲ０１
 41
0.5
  7
STANDARD
100
AcDbText
  0
TEXT
  5
546
100
AcDbEntity
  8
M1
 62
     2
100
AcDbText
 10
157.692313
 20
34.615386
 40
7.692308
  1
形　式；
 41
1.0
  7
STANDARD
100
AcDbText
  0
TEXT
  5
547
100
AcDbEntity
  8
M1
 62
     2
100
AcDbText
 10
194.615392
 20
34.615386
 40
7.692308
  1
ＨＳ２０－Ｌ
 41
0.5
  7
STANDARD
100
AcDbText
  0
LINE
  5
548
100
AcDbEntity
  8
DN0
100
AcDbLine
 10
59.282912
 20
94.227747
 11
84.252144
 21
94.227747
  0
TEXT
  5
549
100
AcDbEntity
  8
DN0
100
AcDbText
 10
59.972656
 20
94.843131
 40
6.153846
  1
せん孔図
 41
0.833333
  7
STANDARD
100
AcDbText
  0
ENDSEC
  0
SECTION
  2
OBJECTS
  0
DICTIONARY
  5
C
100
AcDbDictionary
  3
ACAD_GROUP
350
D
  3
ACAD_MLINESTYLE
350
E
  3
ACDBVARIABLEDICTIONARY
350
3EC
  0
DICTIONARY
  5
D
102
{ACAD_REACTORS
330
C
102
}
100
AcDbDictionary
  0
DICTIONARY
  5
E
102
{ACAD_REACTORS
330
C
102
}
100
AcDbDictionary
  3
STANDARD
350
13
  0
DICTIONARY
  5
3EC
102
{ACAD_REACTORS
330
C
102
}
100
AcDbDictionary
  3
SORTENTS
350
3ED
  0
MLINESTYLE
  5
13
102
{ACAD_REACTORS
330
E
102
}
100
AcDbMlineStyle
  2
STANDARD
 70
     0
  3

 62
     0
 51
90.0
 52
90.0
 71
     2
 49
0.5
 62
   256
  6
BYLAYER
 49
-0.5
 62
   256
  6
BYLAYER
  0
DICTIONARYVAR
  5
3ED
102
{ACAD_REACTORS
330
3EC
102
}
100
DictionaryVariables
280
     0
  1
96
  0
ENDSEC
  0
EOF
