  0
SECTION
  2
HEADER
  9
$ACADVER
  1
AC1014
  9
$INSBASE
 10
0.000000
 20
0.000000
 30
0.0
  9
$VIEWCTR
 10
7.531722
 20
4.5
  9
$VIEWSIZE
 40
9.0
  9
$SNAPMODE
 70
     0
  9
$SNAPUNIT
 10
1.0
 20
1.0
  9
$SNAPBASE
 10
0.0
 20
0.0
  9
$SNAPANG
 50
0.0
  9
$SNAPSTYLE
 70
     0
  9
$SNAPISOPAIR
 70
     0
  9
$GRIDMODE
 70
     0
  9
$GRIDUNIT
 10
0.0
 20
0.0
  9
$ORTHOMODE
 70
     0
  9
$REGENMODE
 70
     1
  9
$FILLMODE
 70
     1
  9
$QTEXTMODE
 70
     0
  9
$DRAGMODE
 70
     2
  9
$LTSCALE
  40
     1.000000
  9
$OSMODE
 70
     0
  9
$ATTMODE
 70
     1
  9
$TEXTSIZE
 40
0.2
  9
$TRACEWID
 40
0.05
  9
$TEXTSTYLE
  7
STANDARD
  9
$CELTYPE
  6
BYLAYER
  9
$CECOLOR
 62
   256
  9
$DIMSCALE
 40
1.0
  9
$DIMASZ
 40
0.18
  9
$DIMEXO
 40
0.0625
  9
$DIMDLI
 40
0.38
  9
$DIMRND
 40
0.0
  9
$DIMDLE
 40
0.0
  9
$DIMEXE
 40
0.18
  9
$DIMTP
 40
0.0
  9
$DIMTM
 40
0.0
  9
$DIMTXT
 40
0.18
  9
$DIMCEN
 40
0.09
  9
$DIMTSZ
 40
0.0
  9
$DIMTOL
 70
     0
  9
$DIMLIM
 70
     0
  9
$DIMTIH
 70
     1
  9
$DIMTOH
 70
     1
  9
$DIMSE1
 70
     0
  9
$DIMSE2
 70
     0
  9
$DIMTAD
 70
     0
  9
$DIMZIN
 70
     0
  9
$DIMBLK
  1

  9
$LUNITS
 70
     2
  9
$LUPREC
 70
     4
  9
$AXISMODE
 70
     0
  9
$AXISUNIT
 10
0.0
 20
0.0
  9
$SKETCHINC
 40
0.1
  9
$FILLETRAD
 40
0.0
  9
$AUNITS
 70
     0
  9
$AUPREC
 70
     0
  9
$MENU
  1
ACAD
  9
$ELEVATION
 40
0.0
  9
$THICKNESS
 40
0.0
  9
$VIEWDIR
 10
0.0
 20
0.0
 30
1.0
  9
$LIMCHECK
 70
     0
  9
$BLIPMODE
 70
     1
  9
$CHAMFERA
 40
0.0
  9
$CHAMFERB
 40
0.0
  9
$FASTZOOM
 70
     1
  9
$SKPOLY
 70
     0
  9
$TDCREATE
 40
0000000.0000000000
  9
$TDUPDATE
 40
0000000.0000000000
  9
$TDINDWG
 40
0.0000000000
  9
$TDUSRTIMER
 40
0.0000000000
  9
$USRTIMER
 70
     1
  9
$ANGBASE
 50
0.0
  9
$ANGDIR
 70
     0
  9
$PDMODE
 70
     0
  9
$PDSIZE
 40
0.0
  9
$PLINEWID
 40
0.0
  9
$COORDS
 70
     0
  9
$USERI1
 70
     0
  9
$USERI2
 70
     0
  9
$USERI3
 70
     0
  9
$USERI4
 70
     0
  9
$USERI5
 70
     0
  9
$USERR1
 40
0.0
  9
$USERR2
 40
0.0
  9
$USERR3
 40
0.0
  9
$USERR4
 40
0.0
  9
$USERR5
 40
0.0
  9
$CLAYER
  8
M0
  9
$EXTMIN
 10
18.181818
 20
18.181818
  9
$EXTMAX
 10
363.636356
 20
518.181807
  9
$LIMMIN
 10
0.0
 20
0.0
  9
$LIMMAX
 10
210.0
 20
297.0
  9
$HANDSEED
  5
781
  0
ENDSEC
  0
SECTION
  2
CLASSES
  0
CLASS
  1
DICTIONARYVAR
  2
AcDbDictionaryVar
  3
"AutoCAD"
 90
        0
280
     0
281
     0
  0
CLASS
  1
HATCH
  2
AcDbHatch
  3
"ACAD_SEDONA"
 90
        0
280
     0
281
     1
  0
ENDSEC
  0
SECTION
  2
TABLES
  0
TABLE
  2
VPORT
  5
8
100
AcDbSymbolTable
 70
     2
  0
VPORT
  5
14
100
AcDbSymbolTableRecord
100
AcDbViewportTableRecord
  2
*ACTIVE
 70
     0
 10
0.0
 20
0.0
 11
1.0
 21
1.0
 12
484.0
 22
297.0
 13
0.0
 23
0.0
 14
1.0
 24
1.0
 15
0.0
 25
0.0
 16
0.0
 26
0.0
 36
1.0
 17
0.0
 27
0.0
 37
0.0
 40
594.0
 41
2.0
 42
50.0
 43
0.0
 44
0.0
 50
0.0
 51
0.0
 71
     0
 72
   100
 73
     1
 74
     1
 75
     0
 76
     0
 77
     0
 78
     0
  0
ENDTAB
  0
TABLE
  2
LTYPE
  5
5
100
AcDbSymbolTable
 70
     5
  0
LTYPE
  5
15
100
AcDbSymbolTableRecord
100
AcDbLinetypeTableRecord
  2
BYBLOCK
 70
     0
  3

 72
    65
 73
     0
 40
0.0
  0
LTYPE
  5
16
100
AcDbSymbolTableRecord
100
AcDbLinetypeTableRecord
  2
BYLAYER
 70
     0
  3

 72
    65
 73
     0
 40
0.0
  0
LTYPE
  5
17
100
AcDbSymbolTableRecord
100
AcDbLinetypeTableRecord
  2
CONTINUOUS
 70
    64
  3
Solid line
 72
    65
 73
     0
 40
0.0
  0
LTYPE
  5
18
100
AcDbSymbolTableRecord
100
AcDbLinetypeTableRecord
  2
DASHED
 70
    64
  3
__ __ __ __ __ __ __ __ __ __ __ __ __ __ __ __
 72
    65
 73
     2
 40
0.75
 49
0.5
 74
     0
 49
-0.25
 74
     0
  0
LTYPE
  5
19
100
AcDbSymbolTableRecord
100
AcDbLinetypeTableRecord
  2
DASHDOT
 70
    64
  3
__ . __ . __ . __ . __ . __ . __ . __ . __ . __
 72
    65
 73
     4
 40
1.0
 49
0.5
 74
     0
 49
-0.25
 74
     0
 49
0.0
 74
     0
 49
-0.25
 74
     0
  0
LTYPE
  5
1A
100
AcDbSymbolTableRecord
100
AcDbLinetypeTableRecord
  2
DIVIDE
 70
    64
  3
____ . . ____ . . ____ . . ____ . . ____ . . __
 72
    65
 73
     6
 40
1.25
 49
0.5
 74
     0
 49
-0.25
 74
     0
 49
0.0
 74
     0
 49
-0.25
 74
     0
 49
0.0
 74
     0
 49
-0.25
 74
     0
  0
LTYPE
  5
1B
100
AcDbSymbolTableRecord
100
AcDbLinetypeTableRecord
  2
DOT
 70
    64
  3
. . . . . . . . . . . . . . . . . . . . . . . .
 72
    65
 73
     2
 40
0.25
 49
0.0
 74
     0
 49
-0.25
 74
     0
  0
ENDTAB
  0
TABLE
  2
LAYER
  5
2
100
AcDbSymbolTable
 70
   102
  0
LAYER
  5
F
100
AcDbSymbolTableRecord
100
AcDbLayerTableRecord
  2
0
 70
     0
 62
     7
  6
CONTINUOUS
  0
LAYER
  5
1C
100
AcDbSymbolTableRecord
100
AcDbLayerTableRecord
  2
DEFPOINTS
 70
     0
 62
     7
  6
CONTINUOUS
  0
LAYER
  5
1D
100
AcDbSymbolTableRecord
100
AcDbLayerTableRecord
  2
M0
 70
     0
 62
     3
  6
CONTINUOUS
  0
LAYER
  5
1E
100
AcDbSymbolTableRecord
100
AcDbLayerTableRecord
  2
M1
 70
     0
 62
     3
  6
CONTINUOUS
  0
LAYER
  5
1F
100
AcDbSymbolTableRecord
100
AcDbLayerTableRecord
  2
DD0
 70
     0
 62
     4
  6
CONTINUOUS
  0
LAYER
  5
20
100
AcDbSymbolTableRecord
100
AcDbLayerTableRecord
  2
DN0
 70
     0
 62
     2
  6
CONTINUOUS
  0
ENDTAB
  0
TABLE
  2
STYLE
  5
3
100
AcDbSymbolTable
 70
     2
  0
STYLE
  5
10
100
AcDbSymbolTableRecord
100
AcDbTextStyleTableRecord
  2
STANDARD
 70
     0
 40
0.0
 41
1.0
 50
0.0
 71
     0
 42
0.2
  3
txt
  4
BIGFONT
  0
ENDTAB
  0
TABLE
  2
VIEW
  5
6
100
AcDbSymbolTable
 70
     0
  0
ENDTAB
  0
TABLE
  2
UCS
  5
7
100
AcDbSymbolTable
 70
     0
  0
ENDTAB
  0
TABLE
  2
APPID
  5
9
100
AcDbSymbolTable
 70
     1
  0
APPID
  5
11
100
AcDbSymbolTableRecord
100
AcDbRegAppTableRecord
  2
ACAD
 70
     0
  0
ENDTAB
  0
TABLE
  2
DIMSTYLE
  5
A
100
AcDbSymbolTable
 70
     2
  0
DIMSTYLE
105
27
100
AcDbSymbolTableRecord
100
AcDbDimStyleTableRecord
  2
STANDARD
 70
     0
  3

  4

  5

  6
_OPEN
  7
_OPEN
 40
1.0
 41
5.454545
 42
1.0
 43
8.0
 44
1.0
 45
0.0
 46
0.0
 47
0.0
 48
0.0
140
5.727273
141
0.09
142
0.0
143
0.03937
144
1.0
145
0.0
146
1.0
147
0.6
 71
     0
 72
     0
 73
     1
 74
     1
 75
     0
 76
     0
 77
     3
 78
     8
170
     0
171
     2
172
     0
173
     1
174
     0
175
     0
176
     0
177
     0
178
     0
270
     2
271
     2
272
     4
273
     2
274
     2
340
10
275
     0
280
     0
281
     0
282
     0
283
     1
284
     0
285
     0
286
     0
287
     3
288
     0
  0
DIMSTYLE
105
28
100
AcDbSymbolTableRecord
100
AcDbDimStyleTableRecord
  2
LEADSTYL
 70
     0
  3

  4

  5

  6
_OPEN
  7
_OPEN
 40
1.0
 41
5.454545
 42
0.0625
 43
0.38
 44
0.18
 45
0.0
 46
0.0
 47
0.0
 48
0.0
140
5.727273
141
0.09
142
0.0
143
25.4
144
1.0
145
0.0
146
1.0
147
0.6
 71
     0
 72
     0
 73
     1
 74
     1
 75
     0
 76
     0
 77
     0
 78
     0
170
     0
171
     2
172
     0
173
     1
174
     0
175
     0
176
     0
177
     0
178
     0
270
     2
271
     4
272
     4
273
     2
274
     2
340
10
275
     0
280
     0
281
     0
282
     0
283
     1
284
     0
285
     0
286
     0
287
     3
288
     0
  0
ENDTAB
  0
TABLE
  2
BLOCK_RECORD
  5
1
100
AcDbSymbolTable
 70
    23
  0
BLOCK_RECORD
  5
21
100
AcDbSymbolTableRecord
100
AcDbBlockTableRecord
  2
*MODEL_SPACE
  0
BLOCK_RECORD
  5
24
100
AcDbSymbolTableRecord
100
AcDbBlockTableRecord
  2
*PAPER_SPACE
  0
BLOCK_RECORD
  5
29
100
AcDbSymbolTableRecord
100
AcDbBlockTableRecord
  2
_NONE
  0
BLOCK_RECORD
  5
2D
100
AcDbSymbolTableRecord
100
AcDbBlockTableRecord
  2
_OPEN
  0
BLOCK_RECORD
  5
33
100
AcDbSymbolTableRecord
100
AcDbBlockTableRecord
  2
_CLOSED
  0
BLOCK_RECORD
  5
3A
100
AcDbSymbolTableRecord
100
AcDbBlockTableRecord
  2
_ORIGIN
  0
BLOCK_RECORD
  5
3F
100
AcDbSymbolTableRecord
100
AcDbBlockTableRecord
  2
_DOT
  0
BLOCK_RECORD
  5
47
100
AcDbSymbolTableRecord
100
AcDbBlockTableRecord
  2
_OBLIQUE
  0
BLOCK_RECORD
  5
4B
100
AcDbSymbolTableRecord
100
AcDbBlockTableRecord
  2
DIMS0
  0
BLOCK_RECORD
  5
57
100
AcDbSymbolTableRecord
100
AcDbBlockTableRecord
  2
DIMS1
  0
BLOCK_RECORD
  5
63
100
AcDbSymbolTableRecord
100
AcDbBlockTableRecord
  2
DIMS2
  0
BLOCK_RECORD
  5
6F
100
AcDbSymbolTableRecord
100
AcDbBlockTableRecord
  2
DIMS3
  0
BLOCK_RECORD
  5
7B
100
AcDbSymbolTableRecord
100
AcDbBlockTableRecord
  2
DIMS4
  0
BLOCK_RECORD
  5
89
100
AcDbSymbolTableRecord
100
AcDbBlockTableRecord
  2
DIMS5
  0
BLOCK_RECORD
  5
95
100
AcDbSymbolTableRecord
100
AcDbBlockTableRecord
  2
DIMS6
  0
BLOCK_RECORD
  5
A1
100
AcDbSymbolTableRecord
100
AcDbBlockTableRecord
  2
DIMS7
  0
BLOCK_RECORD
  5
AD
100
AcDbSymbolTableRecord
100
AcDbBlockTableRecord
  2
DIMS8
  0
BLOCK_RECORD
  5
B8
100
AcDbSymbolTableRecord
100
AcDbBlockTableRecord
  2
DIMS9
  0
BLOCK_RECORD
  5
C3
100
AcDbSymbolTableRecord
100
AcDbBlockTableRecord
  2
DIMS10
  0
BLOCK_RECORD
  5
CF
100
AcDbSymbolTableRecord
100
AcDbBlockTableRecord
  2
DIMS11
  0
BLOCK_RECORD
  5
DB
100
AcDbSymbolTableRecord
100
AcDbBlockTableRecord
  2
DIMS12
  0
BLOCK_RECORD
  5
E4
100
AcDbSymbolTableRecord
100
AcDbBlockTableRecord
  2
DIMS13
  0
BLOCK_RECORD
  5
F0
100
AcDbSymbolTableRecord
100
AcDbBlockTableRecord
  2
DIMS14
  0
BLOCK_RECORD
  5
FC
100
AcDbSymbolTableRecord
100
AcDbBlockTableRecord
  2
DIMS15
  0
BLOCK_RECORD
  5
108
100
AcDbSymbolTableRecord
100
AcDbBlockTableRecord
  2
DIMS16
  0
ENDTAB
  0
ENDSEC
  0
SECTION
  2
BLOCKS
  0
BLOCK
  5
22
100
AcDbEntity
  8
0
100
AcDbBlockBegin
  2
*MODEL_SPACE
 70
     0
 10
0.0
 20
0.0
 30
0.0
  3
*MODEL_SPACE
  1

  0
ENDBLK
  5
23
100
AcDbEntity
  8
0
100
AcDbBlockEnd
  0
BLOCK
  5
25
100
AcDbEntity
 67
     1
  8
0
100
AcDbBlockBegin
  2
*PAPER_SPACE
 70
     0
 10
0.0
 20
0.0
 30
0.0
  3
*PAPER_SPACE
  1

  0
ENDBLK
  5
26
100
AcDbEntity
 67
     1
  8
0
100
AcDbBlockEnd
  0
BLOCK
  5
2A
100
AcDbEntity
  8
0
100
AcDbBlockBegin
  2
_NONE
 70
     0
 10
0.0
 20
0.0
  0
CIRCLE
  5
2B
100
AcDbEntity
  8
0
 62
     0
100
AcDbCircle
 10
0.0
 20
0.0
 40
0.25
  0
ENDBLK
  5
2C
100
AcDbEntity
  8
0
100
AcDbBlockEnd
  0
BLOCK
  5
2E
100
AcDbEntity
  8
0
100
AcDbBlockBegin
  2
_OPEN
 70
     0
 10
0.0
 20
0.0
  0
LINE
  5
2F
100
AcDbEntity
  8
0
 62
     0
100
AcDbLine
 10
-0.965926
 20
0.258819
 11
0.0
 21
0.0
  0
LINE
  5
30
100
AcDbEntity
  8
0
 62
     0
100
AcDbLine
 10
0.0
 20
0.0
 11
-0.965926
 21
-0.258819
  0
LINE
  5
31
100
AcDbEntity
  8
0
 62
     0
100
AcDbLine
 10
0.0
 20
0.0
 11
-1.0
 21
0.0
  0
ENDBLK
  5
32
100
AcDbEntity
  8
0
100
AcDbBlockEnd
  0
BLOCK
  5
34
100
AcDbEntity
  8
0
100
AcDbBlockBegin
  2
_CLOSED
 70
     0
 10
0.0
 20
0.0
  0
LINE
  5
35
100
AcDbEntity
  8
0
 62
     0
100
AcDbLine
 10
-0.965926
 20
0.258819
 11
0.0
 21
0.0
  0
LINE
  5
36
100
AcDbEntity
  8
0
 62
     0
100
AcDbLine
 10
0.0
 20
0.0
 11
-0.965926
 21
-0.258819
  0
LINE
  5
37
100
AcDbEntity
  8
0
 62
     0
100
AcDbLine
 10
-0.965926
 20
0.258819
 11
-0.965926
 21
-0.258819
  0
LINE
  5
38
100
AcDbEntity
  8
0
 62
     0
100
AcDbLine
 10
0.0
 20
0.0
 11
-1.0
 21
0.0
  0
ENDBLK
  5
39
100
AcDbEntity
  8
0
100
AcDbBlockEnd
  0
BLOCK
  5
3B
100
AcDbEntity
  8
0
100
AcDbBlockBegin
  2
_ORIGIN
 70
     0
 10
0.0
 20
0.0
  0
CIRCLE
  5
3C
100
AcDbEntity
  8
0
 62
     0
100
AcDbCircle
 10
0.0
 20
0.0
 40
0.5
  0
LINE
  5
3D
100
AcDbEntity
  8
0
 62
     0
100
AcDbLine
 10
0.0
 20
0.0
 11
-1.0
 21
0.0
  0
ENDBLK
  5
3E
100
AcDbEntity
  8
0
100
AcDbBlockEnd
  0
BLOCK
  5
40
100
AcDbEntity
  8
0
100
AcDbBlockBegin
  2
_DOT
 70
     0
 10
0.0
 20
0.0
  0
POLYLINE
  5
41
100
AcDbEntity
  8
0
 62
     0
100
AcDb2dPolyline
 66
     1
 70
     1
 40
0.5
 41
0.5
  0
VERTEX
  5
42
100
AcDbEntity
  8
0
 62
     0
100
AcDbVertex
100
AcDb2dVertex
 10
-0.25
 20
0.0
 42
1.0
  0
VERTEX
  5
43
100
AcDbEntity
  8
0
 62
     0
100
AcDbVertex
100
AcDb2dVertex
 10
0.25
 20
0.0
 42
1.0
  0
SEQEND
  5
44
100
AcDbEntity
  8
0
 62
     0
  0
LINE
  5
45
100
AcDbEntity
  8
0
 62
     0
100
AcDbLine
 10
-0.5
 20
0.0
 11
-1.0
 21
0.0
  0
ENDBLK
  5
46
100
AcDbEntity
  8
0
100
AcDbBlockEnd
  0
BLOCK
  5
48
100
AcDbEntity
  8
0
100
AcDbBlockBegin
  2
_OBLIQUE
 70
     0
 10
0.0
 20
0.0
  0
LINE
  5
49
100
AcDbEntity
  8
0
 62
     0
100
AcDbLine
 10
-0.353553
 20
-0.353553
 11
0.353553
 21
0.353553
  0
ENDBLK
  5
4A
100
AcDbEntity
  8
0
100
AcDbBlockEnd
  0
BLOCK
  5
4C
100
AcDbEntity
  8
DD0
100
AcDbBlockBegin
  2
DIMS0
 70
     0
 10
0.0
 20
0.0
  0
LINE
  5
4D
100
AcDbEntity
  8
DD0
100
AcDbLine
 10
100.163683
 20
281.442338
 11
100.163683
 21
257.642345
  0
LINE
  5
4E
100
AcDbEntity
  8
DD0
100
AcDbLine
 10
110.163683
 20
281.442338
 11
110.163683
 21
257.642345
  0
LINE
  5
4F
100
AcDbEntity
  8
DD0
100
AcDbLine
 10
94.894997
 20
258.048787
 11
100.163683
 21
259.460527
  0
LINE
  5
50
100
AcDbEntity
  8
DD0
100
AcDbLine
 10
100.163683
 20
259.460527
 11
94.894997
 21
260.872267
  0
LINE
  5
51
100
AcDbEntity
  8
DD0
100
AcDbLine
 10
115.432369
 20
260.872267
 11
110.163683
 21
259.460527
  0
LINE
  5
52
100
AcDbEntity
  8
DD0
100
AcDbLine
 10
110.163683
 20
259.460527
 11
115.432369
 21
258.048787
  0
LINE
  5
53
100
AcDbEntity
  8
DD0
100
AcDbLine
 10
94.163683
 20
259.460527
 11
116.163683
 21
259.460527
  0
TEXT
  5
54
100
AcDbEntity
  8
DD0
100
AcDbText
 10
101.839443
 20
260.551447
 40
4.545454
  1
１０
 41
0.666667
  7
STANDARD
100
AcDbText
  0
ENDBLK
  5
55
100
AcDbEntity
  8
DD0
100
AcDbBlockEnd
  0
BLOCK
  5
58
100
AcDbEntity
  8
DD0
100
AcDbBlockBegin
  2
DIMS1
 70
     0
 10
0.0
 20
0.0
  0
LINE
  5
59
100
AcDbEntity
  8
DD0
100
AcDbLine
 10
124.207373
 20
410.460585
 11
157.536479
 21
410.460585
  0
LINE
  5
5A
100
AcDbEntity
  8
DD0
100
AcDbLine
 10
117.481867
 20
275.460588
 11
157.536479
 21
275.460588
  0
LINE
  5
5B
100
AcDbEntity
  8
DD0
100
AcDbLine
 10
157.130037
 20
405.191898
 11
155.718297
 21
410.460585
  0
LINE
  5
5C
100
AcDbEntity
  8
DD0
100
AcDbLine
 10
155.718297
 20
410.460585
 11
154.306557
 21
405.191898
  0
LINE
  5
5D
100
AcDbEntity
  8
DD0
100
AcDbLine
 10
154.306557
 20
280.729274
 11
155.718297
 21
275.460588
  0
LINE
  5
5E
100
AcDbEntity
  8
DD0
100
AcDbLine
 10
155.718297
 20
275.460588
 11
157.130037
 21
280.729274
  0
LINE
  5
5F
100
AcDbEntity
  8
DD0
100
AcDbLine
 10
155.718297
 20
410.460585
 11
155.718297
 21
275.460588
  0
TEXT
  5
60
100
AcDbEntity
  8
DD0
100
AcDbText
 10
154.627391
 20
337.818151
 40
4.545454
  1
１３５
 50
90.000003
 41
0.666667
  7
STANDARD
100
AcDbText
  0
ENDBLK
  5
61
100
AcDbEntity
  8
DD0
100
AcDbBlockEnd
  0
BLOCK
  5
64
100
AcDbEntity
  8
DD0
100
AcDbBlockBegin
  2
DIMS2
 70
     0
 10
0.0
 20
0.0
  0
LINE
  5
65
100
AcDbEntity
  8
DD0
100
AcDbLine
 10
84.163692
 20
325.778774
 11
84.163692
 21
432.241091
  0
LINE
  5
66
100
AcDbEntity
  8
DD0
100
AcDbLine
 10
129.163746
 20
324.278779
 11
129.163746
 21
432.241091
  0
LINE
  5
67
100
AcDbEntity
  8
DD0
100
AcDbLine
 10
89.432378
 20
431.834649
 11
84.163692
 21
430.422909
  0
LINE
  5
68
100
AcDbEntity
  8
DD0
100
AcDbLine
 10
84.163692
 20
430.422909
 11
89.432378
 21
429.011169
  0
LINE
  5
69
100
AcDbEntity
  8
DD0
100
AcDbLine
 10
123.89506
 20
429.011169
 11
129.163746
 21
430.422909
  0
LINE
  5
6A
100
AcDbEntity
  8
DD0
100
AcDbLine
 10
129.163746
 20
430.422909
 11
123.89506
 21
431.834649
  0
LINE
  5
6B
100
AcDbEntity
  8
DD0
100
AcDbLine
 10
84.163692
 20
430.422909
 11
129.163746
 21
430.422909
  0
TEXT
  5
6C
100
AcDbEntity
  8
DD0
100
AcDbText
 10
103.339479
 20
431.513829
 40
4.545454
  1
４５
 41
0.666667
  7
STANDARD
100
AcDbText
  0
ENDBLK
  5
6D
100
AcDbEntity
  8
DD0
100
AcDbBlockEnd
  0
BLOCK
  5
70
100
AcDbEntity
  8
DD0
100
AcDbBlockBegin
  2
DIMS3
 70
     0
 10
0.0
 20
0.0
  0
LINE
  5
71
100
AcDbEntity
  8
DD0
100
AcDbLine
 10
339.974247
 20
332.392404
 11
339.974247
 21
257.642345
  0
LINE
  5
72
100
AcDbEntity
  8
DD0
100
AcDbLine
 10
224.87429
 20
307.943497
 11
224.87429
 21
257.642345
  0
LINE
  5
73
100
AcDbEntity
  8
DD0
100
AcDbLine
 10
334.705561
 20
258.048787
 11
339.974247
 21
259.460527
  0
LINE
  5
74
100
AcDbEntity
  8
DD0
100
AcDbLine
 10
339.974247
 20
259.460527
 11
334.705561
 21
260.872267
  0
LINE
  5
75
100
AcDbEntity
  8
DD0
100
AcDbLine
 10
230.142977
 20
260.872267
 11
224.87429
 21
259.460527
  0
LINE
  5
76
100
AcDbEntity
  8
DD0
100
AcDbLine
 10
224.87429
 20
259.460527
 11
230.142977
 21
258.048787
  0
LINE
  5
77
100
AcDbEntity
  8
DD0
100
AcDbLine
 10
339.974247
 20
259.460527
 11
224.87429
 21
259.460527
  0
TEXT
  5
78
100
AcDbEntity
  8
DD0
100
AcDbText
 10
277.28182
 20
260.551447
 40
4.545454
  1
１１５
 41
0.666667
  7
STANDARD
100
AcDbText
  0
ENDBLK
  5
79
100
AcDbEntity
  8
DD0
100
AcDbBlockEnd
  0
BLOCK
  5
7C
100
AcDbEntity
  8
DD0
100
AcDbBlockBegin
  2
DIMS4
 70
     0
 10
0.0
 20
0.0
  0
LINE
  5
7D
100
AcDbEntity
  8
DD0
100
AcDbLine
 10
139.989191
 20
397.578782
 11
139.989191
 21
456.376943
  0
LINE
  5
7E
100
AcDbEntity
  8
DD0
100
AcDbLine
 10
71.98919
 20
397.578782
 11
71.98919
 21
456.376943
  0
LINE
  5
7F
100
AcDbEntity
  8
DD0
100
AcDbLine
 10
134.720505
 20
453.147021
 11
139.989191
 21
454.558761
  0
LINE
  5
80
100
AcDbEntity
  8
DD0
100
AcDbLine
 10
139.989191
 20
454.558761
 11
134.720505
 21
455.970502
  0
LINE
  5
81
100
AcDbEntity
  8
DD0
100
AcDbLine
 10
77.257876
 20
455.970502
 11
71.98919
 21
454.558761
  0
LINE
  5
82
100
AcDbEntity
  8
DD0
100
AcDbLine
 10
71.98919
 20
454.558761
 11
77.257876
 21
453.147021
  0
LINE
  5
83
100
AcDbEntity
  8
DD0
100
AcDbLine
 10
139.989191
 20
454.558761
 11
71.98919
 21
454.558761
  0
TEXT
  5
84
100
AcDbEntity
  8
DD0
100
AcDbText
 10
102.664951
 20
455.649682
 40
4.545454
  1
６８
 41
0.666667
  7
STANDARD
100
AcDbText
  0
TEXT
  5
85
100
AcDbEntity
  8
DD0
100
AcDbText
 10
79.028588
 20
448.558784
 40
4.545454
  1
（補助接点サイドオンユニットを
 41
0.666667
  7
STANDARD
100
AcDbText
  0
TEXT
  5
86
100
AcDbEntity
  8
DD0
100
AcDbText
 10
95.392224
 20
441.467886
 40
4.545454
  1
付けた場合）
 41
0.666667
  7
STANDARD
100
AcDbText
  0
ENDBLK
  5
87
100
AcDbEntity
  8
DD0
100
AcDbBlockEnd
  0
BLOCK
  5
8A
100
AcDbEntity
  8
DD0
100
AcDbBlockBegin
  2
DIMS5
 70
     0
 10
0.0
 20
0.0
  0
LINE
  5
8B
100
AcDbEntity
  8
DD0
100
AcDbLine
 10
88.521005
 20
386.960607
 11
56.901698
 21
386.960607
  0
LINE
  5
8C
100
AcDbEntity
  8
DD0
100
AcDbLine
 10
87.845499
 20
283.760536
 11
56.901698
 21
283.760536
  0
LINE
  5
8D
100
AcDbEntity
  8
DD0
100
AcDbLine
 10
60.131617
 20
381.691921
 11
58.719876
 21
386.960607
  0
LINE
  5
8E
100
AcDbEntity
  8
DD0
100
AcDbLine
 10
58.719876
 20
386.960607
 11
57.308136
 21
381.691921
  0
LINE
  5
8F
100
AcDbEntity
  8
DD0
100
AcDbLine
 10
57.308136
 20
289.029222
 11
58.719876
 21
283.760536
  0
LINE
  5
90
100
AcDbEntity
  8
DD0
100
AcDbLine
 10
58.719876
 20
283.760536
 11
60.131617
 21
289.029222
  0
LINE
  5
91
100
AcDbEntity
  8
DD0
100
AcDbLine
 10
58.719876
 20
386.960607
 11
58.719876
 21
283.760536
  0
TEXT
  5
92
100
AcDbEntity
  8
DD0
100
AcDbText
 10
57.628967
 20
330.218137
 40
4.545454
  1
１０３
 50
90.000003
 41
0.666667
  7
STANDARD
100
AcDbText
  0
ENDBLK
  5
93
100
AcDbEntity
  8
DD0
100
AcDbBlockEnd
  0
BLOCK
  5
96
100
AcDbEntity
  8
DD0
100
AcDbBlockBegin
  2
DIMS6
 70
     0
 10
0.0
 20
0.0
  0
LINE
  5
97
100
AcDbEntity
  8
DD0
100
AcDbLine
 10
88.521005
 20
386.960607
 11
56.901698
 21
386.960607
  0
LINE
  5
98
100
AcDbEntity
  8
DD0
100
AcDbLine
 10
87.771008
 20
410.460585
 11
56.901698
 21
410.460585
  0
LINE
  5
99
100
AcDbEntity
  8
DD0
100
AcDbLine
 10
57.308136
 20
392.229293
 11
58.719876
 21
386.960607
  0
LINE
  5
9A
100
AcDbEntity
  8
DD0
100
AcDbLine
 10
58.719876
 20
386.960607
 11
60.131617
 21
392.229293
  0
LINE
  5
9B
100
AcDbEntity
  8
DD0
100
AcDbLine
 10
60.131617
 20
405.191898
 11
58.719876
 21
410.460585
  0
LINE
  5
9C
100
AcDbEntity
  8
DD0
100
AcDbLine
 10
58.719876
 20
410.460585
 11
57.308136
 21
405.191898
  0
LINE
  5
9D
100
AcDbEntity
  8
DD0
100
AcDbLine
 10
58.719876
 20
386.960607
 11
58.719876
 21
410.460585
  0
TEXT
  5
9E
100
AcDbEntity
  8
DD0
100
AcDbText
 10
57.628967
 20
391.749979
 40
4.545454
  1
２３．５
 50
90.000003
 41
0.666667
  7
STANDARD
100
AcDbText
  0
ENDBLK
  5
9F
100
AcDbEntity
  8
DD0
100
AcDbBlockEnd
  0
BLOCK
  5
A2
100
AcDbEntity
  8
DD0
100
AcDbBlockBegin
  2
DIMS7
 70
     0
 10
0.0
 20
0.0
  0
LINE
  5
A3
100
AcDbEntity
  8
DD0
100
AcDbLine
 10
100.93919
 20
389.278778
 11
100.93919
 21
423.488095
  0
LINE
  5
A4
100
AcDbEntity
  8
DD0
100
AcDbLine
 10
111.03919
 20
389.278778
 11
111.03919
 21
423.488095
  0
LINE
  5
A5
100
AcDbEntity
  8
DD0
100
AcDbLine
 10
95.670504
 20
420.258172
 11
100.93919
 21
421.669913
  0
LINE
  5
A6
100
AcDbEntity
  8
DD0
100
AcDbLine
 10
100.93919
 20
421.669913
 11
95.670504
 21
423.081653
  0
LINE
  5
A7
100
AcDbEntity
  8
DD0
100
AcDbLine
 10
116.307877
 20
423.081653
 11
111.03919
 21
421.669913
  0
LINE
  5
A8
100
AcDbEntity
  8
DD0
100
AcDbLine
 10
111.03919
 20
421.669913
 11
116.307877
 21
420.258172
  0
LINE
  5
A9
100
AcDbEntity
  8
DD0
100
AcDbLine
 10
94.93919
 20
421.669913
 11
117.03919
 21
421.669913
  0
TEXT
  5
AA
100
AcDbEntity
  8
DD0
100
AcDbText
 10
102.664951
 20
422.760833
 40
4.545454
  1
１０
 41
0.666667
  7
STANDARD
100
AcDbText
  0
ENDBLK
  5
AB
100
AcDbEntity
  8
DD0
100
AcDbBlockEnd
  0
BLOCK
  5
AE
100
AcDbEntity
  8
DD0
100
AcDbBlockBegin
  2
DIMS8
 70
     0
 10
0.0
 20
0.0
  0
LINE
  5
AF
100
AcDbEntity
  8
DD0
100
AcDbLine
 10
328.674254
 20
402.578782
 11
328.674254
 21
413.788083
  0
LINE
  5
B0
100
AcDbEntity
  8
DD0
100
AcDbLine
 10
333.94294
 20
413.381641
 11
328.674254
 21
411.969901
  0
LINE
  5
B1
100
AcDbEntity
  8
DD0
100
AcDbLine
 10
328.674254
 20
411.969901
 11
333.94294
 21
410.55816
  0
LINE
  5
B2
100
AcDbEntity
  8
DD0
100
AcDbLine
 10
334.705561
 20
410.55816
 11
339.974247
 21
411.969901
  0
LINE
  5
B3
100
AcDbEntity
  8
DD0
100
AcDbLine
 10
339.974247
 20
411.969901
 11
334.705561
 21
413.381641
  0
LINE
  5
B4
100
AcDbEntity
  8
DD0
100
AcDbLine
 10
328.674254
 20
411.969901
 11
339.974247
 21
411.969901
  0
TEXT
  5
B5
100
AcDbEntity
  8
DD0
100
AcDbText
 10
330.999997
 20
413.060821
 40
4.545454
  1
１１
 41
0.666667
  7
STANDARD
100
AcDbText
  0
ENDBLK
  5
B6
100
AcDbEntity
  8
DD0
100
AcDbBlockEnd
  0
BLOCK
  5
B9
100
AcDbEntity
  8
DD0
100
AcDbBlockBegin
  2
DIMS9
 70
     0
 10
0.0
 20
0.0
  0
LINE
  5
BA
100
AcDbEntity
  8
DD0
100
AcDbLine
 10
226.574258
 20
379.578794
 11
226.574258
 21
441.627243
  0
LINE
  5
BB
100
AcDbEntity
  8
DD0
100
AcDbLine
 10
231.842944
 20
441.220802
 11
226.574258
 21
439.809061
  0
LINE
  5
BC
100
AcDbEntity
  8
DD0
100
AcDbLine
 10
226.574258
 20
439.809061
 11
231.842944
 21
438.397321
  0
LINE
  5
BD
100
AcDbEntity
  8
DD0
100
AcDbLine
 10
334.705561
 20
438.397321
 11
339.974247
 21
439.809061
  0
LINE
  5
BE
100
AcDbEntity
  8
DD0
100
AcDbLine
 10
339.974247
 20
439.809061
 11
334.705561
 21
441.220802
  0
LINE
  5
BF
100
AcDbEntity
  8
DD0
100
AcDbLine
 10
226.574258
 20
439.809061
 11
339.974247
 21
439.809061
  0
TEXT
  5
C0
100
AcDbEntity
  8
DD0
100
AcDbText
 10
278.131817
 20
440.899982
 40
4.545454
  1
１１４
 41
0.666667
  7
STANDARD
100
AcDbText
  0
ENDBLK
  5
C1
100
AcDbEntity
  8
DD0
100
AcDbBlockEnd
  0
BLOCK
  5
C4
100
AcDbEntity
  8
DD0
100
AcDbBlockBegin
  2
DIMS10
 70
     0
 10
0.0
 20
0.0
  0
LINE
  5
C5
100
AcDbEntity
  8
DD0
100
AcDbLine
 10
195.274252
 20
370.178769
 11
195.274252
 21
456.376943
  0
LINE
  5
C6
100
AcDbEntity
  8
DD0
100
AcDbLine
 10
339.974247
 20
403.128792
 11
339.974247
 21
456.376943
  0
LINE
  5
C7
100
AcDbEntity
  8
DD0
100
AcDbLine
 10
200.542938
 20
455.970502
 11
195.274252
 21
454.558761
  0
LINE
  5
C8
100
AcDbEntity
  8
DD0
100
AcDbLine
 10
195.274252
 20
454.558761
 11
200.542938
 21
453.147021
  0
LINE
  5
C9
100
AcDbEntity
  8
DD0
100
AcDbLine
 10
334.705561
 20
453.147021
 11
339.974247
 21
454.558761
  0
LINE
  5
CA
100
AcDbEntity
  8
DD0
100
AcDbLine
 10
339.974247
 20
454.558761
 11
334.705561
 21
455.970502
  0
LINE
  5
CB
100
AcDbEntity
  8
DD0
100
AcDbLine
 10
195.274252
 20
454.558761
 11
339.974247
 21
454.558761
  0
TEXT
  5
CC
100
AcDbEntity
  8
DD0
100
AcDbText
 10
224.300004
 20
455.649682
 40
4.545454
  1
１４５（補助接点ヘッドオンユニットを付けた場合）
 41
0.666667
  7
STANDARD
100
AcDbText
  0
ENDBLK
  5
CD
100
AcDbEntity
  8
DD0
100
AcDbBlockEnd
  0
BLOCK
  5
D0
100
AcDbEntity
  8
DD0
100
AcDbBlockBegin
  2
DIMS11
 70
     0
 10
0.0
 20
0.0
  0
LINE
  5
D1
100
AcDbEntity
  8
DD0
100
AcDbLine
 10
226.574258
 20
379.578794
 11
226.574258
 21
441.627243
  0
LINE
  5
D2
100
AcDbEntity
  8
DD0
100
AcDbLine
 10
221.574258
 20
411.878792
 11
221.574258
 21
441.627243
  0
LINE
  5
D3
100
AcDbEntity
  8
DD0
100
AcDbLine
 10
231.842944
 20
441.220802
 11
226.574258
 21
439.809061
  0
LINE
  5
D4
100
AcDbEntity
  8
DD0
100
AcDbLine
 10
226.574258
 20
439.809061
 11
231.842944
 21
438.397321
  0
LINE
  5
D5
100
AcDbEntity
  8
DD0
100
AcDbLine
 10
216.305572
 20
438.397321
 11
221.574258
 21
439.809061
  0
LINE
  5
D6
100
AcDbEntity
  8
DD0
100
AcDbLine
 10
221.574258
 20
439.809061
 11
216.305572
 21
441.220802
  0
LINE
  5
D7
100
AcDbEntity
  8
DD0
100
AcDbLine
 10
232.574258
 20
439.809061
 11
210.119713
 21
439.809061
  0
TEXT
  5
D8
100
AcDbEntity
  8
DD0
100
AcDbText
 10
211.722739
 20
440.899982
 40
4.545454
  1
５
 41
0.666667
  7
STANDARD
100
AcDbText
  0
ENDBLK
  5
D9
100
AcDbEntity
  8
DD0
100
AcDbBlockEnd
  0
BLOCK
  5
DC
100
AcDbEntity
  8
DD0
100
AcDbBlockBegin
  2
DIMS12
 70
     0
 10
0.0
 20
0.0
  0
TEXT
  5
DD
100
AcDbEntity
  8
DD0
100
AcDbText
 10
140.818727
 20
119.852695
 40
4.545454
  1
２－Ｍ４ねじ穴
 41
0.666667
  7
STANDARD
100
AcDbText
  0
LINE
  5
DE
100
AcDbEntity
  8
DD0
100
AcDbLine
 10
126.466963
 20
140.535562
 11
123.052615
 21
144.789301
  0
LINE
  5
DF
100
AcDbEntity
  8
DD0
100
AcDbLine
 10
123.052615
 20
144.789301
 11
123.882657
 21
139.398281
  0
LINE
  5
E0
100
AcDbEntity
  8
DD0
100
AcDbLine
 10
123.052615
 20
144.789301
 11
134.506597
 21
118.761788
  0
LINE
  5
E1
100
AcDbEntity
  8
DD0
100
AcDbLine
 10
134.506597
 20
118.761788
 11
171.961139
 21
118.761788
  0
ENDBLK
  5
E2
100
AcDbEntity
  8
DD0
100
AcDbBlockEnd
  0
BLOCK
  5
E5
100
AcDbEntity
  8
DD0
100
AcDbBlockBegin
  2
DIMS13
 70
     0
 10
0.0
 20
0.0
  0
LINE
  5
E6
100
AcDbEntity
  8
DD0
100
AcDbLine
 10
94.40478
 20
201.036595
 11
157.536479
 21
201.036595
  0
LINE
  5
E7
100
AcDbEntity
  8
DD0
100
AcDbLine
 10
127.904785
 20
146.03661
 11
157.536479
 21
146.03661
  0
LINE
  5
E8
100
AcDbEntity
  8
DD0
100
AcDbLine
 10
157.130037
 20
195.767908
 11
155.718297
 21
201.036595
  0
LINE
  5
E9
100
AcDbEntity
  8
DD0
100
AcDbLine
 10
155.718297
 20
201.036595
 11
154.306557
 21
195.767908
  0
LINE
  5
EA
100
AcDbEntity
  8
DD0
100
AcDbLine
 10
154.306557
 20
151.305296
 11
155.718297
 21
146.03661
  0
LINE
  5
EB
100
AcDbEntity
  8
DD0
100
AcDbLine
 10
155.718297
 20
146.03661
 11
157.130037
 21
151.305296
  0
LINE
  5
EC
100
AcDbEntity
  8
DD0
100
AcDbLine
 10
155.718297
 20
201.036595
 11
155.718297
 21
146.03661
  0
TEXT
  5
ED
100
AcDbEntity
  8
DD0
100
AcDbText
 10
154.627391
 20
170.212356
 40
4.545454
  1
５５
 50
90.000003
 41
0.666667
  7
STANDARD
100
AcDbText
  0
ENDBLK
  5
EE
100
AcDbEntity
  8
DD0
100
AcDbBlockEnd
  0
BLOCK
  5
F1
100
AcDbEntity
  8
DD0
100
AcDbBlockBegin
  2
DIMS14
 70
     0
 10
0.0
 20
0.0
  0
LINE
  5
F2
100
AcDbEntity
  8
DD0
100
AcDbLine
 10
94.40478
 20
201.036595
 11
157.536479
 21
201.036595
  0
LINE
  5
F3
100
AcDbEntity
  8
DD0
100
AcDbLine
 10
124.807376
 20
216.536597
 11
157.536479
 21
216.536597
  0
LINE
  5
F4
100
AcDbEntity
  8
DD0
100
AcDbLine
 10
154.306557
 20
206.305281
 11
155.718297
 21
201.036595
  0
LINE
  5
F5
100
AcDbEntity
  8
DD0
100
AcDbLine
 10
155.718297
 20
201.036595
 11
157.130037
 21
206.305281
  0
LINE
  5
F6
100
AcDbEntity
  8
DD0
100
AcDbLine
 10
157.130037
 20
211.267911
 11
155.718297
 21
216.536597
  0
LINE
  5
F7
100
AcDbEntity
  8
DD0
100
AcDbLine
 10
155.718297
 20
216.536597
 11
154.306557
 21
211.267911
  0
LINE
  5
F8
100
AcDbEntity
  8
DD0
100
AcDbLine
 10
155.718297
 20
201.036595
 11
155.718297
 21
234.036319
  0
TEXT
  5
F9
100
AcDbEntity
  8
DD0
100
AcDbText
 10
154.627391
 20
217.984807
 40
4.545454
  1
１５．５
 50
90.000003
 41
0.666667
  7
STANDARD
100
AcDbText
  0
ENDBLK
  5
FA
100
AcDbEntity
  8
DD0
100
AcDbBlockEnd
  0
BLOCK
  5
FD
100
AcDbEntity
  8
DD0
100
AcDbBlockBegin
  2
DIMS15
 70
     0
 10
0.0
 20
0.0
  0
LINE
  5
FE
100
AcDbEntity
  8
DD0
100
AcDbLine
 10
88.489191
 20
206.952163
 11
88.489191
 21
228.856141
  0
LINE
  5
FF
100
AcDbEntity
  8
DD0
100
AcDbLine
 10
121.489186
 20
152.452181
 11
121.489186
 21
228.856141
  0
LINE
  5
100
100
AcDbEntity
  8
DD0
100
AcDbLine
 10
93.757877
 20
228.449699
 11
88.489191
 21
227.037959
  0
LINE
  5
101
100
AcDbEntity
  8
DD0
100
AcDbLine
 10
88.489191
 20
227.037959
 11
93.757877
 21
225.626219
  0
LINE
  5
102
100
AcDbEntity
  8
DD0
100
AcDbLine
 10
116.2205
 20
225.626219
 11
121.489186
 21
227.037959
  0
LINE
  5
103
100
AcDbEntity
  8
DD0
100
AcDbLine
 10
121.489186
 20
227.037959
 11
116.2205
 21
228.449699
  0
LINE
  5
104
100
AcDbEntity
  8
DD0
100
AcDbLine
 10
88.489191
 20
227.037959
 11
121.489186
 21
227.037959
  0
TEXT
  5
105
100
AcDbEntity
  8
DD0
100
AcDbText
 10
101.664952
 20
228.128865
 40
4.545454
  1
３３
 41
0.666667
  7
STANDARD
100
AcDbText
  0
ENDBLK
  5
106
100
AcDbEntity
  8
DD0
100
AcDbBlockEnd
  0
BLOCK
  5
109
100
AcDbEntity
  8
DD0
100
AcDbBlockBegin
  2
DIMS16
 70
     0
 10
0.0
 20
0.0
  0
LINE
  5
10A
100
AcDbEntity
  8
DD0
100
AcDbLine
 10
88.489191
 20
206.952163
 11
88.489191
 21
228.856141
  0
LINE
  5
10B
100
AcDbEntity
  8
DD0
100
AcDbLine
 10
84.163692
 20
207.829724
 11
84.163692
 21
228.856141
  0
LINE
  5
10C
100
AcDbEntity
  8
DD0
100
AcDbLine
 10
93.757877
 20
228.449699
 11
88.489191
 21
227.037959
  0
LINE
  5
10D
100
AcDbEntity
  8
DD0
100
AcDbLine
 10
88.489191
 20
227.037959
 11
93.757877
 21
225.626219
  0
LINE
  5
10E
100
AcDbEntity
  8
DD0
100
AcDbLine
 10
78.895005
 20
225.626219
 11
84.163692
 21
227.037959
  0
LINE
  5
10F
100
AcDbEntity
  8
DD0
100
AcDbLine
 10
84.163692
 20
227.037959
 11
78.895005
 21
228.449699
  0
LINE
  5
110
100
AcDbEntity
  8
DD0
100
AcDbLine
 10
94.48919
 20
227.037959
 11
72.709146
 21
227.037959
  0
TEXT
  5
111
100
AcDbEntity
  8
DD0
100
AcDbText
 10
74.312179
 20
228.128865
 40
4.545454
  1
４
 41
0.666667
  7
STANDARD
100
AcDbText
  0
ENDBLK
  5
112
100
AcDbEntity
  8
DD0
100
AcDbBlockEnd
  0
ENDSEC
  0
SECTION
  2
ENTITIES
  0
INSERT
  5
56
100
AcDbEntity
  8
DD0
100
AcDbBlockReference
  2
DIMS0
 10
0.0
 20
0.0
  0
INSERT
  5
62
100
AcDbEntity
  8
DD0
100
AcDbBlockReference
  2
DIMS1
 10
0.0
 20
0.0
  0
INSERT
  5
6E
100
AcDbEntity
  8
DD0
100
AcDbBlockReference
  2
DIMS2
 10
0.0
 20
0.0
  0
INSERT
  5
7A
100
AcDbEntity
  8
DD0
100
AcDbBlockReference
  2
DIMS3
 10
0.0
 20
0.0
  0
INSERT
  5
88
100
AcDbEntity
  8
DD0
100
AcDbBlockReference
  2
DIMS4
 10
0.0
 20
0.0
  0
INSERT
  5
94
100
AcDbEntity
  8
DD0
100
AcDbBlockReference
  2
DIMS5
 10
0.0
 20
0.0
  0
INSERT
  5
A0
100
AcDbEntity
  8
DD0
100
AcDbBlockReference
  2
DIMS6
 10
0.0
 20
0.0
  0
INSERT
  5
AC
100
AcDbEntity
  8
DD0
100
AcDbBlockReference
  2
DIMS7
 10
0.0
 20
0.0
  0
INSERT
  5
B7
100
AcDbEntity
  8
DD0
100
AcDbBlockReference
  2
DIMS8
 10
0.0
 20
0.0
  0
INSERT
  5
C2
100
AcDbEntity
  8
DD0
100
AcDbBlockReference
  2
DIMS9
 10
0.0
 20
0.0
  0
INSERT
  5
CE
100
AcDbEntity
  8
DD0
100
AcDbBlockReference
  2
DIMS10
 10
0.0
 20
0.0
  0
INSERT
  5
DA
100
AcDbEntity
  8
DD0
100
AcDbBlockReference
  2
DIMS11
 10
0.0
 20
0.0
  0
INSERT
  5
E3
100
AcDbEntity
  8
DD0
100
AcDbBlockReference
  2
DIMS12
 10
0.0
 20
0.0
  0
INSERT
  5
EF
100
AcDbEntity
  8
DD0
100
AcDbBlockReference
  2
DIMS13
 10
0.0
 20
0.0
  0
INSERT
  5
FB
100
AcDbEntity
  8
DD0
100
AcDbBlockReference
  2
DIMS14
 10
0.0
 20
0.0
  0
INSERT
  5
107
100
AcDbEntity
  8
DD0
100
AcDbBlockReference
  2
DIMS15
 10
0.0
 20
0.0
  0
INSERT
  5
113
100
AcDbEntity
  8
DD0
100
AcDbBlockReference
  2
DIMS16
 10
0.0
 20
0.0
  0
CIRCLE
  5
114
100
AcDbEntity
  8
M0
 62
   253
100
AcDbCircle
 10
110.163683
 20
283.76053
 40
2.999997
  0
LINE
  5
115
100
AcDbEntity
  8
M0
 62
   253
100
AcDbLine
 10
107.204699
 20
287.707872
 11
106.388537
 21
285.060579
  0
LINE
  5
116
100
AcDbEntity
  8
M0
 62
   253
100
AcDbLine
 10
107.204699
 20
279.81328
 11
106.388537
 21
282.460603
  0
LINE
  5
117
100
AcDbEntity
  8
M0
 62
   253
100
AcDbLine
 10
113.122179
 20
287.707887
 11
113.938585
 21
285.060579
  0
LINE
  5
118
100
AcDbEntity
  8
M0
 62
   253
100
AcDbLine
 10
113.122179
 20
279.813264
 11
113.938585
 21
282.460603
  0
LINE
  5
119
100
AcDbEntity
  8
M0
 62
   253
100
AcDbLine
 10
107.682726
 20
279.460603
 11
112.644396
 21
279.460603
  0
LINE
  5
11A
100
AcDbEntity
  8
M0
 62
   253
100
AcDbLine
 10
113.938585
 20
282.460603
 11
113.938585
 21
285.060579
  0
LINE
  5
11B
100
AcDbEntity
  8
M0
 62
   253
100
AcDbLine
 10
112.644396
 20
288.060579
 11
107.682726
 21
288.060564
  0
LINE
  5
11C
100
AcDbEntity
  8
M0
 62
   253
100
AcDbLine
 10
106.388537
 20
285.060579
 11
106.388537
 21
282.460603
  0
LINE
  5
11D
100
AcDbEntity
  8
M0
 62
   253
100
AcDbLine
 10
111.754259
 20
282.16971
 11
108.572619
 21
285.351472
  0
LINE
  5
11E
100
AcDbEntity
  8
M0
 62
   253
100
AcDbLine
 10
110.516954
 20
285.174715
 11
108.749376
 21
283.407014
  0
LINE
  5
11F
100
AcDbEntity
  8
M0
 62
   253
100
AcDbLine
 10
111.577501
 20
284.114046
 11
109.809923
 21
282.346468
  0
ARC
  5
120
100
AcDbEntity
  8
M0
 62
   253
100
AcDbCircle
 10
107.682726
 20
287.560564
 40
0.5
100
AcDbArc
 50
89.998251
 51
162.874002
  0
ARC
  5
121
100
AcDbEntity
  8
M0
 62
   253
100
AcDbCircle
 10
107.682726
 20
279.960603
 40
0.5
100
AcDbArc
 50
197.129131
 51
270.0
  0
ARC
  5
122
100
AcDbEntity
  8
M0
 62
   253
100
AcDbCircle
 10
112.644396
 20
279.960603
 40
0.5
100
AcDbArc
 50
270.0
 51
342.861236
  0
ARC
  5
123
100
AcDbEntity
  8
M0
 62
   253
100
AcDbCircle
 10
112.644396
 20
287.560564
 40
0.5
100
AcDbArc
 50
17.136442
 51
90.0
  0
ARC
  5
124
100
AcDbEntity
  8
M0
 62
   253
100
AcDbCircle
 10
124.144396
 20
279.960603
 40
0.5
100
AcDbArc
 50
270.0
 51
342.861236
  0
LINE
  5
125
100
AcDbEntity
  8
M0
 62
   253
100
AcDbLine
 10
119.182726
 20
279.460603
 11
124.144396
 21
279.460603
  0
ARC
  5
126
100
AcDbEntity
  8
M0
 62
   253
100
AcDbCircle
 10
119.182726
 20
279.960603
 40
0.5
100
AcDbArc
 50
197.129131
 51
270.0
  0
LINE
  5
127
100
AcDbEntity
  8
M0
  6
DASHDOT
 62
   253
100
AcDbLine
 10
109.663683
 20
283.76053
 11
110.663683
 21
283.76053
  0
LINE
  5
128
100
AcDbEntity
  8
M0
  6
DASHDOT
 62
   253
100
AcDbLine
 10
110.163683
 20
283.26053
 11
110.163683
 21
284.26053
  0
LINE
  5
129
100
AcDbEntity
  8
M0
 62
     1
100
AcDbLine
 10
97.863696
 20
334.260596
 11
97.663695
 21
334.060597
  0
LINE
  5
12A
100
AcDbEntity
  8
M0
 62
     1
100
AcDbLine
 10
99.463694
 20
334.260596
 11
99.663695
 21
334.060597
  0
LINE
  5
12B
100
AcDbEntity
  8
M0
 62
     1
100
AcDbLine
 10
97.863696
 20
341.410598
 11
97.863696
 21
334.260596
  0
LINE
  5
12C
100
AcDbEntity
  8
M0
 62
     1
100
AcDbLine
 10
99.463694
 20
334.260596
 11
99.463694
 21
341.410598
  0
LINE
  5
12D
100
AcDbEntity
  8
M0
 62
     1
100
AcDbLine
 10
97.663695
 20
334.060597
 11
97.663695
 21
331.060603
  0
LINE
  5
12E
100
AcDbEntity
  8
M0
 62
     1
100
AcDbLine
 10
99.663695
 20
331.060603
 11
99.663695
 21
334.060597
  0
LINE
  5
12F
100
AcDbEntity
  8
M0
 62
     1
100
AcDbLine
 10
87.863696
 20
334.260596
 11
87.663695
 21
334.060597
  0
LINE
  5
130
100
AcDbEntity
  8
M0
 62
     1
100
AcDbLine
 10
89.463694
 20
334.260596
 11
89.663695
 21
334.060597
  0
LINE
  5
131
100
AcDbEntity
  8
M0
 62
     1
100
AcDbLine
 10
87.863696
 20
341.410598
 11
87.863696
 21
334.260596
  0
LINE
  5
132
100
AcDbEntity
  8
M0
 62
     1
100
AcDbLine
 10
89.463694
 20
334.260596
 11
89.463694
 21
341.410598
  0
LINE
  5
133
100
AcDbEntity
  8
M0
 62
     1
100
AcDbLine
 10
87.663695
 20
334.060597
 11
87.663695
 21
331.060603
  0
LINE
  5
134
100
AcDbEntity
  8
M0
 62
     1
100
AcDbLine
 10
89.663695
 20
331.060603
 11
89.663695
 21
334.060597
  0
LINE
  5
135
100
AcDbEntity
  8
M0
 62
    74
100
AcDbLine
 10
125.36369
 20
314.710597
 11
125.36369
 21
312.810597
  0
LINE
  5
136
100
AcDbEntity
  8
M0
 62
    74
100
AcDbLine
 10
121.96368
 20
314.710597
 11
121.96368
 21
312.810597
  0
LINE
  5
137
100
AcDbEntity
  8
M0
 62
    74
100
AcDbLine
 10
122.16368
 20
314.910597
 11
125.16369
 21
314.910597
  0
LINE
  5
138
100
AcDbEntity
  8
M0
 62
    74
100
AcDbLine
 10
122.16368
 20
312.610597
 11
125.16369
 21
312.610597
  0
ARC
  5
139
100
AcDbEntity
  8
M0
 62
    74
100
AcDbCircle
 10
125.16369
 20
314.710597
 40
0.2
100
AcDbArc
 50
0.0
 51
90.0
  0
ARC
  5
13A
100
AcDbEntity
  8
M0
 62
    74
100
AcDbCircle
 10
122.16368
 20
314.710597
 40
0.2
100
AcDbArc
 50
90.0
 51
180.0
  0
ARC
  5
13B
100
AcDbEntity
  8
M0
 62
    74
100
AcDbCircle
 10
122.16368
 20
312.810597
 40
0.2
100
AcDbArc
 50
180.0
 51
270.0
  0
ARC
  5
13C
100
AcDbEntity
  8
M0
 62
    74
100
AcDbCircle
 10
125.16369
 20
312.810597
 40
0.2
100
AcDbArc
 50
270.0
 51
360.0
  0
CIRCLE
  5
13D
100
AcDbEntity
  8
M0
 62
   234
100
AcDbCircle
 10
97.163689
 20
312.260585
 40
3.0
  0
LINE
  5
13E
100
AcDbEntity
  8
M0
 62
   234
100
AcDbLine
 10
97.797663
 20
309.328338
 11
97.797663
 21
315.192832
  0
LINE
  5
13F
100
AcDbEntity
  8
M0
 62
   234
100
AcDbLine
 10
96.529714
 20
309.328338
 11
96.529714
 21
315.192832
  0
LINE
  5
140
100
AcDbEntity
  8
M0
 62
   234
100
AcDbLine
 10
97.913689
 20
315.165322
 11
97.913689
 21
315.985836
  0
LINE
  5
141
100
AcDbEntity
  8
M0
 62
   234
100
AcDbLine
 10
96.413689
 20
315.165322
 11
96.413689
 21
315.985836
  0
ARC
  5
142
100
AcDbEntity
  8
M0
 62
   234
100
AcDbCircle
 10
97.163689
 20
312.260585
 40
3.799999
100
AcDbArc
 50
78.616869
 51
101.383087
  0
LINE
  5
143
100
AcDbEntity
  8
M0
  6
DASHDOT
 62
   234
100
AcDbLine
 10
92.163689
 20
312.260585
 11
102.163689
 21
312.260585
  0
LINE
  5
144
100
AcDbEntity
  8
M0
  6
DASHDOT
 62
   234
100
AcDbLine
 10
97.163689
 20
307.260585
 11
97.163689
 21
317.260585
  0
LINE
  5
145
100
AcDbEntity
  8
M0
100
AcDbLine
 10
99.297661
 20
304.460613
 11
97.029701
 21
304.460613
  0
LINE
  5
146
100
AcDbEntity
  8
M0
100
AcDbLine
 10
109.297646
 20
304.460613
 11
107.029701
 21
304.460613
  0
LINE
  5
147
100
AcDbEntity
  8
M0
100
AcDbLine
 10
119.297634
 20
304.460613
 11
117.029685
 21
304.460613
  0
ARC
  5
148
100
AcDbEntity
  8
M0
100
AcDbCircle
 10
114.163675
 20
312.460597
 40
7.0
100
AcDbArc
 50
295.376814
 51
330.940685
  0
LINE
  5
149
100
AcDbEntity
  8
M0
100
AcDbLine
 10
117.16366
 20
304.960613
 11
117.16366
 21
306.136046
  0
LINE
  5
14A
100
AcDbEntity
  8
M0
100
AcDbLine
 10
129.163658
 20
309.060595
 11
120.282497
 21
309.060595
  0
LINE
  5
14B
100
AcDbEntity
  8
M0
100
AcDbLine
 10
117.16366
 20
292.460613
 11
109.163674
 21
292.460613
  0
LINE
  5
14C
100
AcDbEntity
  8
M0
100
AcDbLine
 10
107.163674
 20
292.460613
 11
99.163674
 21
292.460613
  0
LINE
  5
14D
100
AcDbEntity
  8
M0
100
AcDbLine
 10
97.163674
 20
292.460613
 11
84.663689
 21
292.460613
  0
LINE
  5
14E
100
AcDbEntity
  8
M0
100
AcDbLine
 10
129.163658
 20
292.460613
 11
119.16366
 21
292.460613
  0
LINE
  5
14F
100
AcDbEntity
  8
M0
100
AcDbLine
 10
104.163704
 20
277.960613
 11
96.163704
 21
277.960613
  0
ARC
  5
150
100
AcDbEntity
  8
M0
100
AcDbCircle
 10
85.663704
 20
278.460613
 40
0.5
100
AcDbArc
 50
270.0
 51
360.0
  0
ARC
  5
151
100
AcDbEntity
  8
M0
100
AcDbCircle
 10
105.963707
 20
283.160626
 40
0.2
100
AcDbArc
 50
270.0
 51
360.0
  0
ARC
  5
152
100
AcDbEntity
  8
M0
100
AcDbCircle
 10
95.963707
 20
283.160626
 40
0.2
100
AcDbArc
 50
270.0
 51
360.0
  0
LINE
  5
153
100
AcDbEntity
  8
M0
100
AcDbLine
 10
105.963707
 20
282.960613
 11
104.363716
 21
282.960613
  0
LINE
  5
154
100
AcDbEntity
  8
M0
100
AcDbLine
 10
95.963707
 20
282.960613
 11
94.363716
 21
282.960613
  0
LINE
  5
155
100
AcDbEntity
  8
M0
100
AcDbLine
 10
114.163691
 20
277.960613
 11
106.163704
 21
277.960613
  0
LINE
  5
156
100
AcDbEntity
  8
M0
100
AcDbLine
 10
118.663704
 20
288.960613
 11
124.663704
 21
288.960613
  0
LINE
  5
157
100
AcDbEntity
  8
M0
100
AcDbLine
 10
107.163704
 20
288.960613
 11
113.163704
 21
288.960613
  0
LINE
  5
158
100
AcDbEntity
  8
M0
100
AcDbLine
 10
97.163704
 20
288.960613
 11
103.163704
 21
288.960613
  0
LINE
  5
159
100
AcDbEntity
  8
M0
100
AcDbLine
 10
87.163704
 20
288.960613
 11
93.163704
 21
288.960613
  0
ARC
  5
15A
100
AcDbEntity
  8
M0
100
AcDbCircle
 10
125.092494
 20
303.460613
 40
1.5
100
AcDbArc
 50
14.036703
 51
90.0
  0
LINE
  5
15B
100
AcDbEntity
  8
M0
100
AcDbLine
 10
127.163658
 20
301.360607
 11
126.547709
 21
303.824429
  0
LINE
  5
15C
100
AcDbEntity
  8
M0
100
AcDbLine
 10
127.163658
 20
281.260616
 11
125.068524
 21
281.260616
  0
ARC
  5
15D
100
AcDbEntity
  8
M0
100
AcDbCircle
 10
127.097471
 20
322.660597
 40
1.0
100
AcDbArc
 50
30.9637
 51
90.0
  0
LINE
  5
15E
100
AcDbEntity
  8
M0
100
AcDbLine
 10
128.38366
 20
322.460597
 11
127.954964
 21
323.175092
  0
LINE
  5
15F
100
AcDbEntity
  8
M0
100
AcDbLine
 10
129.163658
 20
304.960613
 11
110.163674
 21
304.960613
  0
ARC
  5
160
100
AcDbEntity
  8
M0
100
AcDbCircle
 10
128.663658
 20
294.460613
 40
0.5
100
AcDbArc
 50
270.0
 51
360.0
  0
ARC
  5
161
100
AcDbEntity
  8
M0
100
AcDbCircle
 10
127.663658
 20
294.460613
 40
0.5
100
AcDbArc
 50
180.0
 51
270.0
  0
LINE
  5
162
100
AcDbEntity
  8
M0
100
AcDbLine
 10
128.663658
 20
293.960613
 11
127.663658
 21
293.960613
  0
LINE
  5
163
100
AcDbEntity
  8
M0
100
AcDbLine
 10
89.163674
 20
304.960613
 11
89.163674
 21
294.960613
  0
LINE
  5
164
100
AcDbEntity
  8
M0
100
AcDbLine
 10
97.163674
 20
303.960613
 11
97.163674
 21
292.460613
  0
LINE
  5
165
100
AcDbEntity
  8
M0
100
AcDbLine
 10
99.163674
 20
303.960613
 11
99.163674
 21
292.460613
  0
LINE
  5
166
100
AcDbEntity
  8
M0
100
AcDbLine
 10
107.163674
 20
303.960613
 11
107.163674
 21
292.460613
  0
LINE
  5
167
100
AcDbEntity
  8
M0
100
AcDbLine
 10
109.163674
 20
292.460613
 11
109.163674
 21
303.960613
  0
LINE
  5
168
100
AcDbEntity
  8
M0
100
AcDbLine
 10
117.16366
 20
292.460613
 11
117.16366
 21
303.960613
  0
LINE
  5
169
100
AcDbEntity
  8
M0
100
AcDbLine
 10
115.663685
 20
275.460598
 11
114.663691
 21
275.460598
  0
ARC
  5
16A
100
AcDbEntity
  8
M0
100
AcDbCircle
 10
128.663658
 20
278.460598
 40
0.5
100
AcDbArc
 50
270.0
 51
360.0
  0
ARC
  5
16B
100
AcDbEntity
  8
M0
100
AcDbCircle
 10
127.663658
 20
278.460598
 40
0.5
100
AcDbArc
 50
180.0
 51
270.0
  0
LINE
  5
16C
100
AcDbEntity
  8
M0
100
AcDbLine
 10
128.663658
 20
277.960598
 11
127.663658
 21
277.960598
  0
LINE
  5
16D
100
AcDbEntity
  8
M0
100
AcDbLine
 10
119.16366
 20
303.960613
 11
119.16366
 21
292.460613
  0
LINE
  5
16E
100
AcDbEntity
  8
M0
100
AcDbLine
 10
107.663704
 20
312.460597
 11
106.163704
 21
313.960597
  0
LINE
  5
16F
100
AcDbEntity
  8
M0
100
AcDbLine
 10
105.163689
 20
313.960597
 11
106.163704
 21
313.960597
  0
LINE
  5
170
100
AcDbEntity
  8
M0
100
AcDbLine
 10
105.163689
 20
310.960597
 11
106.163704
 21
310.960597
  0
LINE
  5
171
100
AcDbEntity
  8
M0
100
AcDbLine
 10
107.663704
 20
312.460597
 11
106.163704
 21
310.960597
  0
LINE
  5
172
100
AcDbEntity
  8
M0
100
AcDbLine
 10
105.163689
 20
313.960597
 11
105.163689
 21
310.960597
  0
LINE
  5
173
100
AcDbEntity
  8
M0
100
AcDbLine
 10
108.967537
 20
309.460597
 11
107.163689
 21
308.419139
  0
LINE
  5
174
100
AcDbEntity
  8
M0
100
AcDbLine
 10
107.163689
 20
304.960613
 11
107.163689
 21
308.419139
  0
ARC
  5
175
100
AcDbEntity
  8
M0
100
AcDbCircle
 10
95.163689
 20
317.560588
 40
0.5
100
AcDbArc
 50
180.0
 51
270.0
  0
LINE
  5
176
100
AcDbEntity
  8
M0
100
AcDbLine
 10
94.663689
 20
319.960597
 11
84.163689
 21
319.960597
  0
LINE
  5
177
100
AcDbEntity
  8
M0
100
AcDbLine
 10
94.663689
 20
317.560588
 11
94.663689
 21
319.960597
  0
LINE
  5
178
100
AcDbEntity
  8
M0
100
AcDbLine
 10
95.163689
 20
317.060588
 11
99.163689
 21
317.060588
  0
LINE
  5
179
100
AcDbEntity
  8
M0
100
AcDbLine
 10
89.163689
 20
304.960613
 11
89.163689
 21
319.960597
  0
LINE
  5
17A
100
AcDbEntity
  8
M0
100
AcDbLine
 10
120.163784
 20
319.960597
 11
103.663689
 21
319.960597
  0
LINE
  5
17B
100
AcDbEntity
  8
M0
100
AcDbLine
 10
94.163704
 20
277.960613
 11
84.663689
 21
277.960613
  0
ARC
  5
17C
100
AcDbEntity
  8
M0
100
AcDbCircle
 10
105.663704
 20
275.960598
 40
0.5
100
AcDbArc
 50
270.0
 51
360.0
  0
ARC
  5
17D
100
AcDbEntity
  8
M0
100
AcDbCircle
 10
104.663704
 20
275.960598
 40
0.5
100
AcDbArc
 50
180.0
 51
270.0
  0
ARC
  5
17E
100
AcDbEntity
  8
M0
100
AcDbCircle
 10
95.663704
 20
275.960598
 40
0.5
100
AcDbArc
 50
270.0
 51
360.0
  0
ARC
  5
17F
100
AcDbEntity
  8
M0
100
AcDbCircle
 10
94.663704
 20
275.960598
 40
0.5
100
AcDbArc
 50
180.0
 51
270.0
  0
LINE
  5
180
100
AcDbEntity
  8
M0
100
AcDbLine
 10
108.663674
 20
291.960613
 11
107.663674
 21
291.960613
  0
LINE
  5
181
100
AcDbEntity
  8
M0
100
AcDbLine
 10
98.663674
 20
291.960613
 11
97.663674
 21
291.960613
  0
LINE
  5
182
100
AcDbEntity
  8
M0
100
AcDbLine
 10
118.66366
 20
291.960613
 11
117.66366
 21
291.960613
  0
LINE
  5
183
100
AcDbEntity
  8
M0
100
AcDbLine
 10
95.663704
 20
275.460598
 11
94.663704
 21
275.460598
  0
LINE
  5
184
100
AcDbEntity
  8
M0
100
AcDbLine
 10
105.663704
 20
275.460598
 11
104.663704
 21
275.460598
  0
LINE
  5
185
100
AcDbEntity
  8
M0
100
AcDbLine
 10
114.163691
 20
275.960598
 11
114.163691
 21
287.965781
  0
LINE
  5
186
100
AcDbEntity
  8
M0
100
AcDbLine
 10
116.163685
 20
275.960598
 11
116.163685
 21
281.260616
  0
LINE
  5
187
100
AcDbEntity
  8
M0
100
AcDbLine
 10
106.163704
 20
275.960598
 11
106.163704
 21
290.960613
  0
LINE
  5
188
100
AcDbEntity
  8
M0
100
AcDbLine
 10
104.163704
 20
275.960598
 11
104.163704
 21
290.960613
  0
LINE
  5
189
100
AcDbEntity
  8
M0
100
AcDbLine
 10
96.163704
 20
275.960598
 11
96.163704
 21
290.960613
  0
LINE
  5
18A
100
AcDbEntity
  8
M0
100
AcDbLine
 10
94.163704
 20
275.960598
 11
94.163704
 21
290.960613
  0
LINE
  5
18B
100
AcDbEntity
  8
M0
100
AcDbLine
 10
86.163704
 20
278.460613
 11
86.163704
 21
287.960613
  0
ARC
  5
18C
100
AcDbEntity
  8
M0
100
AcDbCircle
 10
85.163689
 20
294.960613
 40
1.0
100
AcDbArc
 50
180.0
 51
270.0
  0
ARC
  5
18D
100
AcDbEntity
  8
M0
100
AcDbCircle
 10
88.163674
 20
294.960613
 40
1.0
100
AcDbArc
 50
270.0
 51
360.0
  0
LINE
  5
18E
100
AcDbEntity
  8
M0
100
AcDbLine
 10
85.163689
 20
293.960613
 11
88.163674
 21
293.960613
  0
ARC
  5
18F
100
AcDbEntity
  8
M0
100
AcDbCircle
 10
90.84446
 20
303.960613
 40
1.0
100
AcDbArc
 50
89.999126
 51
165.962696
  0
LINE
  5
190
100
AcDbEntity
  8
M0
100
AcDbLine
 10
89.163674
 20
301.360607
 11
89.874321
 21
304.203152
  0
ARC
  5
191
100
AcDbEntity
  8
M0
100
AcDbCircle
 10
96.163674
 20
303.960613
 40
1.0
100
AcDbArc
 50
0.0
 51
89.999126
  0
ARC
  5
192
100
AcDbEntity
  8
M0
100
AcDbCircle
 10
100.163674
 20
303.960613
 40
1.0
100
AcDbArc
 50
89.999126
 51
180.0
  0
ARC
  5
193
100
AcDbEntity
  8
M0
100
AcDbCircle
 10
106.163674
 20
303.960613
 40
1.0
100
AcDbArc
 50
0.0
 51
89.999126
  0
ARC
  5
194
100
AcDbEntity
  8
M0
100
AcDbCircle
 10
110.163674
 20
303.960613
 40
1.0
100
AcDbArc
 50
89.999126
 51
180.0
  0
ARC
  5
195
100
AcDbEntity
  8
M0
100
AcDbCircle
 10
116.16366
 20
303.960613
 40
1.0
100
AcDbArc
 50
0.0
 51
90.0
  0
LINE
  5
196
100
AcDbEntity
  8
M0
100
AcDbLine
 10
127.163658
 20
301.360607
 11
127.163658
 21
294.460613
  0
LINE
  5
197
100
AcDbEntity
  8
M0
100
AcDbLine
 10
84.163689
 20
278.460613
 11
84.163689
 21
323.960581
  0
ARC
  5
198
100
AcDbEntity
  8
M0
100
AcDbCircle
 10
120.16366
 20
303.960613
 40
1.0
100
AcDbArc
 50
90.0
 51
180.0
  0
LINE
  5
199
100
AcDbEntity
  8
M0
100
AcDbLine
 10
129.163658
 20
311.660594
 11
121.163663
 21
311.660594
  0
LINE
  5
19A
100
AcDbEntity
  8
M0
100
AcDbLine
 10
129.163658
 20
278.460598
 11
129.163658
 21
321.022106
  0
ARC
  5
19B
100
AcDbEntity
  8
M0
100
AcDbCircle
 10
84.663689
 20
292.960613
 40
0.5
100
AcDbArc
 50
180.0
 51
270.0
  0
LINE
  5
19C
100
AcDbEntity
  8
M0
100
AcDbLine
 10
119.663663
 20
323.460597
 11
119.663663
 21
323.660597
  0
LINE
  5
19D
100
AcDbEntity
  8
M0
100
AcDbLine
 10
125.663663
 20
322.460597
 11
125.663663
 21
323.660597
  0
ARC
  5
19E
100
AcDbEntity
  8
M0
100
AcDbCircle
 10
121.163663
 20
312.160594
 40
0.5
100
AcDbArc
 50
180.0
 51
270.0
  0
LINE
  5
19F
100
AcDbEntity
  8
M0
100
AcDbLine
 10
120.663663
 20
312.160594
 11
120.663663
 21
317.860598
  0
LINE
  5
1A0
100
AcDbEntity
  8
M0
100
AcDbLine
 10
120.663663
 20
317.860598
 11
118.463666
 21
317.860598
  0
LINE
  5
1A1
100
AcDbEntity
  8
M0
100
AcDbLine
 10
118.463666
 20
317.860598
 11
118.463666
 21
319.960597
  0
LINE
  5
1A2
100
AcDbEntity
  8
M0
100
AcDbLine
 10
127.097471
 20
323.660597
 11
119.463768
 21
323.660597
  0
LINE
  5
1A3
100
AcDbEntity
  8
M0
100
AcDbLine
 10
109.763695
 20
323.460597
 11
107.563698
 21
323.460597
  0
LINE
  5
1A4
100
AcDbEntity
  8
M0
100
AcDbLine
 10
87.163689
 20
319.960597
 11
87.163689
 21
317.460597
  0
LINE
  5
1A5
100
AcDbEntity
  8
M0
100
AcDbLine
 10
86.663689
 20
317.460597
 11
87.163689
 21
317.460597
  0
LINE
  5
1A6
100
AcDbEntity
  8
M0
100
AcDbLine
 10
86.663689
 20
293.960613
 11
86.663689
 21
317.460597
  0
LINE
  5
1A7
100
AcDbEntity
  8
M0
100
AcDbLine
 10
89.663689
 20
304.960613
 11
89.663689
 21
308.960597
  0
LINE
  5
1A8
100
AcDbEntity
  8
M0
100
AcDbLine
 10
89.663689
 20
308.960597
 11
89.163689
 21
308.960597
  0
LINE
  5
1A9
100
AcDbEntity
  8
M0
100
AcDbLine
 10
128.463659
 20
309.060595
 11
128.463659
 21
304.960613
  0
LINE
  5
1AA
100
AcDbEntity
  8
M0
100
AcDbLine
 10
127.963659
 20
309.060595
 11
127.963659
 21
304.960613
  0
ARC
  5
1AB
100
AcDbEntity
  8
M0
100
AcDbCircle
 10
84.663689
 20
278.460613
 40
0.5
100
AcDbArc
 50
180.0
 51
270.0
  0
ARC
  5
1AC
100
AcDbEntity
  8
M0
100
AcDbCircle
 10
104.363716
 20
283.160626
 40
0.2
100
AcDbArc
 50
180.0
 51
270.0
  0
ARC
  5
1AD
100
AcDbEntity
  8
M0
100
AcDbCircle
 10
94.363716
 20
283.160626
 40
0.2
100
AcDbArc
 50
180.0
 51
270.0
  0
ARC
  5
1AE
100
AcDbEntity
  8
M0
100
AcDbCircle
 10
98.663674
 20
292.460613
 40
0.5
100
AcDbArc
 50
270.0
 51
360.0
  0
ARC
  5
1AF
100
AcDbEntity
  8
M0
100
AcDbCircle
 10
97.663674
 20
292.460613
 40
0.5
100
AcDbArc
 50
180.0
 51
270.0
  0
ARC
  5
1B0
100
AcDbEntity
  8
M0
100
AcDbCircle
 10
108.663674
 20
292.460613
 40
0.5
100
AcDbArc
 50
270.0
 51
360.0
  0
ARC
  5
1B1
100
AcDbEntity
  8
M0
100
AcDbCircle
 10
107.663674
 20
292.460613
 40
0.5
100
AcDbArc
 50
180.0
 51
270.0
  0
ARC
  5
1B2
100
AcDbEntity
  8
M0
100
AcDbCircle
 10
118.66366
 20
292.460613
 40
0.5
100
AcDbArc
 50
270.0
 51
360.0
  0
ARC
  5
1B3
100
AcDbEntity
  8
M0
100
AcDbCircle
 10
117.66366
 20
292.460613
 40
0.5
100
AcDbArc
 50
180.0
 51
270.0
  0
ARC
  5
1B4
100
AcDbEntity
  8
M0
100
AcDbCircle
 10
115.663685
 20
275.960598
 40
0.5
100
AcDbArc
 50
270.0
 51
360.0
  0
ARC
  5
1B5
100
AcDbEntity
  8
M0
100
AcDbCircle
 10
114.663691
 20
275.960598
 40
0.5
100
AcDbArc
 50
180.0
 51
270.0
  0
LINE
  5
1B6
100
AcDbEntity
  8
M0
100
AcDbLine
 10
107.163689
 20
304.960613
 11
89.163689
 21
304.960613
  0
LINE
  5
1B7
100
AcDbEntity
  8
M0
100
AcDbLine
 10
127.163658
 20
281.260616
 11
127.163658
 21
278.460598
  0
ARC
  5
1B8
100
AcDbEntity
  8
M0
100
AcDbCircle
 10
93.163704
 20
287.960613
 40
1.0
100
AcDbArc
 50
0.0
 51
89.999126
  0
ARC
  5
1B9
100
AcDbEntity
  8
M0
100
AcDbCircle
 10
97.163704
 20
287.960613
 40
1.0
100
AcDbArc
 50
89.999126
 51
180.0
  0
ARC
  5
1BA
100
AcDbEntity
  8
M0
100
AcDbCircle
 10
103.163704
 20
287.960613
 40
1.0
100
AcDbArc
 50
0.0
 51
89.999126
  0
LINE
  5
1BB
100
AcDbEntity
  8
M0
100
AcDbLine
 10
117.663663
 20
281.260616
 11
117.663663
 21
288.060559
  0
LINE
  5
1BC
100
AcDbEntity
  8
M0
100
AcDbLine
 10
125.663663
 20
281.260616
 11
125.663663
 21
287.96967
  0
ARC
  5
1BD
100
AcDbEntity
  8
M0
100
AcDbCircle
 10
87.163704
 20
287.960613
 40
1.0
100
AcDbArc
 50
89.999126
 51
180.0
  0
LINE
  5
1BE
100
AcDbEntity
  8
M0
100
AcDbLine
 10
118.258494
 20
281.260616
 11
116.163685
 21
281.260616
  0
ARC
  5
1BF
100
AcDbEntity
  8
M0
100
AcDbCircle
 10
107.163704
 20
287.960613
 40
1.0
100
AcDbArc
 50
89.999126
 51
180.0
  0
ARC
  5
1C0
100
AcDbEntity
  8
M0
100
AcDbCircle
 10
113.163704
 20
287.960613
 40
1.0
100
AcDbArc
 50
0.0
 51
89.999126
  0
ARC
  5
1C1
100
AcDbEntity
  8
M0
100
AcDbCircle
 10
118.663704
 20
287.960613
 40
1.0
100
AcDbArc
 50
89.999126
 51
180.0
  0
ARC
  5
1C2
100
AcDbEntity
  8
M0
100
AcDbCircle
 10
124.663704
 20
287.960613
 40
1.0
100
AcDbArc
 50
0.0
 51
89.999126
  0
CIRCLE
  5
1C3
100
AcDbEntity
  8
M0
 62
     4
100
AcDbCircle
 10
103.163683
 20
300.26053
 40
2.999997
  0
LINE
  5
1C4
100
AcDbEntity
  8
M0
 62
     4
100
AcDbLine
 10
100.204699
 20
304.207872
 11
99.388537
 21
301.560579
  0
LINE
  5
1C5
100
AcDbEntity
  8
M0
 62
     4
100
AcDbLine
 10
100.204699
 20
296.31328
 11
99.388537
 21
298.960603
  0
LINE
  5
1C6
100
AcDbEntity
  8
M0
 62
     4
100
AcDbLine
 10
106.122179
 20
304.207887
 11
106.938585
 21
301.560579
  0
LINE
  5
1C7
100
AcDbEntity
  8
M0
 62
     4
100
AcDbLine
 10
106.122179
 20
296.313264
 11
106.938585
 21
298.960603
  0
LINE
  5
1C8
100
AcDbEntity
  8
M0
 62
     4
100
AcDbLine
 10
100.682726
 20
295.960603
 11
105.644396
 21
295.960603
  0
LINE
  5
1C9
100
AcDbEntity
  8
M0
 62
     4
100
AcDbLine
 10
106.938585
 20
298.960603
 11
106.938585
 21
301.560579
  0
LINE
  5
1CA
100
AcDbEntity
  8
M0
 62
     4
100
AcDbLine
 10
105.644396
 20
304.560579
 11
100.682726
 21
304.560564
  0
LINE
  5
1CB
100
AcDbEntity
  8
M0
 62
     4
100
AcDbLine
 10
99.388537
 20
301.560579
 11
99.388537
 21
298.960603
  0
LINE
  5
1CC
100
AcDbEntity
  8
M0
 62
     4
100
AcDbLine
 10
104.754259
 20
298.66971
 11
101.572619
 21
301.851472
  0
LINE
  5
1CD
100
AcDbEntity
  8
M0
 62
     4
100
AcDbLine
 10
103.516954
 20
301.674715
 11
101.749376
 21
299.907014
  0
LINE
  5
1CE
100
AcDbEntity
  8
M0
 62
     4
100
AcDbLine
 10
104.577501
 20
300.614046
 11
102.809923
 21
298.846468
  0
ARC
  5
1CF
100
AcDbEntity
  8
M0
 62
     4
100
AcDbCircle
 10
100.682726
 20
304.060564
 40
0.5
100
AcDbArc
 50
89.998251
 51
162.874002
  0
ARC
  5
1D0
100
AcDbEntity
  8
M0
 62
     4
100
AcDbCircle
 10
100.682726
 20
296.460603
 40
0.5
100
AcDbArc
 50
197.129131
 51
270.0
  0
ARC
  5
1D1
100
AcDbEntity
  8
M0
 62
     4
100
AcDbCircle
 10
105.644396
 20
296.460603
 40
0.5
100
AcDbArc
 50
270.0
 51
342.861236
  0
ARC
  5
1D2
100
AcDbEntity
  8
M0
 62
     4
100
AcDbCircle
 10
105.644396
 20
304.060564
 40
0.5
100
AcDbArc
 50
17.136442
 51
90.0
  0
LINE
  5
1D3
100
AcDbEntity
  8
M0
  6
DASHDOT
 62
     4
100
AcDbLine
 10
102.663683
 20
300.26053
 11
103.663683
 21
300.26053
  0
LINE
  5
1D4
100
AcDbEntity
  8
M0
  6
DASHDOT
 62
     4
100
AcDbLine
 10
103.163683
 20
299.76053
 11
103.163683
 21
300.76053
  0
LINE
  5
1D5
100
AcDbEntity
  8
M0
100
AcDbLine
 10
303.374257
 20
323.661838
 11
300.374258
 21
323.661838
  0
LINE
  5
1D6
100
AcDbEntity
  8
M0
100
AcDbLine
 10
300.374258
 20
323.661838
 11
300.374258
 21
319.961825
  0
LINE
  5
1D7
100
AcDbEntity
  8
M0
100
AcDbLine
 10
300.374258
 20
321.961825
 11
303.374257
 21
321.961825
  0
ARC
  5
1D8
100
AcDbEntity
  8
M0
100
AcDbCircle
 10
294.874258
 20
291.961842
 40
1.0
100
AcDbArc
 50
-90.0
 51
0.0
  0
LINE
  5
1D9
100
AcDbEntity
  8
M0
100
AcDbLine
 10
295.874258
 20
295.461842
 11
295.874258
 21
291.461842
  0
LINE
  5
1DA
100
AcDbEntity
  8
M0
100
AcDbLine
 10
303.374257
 20
323.661838
 11
303.374257
 21
296.961842
  0
LINE
  5
1DB
100
AcDbEntity
  8
M0
100
AcDbLine
 10
302.374257
 20
295.961842
 11
296.374258
 21
295.961842
  0
ARC
  5
1DC
100
AcDbEntity
  8
M0
100
AcDbCircle
 10
302.374257
 20
296.961842
 40
1.0
100
AcDbArc
 50
-90.0
 51
0.0
  0
LINE
  5
1DD
100
AcDbEntity
  8
M0
100
AcDbLine
 10
294.874258
 20
290.961842
 11
278.87429
 21
290.961842
  0
LINE
  5
1DE
100
AcDbEntity
  8
M0
100
AcDbLine
 10
283.775734
 20
289.461856
 11
278.472358
 21
289.461856
  0
LINE
  5
1DF
100
AcDbEntity
  8
M0
100
AcDbLine
 10
229.37429
 20
319.961825
 11
233.874244
 21
319.961825
  0
LINE
  5
1E0
100
AcDbEntity
  8
M0
100
AcDbLine
 10
229.37429
 20
319.961825
 11
229.37429
 21
304.961842
  0
ARC
  5
1E1
100
AcDbEntity
  8
M0
100
AcDbCircle
 10
283.775734
 20
293.461842
 40
4.0
100
AcDbArc
 50
270.0
 51
321.318
  0
LINE
  5
1E2
100
AcDbEntity
  8
M0
100
AcDbLine
 10
263.17432
 20
319.961825
 11
300.374258
 21
319.961825
  0
ARC
  5
1E3
100
AcDbEntity
  8
M0
100
AcDbCircle
 10
231.37429
 20
319.961825
 40
0.9
100
AcDbArc
 50
180.0
 51
359.999939
  0
LINE
  5
1E4
100
AcDbEntity
  8
M0
100
AcDbLine
 10
231.174293
 20
308.961838
 11
231.174293
 21
304.961842
  0
LINE
  5
1E5
100
AcDbEntity
  8
M0
100
AcDbLine
 10
229.37429
 20
308.961838
 11
231.174293
 21
308.961838
  0
LINE
  5
1E6
100
AcDbEntity
  8
M0
100
AcDbLine
 10
232.774315
 20
308.961841
 11
232.774299
 21
304.961842
  0
LINE
  5
1E7
100
AcDbEntity
  8
M0
100
AcDbLine
 10
234.774299
 20
299.961842
 11
234.774299
 21
308.961825
  0
LINE
  5
1E8
100
AcDbEntity
  8
M0
100
AcDbLine
 10
229.37429
 20
304.961842
 11
234.774299
 21
304.961842
  0
LINE
  5
1E9
100
AcDbEntity
  8
M0
100
AcDbLine
 10
240.774315
 20
293.961842
 11
245.874305
 21
293.961842
  0
LINE
  5
1EA
100
AcDbEntity
  8
M0
100
AcDbLine
 10
247.744896
 20
291.961842
 11
237.674308
 21
291.961842
  0
LINE
  5
1EB
100
AcDbEntity
  8
M0
100
AcDbLine
 10
231.674308
 20
304.961842
 11
231.674308
 21
297.961842
  0
ARC
  5
1EC
100
AcDbEntity
  8
M0
100
AcDbCircle
 10
237.674308
 20
297.961842
 40
6.0
100
AcDbArc
 50
179.999982
 51
270.0
  0
ARC
  5
1ED
100
AcDbEntity
  8
M0
100
AcDbCircle
 10
296.374258
 20
295.461842
 40
0.5
100
AcDbArc
 50
90.0
 51
179.999891
  0
LINE
  5
1EE
100
AcDbEntity
  8
M0
100
AcDbLine
 10
278.87429
 20
290.961887
 11
275.912635
 21
279.908908
  0
LINE
  5
1EF
100
AcDbEntity
  8
M0
100
AcDbLine
 10
259.187828
 20
275.461841
 11
270.117088
 21
275.461841
  0
LINE
  5
1F0
100
AcDbEntity
  8
M0
100
AcDbLine
 10
260.874321
 20
277.961841
 11
272.321617
 21
277.961841
  0
ARC
  5
1F1
100
AcDbEntity
  8
M0
100
AcDbCircle
 10
272.321617
 20
281.961841
 40
4.0
100
AcDbArc
 50
270.0
 51
344.999779
  0
ARC
  5
1F2
100
AcDbEntity
  8
M0
100
AcDbCircle
 10
270.117088
 20
281.461841
 40
6.0
100
AcDbArc
 50
270.0
 51
344.999849
  0
LINE
  5
1F3
100
AcDbEntity
  8
M0
100
AcDbLine
 10
254.874305
 20
281.461856
 11
254.874305
 21
288.961841
  0
ARC
  5
1F4
100
AcDbEntity
  8
M0
100
AcDbCircle
 10
260.874305
 20
283.961841
 40
6.0
100
AcDbArc
 50
179.999854
 51
270.0
  0
ARC
  5
1F5
100
AcDbEntity
  8
M0
100
AcDbCircle
 10
260.874305
 20
281.461856
 40
6.0
100
AcDbArc
 50
179.999854
 51
270.0
  0
LINE
  5
1F6
100
AcDbEntity
  8
M0
100
AcDbLine
 10
249.874305
 20
292.461842
 11
249.874305
 21
295.961826
  0
LINE
  5
1F7
100
AcDbEntity
  8
M0
100
AcDbLine
 10
246.874305
 20
291.961842
 11
246.874305
 21
295.961826
  0
LINE
  5
1F8
100
AcDbEntity
  8
M0
100
AcDbLine
 10
246.874305
 20
295.961826
 11
249.874305
 21
295.961826
  0
ARC
  5
1F9
100
AcDbEntity
  8
M0
100
AcDbCircle
 10
245.874305
 20
294.961842
 40
1.0
100
AcDbArc
 50
270.0
 51
360.0
  0
LINE
  5
1FA
100
AcDbEntity
  8
M0
100
AcDbLine
 10
229.37429
 20
308.961841
 11
234.774299
 21
308.961841
  0
LINE
  5
1FB
100
AcDbEntity
  8
M0
100
AcDbLine
 10
229.37429
 20
317.861819
 11
230.374412
 21
317.861819
  0
LINE
  5
1FC
100
AcDbEntity
  8
M0
100
AcDbLine
 10
230.37429
 20
310.661822
 11
236.074302
 21
310.661822
  0
ARC
  5
1FD
100
AcDbEntity
  8
M0
100
AcDbCircle
 10
237.074302
 20
310.661822
 40
1.0
100
AcDbArc
 50
90.0
 51
180.0
  0
ARC
  5
1FE
100
AcDbEntity
  8
M0
100
AcDbCircle
 10
237.074302
 20
310.661822
 40
1.0
100
AcDbArc
 50
90.0
 51
180.0
  0
LINE
  5
1FF
100
AcDbEntity
  8
M0
100
AcDbLine
 10
230.37429
 20
309.461841
 11
230.37429
 21
317.861819
  0
ARC
  5
200
100
AcDbEntity
  8
M0
100
AcDbCircle
 10
240.774299
 20
299.961842
 40
6.0
100
AcDbArc
 50
179.999982
 51
270.0
  0
LINE
  5
201
100
AcDbEntity
  8
M0
100
AcDbLine
 10
253.374305
 20
314.961825
 11
253.374305
 21
316.961915
  0
LINE
  5
202
100
AcDbEntity
  8
M0
100
AcDbLine
 10
253.374305
 20
315.961825
 11
263.37429
 21
315.961825
  0
LINE
  5
203
100
AcDbEntity
  8
M0
100
AcDbLine
 10
263.37429
 20
315.961825
 11
263.37429
 21
319.961825
  0
LINE
  5
204
100
AcDbEntity
  8
M0
100
AcDbLine
 10
250.374305
 20
315.961825
 11
250.374305
 21
314.961825
  0
LINE
  5
205
100
AcDbEntity
  8
M0
100
AcDbLine
 10
250.374305
 20
314.961825
 11
253.374305
 21
314.961825
  0
LINE
  5
206
100
AcDbEntity
  8
M0
100
AcDbLine
 10
245.37429
 20
315.961825
 11
250.374305
 21
315.961825
  0
LINE
  5
207
100
AcDbEntity
  8
M0
100
AcDbLine
 10
245.37429
 20
315.661059
 11
245.37429
 21
315.961825
  0
LINE
  5
208
100
AcDbEntity
  8
M0
100
AcDbLine
 10
242.070152
 20
311.974084
 11
245.237281
 21
315.317203
  0
ARC
  5
209
100
AcDbEntity
  8
M0
100
AcDbCircle
 10
241.3442
 20
312.661822
 40
1.0
100
AcDbArc
 50
270.0
 51
316.548838
  0
ARC
  5
20A
100
AcDbEntity
  8
M0
100
AcDbCircle
 10
244.87429
 20
315.661059
 40
0.5
100
AcDbArc
 50
316.55055
 51
359.999891
  0
ARC
  5
20B
100
AcDbEntity
  8
M0
100
AcDbCircle
 10
230.87429
 20
309.461841
 40
0.5
100
AcDbArc
 50
180.0
 51
270.0
  0
LINE
  5
20C
100
AcDbEntity
  8
M0
100
AcDbLine
 10
252.574226
 20
282.961841
 11
252.574241
 21
290.761835
  0
LINE
  5
20D
100
AcDbEntity
  8
M0
100
AcDbLine
 10
252.574226
 20
282.961841
 11
253.392265
 21
279.908969
  0
ARC
  5
20E
100
AcDbEntity
  8
M0
100
AcDbCircle
 10
259.187812
 20
281.461825
 40
6.0
100
AcDbArc
 50
194.999447
 51
270.0
  0
LINE
  5
20F
100
AcDbEntity
  8
M0
100
AcDbLine
 10
259.187797
 20
275.461856
 11
265.076576
 21
275.461856
  0
LINE
  5
210
100
AcDbEntity
  8
M0
100
AcDbLine
 10
254.374214
 20
288.961841
 11
250.867012
 21
292.469028
  0
ARC
  5
211
100
AcDbEntity
  8
M0
100
AcDbCircle
 10
250.513466
 20
292.115482
 40
0.5
100
AcDbArc
 50
44.999382
 51
105.000039
  0
LINE
  5
212
100
AcDbEntity
  8
M0
100
AcDbLine
 10
250.384056
 20
292.598438
 11
248.262519
 21
292.029987
  0
ARC
  5
213
100
AcDbEntity
  8
M0
100
AcDbCircle
 10
247.744896
 20
293.961826
 40
2.0
100
AcDbArc
 50
270.0
 51
285.00001
  0
LINE
  5
214
100
AcDbEntity
  8
M0
100
AcDbLine
 10
254.874305
 20
288.961841
 11
254.374214
 21
288.961841
  0
LINE
  5
215
100
AcDbEntity
  8
M0
100
AcDbLine
 10
236.662692
 20
311.661822
 11
241.3442
 21
311.661822
  0
LINE
  5
216
100
AcDbEntity
  8
M0
100
AcDbLine
 10
300.074278
 20
322.461692
 11
300.074274
 21
319.961692
  0
LINE
  5
217
100
AcDbEntity
  8
M0
100
AcDbLine
 10
244.074379
 20
322.461749
 11
300.074287
 21
322.461688
  0
LINE
  5
218
100
AcDbEntity
  8
M0
100
AcDbLine
 10
292.374305
 20
336.061664
 11
292.374321
 21
328.461688
  0
LINE
  5
219
100
AcDbEntity
  8
M0
100
AcDbLine
 10
298.374305
 20
330.56169
 11
298.37429
 21
322.461688
  0
LINE
  5
21A
100
AcDbEntity
  8
M0
100
AcDbLine
 10
292.374305
 20
331.061709
 11
289.686821
 21
322.461749
  0
ARC
  5
21B
100
AcDbEntity
  8
M0
100
AcDbCircle
 10
296.3743
 20
332.0617
 40
1.0
100
AcDbArc
 50
180.0
 51
216.865709
  0
LINE
  5
21C
100
AcDbEntity
  8
M0
100
AcDbLine
 10
295.374321
 20
332.761691
 11
295.374305
 21
332.06169
  0
LINE
  5
21D
100
AcDbEntity
  8
M0
100
AcDbLine
 10
234.374336
 20
325.161828
 11
236.874366
 21
325.161822
  0
LINE
  5
21E
100
AcDbEntity
  8
M0
100
AcDbLine
 10
234.374443
 20
325.161828
 11
234.374443
 21
321.461816
  0
LINE
  5
21F
100
AcDbEntity
  8
M0
100
AcDbLine
 10
236.874336
 20
321.46181
 11
232.697166
 21
321.46181
  0
LINE
  5
220
100
AcDbEntity
  8
M0
100
AcDbLine
 10
231.37429
 20
322.961822
 11
230.674324
 21
322.961822
  0
ARC
  5
221
100
AcDbEntity
  8
M0
100
AcDbCircle
 10
231.37429
 20
319.961822
 40
2.0
100
AcDbArc
 50
-5.395866E-005
 51
179.999982
  0
LINE
  5
222
100
AcDbEntity
  8
M0
100
AcDbLine
 10
230.174308
 20
321.56183
 11
230.174308
 21
322.461823
  0
LINE
  5
223
100
AcDbEntity
  8
M0
100
AcDbLine
 10
231.37429
 20
322.961822
 11
232.697166
 21
321.461818
  0
ARC
  5
224
100
AcDbEntity
  8
M0
100
AcDbCircle
 10
230.674324
 20
322.461822
 40
0.5
100
AcDbArc
 50
90.0
 51
180.0
  0
LINE
  5
225
100
AcDbEntity
  8
M0
100
AcDbLine
 10
231.37429
 20
321.961822
 11
230.174308
 21
321.961823
  0
ARC
  5
226
100
AcDbEntity
  8
M0
100
AcDbCircle
 10
231.37426
 20
319.661834
 40
1.199999
100
AcDbArc
 50
14.476158
 51
165.522385
  0
LINE
  5
227
100
AcDbEntity
  8
M0
100
AcDbLine
 10
282.374305
 20
319.961719
 11
262.874336
 21
319.961719
  0
LINE
  5
228
100
AcDbEntity
  8
M0
100
AcDbLine
 10
230.374412
 20
311.161838
 11
235.874412
 21
311.161826
  0
LINE
  5
229
100
AcDbEntity
  8
M0
100
AcDbLine
 10
236.374412
 20
311.661838
 11
241.574302
 21
311.661807
  0
ARC
  5
22A
100
AcDbEntity
  8
M0
100
AcDbCircle
 10
236.374412
 20
311.161826
 40
0.5
100
AcDbArc
 50
90.0
 51
179.999891
  0
LINE
  5
22B
100
AcDbEntity
  8
M0
100
AcDbLine
 10
262.874336
 20
316.961762
 11
250.374305
 21
316.961787
  0
LINE
  5
22C
100
AcDbEntity
  8
M0
100
AcDbLine
 10
262.874336
 20
316.961749
 11
262.874336
 21
319.961719
  0
LINE
  5
22D
100
AcDbEntity
  8
M0
100
AcDbLine
 10
244.074379
 20
317.961795
 11
230.374412
 21
317.961825
  0
ARC
  5
22E
100
AcDbEntity
  8
M0
100
AcDbCircle
 10
297.874321
 20
327.961688
 40
0.5
100
AcDbArc
 50
359.999891
 51
450.0
  0
ARC
  5
22F
100
AcDbEntity
  8
M0
100
AcDbCircle
 10
297.874321
 20
330.56169
 40
0.5
100
AcDbArc
 50
359.999891
 51
396.713614
  0
ARC
  5
230
100
AcDbEntity
  8
M0
100
AcDbCircle
 10
295.874321
 20
332.761691
 40
0.5
100
AcDbArc
 50
126.879186
 51
180.0
  0
ARC
  5
231
100
AcDbEntity
  8
M0
100
AcDbCircle
 10
292.874305
 20
336.061679
 40
0.5
100
AcDbArc
 50
143.28475
 51
180.0
  0
LINE
  5
232
100
AcDbEntity
  8
M0
100
AcDbLine
 10
230.212364
 20
319.961764
 11
229.37429
 21
319.961825
  0
LINE
  5
233
100
AcDbEntity
  8
M0
100
AcDbLine
 10
297.874336
 20
328.461688
 11
291.561805
 21
328.461688
  0
LINE
  5
234
100
AcDbEntity
  8
M0
100
AcDbLine
 10
234.374351
 20
325.161807
 11
236.874382
 21
325.161807
  0
LINE
  5
235
100
AcDbEntity
  8
M0
100
AcDbLine
 10
234.374458
 20
325.161807
 11
234.374473
 21
321.46181
  0
LINE
  5
236
100
AcDbEntity
  8
M0
100
AcDbLine
 10
236.874458
 20
325.161807
 11
236.874473
 21
321.46181
  0
LINE
  5
237
100
AcDbEntity
  8
M0
100
AcDbLine
 10
255.374305
 20
323.46181
 11
238.874321
 21
323.461795
  0
LINE
  5
238
100
AcDbEntity
  8
M0
100
AcDbLine
 10
238.874321
 20
323.461795
 11
236.874321
 21
321.461795
  0
LINE
  5
239
100
AcDbEntity
  8
M0
100
AcDbLine
 10
236.874473
 20
324.161822
 11
239.374321
 21
324.161807
  0
LINE
  5
23A
100
AcDbEntity
  8
M0
100
AcDbLine
 10
239.374321
 20
324.961795
 11
239.374321
 21
324.161807
  0
LINE
  5
23B
100
AcDbEntity
  8
M0
100
AcDbLine
 10
239.374321
 20
324.961795
 11
244.874382
 21
324.961795
  0
LINE
  5
23C
100
AcDbEntity
  8
M0
100
AcDbLine
 10
244.874412
 20
323.46181
 11
244.874412
 21
325.761798
  0
LINE
  5
23D
100
AcDbEntity
  8
M0
100
AcDbLine
 10
245.374321
 20
331.061801
 11
244.874382
 21
325.761798
  0
LINE
  5
23E
100
AcDbEntity
  8
M0
100
AcDbLine
 10
245.374321
 20
331.061801
 11
246.874321
 21
331.061795
  0
LINE
  5
23F
100
AcDbEntity
  8
M0
100
AcDbLine
 10
246.624321
 20
331.061801
 11
246.624321
 21
325.761767
  0
LINE
  5
240
100
AcDbEntity
  8
M0
100
AcDbLine
 10
248.124321
 20
331.061801
 11
248.124321
 21
325.761767
  0
LINE
  5
241
100
AcDbEntity
  8
M0
100
AcDbLine
 10
249.374305
 20
331.061786
 11
249.374305
 21
327.761783
  0
ARC
  5
242
100
AcDbEntity
  8
M0
100
AcDbCircle
 10
251.374305
 20
327.761783
 40
2.0
100
AcDbArc
 50
180.0
 51
270.0
  0
LINE
  5
243
100
AcDbEntity
  8
M0
100
AcDbLine
 10
258.874382
 20
325.761767
 11
244.874382
 21
325.761798
  0
LINE
  5
244
100
AcDbEntity
  8
M0
100
AcDbLine
 10
258.874382
 20
325.761767
 11
262.1744
 21
322.461749
  0
LINE
  5
245
100
AcDbEntity
  8
M0
100
AcDbLine
 10
255.374305
 20
323.46181
 11
256.374366
 21
322.461749
  0
LINE
  5
246
100
AcDbEntity
  8
M0
100
AcDbLine
 10
250.374305
 20
316.461734
 11
250.374305
 21
316.961749
  0
LINE
  5
247
100
AcDbEntity
  8
M0
100
AcDbLine
 10
245.074363
 20
316.461734
 11
250.374305
 21
316.461734
  0
LINE
  5
248
100
AcDbEntity
  8
M0
100
AcDbLine
 10
245.074363
 20
316.461734
 11
245.074379
 21
315.961719
  0
LINE
  5
249
100
AcDbEntity
  8
M0
100
AcDbLine
 10
241.574318
 20
311.661838
 11
245.074363
 21
315.961734
  0
LINE
  5
24A
100
AcDbEntity
  8
M0
100
AcDbLine
 10
244.074363
 20
322.461749
 11
244.074363
 21
317.961795
  0
LINE
  5
24B
100
AcDbEntity
  8
M0
100
AcDbLine
 10
230.374412
 20
318.411838
 11
230.374412
 21
311.161838
  0
LINE
  5
24C
100
AcDbEntity
  8
M0
100
AcDbLine
 10
230.374412
 20
318.411838
 11
233.874214
 21
318.411838
  0
LINE
  5
24D
100
AcDbEntity
  8
M0
100
AcDbLine
 10
233.874244
 20
318.411822
 11
233.874244
 21
321.46178
  0
LINE
  5
24E
100
AcDbEntity
  8
M0
100
AcDbLine
 10
232.536216
 20
319.961795
 11
233.874229
 21
319.961795
  0
LINE
  5
24F
100
AcDbEntity
  8
M0
100
AcDbLine
 10
229.37429
 20
309.261687
 11
225.37429
 21
309.261687
  0
ARC
  5
250
100
AcDbEntity
  8
M0
100
AcDbCircle
 10
225.37429
 20
309.761687
 40
0.5
100
AcDbArc
 50
180.0
 51
270.0
  0
LINE
  5
251
100
AcDbEntity
  8
M0
100
AcDbLine
 10
224.87429
 20
314.761687
 11
224.87429
 21
309.761687
  0
ARC
  5
252
100
AcDbEntity
  8
M0
100
AcDbCircle
 10
225.37429
 20
314.761687
 40
0.5
100
AcDbArc
 50
90.0
 51
180.0
  0
LINE
  5
253
100
AcDbEntity
  8
M0
100
AcDbLine
 10
229.37429
 20
315.261687
 11
225.37429
 21
315.261687
  0
LINE
  5
254
100
AcDbEntity
  8
M0
100
AcDbLine
 10
247.874321
 20
331.061791
 11
249.374305
 21
331.061786
  0
CIRCLE
  5
255
100
AcDbEntity
  8
M0
 62
   253
100
AcDbCircle
 10
100.163683
 20
283.76053
 40
2.999997
  0
LINE
  5
256
100
AcDbEntity
  8
M0
 62
   253
100
AcDbLine
 10
97.204699
 20
287.707872
 11
96.388537
 21
285.060579
  0
LINE
  5
257
100
AcDbEntity
  8
M0
 62
   253
100
AcDbLine
 10
97.204699
 20
279.81328
 11
96.388537
 21
282.460603
  0
LINE
  5
258
100
AcDbEntity
  8
M0
 62
   253
100
AcDbLine
 10
103.122179
 20
287.707887
 11
103.938585
 21
285.060579
  0
LINE
  5
259
100
AcDbEntity
  8
M0
 62
   253
100
AcDbLine
 10
103.122179
 20
279.813264
 11
103.938585
 21
282.460603
  0
LINE
  5
25A
100
AcDbEntity
  8
M0
 62
   253
100
AcDbLine
 10
97.682726
 20
279.460603
 11
102.644396
 21
279.460603
  0
LINE
  5
25B
100
AcDbEntity
  8
M0
 62
   253
100
AcDbLine
 10
103.938585
 20
282.460603
 11
103.938585
 21
285.060579
  0
LINE
  5
25C
100
AcDbEntity
  8
M0
 62
   253
100
AcDbLine
 10
102.644396
 20
288.060579
 11
97.682726
 21
288.060564
  0
LINE
  5
25D
100
AcDbEntity
  8
M0
 62
   253
100
AcDbLine
 10
96.388537
 20
285.060579
 11
96.388537
 21
282.460603
  0
LINE
  5
25E
100
AcDbEntity
  8
M0
 62
   253
100
AcDbLine
 10
101.754259
 20
282.16971
 11
98.572619
 21
285.351472
  0
LINE
  5
25F
100
AcDbEntity
  8
M0
 62
   253
100
AcDbLine
 10
100.516954
 20
285.174715
 11
98.749376
 21
283.407014
  0
LINE
  5
260
100
AcDbEntity
  8
M0
 62
   253
100
AcDbLine
 10
101.577501
 20
284.114046
 11
99.809923
 21
282.346468
  0
ARC
  5
261
100
AcDbEntity
  8
M0
 62
   253
100
AcDbCircle
 10
97.682726
 20
287.560564
 40
0.5
100
AcDbArc
 50
89.998251
 51
162.874002
  0
ARC
  5
262
100
AcDbEntity
  8
M0
 62
   253
100
AcDbCircle
 10
97.682726
 20
279.960603
 40
0.5
100
AcDbArc
 50
197.129131
 51
270.0
  0
ARC
  5
263
100
AcDbEntity
  8
M0
 62
   253
100
AcDbCircle
 10
102.644396
 20
279.960603
 40
0.5
100
AcDbArc
 50
270.0
 51
342.861236
  0
ARC
  5
264
100
AcDbEntity
  8
M0
 62
   253
100
AcDbCircle
 10
102.644396
 20
287.560564
 40
0.5
100
AcDbArc
 50
17.136442
 51
90.0
  0
LINE
  5
265
100
AcDbEntity
  8
M0
 62
   253
100
AcDbLine
 10
87.682726
 20
279.460603
 11
92.644396
 21
279.460603
  0
LINE
  5
266
100
AcDbEntity
  8
M0
  6
DASHDOT
 62
   253
100
AcDbLine
 10
99.663683
 20
283.76053
 11
100.663683
 21
283.76053
  0
LINE
  5
267
100
AcDbEntity
  8
M0
  6
DASHDOT
 62
   253
100
AcDbLine
 10
100.163683
 20
283.26053
 11
100.163683
 21
284.26053
  0
CIRCLE
  5
268
100
AcDbEntity
  8
M0
 62
     4
100
AcDbCircle
 10
123.163683
 20
300.26053
 40
2.999997
  0
LINE
  5
269
100
AcDbEntity
  8
M0
 62
     4
100
AcDbLine
 10
120.204699
 20
304.207872
 11
119.388537
 21
301.560579
  0
LINE
  5
26A
100
AcDbEntity
  8
M0
 62
     4
100
AcDbLine
 10
120.204699
 20
296.31328
 11
119.388537
 21
298.960603
  0
LINE
  5
26B
100
AcDbEntity
  8
M0
 62
     4
100
AcDbLine
 10
126.122179
 20
304.207887
 11
126.938585
 21
301.560579
  0
LINE
  5
26C
100
AcDbEntity
  8
M0
 62
     4
100
AcDbLine
 10
126.122179
 20
296.313264
 11
126.938585
 21
298.960603
  0
LINE
  5
26D
100
AcDbEntity
  8
M0
 62
     4
100
AcDbLine
 10
120.682726
 20
295.960603
 11
125.644396
 21
295.960603
  0
LINE
  5
26E
100
AcDbEntity
  8
M0
 62
     4
100
AcDbLine
 10
126.938585
 20
298.960603
 11
126.938585
 21
301.560579
  0
LINE
  5
26F
100
AcDbEntity
  8
M0
 62
     4
100
AcDbLine
 10
125.644396
 20
304.560579
 11
120.682726
 21
304.560564
  0
LINE
  5
270
100
AcDbEntity
  8
M0
 62
     4
100
AcDbLine
 10
119.388537
 20
301.560579
 11
119.388537
 21
298.960603
  0
LINE
  5
271
100
AcDbEntity
  8
M0
 62
     4
100
AcDbLine
 10
124.754259
 20
298.66971
 11
121.572619
 21
301.851472
  0
LINE
  5
272
100
AcDbEntity
  8
M0
 62
     4
100
AcDbLine
 10
123.516954
 20
301.674715
 11
121.749376
 21
299.907014
  0
LINE
  5
273
100
AcDbEntity
  8
M0
 62
     4
100
AcDbLine
 10
124.577501
 20
300.614046
 11
122.809923
 21
298.846468
  0
ARC
  5
274
100
AcDbEntity
  8
M0
 62
     4
100
AcDbCircle
 10
120.682726
 20
304.060564
 40
0.5
100
AcDbArc
 50
89.998251
 51
162.874002
  0
ARC
  5
275
100
AcDbEntity
  8
M0
 62
     4
100
AcDbCircle
 10
120.682726
 20
296.460603
 40
0.5
100
AcDbArc
 50
197.129131
 51
270.0
  0
ARC
  5
276
100
AcDbEntity
  8
M0
 62
     4
100
AcDbCircle
 10
125.644396
 20
296.460603
 40
0.5
100
AcDbArc
 50
270.0
 51
342.861236
  0
ARC
  5
277
100
AcDbEntity
  8
M0
 62
     4
100
AcDbCircle
 10
125.644396
 20
304.060564
 40
0.5
100
AcDbArc
 50
17.136442
 51
90.0
  0
LINE
  5
278
100
AcDbEntity
  8
M0
  6
DASHDOT
 62
     4
100
AcDbLine
 10
122.663683
 20
300.26053
 11
123.663683
 21
300.26053
  0
LINE
  5
279
100
AcDbEntity
  8
M0
  6
DASHDOT
 62
     4
100
AcDbLine
 10
123.163683
 20
299.76053
 11
123.163683
 21
300.76053
  0
CIRCLE
  5
27A
100
AcDbEntity
  8
M0
 62
     4
100
AcDbCircle
 10
113.163683
 20
300.26053
 40
2.999997
  0
LINE
  5
27B
100
AcDbEntity
  8
M0
 62
     4
100
AcDbLine
 10
110.204699
 20
304.207872
 11
109.388537
 21
301.560579
  0
LINE
  5
27C
100
AcDbEntity
  8
M0
 62
     4
100
AcDbLine
 10
110.204699
 20
296.31328
 11
109.388537
 21
298.960603
  0
LINE
  5
27D
100
AcDbEntity
  8
M0
 62
     4
100
AcDbLine
 10
116.122179
 20
304.207887
 11
116.938585
 21
301.560579
  0
LINE
  5
27E
100
AcDbEntity
  8
M0
 62
     4
100
AcDbLine
 10
116.122179
 20
296.313264
 11
116.938585
 21
298.960603
  0
LINE
  5
27F
100
AcDbEntity
  8
M0
 62
     4
100
AcDbLine
 10
110.682726
 20
295.960603
 11
115.644396
 21
295.960603
  0
LINE
  5
280
100
AcDbEntity
  8
M0
 62
     4
100
AcDbLine
 10
116.938585
 20
298.960603
 11
116.938585
 21
301.560579
  0
LINE
  5
281
100
AcDbEntity
  8
M0
 62
     4
100
AcDbLine
 10
115.644396
 20
304.560579
 11
110.682726
 21
304.560564
  0
LINE
  5
282
100
AcDbEntity
  8
M0
 62
     4
100
AcDbLine
 10
109.388537
 20
301.560579
 11
109.388537
 21
298.960603
  0
LINE
  5
283
100
AcDbEntity
  8
M0
 62
     4
100
AcDbLine
 10
114.754259
 20
298.66971
 11
111.572619
 21
301.851472
  0
LINE
  5
284
100
AcDbEntity
  8
M0
 62
     4
100
AcDbLine
 10
113.516954
 20
301.674715
 11
111.749376
 21
299.907014
  0
LINE
  5
285
100
AcDbEntity
  8
M0
 62
     4
100
AcDbLine
 10
114.577501
 20
300.614046
 11
112.809923
 21
298.846468
  0
ARC
  5
286
100
AcDbEntity
  8
M0
 62
     4
100
AcDbCircle
 10
110.682726
 20
304.060564
 40
0.5
100
AcDbArc
 50
89.998251
 51
162.874002
  0
ARC
  5
287
100
AcDbEntity
  8
M0
 62
     4
100
AcDbCircle
 10
110.682726
 20
296.460603
 40
0.5
100
AcDbArc
 50
197.129131
 51
270.0
  0
ARC
  5
288
100
AcDbEntity
  8
M0
 62
     4
100
AcDbCircle
 10
115.644396
 20
296.460603
 40
0.5
100
AcDbArc
 50
270.0
 51
342.861236
  0
ARC
  5
289
100
AcDbEntity
  8
M0
 62
     4
100
AcDbCircle
 10
115.644396
 20
304.060564
 40
0.5
100
AcDbArc
 50
17.136442
 51
90.0
  0
LINE
  5
28A
100
AcDbEntity
  8
M0
  6
DASHDOT
 62
     4
100
AcDbLine
 10
112.663683
 20
300.26053
 11
113.663683
 21
300.26053
  0
LINE
  5
28B
100
AcDbEntity
  8
M0
  6
DASHDOT
 62
     4
100
AcDbLine
 10
113.163683
 20
299.76053
 11
113.163683
 21
300.76053
  0
ARC
  5
28C
100
AcDbEntity
  8
M0
 62
     1
100
AcDbCircle
 10
114.563695
 20
326.765609
 40
5.0
100
AcDbArc
 50
168.521659
 51
191.478341
  0
LINE
  5
28D
100
AcDbEntity
  8
M0
 62
     1
100
AcDbLine
 10
107.863696
 20
334.260596
 11
107.663695
 21
334.060597
  0
LINE
  5
28E
100
AcDbEntity
  8
M0
 62
     1
100
AcDbLine
 10
109.463694
 20
334.260596
 11
109.663695
 21
334.060597
  0
LINE
  5
28F
100
AcDbEntity
  8
M0
 62
     1
100
AcDbLine
 10
107.863696
 20
341.410598
 11
107.863696
 21
334.260596
  0
LINE
  5
290
100
AcDbEntity
  8
M0
 62
     1
100
AcDbLine
 10
109.463694
 20
334.260596
 11
109.463694
 21
341.410598
  0
LINE
  5
291
100
AcDbEntity
  8
M0
 62
     1
100
AcDbLine
 10
107.663695
 20
334.060597
 11
107.663695
 21
331.060619
  0
LINE
  5
292
100
AcDbEntity
  8
M0
 62
     1
100
AcDbLine
 10
109.663695
 20
327.760596
 11
109.663695
 21
334.060597
  0
LINE
  5
293
100
AcDbEntity
  8
M0
 62
     7
100
AcDbLine
 10
109.663695
 20
325.760615
 11
109.663695
 21
325.770622
  0
CIRCLE
  5
294
100
AcDbEntity
  8
M0
 62
     4
100
AcDbCircle
 10
93.163683
 20
300.26053
 40
2.999997
  0
LINE
  5
295
100
AcDbEntity
  8
M0
 62
     4
100
AcDbLine
 10
90.204699
 20
304.207872
 11
89.388537
 21
301.560579
  0
LINE
  5
296
100
AcDbEntity
  8
M0
 62
     4
100
AcDbLine
 10
90.204699
 20
296.31328
 11
89.388537
 21
298.960603
  0
LINE
  5
297
100
AcDbEntity
  8
M0
 62
     4
100
AcDbLine
 10
96.122179
 20
304.207887
 11
96.938585
 21
301.560579
  0
LINE
  5
298
100
AcDbEntity
  8
M0
 62
     4
100
AcDbLine
 10
96.122179
 20
296.313264
 11
96.938585
 21
298.960603
  0
LINE
  5
299
100
AcDbEntity
  8
M0
 62
     4
100
AcDbLine
 10
90.682726
 20
295.960603
 11
95.644396
 21
295.960603
  0
LINE
  5
29A
100
AcDbEntity
  8
M0
 62
     4
100
AcDbLine
 10
96.938585
 20
298.960603
 11
96.938585
 21
301.560579
  0
LINE
  5
29B
100
AcDbEntity
  8
M0
 62
     4
100
AcDbLine
 10
95.644396
 20
304.560579
 11
90.682726
 21
304.560564
  0
LINE
  5
29C
100
AcDbEntity
  8
M0
 62
     4
100
AcDbLine
 10
89.388537
 20
301.560579
 11
89.388537
 21
298.960603
  0
LINE
  5
29D
100
AcDbEntity
  8
M0
 62
     4
100
AcDbLine
 10
94.754259
 20
298.66971
 11
91.572619
 21
301.851472
  0
LINE
  5
29E
100
AcDbEntity
  8
M0
 62
     4
100
AcDbLine
 10
93.516954
 20
301.674715
 11
91.749376
 21
299.907014
  0
LINE
  5
29F
100
AcDbEntity
  8
M0
 62
     4
100
AcDbLine
 10
94.577501
 20
300.614046
 11
92.809923
 21
298.846468
  0
ARC
  5
2A0
100
AcDbEntity
  8
M0
 62
     4
100
AcDbCircle
 10
90.682726
 20
304.060564
 40
0.5
100
AcDbArc
 50
89.998251
 51
162.874002
  0
ARC
  5
2A1
100
AcDbEntity
  8
M0
 62
     4
100
AcDbCircle
 10
90.682726
 20
296.460603
 40
0.5
100
AcDbArc
 50
197.129131
 51
270.0
  0
ARC
  5
2A2
100
AcDbEntity
  8
M0
 62
     4
100
AcDbCircle
 10
95.644396
 20
296.460603
 40
0.5
100
AcDbArc
 50
270.0
 51
342.861236
  0
ARC
  5
2A3
100
AcDbEntity
  8
M0
 62
     4
100
AcDbCircle
 10
95.644396
 20
304.060564
 40
0.5
100
AcDbArc
 50
17.136442
 51
90.0
  0
LINE
  5
2A4
100
AcDbEntity
  8
M0
  6
DASHDOT
 62
     4
100
AcDbLine
 10
92.663683
 20
300.26053
 11
93.663683
 21
300.26053
  0
LINE
  5
2A5
100
AcDbEntity
  8
M0
  6
DASHDOT
 62
     4
100
AcDbLine
 10
93.163683
 20
299.76053
 11
93.163683
 21
300.76053
  0
LINE
  5
2A6
100
AcDbEntity
  8
M0
 62
     6
100
AcDbLine
 10
119.463768
 20
323.460597
 11
119.463768
 21
328.460628
  0
LINE
  5
2A7
100
AcDbEntity
  8
M0
 62
     6
100
AcDbLine
 10
118.613777
 20
328.460628
 11
118.613777
 21
336.560695
  0
LINE
  5
2A8
100
AcDbEntity
  8
M0
 62
     6
100
AcDbLine
 10
116.463768
 20
325.760646
 11
116.463768
 21
333.886142
  0
LINE
  5
2A9
100
AcDbEntity
  8
M0
 62
     6
100
AcDbLine
 10
114.463768
 20
325.760646
 11
114.463768
 21
336.560695
  0
LINE
  5
2AA
100
AcDbEntity
  8
M0
 62
     6
100
AcDbLine
 10
111.463768
 20
325.760646
 11
111.463768
 21
336.560695
  0
LINE
  5
2AB
100
AcDbEntity
  8
M0
 62
     6
100
AcDbLine
 10
94.463768
 20
325.760646
 11
94.463768
 21
335.260646
  0
LINE
  5
2AC
100
AcDbEntity
  8
M0
 62
     6
100
AcDbLine
 10
91.463768
 20
325.760646
 11
91.463768
 21
335.260646
  0
LINE
  5
2AD
100
AcDbEntity
  8
M0
 62
     6
100
AcDbLine
 10
84.163689
 20
319.960597
 11
120.163796
 21
319.960612
  0
LINE
  5
2AE
100
AcDbEntity
  8
M0
 62
     6
100
AcDbLine
 10
111.463768
 20
336.560603
 11
114.463768
 21
336.560619
  0
LINE
  5
2AF
100
AcDbEntity
  8
M0
 62
     6
100
AcDbLine
 10
91.463768
 20
335.260615
 11
94.463768
 21
335.260631
  0
LINE
  5
2B0
100
AcDbEntity
  8
M0
 62
     6
100
AcDbLine
 10
117.239189
 20
336.560624
 11
118.613777
 21
336.560634
  0
LINE
  5
2B1
100
AcDbEntity
  8
M0
 62
     6
100
AcDbLine
 10
118.613777
 20
328.460612
 11
119.463768
 21
328.460612
  0
LINE
  5
2B2
100
AcDbEntity
  8
M0
 62
     6
100
AcDbLine
 10
91.163765
 20
331.060603
 11
86.163765
 21
331.060603
  0
LINE
  5
2B3
100
AcDbEntity
  8
M0
 62
     6
100
AcDbLine
 10
101.16378
 20
331.060603
 11
96.16378
 21
331.060603
  0
LINE
  5
2B4
100
AcDbEntity
  8
M0
 62
     6
100
AcDbLine
 10
106.16378
 20
331.060619
 11
109.463783
 21
331.060619
  0
LINE
  5
2B5
100
AcDbEntity
  8
M0
 62
     6
100
AcDbLine
 10
84.163689
 20
325.760615
 11
118.663765
 21
325.760615
  0
LINE
  5
2B6
100
AcDbEntity
  8
M0
 62
     6
100
AcDbLine
 10
84.163689
 20
325.760615
 11
84.163689
 21
319.960612
  0
LINE
  5
2B7
100
AcDbEntity
  8
M0
 62
     6
100
AcDbLine
 10
118.663765
 20
325.760615
 11
118.663765
 21
323.460597
  0
LINE
  5
2B8
100
AcDbEntity
  8
M0
 62
     6
100
AcDbLine
 10
109.463783
 20
331.060619
 11
109.463783
 21
325.7606
  0
LINE
  5
2B9
100
AcDbEntity
  8
M0
 62
     6
100
AcDbLine
 10
106.16378
 20
331.060619
 11
106.16378
 21
325.760615
  0
LINE
  5
2BA
100
AcDbEntity
  8
M0
 62
     6
100
AcDbLine
 10
101.16378
 20
331.060603
 11
101.16378
 21
325.760615
  0
LINE
  5
2BB
100
AcDbEntity
  8
M0
 62
     6
100
AcDbLine
 10
96.16378
 20
331.060603
 11
96.16378
 21
325.760615
  0
LINE
  5
2BC
100
AcDbEntity
  8
M0
 62
     6
100
AcDbLine
 10
91.163765
 20
331.060603
 11
91.163765
 21
325.760615
  0
LINE
  5
2BD
100
AcDbEntity
  8
M0
 62
     6
100
AcDbLine
 10
86.163765
 20
331.060603
 11
86.163765
 21
325.760615
  0
LINE
  5
2BE
100
AcDbEntity
  8
M0
 62
     6
100
AcDbLine
 10
94.463768
 20
328.960612
 11
96.16378
 21
328.960612
  0
LINE
  5
2BF
100
AcDbEntity
  8
M0
 62
     6
100
AcDbLine
 10
114.463768
 20
328.960612
 11
116.463768
 21
328.960612
  0
LINE
  5
2C0
100
AcDbEntity
  8
M0
 62
     6
100
AcDbLine
 10
94.213783
 20
331.060619
 11
91.713768
 21
331.060603
  0
LINE
  5
2C1
100
AcDbEntity
  8
M0
 62
     6
100
AcDbLine
 10
114.213783
 20
331.060619
 11
111.713768
 21
331.060603
  0
LINE
  5
2C2
100
AcDbEntity
  8
M0
 62
     6
100
AcDbLine
 10
118.363793
 20
331.060619
 11
116.713768
 21
331.060603
  0
LINE
  5
2C3
100
AcDbEntity
  8
M0
 62
     6
100
AcDbLine
 10
104.663765
 20
325.160609
 11
104.663765
 21
320.960597
  0
LINE
  5
2C4
100
AcDbEntity
  8
M0
 62
     6
100
AcDbLine
 10
103.163765
 20
321.960628
 11
103.163765
 21
320.960597
  0
LINE
  5
2C5
100
AcDbEntity
  8
M0
 62
     6
100
AcDbLine
 10
101.663765
 20
325.160609
 11
101.663765
 21
324.160609
  0
LINE
  5
2C6
100
AcDbEntity
  8
M0
 62
     6
100
AcDbLine
 10
94.163765
 20
324.960597
 11
94.163765
 21
321.960628
  0
LINE
  5
2C7
100
AcDbEntity
  8
M0
 62
     6
100
AcDbLine
 10
104.663765
 20
325.160609
 11
101.663765
 21
325.160609
  0
LINE
  5
2C8
100
AcDbEntity
  8
M0
 62
     6
100
AcDbLine
 10
101.663765
 20
324.960597
 11
94.163765
 21
324.960597
  0
LINE
  5
2C9
100
AcDbEntity
  8
M0
 62
     6
100
AcDbLine
 10
101.663765
 20
324.160609
 11
94.163765
 21
324.160609
  0
LINE
  5
2CA
100
AcDbEntity
  8
M0
 62
     6
100
AcDbLine
 10
94.163765
 20
322.060603
 11
87.463692
 21
322.060603
  0
LINE
  5
2CB
100
AcDbEntity
  8
M0
 62
     6
100
AcDbLine
 10
89.163674
 20
321.960612
 11
103.163765
 21
321.960628
  0
LINE
  5
2CC
100
AcDbEntity
  8
M0
 62
     6
100
AcDbLine
 10
89.163674
 20
321.960612
 11
89.163674
 21
319.960597
  0
LINE
  5
2CD
100
AcDbEntity
  8
M0
 62
     6
100
AcDbLine
 10
118.263664
 20
321.960612
 11
118.263664
 21
319.960582
  0
LINE
  5
2CE
100
AcDbEntity
  8
M0
 62
     6
100
AcDbLine
 10
87.463692
 20
322.060603
 11
87.463692
 21
319.960597
  0
LINE
  5
2CF
100
AcDbEntity
  8
M0
 62
     6
100
AcDbLine
 10
103.163765
 20
321.560603
 11
100.163765
 21
321.560603
  0
LINE
  5
2D0
100
AcDbEntity
  8
M0
 62
     6
100
AcDbLine
 10
104.663735
 20
321.560603
 11
107.663735
 21
321.560603
  0
LINE
  5
2D1
100
AcDbEntity
  8
M0
 62
     6
100
AcDbLine
 10
107.663735
 20
321.960628
 11
118.263664
 21
321.960612
  0
LINE
  5
2D2
100
AcDbEntity
  8
M0
 62
     6
100
AcDbLine
 10
120.763786
 20
323.460597
 11
104.663765
 21
323.460597
  0
LINE
  5
2D3
100
AcDbEntity
  8
M0
 62
     6
100
AcDbLine
 10
120.763786
 20
323.460597
 11
120.763786
 21
321.460628
  0
LINE
  5
2D4
100
AcDbEntity
  8
M0
 62
     6
100
AcDbLine
 10
104.663765
 20
320.960597
 11
103.163765
 21
320.960597
  0
LINE
  5
2D5
100
AcDbEntity
  8
M0
 62
     6
100
AcDbLine
 10
100.163765
 20
321.560603
 11
100.163765
 21
321.960628
  0
LINE
  5
2D6
100
AcDbEntity
  8
M0
 62
     6
100
AcDbLine
 10
107.663735
 20
321.560603
 11
107.663735
 21
322.960612
  0
LINE
  5
2D7
100
AcDbEntity
  8
M0
 62
     6
100
AcDbLine
 10
107.663735
 20
322.960612
 11
104.663735
 21
322.960612
  0
LINE
  5
2D8
100
AcDbEntity
  8
M0
 62
     6
100
AcDbLine
 10
118.263664
 20
321.460612
 11
129.16375
 21
321.460628
  0
LINE
  5
2D9
100
AcDbEntity
  8
M0
 62
     6
100
AcDbLine
 10
129.16375
 20
322.460597
 11
129.16375
 21
311.160609
  0
LINE
  5
2DA
100
AcDbEntity
  8
M0
 62
     6
100
AcDbLine
 10
128.66375
 20
311.660609
 11
128.16375
 21
311.660609
  0
LINE
  5
2DB
100
AcDbEntity
  8
M0
 62
     6
100
AcDbLine
 10
128.16375
 20
311.660609
 11
128.16375
 21
315.960597
  0
LINE
  5
2DC
100
AcDbEntity
  8
M0
 62
     6
100
AcDbLine
 10
129.16375
 20
322.460597
 11
120.763786
 21
322.460597
  0
LINE
  5
2DD
100
AcDbEntity
  8
M0
 62
     6
100
AcDbLine
 10
120.16378
 20
319.960612
 11
121.235573
 21
315.960597
  0
LINE
  5
2DE
100
AcDbEntity
  8
M0
 62
     6
100
AcDbLine
 10
129.16375
 20
317.960612
 11
121.734963
 21
317.960612
  0
LINE
  5
2DF
100
AcDbEntity
  8
M0
 62
     6
100
AcDbLine
 10
120.797142
 20
321.460628
 11
121.734963
 21
317.960612
  0
LINE
  5
2E0
100
AcDbEntity
  8
M0
 62
     6
100
AcDbLine
 10
129.16375
 20
317.960612
 11
121.734963
 21
317.960612
  0
LINE
  5
2E1
100
AcDbEntity
  8
M0
 62
     6
100
AcDbLine
 10
128.16375
 20
315.960597
 11
121.235573
 21
315.960597
  0
LINE
  5
2E2
100
AcDbEntity
  8
M0
100
AcDbLine
 10
99.163689
 20
317.060588
 11
99.163689
 21
319.960597
  0
TEXT
  5
2E3
100
AcDbEntity
  8
M0
100
AcDbText
 10
91.330314
 20
305.160627
 40
2.0
  1
９８
 41
0.833333
  7
STANDARD
100
AcDbText
  0
TEXT
  5
2E4
100
AcDbEntity
  8
M0
100
AcDbText
 10
101.33033
 20
305.160627
 40
2.0
  1
９７
 41
0.833333
  7
STANDARD
100
AcDbText
  0
TEXT
  5
2E5
100
AcDbEntity
  8
M0
100
AcDbText
 10
108.33033
 20
305.160642
 40
2.0
  1
９５
 41
0.833333
  7
STANDARD
100
AcDbText
  0
TEXT
  5
2E6
100
AcDbEntity
  8
M0
100
AcDbText
 10
121.33033
 20
305.160642
 40
2.0
  1
９６
 41
0.833333
  7
STANDARD
100
AcDbText
  0
TEXT
  5
2E7
100
AcDbEntity
  8
M0
100
AcDbText
 10
119.372027
 20
289.360609
 40
3.0
  1
Ｃ２
 41
0.694444
  7
STANDARD
100
AcDbText
  0
TEXT
  5
2E8
100
AcDbEntity
  8
M0
100
AcDbText
 10
108.288693
 20
289.360609
 40
3.0
  1
６
 41
1.25
  7
STANDARD
100
AcDbText
  0
TEXT
  5
2E9
100
AcDbEntity
  8
M0
100
AcDbText
 10
98.288693
 20
289.360609
 40
3.0
  1
４
 41
1.25
  7
STANDARD
100
AcDbText
  0
TEXT
  5
2EA
100
AcDbEntity
  8
M0
100
AcDbText
 10
88.913678
 20
289.360609
 40
3.0
  1
２
 41
0.833333
  7
STANDARD
100
AcDbText
  0
LINE
  5
2EB
100
AcDbEntity
  8
M0
 62
     1
100
AcDbLine
 10
246.874321
 20
325.761794
 11
246.874321
 21
337.260598
  0
LINE
  5
2EC
100
AcDbEntity
  8
M0
 62
     1
100
AcDbLine
 10
247.874321
 20
325.761791
 11
247.874321
 21
337.260598
  0
LINE
  5
2ED
100
AcDbEntity
  8
M0
 62
     1
100
AcDbLine
 10
247.874321
 20
334.261658
 11
246.874321
 21
334.261658
  0
LINE
  5
2EE
100
AcDbEntity
  8
M0
 62
     1
100
AcDbLine
 10
246.874321
 20
334.061657
 11
247.874321
 21
334.061657
  0
LINE
  5
2EF
100
AcDbEntity
  8
M0
 62
     1
100
AcDbLine
 10
246.874321
 20
327.761657
 11
247.874321
 21
327.761657
  0
LINE
  5
2F0
100
AcDbEntity
  8
M0
 62
     1
100
AcDbLine
 10
247.874321
 20
326.261657
 11
246.874321
 21
326.261657
  0
ARC
  5
2F1
100
AcDbEntity
  8
M0
 62
    34
100
AcDbCircle
 10
114.163675
 20
312.460597
 40
6.7
100
AcDbArc
 50
284.999947
 51
335.000001
  0
LINE
  5
2F2
100
AcDbEntity
  8
M0
 62
    34
100
AcDbLine
 10
115.690707
 20
306.761635
 11
115.897762
 21
305.988895
  0
LINE
  5
2F3
100
AcDbEntity
  8
M0
 62
    34
100
AcDbLine
 10
119.510891
 20
309.96715
 11
120.235937
 21
309.629055
  0
LINE
  5
2F4
100
AcDbEntity
  8
M0
 62
    34
100
AcDbLine
 10
115.913675
 20
312.960597
 11
115.913675
 21
311.960597
  0
LINE
  5
2F5
100
AcDbEntity
  8
M0
 62
    34
100
AcDbLine
 10
112.413675
 20
312.960597
 11
112.413675
 21
311.960597
  0
LINE
  5
2F6
100
AcDbEntity
  8
M0
 62
    34
100
AcDbLine
 10
113.663675
 20
314.210597
 11
114.663675
 21
314.210597
  0
LINE
  5
2F7
100
AcDbEntity
  8
M0
 62
    34
100
AcDbLine
 10
113.663675
 20
310.710597
 11
114.663675
 21
310.710597
  0
LINE
  5
2F8
100
AcDbEntity
  8
M0
 62
    34
100
AcDbLine
 10
113.663675
 20
310.710597
 11
113.663675
 21
311.960597
  0
LINE
  5
2F9
100
AcDbEntity
  8
M0
 62
    34
100
AcDbLine
 10
113.663675
 20
312.960597
 11
113.663675
 21
314.210597
  0
LINE
  5
2FA
100
AcDbEntity
  8
M0
 62
    34
100
AcDbLine
 10
114.663675
 20
310.710597
 11
114.663675
 21
311.960597
  0
LINE
  5
2FB
100
AcDbEntity
  8
M0
 62
    34
100
AcDbLine
 10
114.663675
 20
312.960597
 11
114.663675
 21
314.210597
  0
LINE
  5
2FC
100
AcDbEntity
  8
M0
 62
    34
100
AcDbLine
 10
115.913675
 20
312.960597
 11
114.663675
 21
312.960597
  0
LINE
  5
2FD
100
AcDbEntity
  8
M0
 62
    34
100
AcDbLine
 10
113.663675
 20
312.960597
 11
112.413675
 21
312.960597
  0
LINE
  5
2FE
100
AcDbEntity
  8
M0
 62
    34
100
AcDbLine
 10
115.913675
 20
311.960597
 11
114.663675
 21
311.960597
  0
LINE
  5
2FF
100
AcDbEntity
  8
M0
 62
    34
100
AcDbLine
 10
113.663675
 20
311.960597
 11
112.413675
 21
311.960597
  0
ARC
  5
300
100
AcDbEntity
  8
M0
 62
    34
100
AcDbCircle
 10
114.163675
 20
312.460597
 40
5.9
100
AcDbArc
 50
180.0
 51
284.999949
  0
ARC
  5
301
100
AcDbEntity
  8
M0
 62
    34
100
AcDbCircle
 10
114.163675
 20
312.460597
 40
5.9
100
AcDbArc
 50
334.999999
 51
540.0
  0
LINE
  5
302
100
AcDbEntity
  8
M0
  6
DOT
 62
     6
100
AcDbLine
 10
95.66369
 20
317.560591
 11
95.663693
 21
318.660592
  0
ARC
  5
303
100
AcDbEntity
  8
M0
  6
DOT
 62
     6
100
AcDbCircle
 10
98.163698
 20
318.66059
 40
0.5
100
AcDbArc
 50
359.999891
 51
449.998251
  0
ARC
  5
304
100
AcDbEntity
  8
M0
  6
DOT
 62
     6
100
AcDbCircle
 10
96.163698
 20
317.56059
 40
0.5
100
AcDbArc
 50
180.0
 51
270.0
  0
LINE
  5
305
100
AcDbEntity
  8
M0
 62
     6
100
AcDbLine
 10
96.163698
 20
317.060591
 11
98.163698
 21
317.060591
  0
LINE
  5
306
100
AcDbEntity
  8
M0
  6
DOT
 62
     6
100
AcDbLine
 10
98.663698
 20
317.56059
 11
98.663698
 21
318.66059
  0
ARC
  5
307
100
AcDbEntity
  8
M0
  6
DOT
 62
     6
100
AcDbCircle
 10
98.163698
 20
317.56059
 40
0.5
100
AcDbArc
 50
270.0
 51
359.999891
  0
LINE
  5
308
100
AcDbEntity
  8
M0
  6
DOT
 62
     6
100
AcDbLine
 10
96.163698
 20
319.16059
 11
98.163698
 21
319.16059
  0
ARC
  5
309
100
AcDbEntity
  8
M0
  6
DOT
 62
     6
100
AcDbCircle
 10
96.163698
 20
318.66059
 40
0.5
100
AcDbArc
 50
89.998251
 51
180.0
  0
LINE
  5
30A
100
AcDbEntity
  8
M0
  6
DASHED
 62
     7
100
AcDbLine
 10
139.989189
 20
395.760598
 11
139.989189
 21
336.360598
  0
LINE
  5
30B
100
AcDbEntity
  8
M0
  6
DASHED
 62
     7
100
AcDbLine
 10
139.989189
 20
336.360598
 11
127.489189
 21
336.360598
  0
LINE
  5
30C
100
AcDbEntity
  8
M0
  6
DASHED
 62
     7
100
AcDbLine
 10
139.989189
 20
395.760598
 11
127.489189
 21
395.760598
  0
LINE
  5
30D
100
AcDbEntity
  8
M0
  6
DASHED
 62
     7
100
AcDbLine
 10
71.989189
 20
395.760598
 11
84.489189
 21
395.760598
  0
LINE
  5
30E
100
AcDbEntity
  8
M0
  6
DASHED
 62
     7
100
AcDbLine
 10
71.989189
 20
395.760598
 11
71.989189
 21
336.360598
  0
LINE
  5
30F
100
AcDbEntity
  8
M0
  6
DASHED
 62
     7
100
AcDbLine
 10
71.989189
 20
336.360598
 11
84.489189
 21
336.360598
  0
LINE
  5
310
100
AcDbEntity
  8
M0
 62
     7
100
AcDbLine
 10
307.674256
 20
336.360598
 11
307.674256
 21
331.360598
  0
ARC
  5
311
100
AcDbEntity
  8
M0
 62
     7
100
AcDbCircle
 10
307.174256
 20
331.360598
 40
0.5
100
AcDbArc
 50
270.0
 51
360.0
  0
CIRCLE
  5
312
100
AcDbEntity
  8
M0
 62
   253
100
AcDbCircle
 10
121.663683
 20
283.76053
 40
2.999997
  0
LINE
  5
313
100
AcDbEntity
  8
M0
 62
   253
100
AcDbLine
 10
118.704699
 20
287.707872
 11
117.888537
 21
285.060579
  0
LINE
  5
314
100
AcDbEntity
  8
M0
 62
   253
100
AcDbLine
 10
118.659304
 20
279.960558
 11
117.888537
 21
282.460603
  0
LINE
  5
315
100
AcDbEntity
  8
M0
 62
   253
100
AcDbLine
 10
124.622179
 20
287.707887
 11
125.438585
 21
285.060579
  0
LINE
  5
316
100
AcDbEntity
  8
M0
 62
   253
100
AcDbLine
 10
124.62107
 20
279.809669
 11
125.438585
 21
282.460603
  0
LINE
  5
317
100
AcDbEntity
  8
M0
 62
   253
100
AcDbLine
 10
125.438585
 20
282.460603
 11
125.438585
 21
285.060579
  0
LINE
  5
318
100
AcDbEntity
  8
M0
 62
   253
100
AcDbLine
 10
124.144396
 20
288.060579
 11
119.182726
 21
288.060564
  0
LINE
  5
319
100
AcDbEntity
  8
M0
 62
   253
100
AcDbLine
 10
117.888537
 20
285.060579
 11
117.888537
 21
282.460603
  0
LINE
  5
31A
100
AcDbEntity
  8
M0
 62
   253
100
AcDbLine
 10
123.254259
 20
282.16971
 11
120.072619
 21
285.351472
  0
LINE
  5
31B
100
AcDbEntity
  8
M0
 62
   253
100
AcDbLine
 10
122.016954
 20
285.174715
 11
120.249376
 21
283.407014
  0
LINE
  5
31C
100
AcDbEntity
  8
M0
 62
   253
100
AcDbLine
 10
123.077501
 20
284.114046
 11
121.309923
 21
282.346468
  0
ARC
  5
31D
100
AcDbEntity
  8
M0
 62
   253
100
AcDbCircle
 10
119.182726
 20
287.560564
 40
0.5
100
AcDbArc
 50
89.998251
 51
162.874002
  0
ARC
  5
31E
100
AcDbEntity
  8
M0
 62
   253
100
AcDbCircle
 10
124.144396
 20
287.560564
 40
0.5
100
AcDbArc
 50
17.136442
 51
90.0
  0
LINE
  5
31F
100
AcDbEntity
  8
M0
  6
DASHDOT
 62
   253
100
AcDbLine
 10
121.163683
 20
283.76053
 11
122.163683
 21
283.76053
  0
LINE
  5
320
100
AcDbEntity
  8
M0
  6
DASHDOT
 62
   253
100
AcDbLine
 10
121.663683
 20
283.26053
 11
121.663683
 21
284.26053
  0
LINE
  5
321
100
AcDbEntity
  8
M0
100
AcDbLine
 10
111.392468
 20
346.574958
 11
109.62489
 21
344.807258
  0
LINE
  5
322
100
AcDbEntity
  8
M0
100
AcDbLine
 10
122.729773
 20
343.569953
 11
119.548132
 21
346.751716
  0
LINE
  5
323
100
AcDbEntity
  8
M0
100
AcDbLine
 10
112.453015
 20
345.514289
 11
110.685437
 21
343.746711
  0
LINE
  5
324
100
AcDbEntity
  8
M0
100
AcDbLine
 10
101.292468
 20
346.574958
 11
99.52489
 21
344.807258
  0
LINE
  5
325
100
AcDbEntity
  8
M0
100
AcDbLine
 10
112.629773
 20
343.569953
 11
109.448132
 21
346.751716
  0
LINE
  5
326
100
AcDbEntity
  8
M0
100
AcDbLine
 10
102.353015
 20
345.514289
 11
100.585437
 21
343.746711
  0
LINE
  5
327
100
AcDbEntity
  8
M0
100
AcDbLine
 10
121.492468
 20
388.374958
 11
119.72489
 21
386.607258
  0
LINE
  5
328
100
AcDbEntity
  8
M0
100
AcDbLine
 10
112.453015
 20
387.314289
 11
110.685437
 21
385.546711
  0
LINE
  5
329
100
AcDbEntity
  8
M0
100
AcDbLine
 10
122.729773
 20
385.369953
 11
119.548132
 21
388.551716
  0
LINE
  5
32A
100
AcDbEntity
  8
M0
100
AcDbLine
 10
121.492468
 20
346.574958
 11
119.72489
 21
344.807258
  0
LINE
  5
32B
100
AcDbEntity
  8
M0
100
AcDbLine
 10
122.553015
 20
387.314289
 11
120.785437
 21
385.546711
  0
LINE
  5
32C
100
AcDbEntity
  8
M0
100
AcDbLine
 10
122.553015
 20
345.514289
 11
120.785437
 21
343.746711
  0
LINE
  5
32D
100
AcDbEntity
  8
M0
100
AcDbLine
 10
91.192468
 20
346.574958
 11
89.42489
 21
344.807258
  0
LINE
  5
32E
100
AcDbEntity
  8
M0
100
AcDbLine
 10
102.529773
 20
343.569953
 11
99.348132
 21
346.751716
  0
LINE
  5
32F
100
AcDbEntity
  8
M0
100
AcDbLine
 10
92.253015
 20
345.514289
 11
90.485437
 21
343.746711
  0
LINE
  5
330
100
AcDbEntity
  8
M0
100
AcDbLine
 10
92.429773
 20
343.569953
 11
89.248132
 21
346.751716
  0
LINE
  5
331
100
AcDbEntity
  8
M0
100
AcDbLine
 10
96.679773
 20
402.969953
 11
93.498132
 21
406.151716
  0
LINE
  5
332
100
AcDbEntity
  8
M0
100
AcDbLine
 10
95.442468
 20
405.974958
 11
93.67489
 21
404.207258
  0
LINE
  5
333
100
AcDbEntity
  8
M0
100
AcDbLine
 10
96.503015
 20
404.914289
 11
94.735437
 21
403.146711
  0
LINE
  5
334
100
AcDbEntity
  8
M0
100
AcDbLine
 10
102.529773
 20
385.369953
 11
99.348132
 21
388.551716
  0
LINE
  5
335
100
AcDbEntity
  8
M0
100
AcDbLine
 10
101.292468
 20
388.374958
 11
99.52489
 21
386.607258
  0
LINE
  5
336
100
AcDbEntity
  8
M0
100
AcDbLine
 10
102.353015
 20
387.314289
 11
100.585437
 21
385.546711
  0
LINE
  5
337
100
AcDbEntity
  8
M0
100
AcDbLine
 10
112.629773
 20
385.369953
 11
109.448132
 21
388.551716
  0
LINE
  5
338
100
AcDbEntity
  8
M0
100
AcDbLine
 10
111.392468
 20
388.374958
 11
109.62489
 21
386.607258
  0
LINE
  5
339
100
AcDbEntity
  8
M0
100
AcDbLine
 10
118.479773
 20
402.969953
 11
115.298132
 21
406.151716
  0
LINE
  5
33A
100
AcDbEntity
  8
M0
100
AcDbLine
 10
117.242468
 20
405.974958
 11
115.47489
 21
404.207258
  0
LINE
  5
33B
100
AcDbEntity
  8
M0
100
AcDbLine
 10
118.303015
 20
404.914289
 11
116.535437
 21
403.146711
  0
LINE
  5
33C
100
AcDbEntity
  8
M0
100
AcDbLine
 10
92.429773
 20
385.369953
 11
89.248132
 21
388.551716
  0
LINE
  5
33D
100
AcDbEntity
  8
M0
100
AcDbLine
 10
91.192468
 20
388.374958
 11
89.42489
 21
386.607258
  0
LINE
  5
33E
100
AcDbEntity
  8
M0
100
AcDbLine
 10
92.253015
 20
387.314289
 11
90.485437
 21
385.546711
  0
LINE
  5
33F
100
AcDbEntity
  8
M0
  6
DASHDOT
 62
     7
100
AcDbLine
 10
105.989189
 20
326.260598
 11
105.989189
 21
413.960598
  0
LINE
  5
340
100
AcDbEntity
  8
M0
  6
DASHDOT
 62
     7
100
AcDbLine
 10
141.989189
 20
366.060598
 11
69.989189
 21
366.060598
  0
CIRCLE
  5
341
100
AcDbEntity
  8
M0
 62
   253
100
AcDbCircle
 10
90.163683
 20
283.76053
 40
2.999997
  0
LINE
  5
342
100
AcDbEntity
  8
M0
 62
   253
100
AcDbLine
 10
87.204699
 20
287.707872
 11
86.388537
 21
285.060579
  0
LINE
  5
343
100
AcDbEntity
  8
M0
 62
   253
100
AcDbLine
 10
87.204699
 20
279.81328
 11
86.388537
 21
282.460603
  0
LINE
  5
344
100
AcDbEntity
  8
M0
 62
   253
100
AcDbLine
 10
93.122179
 20
287.707887
 11
93.938585
 21
285.060579
  0
LINE
  5
345
100
AcDbEntity
  8
M0
 62
   253
100
AcDbLine
 10
93.122179
 20
279.813264
 11
93.938585
 21
282.460603
  0
LINE
  5
346
100
AcDbEntity
  8
M0
 62
   253
100
AcDbLine
 10
93.938585
 20
282.460603
 11
93.938585
 21
285.060579
  0
LINE
  5
347
100
AcDbEntity
  8
M0
 62
   253
100
AcDbLine
 10
92.644396
 20
288.060579
 11
87.682726
 21
288.060564
  0
LINE
  5
348
100
AcDbEntity
  8
M0
 62
   253
100
AcDbLine
 10
86.388537
 20
285.060579
 11
86.388537
 21
282.460603
  0
LINE
  5
349
100
AcDbEntity
  8
M0
 62
   253
100
AcDbLine
 10
91.754259
 20
282.16971
 11
88.572619
 21
285.351472
  0
LINE
  5
34A
100
AcDbEntity
  8
M0
 62
   253
100
AcDbLine
 10
90.516954
 20
285.174715
 11
88.749376
 21
283.407014
  0
LINE
  5
34B
100
AcDbEntity
  8
M0
 62
   253
100
AcDbLine
 10
91.577501
 20
284.114046
 11
89.809923
 21
282.346468
  0
ARC
  5
34C
100
AcDbEntity
  8
M0
 62
   253
100
AcDbCircle
 10
87.682726
 20
287.560564
 40
0.5
100
AcDbArc
 50
89.998251
 51
162.874002
  0
ARC
  5
34D
100
AcDbEntity
  8
M0
 62
   253
100
AcDbCircle
 10
87.682726
 20
279.960603
 40
0.5
100
AcDbArc
 50
197.129131
 51
270.0
  0
ARC
  5
34E
100
AcDbEntity
  8
M0
 62
   253
100
AcDbCircle
 10
92.644396
 20
279.960603
 40
0.5
100
AcDbArc
 50
270.0
 51
342.861236
  0
ARC
  5
34F
100
AcDbEntity
  8
M0
 62
   253
100
AcDbCircle
 10
92.644396
 20
287.560564
 40
0.5
100
AcDbArc
 50
17.136442
 51
90.0
  0
LINE
  5
350
100
AcDbEntity
  8
M0
  6
DASHDOT
 62
   253
100
AcDbLine
 10
89.663683
 20
283.76053
 11
90.663683
 21
283.76053
  0
LINE
  5
351
100
AcDbEntity
  8
M0
  6
DASHDOT
 62
   253
100
AcDbLine
 10
90.163683
 20
283.26053
 11
90.163683
 21
284.26053
  0
ARC
  5
352
100
AcDbEntity
  8
M0
 62
     7
100
AcDbCircle
 10
117.814189
 20
390.285598
 40
0.5
100
AcDbArc
 50
90.0
 51
180.0
  0
ARC
  5
353
100
AcDbEntity
  8
M0
 62
     7
100
AcDbCircle
 10
117.814189
 20
383.635598
 40
0.5
100
AcDbArc
 50
180.0
 51
270.0
  0
ARC
  5
354
100
AcDbEntity
  8
M0
 62
     7
100
AcDbCircle
 10
124.464189
 20
390.285598
 40
0.5
100
AcDbArc
 50
0.0
 51
90.0
  0
ARC
  5
355
100
AcDbEntity
  8
M0
 62
     7
100
AcDbCircle
 10
124.464189
 20
383.635598
 40
0.5
100
AcDbArc
 50
270.0
 51
360.0
  0
LINE
  5
356
100
AcDbEntity
  8
M0
 62
     7
100
AcDbLine
 10
117.314189
 20
390.285598
 11
117.314189
 21
383.635598
  0
LINE
  5
357
100
AcDbEntity
  8
M0
 62
     7
100
AcDbLine
 10
124.964189
 20
383.635598
 11
124.964189
 21
390.285598
  0
LINE
  5
358
100
AcDbEntity
  8
M0
 62
     7
100
AcDbLine
 10
117.814189
 20
383.135598
 11
124.464189
 21
383.135598
  0
LINE
  5
359
100
AcDbEntity
  8
M0
 62
     7
100
AcDbLine
 10
124.464189
 20
390.785598
 11
117.814189
 21
390.785598
  0
LINE
  5
35A
100
AcDbEntity
  8
M0
  6
DASHDOT
 62
     7
100
AcDbLine
 10
120.639189
 20
386.960598
 11
121.639189
 21
386.960598
  0
LINE
  5
35B
100
AcDbEntity
  8
M0
  6
DASHDOT
 62
     7
100
AcDbLine
 10
121.139189
 20
386.460598
 11
121.139189
 21
387.460598
  0
ARC
  5
35C
100
AcDbEntity
  8
M0
 62
     7
100
AcDbCircle
 10
97.614189
 20
390.285598
 40
0.5
100
AcDbArc
 50
90.0
 51
180.0
  0
ARC
  5
35D
100
AcDbEntity
  8
M0
 62
     7
100
AcDbCircle
 10
97.614189
 20
383.635598
 40
0.5
100
AcDbArc
 50
180.0
 51
270.0
  0
ARC
  5
35E
100
AcDbEntity
  8
M0
 62
     7
100
AcDbCircle
 10
104.264189
 20
390.285598
 40
0.5
100
AcDbArc
 50
0.0
 51
90.0
  0
ARC
  5
35F
100
AcDbEntity
  8
M0
 62
     7
100
AcDbCircle
 10
104.264189
 20
383.635598
 40
0.5
100
AcDbArc
 50
270.0
 51
360.0
  0
LINE
  5
360
100
AcDbEntity
  8
M0
 62
     7
100
AcDbLine
 10
97.114189
 20
390.285598
 11
97.114189
 21
383.635598
  0
LINE
  5
361
100
AcDbEntity
  8
M0
 62
     7
100
AcDbLine
 10
104.764189
 20
383.635598
 11
104.764189
 21
390.285598
  0
LINE
  5
362
100
AcDbEntity
  8
M0
 62
     7
100
AcDbLine
 10
97.614189
 20
383.135598
 11
104.264189
 21
383.135598
  0
LINE
  5
363
100
AcDbEntity
  8
M0
 62
     7
100
AcDbLine
 10
104.264189
 20
390.785598
 11
97.614189
 21
390.785598
  0
LINE
  5
364
100
AcDbEntity
  8
M0
  6
DASHDOT
 62
     7
100
AcDbLine
 10
100.439189
 20
386.960598
 11
101.439189
 21
386.960598
  0
LINE
  5
365
100
AcDbEntity
  8
M0
  6
DASHDOT
 62
     7
100
AcDbLine
 10
100.939189
 20
386.460598
 11
100.939189
 21
387.460598
  0
ARC
  5
366
100
AcDbEntity
  8
M0
 62
     7
100
AcDbCircle
 10
107.714189
 20
390.285598
 40
0.5
100
AcDbArc
 50
90.0
 51
180.0
  0
ARC
  5
367
100
AcDbEntity
  8
M0
 62
     7
100
AcDbCircle
 10
107.714189
 20
383.635598
 40
0.5
100
AcDbArc
 50
180.0
 51
270.0
  0
ARC
  5
368
100
AcDbEntity
  8
M0
 62
     7
100
AcDbCircle
 10
114.364189
 20
390.285598
 40
0.5
100
AcDbArc
 50
0.0
 51
90.0
  0
ARC
  5
369
100
AcDbEntity
  8
M0
 62
     7
100
AcDbCircle
 10
114.364189
 20
383.635598
 40
0.5
100
AcDbArc
 50
270.0
 51
360.0
  0
LINE
  5
36A
100
AcDbEntity
  8
M0
 62
     7
100
AcDbLine
 10
107.214189
 20
390.285598
 11
107.214189
 21
383.635598
  0
LINE
  5
36B
100
AcDbEntity
  8
M0
 62
     7
100
AcDbLine
 10
114.864189
 20
383.635598
 11
114.864189
 21
390.285598
  0
LINE
  5
36C
100
AcDbEntity
  8
M0
 62
     7
100
AcDbLine
 10
107.714189
 20
383.135598
 11
114.364189
 21
383.135598
  0
LINE
  5
36D
100
AcDbEntity
  8
M0
 62
     7
100
AcDbLine
 10
114.364189
 20
390.785598
 11
107.714189
 21
390.785598
  0
LINE
  5
36E
100
AcDbEntity
  8
M0
  6
DASHDOT
 62
     7
100
AcDbLine
 10
110.539189
 20
386.960598
 11
111.539189
 21
386.960598
  0
LINE
  5
36F
100
AcDbEntity
  8
M0
  6
DASHDOT
 62
     7
100
AcDbLine
 10
111.039189
 20
386.460598
 11
111.039189
 21
387.460598
  0
ARC
  5
370
100
AcDbEntity
  8
M0
 62
     7
100
AcDbCircle
 10
91.764189
 20
407.885598
 40
0.5
100
AcDbArc
 50
90.0
 51
180.0
  0
ARC
  5
371
100
AcDbEntity
  8
M0
 62
     7
100
AcDbCircle
 10
91.764189
 20
401.235598
 40
0.5
100
AcDbArc
 50
180.0
 51
270.0
  0
ARC
  5
372
100
AcDbEntity
  8
M0
 62
     7
100
AcDbCircle
 10
98.414189
 20
407.885598
 40
0.5
100
AcDbArc
 50
0.0
 51
90.0
  0
ARC
  5
373
100
AcDbEntity
  8
M0
 62
     7
100
AcDbCircle
 10
98.414189
 20
401.235598
 40
0.5
100
AcDbArc
 50
270.0
 51
360.0
  0
CIRCLE
  5
374
100
AcDbEntity
  8
M0
 62
     7
100
AcDbCircle
 10
95.089189
 20
404.560598
 40
3.0
  0
LINE
  5
375
100
AcDbEntity
  8
M0
 62
     7
100
AcDbLine
 10
91.264189
 20
407.885598
 11
91.264189
 21
401.235598
  0
LINE
  5
376
100
AcDbEntity
  8
M0
 62
     7
100
AcDbLine
 10
98.914189
 20
401.235598
 11
98.914189
 21
407.885598
  0
LINE
  5
377
100
AcDbEntity
  8
M0
 62
     7
100
AcDbLine
 10
91.764189
 20
400.735598
 11
98.414189
 21
400.735598
  0
LINE
  5
378
100
AcDbEntity
  8
M0
 62
     7
100
AcDbLine
 10
98.414189
 20
408.385598
 11
91.764189
 21
408.385598
  0
LINE
  5
379
100
AcDbEntity
  8
M0
  6
DASHDOT
 62
     7
100
AcDbLine
 10
94.589189
 20
404.560598
 11
95.589189
 21
404.560598
  0
LINE
  5
37A
100
AcDbEntity
  8
M0
  6
DASHDOT
 62
     7
100
AcDbLine
 10
95.089189
 20
404.060598
 11
95.089189
 21
405.060598
  0
ARC
  5
37B
100
AcDbEntity
  8
M0
 62
     7
100
AcDbCircle
 10
87.514189
 20
390.285598
 40
0.5
100
AcDbArc
 50
90.0
 51
180.0
  0
ARC
  5
37C
100
AcDbEntity
  8
M0
 62
     7
100
AcDbCircle
 10
87.514189
 20
383.635598
 40
0.5
100
AcDbArc
 50
180.0
 51
270.0
  0
ARC
  5
37D
100
AcDbEntity
  8
M0
 62
     7
100
AcDbCircle
 10
94.164189
 20
390.285598
 40
0.5
100
AcDbArc
 50
0.0
 51
90.0
  0
ARC
  5
37E
100
AcDbEntity
  8
M0
 62
     7
100
AcDbCircle
 10
94.164189
 20
383.635598
 40
0.5
100
AcDbArc
 50
270.0
 51
360.0
  0
LINE
  5
37F
100
AcDbEntity
  8
M0
 62
     7
100
AcDbLine
 10
87.014189
 20
390.285598
 11
87.014189
 21
383.635598
  0
LINE
  5
380
100
AcDbEntity
  8
M0
 62
     7
100
AcDbLine
 10
94.664189
 20
383.635598
 11
94.664189
 21
390.285598
  0
LINE
  5
381
100
AcDbEntity
  8
M0
 62
     7
100
AcDbLine
 10
87.514189
 20
383.135598
 11
94.164189
 21
383.135598
  0
LINE
  5
382
100
AcDbEntity
  8
M0
 62
     7
100
AcDbLine
 10
94.164189
 20
390.785598
 11
87.514189
 21
390.785598
  0
LINE
  5
383
100
AcDbEntity
  8
M0
  6
DASHDOT
 62
     7
100
AcDbLine
 10
90.339189
 20
386.960598
 11
91.339189
 21
386.960598
  0
LINE
  5
384
100
AcDbEntity
  8
M0
  6
DASHDOT
 62
     7
100
AcDbLine
 10
90.839189
 20
386.460598
 11
90.839189
 21
387.460598
  0
ARC
  5
385
100
AcDbEntity
  8
M0
 62
     7
100
AcDbCircle
 10
113.564189
 20
407.885598
 40
0.5
100
AcDbArc
 50
90.0
 51
180.0
  0
ARC
  5
386
100
AcDbEntity
  8
M0
 62
     7
100
AcDbCircle
 10
113.564189
 20
401.235598
 40
0.5
100
AcDbArc
 50
180.0
 51
270.0
  0
ARC
  5
387
100
AcDbEntity
  8
M0
 62
     7
100
AcDbCircle
 10
120.214189
 20
407.885598
 40
0.5
100
AcDbArc
 50
0.0
 51
90.0
  0
ARC
  5
388
100
AcDbEntity
  8
M0
 62
     7
100
AcDbCircle
 10
120.214189
 20
401.235598
 40
0.5
100
AcDbArc
 50
270.0
 51
360.0
  0
LINE
  5
389
100
AcDbEntity
  8
M0
 62
     7
100
AcDbLine
 10
113.064189
 20
407.885598
 11
113.064189
 21
401.235598
  0
LINE
  5
38A
100
AcDbEntity
  8
M0
 62
     7
100
AcDbLine
 10
120.714189
 20
401.235598
 11
120.714189
 21
407.885598
  0
LINE
  5
38B
100
AcDbEntity
  8
M0
 62
     7
100
AcDbLine
 10
113.564189
 20
400.735598
 11
120.214189
 21
400.735598
  0
LINE
  5
38C
100
AcDbEntity
  8
M0
 62
     7
100
AcDbLine
 10
120.214189
 20
408.385598
 11
113.564189
 21
408.385598
  0
LINE
  5
38D
100
AcDbEntity
  8
M0
  6
DASHDOT
 62
     7
100
AcDbLine
 10
116.389189
 20
404.560598
 11
117.389189
 21
404.560598
  0
LINE
  5
38E
100
AcDbEntity
  8
M0
  6
DASHDOT
 62
     7
100
AcDbLine
 10
116.889189
 20
404.060598
 11
116.889189
 21
405.060598
  0
ARC
  5
38F
100
AcDbEntity
  8
M0
 62
     7
100
AcDbCircle
 10
117.814189
 20
348.485598
 40
0.5
100
AcDbArc
 50
90.0
 51
180.0
  0
ARC
  5
390
100
AcDbEntity
  8
M0
 62
     7
100
AcDbCircle
 10
117.814189
 20
341.835598
 40
0.5
100
AcDbArc
 50
180.0
 51
270.0
  0
ARC
  5
391
100
AcDbEntity
  8
M0
 62
     7
100
AcDbCircle
 10
124.464189
 20
348.485598
 40
0.5
100
AcDbArc
 50
0.0
 51
90.0
  0
ARC
  5
392
100
AcDbEntity
  8
M0
 62
     7
100
AcDbCircle
 10
124.464189
 20
341.835598
 40
0.5
100
AcDbArc
 50
270.0
 51
360.0
  0
CIRCLE
  5
393
100
AcDbEntity
  8
M0
 62
     7
100
AcDbCircle
 10
121.139189
 20
345.160598
 40
3.0
  0
LINE
  5
394
100
AcDbEntity
  8
M0
 62
     7
100
AcDbLine
 10
117.314189
 20
348.485598
 11
117.314189
 21
341.835598
  0
LINE
  5
395
100
AcDbEntity
  8
M0
 62
     7
100
AcDbLine
 10
124.964189
 20
341.835598
 11
124.964189
 21
348.485598
  0
LINE
  5
396
100
AcDbEntity
  8
M0
 62
     7
100
AcDbLine
 10
117.814189
 20
341.335598
 11
124.464189
 21
341.335598
  0
LINE
  5
397
100
AcDbEntity
  8
M0
 62
     7
100
AcDbLine
 10
124.464189
 20
348.985598
 11
117.814189
 21
348.985598
  0
LINE
  5
398
100
AcDbEntity
  8
M0
  6
DASHDOT
 62
     7
100
AcDbLine
 10
120.639189
 20
345.160598
 11
121.639189
 21
345.160598
  0
LINE
  5
399
100
AcDbEntity
  8
M0
  6
DASHDOT
 62
     7
100
AcDbLine
 10
121.139189
 20
344.660598
 11
121.139189
 21
345.660598
  0
ARC
  5
39A
100
AcDbEntity
  8
M0
 62
     7
100
AcDbCircle
 10
107.714189
 20
348.485598
 40
0.5
100
AcDbArc
 50
90.0
 51
180.0
  0
ARC
  5
39B
100
AcDbEntity
  8
M0
 62
     7
100
AcDbCircle
 10
107.714189
 20
341.835598
 40
0.5
100
AcDbArc
 50
180.0
 51
270.0
  0
ARC
  5
39C
100
AcDbEntity
  8
M0
 62
     7
100
AcDbCircle
 10
114.364189
 20
348.485598
 40
0.5
100
AcDbArc
 50
0.0
 51
90.0
  0
ARC
  5
39D
100
AcDbEntity
  8
M0
 62
     7
100
AcDbCircle
 10
114.364189
 20
341.835598
 40
0.5
100
AcDbArc
 50
270.0
 51
360.0
  0
LINE
  5
39E
100
AcDbEntity
  8
M0
 62
     7
100
AcDbLine
 10
107.214189
 20
348.485598
 11
107.214189
 21
341.835598
  0
LINE
  5
39F
100
AcDbEntity
  8
M0
 62
     7
100
AcDbLine
 10
114.864189
 20
341.835598
 11
114.864189
 21
348.485598
  0
LINE
  5
3A0
100
AcDbEntity
  8
M0
 62
     7
100
AcDbLine
 10
107.714189
 20
341.335598
 11
114.364189
 21
341.335598
  0
LINE
  5
3A1
100
AcDbEntity
  8
M0
 62
     7
100
AcDbLine
 10
114.364189
 20
348.985598
 11
107.714189
 21
348.985598
  0
LINE
  5
3A2
100
AcDbEntity
  8
M0
  6
DASHDOT
 62
     7
100
AcDbLine
 10
110.539189
 20
345.160598
 11
111.539189
 21
345.160598
  0
LINE
  5
3A3
100
AcDbEntity
  8
M0
  6
DASHDOT
 62
     7
100
AcDbLine
 10
111.039189
 20
344.660598
 11
111.039189
 21
345.660598
  0
ARC
  5
3A4
100
AcDbEntity
  8
M0
 62
     7
100
AcDbCircle
 10
97.614189
 20
348.485598
 40
0.5
100
AcDbArc
 50
90.0
 51
180.0
  0
ARC
  5
3A5
100
AcDbEntity
  8
M0
 62
     7
100
AcDbCircle
 10
97.614189
 20
341.835598
 40
0.5
100
AcDbArc
 50
180.0
 51
270.0
  0
ARC
  5
3A6
100
AcDbEntity
  8
M0
 62
     7
100
AcDbCircle
 10
104.264189
 20
348.485598
 40
0.5
100
AcDbArc
 50
0.0
 51
90.0
  0
ARC
  5
3A7
100
AcDbEntity
  8
M0
 62
     7
100
AcDbCircle
 10
104.264189
 20
341.835598
 40
0.5
100
AcDbArc
 50
270.0
 51
360.0
  0
CIRCLE
  5
3A8
100
AcDbEntity
  8
M0
 62
     7
100
AcDbCircle
 10
100.939189
 20
345.160598
 40
3.0
  0
LINE
  5
3A9
100
AcDbEntity
  8
M0
 62
     7
100
AcDbLine
 10
97.114189
 20
348.485598
 11
97.114189
 21
341.835598
  0
LINE
  5
3AA
100
AcDbEntity
  8
M0
 62
     7
100
AcDbLine
 10
104.764189
 20
341.835598
 11
104.764189
 21
348.485598
  0
LINE
  5
3AB
100
AcDbEntity
  8
M0
 62
     7
100
AcDbLine
 10
97.614189
 20
341.335598
 11
104.264189
 21
341.335598
  0
LINE
  5
3AC
100
AcDbEntity
  8
M0
 62
     7
100
AcDbLine
 10
104.264189
 20
348.985598
 11
97.614189
 21
348.985598
  0
LINE
  5
3AD
100
AcDbEntity
  8
M0
  6
DASHDOT
 62
     7
100
AcDbLine
 10
100.439189
 20
345.160598
 11
101.439189
 21
345.160598
  0
LINE
  5
3AE
100
AcDbEntity
  8
M0
  6
DASHDOT
 62
     7
100
AcDbLine
 10
100.939189
 20
344.660598
 11
100.939189
 21
345.660598
  0
ARC
  5
3AF
100
AcDbEntity
  8
M0
 62
     7
100
AcDbCircle
 10
87.514189
 20
348.485598
 40
0.5
100
AcDbArc
 50
90.0
 51
180.0
  0
ARC
  5
3B0
100
AcDbEntity
  8
M0
 62
     7
100
AcDbCircle
 10
87.514189
 20
341.835598
 40
0.5
100
AcDbArc
 50
180.0
 51
270.0
  0
ARC
  5
3B1
100
AcDbEntity
  8
M0
 62
     7
100
AcDbCircle
 10
94.164189
 20
348.485598
 40
0.5
100
AcDbArc
 50
0.0
 51
90.0
  0
ARC
  5
3B2
100
AcDbEntity
  8
M0
 62
     7
100
AcDbCircle
 10
94.164189
 20
341.835598
 40
0.5
100
AcDbArc
 50
270.0
 51
360.0
  0
LINE
  5
3B3
100
AcDbEntity
  8
M0
 62
     7
100
AcDbLine
 10
87.014189
 20
348.485598
 11
87.014189
 21
341.835598
  0
LINE
  5
3B4
100
AcDbEntity
  8
M0
 62
     7
100
AcDbLine
 10
94.664189
 20
341.835598
 11
94.664189
 21
348.485598
  0
LINE
  5
3B5
100
AcDbEntity
  8
M0
 62
     7
100
AcDbLine
 10
87.514189
 20
341.335598
 11
94.164189
 21
341.335598
  0
LINE
  5
3B6
100
AcDbEntity
  8
M0
 62
     7
100
AcDbLine
 10
94.164189
 20
348.985598
 11
87.514189
 21
348.985598
  0
LINE
  5
3B7
100
AcDbEntity
  8
M0
  6
DASHDOT
 62
     7
100
AcDbLine
 10
90.339189
 20
345.160598
 11
91.339189
 21
345.160598
  0
LINE
  5
3B8
100
AcDbEntity
  8
M0
  6
DASHDOT
 62
     7
100
AcDbLine
 10
90.839189
 20
344.660598
 11
90.839189
 21
345.660598
  0
CIRCLE
  5
3B9
100
AcDbEntity
  8
M0
 62
     7
100
AcDbCircle
 10
105.989189
 20
404.160598
 40
2.65
  0
LINE
  5
3BA
100
AcDbEntity
  8
M0
 62
     7
100
AcDbLine
 10
107.189189
 20
403.710598
 11
107.189189
 21
404.610598
  0
LINE
  5
3BB
100
AcDbEntity
  8
M0
 62
     7
100
AcDbLine
 10
99.739189
 20
333.110598
 11
99.739189
 21
334.010598
  0
LINE
  5
3BC
100
AcDbEntity
  8
M0
 62
     7
100
AcDbLine
 10
104.789189
 20
403.710598
 11
104.789189
 21
404.610598
  0
LINE
  5
3BD
100
AcDbEntity
  8
M0
 62
     7
100
AcDbLine
 10
102.139189
 20
333.110598
 11
102.139189
 21
334.010598
  0
LINE
  5
3BE
100
AcDbEntity
  8
M0
 62
     7
100
AcDbLine
 10
118.339189
 20
336.760598
 11
117.239189
 21
336.760598
  0
LINE
  5
3BF
100
AcDbEntity
  8
M0
 62
     7
100
AcDbLine
 10
118.339189
 20
336.560632
 11
118.339189
 21
336.760598
  0
LINE
  5
3C0
100
AcDbEntity
  8
M0
 62
     7
100
AcDbLine
 10
127.489189
 20
397.760598
 11
127.489189
 21
336.260598
  0
LINE
  5
3C1
100
AcDbEntity
  8
M0
 62
     7
100
AcDbLine
 10
84.489189
 20
334.760598
 11
84.489189
 21
394.960598
  0
LINE
  5
3C2
100
AcDbEntity
  8
M0
 62
     7
100
AcDbLine
 10
123.739189
 20
340.360598
 11
123.739189
 21
339.960598
  0
LINE
  5
3C3
100
AcDbEntity
  8
M0
 62
     7
100
AcDbLine
 10
110.689189
 20
331.260598
 11
111.463768
 21
331.260598
  0
LINE
  5
3C4
100
AcDbEntity
  8
M0
 62
     7
100
AcDbLine
 10
94.78525
 20
331.260598
 11
94.463768
 21
331.260598
  0
LINE
  5
3C5
100
AcDbEntity
  8
M0
 62
     7
100
AcDbLine
 10
94.739189
 20
335.560598
 11
91.739189
 21
335.560598
  0
LINE
  5
3C6
100
AcDbEntity
  8
M0
 62
     7
100
AcDbLine
 10
114.839189
 20
335.060598
 11
114.839189
 21
331.760598
  0
LINE
  5
3C7
100
AcDbEntity
  8
M0
 62
     7
100
AcDbLine
 10
110.189189
 20
335.060598
 11
110.189189
 21
331.760598
  0
LINE
  5
3C8
100
AcDbEntity
  8
M0
 62
     7
100
AcDbLine
 10
119.239189
 20
339.960598
 11
119.239189
 21
340.360598
  0
LINE
  5
3C9
100
AcDbEntity
  8
M0
 62
     7
100
AcDbLine
 10
91.739189
 20
335.560598
 11
91.739189
 21
335.260617
  0
LINE
  5
3CA
100
AcDbEntity
  8
M0
 62
     7
100
AcDbLine
 10
86.239189
 20
394.960598
 11
86.239189
 21
394.814537
  0
ARC
  5
3CB
100
AcDbEntity
  8
M0
 62
     7
100
AcDbCircle
 10
123.489189
 20
397.760598
 40
4.0
100
AcDbArc
 50
0.0
 51
97.180756
  0
ARC
  5
3CC
100
AcDbEntity
  8
M0
 62
     7
100
AcDbCircle
 10
123.489189
 20
397.760598
 40
2.25
100
AcDbArc
 50
257.160412
 51
462.839588
  0
ARC
  5
3CD
100
AcDbEntity
  8
M0
 62
     7
100
AcDbCircle
 10
110.689189
 20
331.760598
 40
0.5
100
AcDbArc
 50
180.0
 51
270.0
  0
ARC
  5
3CE
100
AcDbEntity
  8
M0
 62
     7
100
AcDbCircle
 10
114.339189
 20
331.760598
 40
0.5
100
AcDbArc
 50
284.427733
 51
360.0
  0
LINE
  5
3CF
100
AcDbEntity
  8
M0
 62
     7
100
AcDbLine
 10
90.789189
 20
408.960598
 11
99.089189
 21
408.960598
  0
LINE
  5
3D0
100
AcDbEntity
  8
M0
 62
     7
100
AcDbLine
 10
120.389189
 20
408.960598
 11
121.189189
 21
408.960598
  0
LINE
  5
3D1
100
AcDbEntity
  8
M0
 62
     7
100
AcDbLine
 10
88.989189
 20
396.960598
 11
88.989189
 21
396.860598
  0
LINE
  5
3D2
100
AcDbEntity
  8
M0
 62
     7
100
AcDbLine
 10
88.989189
 20
400.560598
 11
88.989189
 21
400.460598
  0
LINE
  5
3D3
100
AcDbEntity
  8
M0
 62
     7
100
AcDbLine
 10
122.989189
 20
396.860598
 11
122.989189
 21
396.960598
  0
LINE
  5
3D4
100
AcDbEntity
  8
M0
 62
     7
100
AcDbLine
 10
122.989189
 20
400.460598
 11
122.989189
 21
400.560598
  0
LINE
  5
3D5
100
AcDbEntity
  8
M0
 62
     7
100
AcDbLine
 10
121.189189
 20
409.860598
 11
121.189189
 21
400.460598
  0
LINE
  5
3D6
100
AcDbEntity
  8
M0
 62
     7
100
AcDbLine
 10
90.789189
 20
400.460598
 11
90.789189
 21
400.560598
  0
LINE
  5
3D7
100
AcDbEntity
  8
M0
 62
     7
100
AcDbLine
 10
101.389189
 20
334.010598
 11
101.389189
 21
334.760598
  0
ARC
  5
3D8
100
AcDbEntity
  8
M0
 62
     7
100
AcDbCircle
 10
90.189189
 20
409.860598
 40
0.6
100
AcDbArc
 50
0.0
 51
90.0
  0
LINE
  5
3D9
100
AcDbEntity
  8
M0
 62
     7
100
AcDbLine
 10
99.739189
 20
334.010598
 11
100.489189
 21
334.010598
  0
LINE
  5
3DA
100
AcDbEntity
  8
M0
 62
     7
100
AcDbLine
 10
100.489189
 20
334.760598
 11
100.489189
 21
334.010598
  0
LINE
  5
3DB
100
AcDbEntity
  8
M0
 62
     7
100
AcDbLine
 10
101.389189
 20
334.010598
 11
102.139189
 21
334.010598
  0
ARC
  5
3DC
100
AcDbEntity
  8
M0
 62
     7
100
AcDbCircle
 10
121.789189
 20
409.860598
 40
0.6
100
AcDbArc
 50
90.0
 51
180.0
  0
LINE
  5
3DD
100
AcDbEntity
  8
M0
 62
     7
100
AcDbLine
 10
101.389189
 20
334.760598
 11
100.489189
 21
334.760598
  0
ARC
  5
3DE
100
AcDbEntity
  8
M0
 62
     7
100
AcDbCircle
 10
89.589189
 20
409.860598
 40
0.6
100
AcDbArc
 50
90.0
 51
180.0
  0
ARC
  5
3DF
100
AcDbEntity
  8
M0
 62
     7
100
AcDbCircle
 10
110.989189
 20
332.560598
 40
2.0
100
AcDbArc
 50
270.0
 51
283.72663
  0
ARC
  5
3E0
100
AcDbEntity
  8
M0
 62
     7
100
AcDbCircle
 10
122.389189
 20
409.860598
 40
0.6
100
AcDbArc
 50
0.0
 51
90.0
  0
LINE
  5
3E1
100
AcDbEntity
  8
M0
 62
     7
100
AcDbLine
 10
101.389189
 20
332.360598
 11
101.389189
 21
333.110598
  0
LINE
  5
3E2
100
AcDbEntity
  8
M0
 62
     7
100
AcDbLine
 10
100.489189
 20
333.110598
 11
99.739189
 21
333.110598
  0
LINE
  5
3E3
100
AcDbEntity
  8
M0
 62
     7
100
AcDbLine
 10
100.489189
 20
332.360598
 11
101.389189
 21
332.360598
  0
LINE
  5
3E4
100
AcDbEntity
  8
M0
 62
     7
100
AcDbLine
 10
100.489189
 20
333.110598
 11
100.489189
 21
332.360598
  0
ARC
  5
3E5
100
AcDbEntity
  8
M0
 62
     7
100
AcDbCircle
 10
123.489189
 20
342.960598
 40
2.25
100
AcDbArc
 50
286.791447
 51
313.542219
  0
ARC
  5
3E6
100
AcDbEntity
  8
M0
 62
     7
100
AcDbCircle
 10
88.489189
 20
337.760598
 40
2.25
100
AcDbArc
 50
191.257189
 51
253.859307
  0
ARC
  5
3E7
100
AcDbEntity
  8
M0
 62
     7
100
AcDbCircle
 10
121.489189
 20
339.960598
 40
2.25
100
AcDbArc
 50
180.0
 51
360.0
  0
ARC
  5
3E8
100
AcDbEntity
  8
M0
 62
     7
100
AcDbCircle
 10
88.489189
 20
394.960598
 40
2.25
100
AcDbArc
 50
77.160412
 51
180.0
  0
ARC
  5
3E9
100
AcDbEntity
  8
M0
 62
     7
100
AcDbCircle
 10
89.489189
 20
394.960598
 40
5.0
100
AcDbArc
 50
95.73917
 51
180.0
  0
ARC
  5
3EA
100
AcDbEntity
  8
M0
 62
     7
100
AcDbCircle
 10
118.839189
 20
331.760598
 40
0.5
100
AcDbArc
 50
243.203501
 51
270.0
  0
LINE
  5
3EB
100
AcDbEntity
  8
M0
 62
     7
100
AcDbLine
 10
102.139189
 20
333.110598
 11
101.389189
 21
333.110598
  0
ARC
  5
3EC
100
AcDbEntity
  8
M0
 62
     7
100
AcDbCircle
 10
91.239189
 20
331.760598
 40
0.5
100
AcDbArc
 50
270.0
 51
296.689719
  0
ARC
  5
3ED
100
AcDbEntity
  8
M0
 62
     7
100
AcDbCircle
 10
122.489189
 20
336.260598
 40
5.0
100
AcDbArc
 50
270.0
 51
360.0
  0
ARC
  5
3EE
100
AcDbEntity
  8
M0
 62
     7
100
AcDbCircle
 10
87.989189
 20
334.760598
 40
3.5
100
AcDbArc
 50
180.0
 51
264.663882
  0
LINE
  5
3EF
100
AcDbEntity
  8
M0
 62
     7
100
AcDbLine
 10
122.989189
 20
407.460598
 11
122.989189
 21
409.860598
  0
LINE
  5
3F0
100
AcDbEntity
  8
M0
 62
     7
100
AcDbLine
 10
121.789189
 20
410.460598
 11
122.389189
 21
410.460598
  0
LINE
  5
3F1
100
AcDbEntity
  8
M0
 62
     7
100
AcDbLine
 10
89.589189
 20
410.460598
 11
90.189189
 21
410.460598
  0
LINE
  5
3F2
100
AcDbEntity
  8
M0
 62
     7
100
AcDbLine
 10
110.989189
 20
330.560598
 11
109.663695
 21
330.560598
  0
LINE
  5
3F3
100
AcDbEntity
  8
M0
 62
     7
100
AcDbLine
 10
122.989189
 20
407.460598
 11
122.989189
 21
400.560598
  0
LINE
  5
3F4
100
AcDbEntity
  8
M0
 62
     7
100
AcDbLine
 10
107.139189
 20
332.560598
 11
107.663695
 21
332.560598
  0
LINE
  5
3F5
100
AcDbEntity
  8
M0
 62
     7
100
AcDbLine
 10
90.789189
 20
400.460598
 11
90.789189
 21
409.860598
  0
LINE
  5
3F6
100
AcDbEntity
  8
M0
 62
     7
100
AcDbLine
 10
89.789189
 20
369.710598
 11
89.789189
 21
368.460598
  0
LINE
  5
3F7
100
AcDbEntity
  8
M0
 62
     7
100
AcDbLine
 10
89.989189
 20
368.460598
 11
89.789189
 21
368.460598
  0
LINE
  5
3F8
100
AcDbEntity
  8
M0
 62
     7
100
AcDbLine
 10
89.789189
 20
363.460598
 11
89.789189
 21
362.410598
  0
LINE
  5
3F9
100
AcDbEntity
  8
M0
 62
     7
100
AcDbLine
 10
89.789189
 20
363.460598
 11
89.989189
 21
363.460598
  0
LINE
  5
3FA
100
AcDbEntity
  8
M0
 62
     7
100
AcDbLine
 10
89.707134
 20
362.360598
 11
86.789189
 21
362.360598
  0
LINE
  5
3FB
100
AcDbEntity
  8
M0
 62
     7
100
AcDbLine
 10
86.439189
 20
372.160598
 11
86.589189
 21
372.160598
  0
LINE
  5
3FC
100
AcDbEntity
  8
M0
 62
     7
100
AcDbLine
 10
86.589189
 20
374.960598
 11
86.439189
 21
374.960598
  0
LINE
  5
3FD
100
AcDbEntity
  8
M0
 62
     7
100
AcDbLine
 10
85.939189
 20
337.260598
 11
85.489189
 21
337.260598
  0
ARC
  5
3FE
100
AcDbEntity
  8
M0
 62
     7
100
AcDbCircle
 10
116.239189
 20
334.860598
 40
1.0
100
AcDbArc
 50
270.0
 51
360.0
  0
ARC
  5
3FF
100
AcDbEntity
  8
M0
 62
     7
100
AcDbCircle
 10
96.039189
 20
334.860598
 40
1.0
100
AcDbArc
 50
270.0
 51
360.0
  0
ARC
  5
400
100
AcDbEntity
  8
M0
 62
     7
100
AcDbCircle
 10
106.139189
 20
334.860598
 40
1.0
100
AcDbArc
 50
270.0
 51
360.0
  0
ARC
  5
401
100
AcDbEntity
  8
M0
 62
     7
100
AcDbCircle
 10
95.739189
 20
334.860598
 40
1.0
100
AcDbArc
 50
180.0
 51
270.0
  0
LINE
  5
402
100
AcDbEntity
  8
M0
 62
     7
100
AcDbLine
 10
86.789189
 20
362.360598
 11
86.789189
 21
369.760598
  0
LINE
  5
403
100
AcDbEntity
  8
M0
 62
     7
100
AcDbLine
 10
85.489189
 20
362.360598
 11
85.489189
 21
369.760598
  0
LINE
  5
404
100
AcDbEntity
  8
M0
 62
     7
100
AcDbLine
 10
86.789189
 20
369.760598
 11
89.707134
 21
369.760598
  0
LINE
  5
405
100
AcDbEntity
  8
M0
 62
     7
100
AcDbLine
 10
125.039189
 20
338.260598
 11
125.039189
 21
349.360598
  0
LINE
  5
406
100
AcDbEntity
  8
M0
 62
     7
100
AcDbLine
 10
126.489189
 20
337.260598
 11
126.039189
 21
337.260598
  0
LINE
  5
407
100
AcDbEntity
  8
M0
 62
     7
100
AcDbLine
 10
110.889189
 20
377.060598
 11
111.039189
 21
377.060598
  0
LINE
  5
408
100
AcDbEntity
  8
M0
 62
     7
100
AcDbLine
 10
125.436557
 20
372.160598
 11
125.436557
 21
374.960598
  0
LINE
  5
409
100
AcDbEntity
  8
M0
 62
     7
100
AcDbLine
 10
101.089189
 20
377.060598
 11
100.939189
 21
377.060598
  0
LINE
  5
40A
100
AcDbEntity
  8
M0
 62
     7
100
AcDbLine
 10
121.989189
 20
363.460598
 11
122.189189
 21
363.460598
  0
LINE
  5
40B
100
AcDbEntity
  8
M0
 62
     7
100
AcDbLine
 10
122.189189
 20
363.460598
 11
122.189189
 21
362.410598
  0
LINE
  5
40C
100
AcDbEntity
  8
M0
 62
     7
100
AcDbLine
 10
122.189189
 20
368.460598
 11
121.989189
 21
368.460598
  0
LINE
  5
40D
100
AcDbEntity
  8
M0
 62
     7
100
AcDbLine
 10
94.739189
 20
394.260598
 11
94.739189
 21
397.260598
  0
LINE
  5
40E
100
AcDbEntity
  8
M0
 62
     7
100
AcDbLine
 10
125.539189
 20
374.960598
 11
125.389189
 21
374.960598
  0
LINE
  5
40F
100
AcDbEntity
  8
M0
 62
     7
100
AcDbLine
 10
126.489189
 20
362.360598
 11
126.489189
 21
369.760598
  0
LINE
  5
410
100
AcDbEntity
  8
M0
 62
     7
100
AcDbLine
 10
122.189189
 20
369.710598
 11
122.189189
 21
368.460598
  0
LINE
  5
411
100
AcDbEntity
  8
M0
 62
     7
100
AcDbLine
 10
86.54182
 20
372.160598
 11
86.54182
 21
374.960598
  0
LINE
  5
412
100
AcDbEntity
  8
M0
 62
     7
100
AcDbLine
 10
125.189189
 20
369.760598
 11
122.271244
 21
369.760598
  0
LINE
  5
413
100
AcDbEntity
  8
M0
 62
     7
100
AcDbLine
 10
122.271244
 20
362.360598
 11
125.189189
 21
362.360598
  0
LINE
  5
414
100
AcDbEntity
  8
M0
 62
     7
100
AcDbLine
 10
125.189189
 20
362.360598
 11
125.189189
 21
369.760598
  0
LINE
  5
415
100
AcDbEntity
  8
M0
 62
     7
100
AcDbLine
 10
125.389189
 20
372.160598
 11
125.539189
 21
372.160598
  0
LINE
  5
416
100
AcDbEntity
  8
M0
 62
     7
100
AcDbLine
 10
105.939189
 20
333.860598
 11
105.839189
 21
333.860598
  0
LINE
  5
417
100
AcDbEntity
  8
M0
 62
     7
100
AcDbLine
 10
106.039189
 20
333.860598
 11
105.939189
 21
333.860598
  0
LINE
  5
418
100
AcDbEntity
  8
M0
 62
     7
100
AcDbLine
 10
116.039189
 20
333.860598
 11
115.939189
 21
333.860598
  0
LINE
  5
419
100
AcDbEntity
  8
M0
 62
     7
100
AcDbLine
 10
106.139189
 20
333.860598
 11
106.039189
 21
333.860598
  0
LINE
  5
41A
100
AcDbEntity
  8
M0
 62
     7
100
AcDbLine
 10
116.239189
 20
333.860598
 11
116.039189
 21
333.860598
  0
LINE
  5
41B
100
AcDbEntity
  8
M0
 62
     7
100
AcDbLine
 10
107.139189
 20
382.760598
 11
107.139189
 21
397.260598
  0
LINE
  5
41C
100
AcDbEntity
  8
M0
 62
     7
100
AcDbLine
 10
117.239189
 20
382.760598
 11
117.239189
 21
397.260598
  0
LINE
  5
41D
100
AcDbEntity
  8
M0
 62
     7
100
AcDbLine
 10
105.839189
 20
347.860598
 11
106.139189
 21
347.860598
  0
LINE
  5
41E
100
AcDbEntity
  8
M0
 62
     7
100
AcDbLine
 10
114.939189
 20
334.860598
 11
114.939189
 21
349.360598
  0
LINE
  5
41F
100
AcDbEntity
  8
M0
 62
     7
100
AcDbLine
 10
95.939189
 20
333.860598
 11
95.739189
 21
333.860598
  0
LINE
  5
420
100
AcDbEntity
  8
M0
 62
     7
100
AcDbLine
 10
96.039189
 20
333.860598
 11
95.939189
 21
333.860598
  0
LINE
  5
421
100
AcDbEntity
  8
M0
 62
     7
100
AcDbLine
 10
117.239189
 20
349.360598
 11
117.239189
 21
334.860598
  0
ARC
  5
422
100
AcDbEntity
  8
M0
 62
     7
100
AcDbCircle
 10
106.139189
 20
346.860598
 40
1.0
100
AcDbArc
 50
0.0
 51
90.0
  0
ARC
  5
423
100
AcDbEntity
  8
M0
 62
     7
100
AcDbCircle
 10
96.039189
 20
346.860598
 40
1.0
100
AcDbArc
 50
0.0
 51
90.0
  0
ARC
  5
424
100
AcDbEntity
  8
M0
 62
     7
100
AcDbCircle
 10
95.739189
 20
385.260598
 40
1.0
100
AcDbArc
 50
180.0
 51
270.0
  0
ARC
  5
425
100
AcDbEntity
  8
M0
 62
     7
100
AcDbCircle
 10
106.139189
 20
385.260598
 40
1.0
100
AcDbArc
 50
270.0
 51
360.0
  0
ARC
  5
426
100
AcDbEntity
  8
M0
 62
     7
100
AcDbCircle
 10
105.839189
 20
385.260598
 40
1.0
100
AcDbArc
 50
180.0
 51
270.0
  0
ARC
  5
427
100
AcDbEntity
  8
M0
 62
     7
100
AcDbCircle
 10
115.939189
 20
385.260598
 40
1.0
100
AcDbArc
 50
180.0
 51
270.0
  0
ARC
  5
428
100
AcDbEntity
  8
M0
 62
     7
100
AcDbCircle
 10
105.839189
 20
334.860598
 40
1.0
100
AcDbArc
 50
180.0
 51
270.0
  0
ARC
  5
429
100
AcDbEntity
  8
M0
 62
     7
100
AcDbCircle
 10
115.939189
 20
334.860598
 40
1.0
100
AcDbArc
 50
180.0
 51
270.0
  0
ARC
  5
42A
100
AcDbEntity
  8
M0
 62
     7
100
AcDbCircle
 10
115.939189
 20
346.860598
 40
1.0
100
AcDbArc
 50
90.0
 51
180.0
  0
ARC
  5
42B
100
AcDbEntity
  8
M0
 62
     7
100
AcDbCircle
 10
116.239189
 20
346.860598
 40
1.0
100
AcDbArc
 50
0.0
 51
90.0
  0
ARC
  5
42C
100
AcDbEntity
  8
M0
 62
     7
100
AcDbCircle
 10
95.739189
 20
346.860598
 40
1.0
100
AcDbArc
 50
90.0
 51
180.0
  0
LINE
  5
42D
100
AcDbEntity
  8
M0
 62
     7
100
AcDbLine
 10
94.739189
 20
382.760598
 11
94.739189
 21
385.260598
  0
LINE
  5
42E
100
AcDbEntity
  8
M0
 62
     7
100
AcDbLine
 10
97.039189
 20
385.260598
 11
97.039189
 21
382.760598
  0
LINE
  5
42F
100
AcDbEntity
  8
M0
 62
     7
100
AcDbLine
 10
114.939189
 20
397.260598
 11
114.939189
 21
382.760598
  0
ARC
  5
430
100
AcDbEntity
  8
M0
 62
     7
100
AcDbCircle
 10
116.239189
 20
385.260598
 40
1.0
100
AcDbArc
 50
270.0
 51
360.0
  0
ARC
  5
431
100
AcDbEntity
  8
M0
 62
     7
100
AcDbCircle
 10
105.839189
 20
346.860598
 40
1.0
100
AcDbArc
 50
90.0
 51
180.0
  0
ARC
  5
432
100
AcDbEntity
  8
M0
 62
     7
100
AcDbCircle
 10
96.039189
 20
385.260598
 40
1.0
100
AcDbArc
 50
270.0
 51
360.0
  0
LINE
  5
433
100
AcDbEntity
  8
M0
 62
     7
100
AcDbLine
 10
125.539189
 20
361.360598
 11
125.539189
 21
361.361849
  0
LINE
  5
434
100
AcDbEntity
  8
M0
 62
     7
100
AcDbLine
 10
86.439189
 20
361.361849
 11
86.439189
 21
361.360598
  0
LINE
  5
435
100
AcDbEntity
  8
M0
 62
     7
100
AcDbLine
 10
125.539189
 20
370.759347
 11
125.539189
 21
370.760598
  0
LINE
  5
436
100
AcDbEntity
  8
M0
 62
     7
100
AcDbLine
 10
86.439189
 20
370.760598
 11
86.439189
 21
370.759347
  0
LINE
  5
437
100
AcDbEntity
  8
M0
 62
     7
100
AcDbLine
 10
125.539189
 20
349.360598
 11
125.539189
 21
361.360598
  0
LINE
  5
438
100
AcDbEntity
  8
M0
 62
     7
100
AcDbLine
 10
86.439189
 20
361.360598
 11
86.439189
 21
349.360598
  0
LINE
  5
439
100
AcDbEntity
  8
M0
 62
     7
100
AcDbLine
 10
97.789189
 20
378.260598
 11
98.289189
 21
378.260598
  0
LINE
  5
43A
100
AcDbEntity
  8
M0
 62
     7
100
AcDbLine
 10
115.189189
 20
358.560598
 11
115.189189
 21
372.160598
  0
LINE
  5
43B
100
AcDbEntity
  8
M0
 62
     7
100
AcDbLine
 10
98.289189
 20
355.060598
 11
97.789189
 21
355.060598
  0
LINE
  5
43C
100
AcDbEntity
  8
M0
 62
     7
100
AcDbLine
 10
86.439189
 20
382.760598
 11
86.439189
 21
370.760598
  0
LINE
  5
43D
100
AcDbEntity
  8
M0
 62
     7
100
AcDbLine
 10
96.789189
 20
358.560598
 11
96.789189
 21
372.160598
  0
LINE
  5
43E
100
AcDbEntity
  8
M0
 62
     7
100
AcDbLine
 10
125.539189
 20
370.760598
 11
125.539189
 21
382.760598
  0
LINE
  5
43F
100
AcDbEntity
  8
M0
 62
     7
100
AcDbLine
 10
111.539189
 20
370.860598
 11
100.439189
 21
370.860598
  0
LINE
  5
440
100
AcDbEntity
  8
M0
 62
     7
100
AcDbLine
 10
113.689189
 20
378.260598
 11
114.189189
 21
378.260598
  0
LINE
  5
441
100
AcDbEntity
  8
M0
 62
     7
100
AcDbLine
 10
111.039189
 20
376.060598
 11
100.939189
 21
376.060598
  0
LINE
  5
442
100
AcDbEntity
  8
M0
 62
     7
100
AcDbLine
 10
113.689189
 20
355.060598
 11
114.189189
 21
355.060598
  0
ARC
  5
443
100
AcDbEntity
  8
M0
 62
     7
100
AcDbCircle
 10
85.489189
 20
370.760598
 40
1.0
100
AcDbArc
 50
180.0
 51
270.0
  0
ARC
  5
444
100
AcDbEntity
  8
M0
 62
     7
100
AcDbCircle
 10
126.539189
 20
370.759347
 40
1.0
100
AcDbArc
 50
180.0
 51
267.134016
  0
ARC
  5
445
100
AcDbEntity
  8
M0
 62
     7
100
AcDbCircle
 10
126.489189
 20
370.760598
 40
1.0
100
AcDbArc
 50
270.0
 51
360.0
  0
ARC
  5
446
100
AcDbEntity
  8
M0
 62
     7
100
AcDbCircle
 10
126.489189
 20
393.860598
 40
1.0
100
AcDbArc
 50
0.0
 51
90.0
  0
ARC
  5
447
100
AcDbEntity
  8
M0
 62
     7
100
AcDbCircle
 10
85.939189
 20
393.860598
 40
1.0
100
AcDbArc
 50
0.0
 51
90.0
  0
ARC
  5
448
100
AcDbEntity
  8
M0
 62
     7
100
AcDbCircle
 10
126.039189
 20
393.860598
 40
1.0
100
AcDbArc
 50
90.0
 51
180.0
  0
ARC
  5
449
100
AcDbEntity
  8
M0
 62
     7
100
AcDbCircle
 10
85.489189
 20
361.360598
 40
1.0
100
AcDbArc
 50
90.0
 51
180.0
  0
LINE
  5
44A
100
AcDbEntity
  8
M0
 62
     7
100
AcDbLine
 10
87.839189
 20
391.760598
 11
93.839189
 21
391.760598
  0
ARC
  5
44B
100
AcDbEntity
  8
M0
 62
     7
100
AcDbCircle
 10
126.489189
 20
361.360598
 40
1.0
100
AcDbArc
 50
0.0
 51
90.0
  0
ARC
  5
44C
100
AcDbEntity
  8
M0
 62
     7
100
AcDbCircle
 10
126.539189
 20
361.361849
 40
1.0
100
AcDbArc
 50
92.865984
 51
180.0
  0
ARC
  5
44D
100
AcDbEntity
  8
M0
 62
     7
100
AcDbCircle
 10
85.439189
 20
361.361849
 40
1.0
100
AcDbArc
 50
0.0
 51
87.134016
  0
LINE
  5
44E
100
AcDbEntity
  8
M0
 62
     7
100
AcDbLine
 10
86.939189
 20
349.360598
 11
86.939189
 21
342.260598
  0
ARC
  5
44F
100
AcDbEntity
  8
M0
 62
     7
100
AcDbCircle
 10
85.489189
 20
393.860598
 40
1.0
100
AcDbArc
 50
90.0
 51
180.0
  0
ARC
  5
450
100
AcDbEntity
  8
M0
 62
     7
100
AcDbCircle
 10
85.439189
 20
370.759347
 40
1.0
100
AcDbArc
 50
272.865984
 51
360.0
  0
ARC
  5
451
100
AcDbEntity
  8
M0
 62
     7
100
AcDbCircle
 10
112.039189
 20
355.560598
 40
0.5
100
AcDbArc
 50
180.0
 51
270.0
  0
LINE
  5
452
100
AcDbEntity
  8
M0
 62
     7
100
AcDbLine
 10
86.939189
 20
342.260598
 11
86.939189
 21
338.260598
  0
ARC
  5
453
100
AcDbEntity
  8
M0
 62
     7
100
AcDbCircle
 10
99.939189
 20
355.560598
 40
0.5
100
AcDbArc
 50
270.0
 51
360.0
  0
ARC
  5
454
100
AcDbEntity
  8
M0
 62
     7
100
AcDbCircle
 10
114.439189
 20
354.560598
 40
0.5
100
AcDbArc
 50
67.201593
 51
90.0
  0
ARC
  5
455
100
AcDbEntity
  8
M0
 62
     7
100
AcDbCircle
 10
114.439189
 20
378.760598
 40
0.5
100
AcDbArc
 50
270.0
 51
292.798407
  0
ARC
  5
456
100
AcDbEntity
  8
M0
 62
     7
100
AcDbCircle
 10
97.539189
 20
354.560598
 40
0.5
100
AcDbArc
 50
90.0
 51
112.798407
  0
ARC
  5
457
100
AcDbEntity
  8
M0
 62
     7
100
AcDbCircle
 10
85.489189
 20
338.260598
 40
1.0
100
AcDbArc
 50
180.0
 51
270.0
  0
ARC
  5
458
100
AcDbEntity
  8
M0
 62
     7
100
AcDbCircle
 10
97.539189
 20
378.760598
 40
0.5
100
AcDbArc
 50
247.201593
 51
270.0
  0
ARC
  5
459
100
AcDbEntity
  8
M0
 62
     7
100
AcDbCircle
 10
126.039189
 20
338.260598
 40
1.0
100
AcDbArc
 50
180.0
 51
270.0
  0
ARC
  5
45A
100
AcDbEntity
  8
M0
 62
     7
100
AcDbCircle
 10
116.239189
 20
397.260598
 40
1.0
100
AcDbArc
 50
0.0
 51
90.0
  0
ARC
  5
45B
100
AcDbEntity
  8
M0
 62
     7
100
AcDbCircle
 10
106.139189
 20
397.260598
 40
1.0
100
AcDbArc
 50
0.0
 51
90.0
  0
ARC
  5
45C
100
AcDbEntity
  8
M0
 62
     7
100
AcDbCircle
 10
115.939189
 20
397.260598
 40
1.0
100
AcDbArc
 50
90.0
 51
180.0
  0
ARC
  5
45D
100
AcDbEntity
  8
M0
 62
     7
100
AcDbCircle
 10
104.339189
 20
354.560598
 40
0.5
100
AcDbArc
 50
53.130102
 51
90.0
  0
ARC
  5
45E
100
AcDbEntity
  8
M0
 62
     7
100
AcDbCircle
 10
95.739189
 20
397.260598
 40
1.0
100
AcDbArc
 50
90.0
 51
180.0
  0
LINE
  5
45F
100
AcDbEntity
  8
M0
 62
     7
100
AcDbLine
 10
116.039189
 20
398.260598
 11
116.239189
 21
398.260598
  0
LINE
  5
460
100
AcDbEntity
  8
M0
 62
     7
100
AcDbLine
 10
115.939189
 20
398.260598
 11
116.039189
 21
398.260598
  0
ARC
  5
461
100
AcDbEntity
  8
M0
 62
     7
100
AcDbCircle
 10
126.489189
 20
338.260598
 40
1.0
100
AcDbArc
 50
270.0
 51
360.0
  0
ARC
  5
462
100
AcDbEntity
  8
M0
 62
     7
100
AcDbCircle
 10
107.639189
 20
354.560598
 40
0.5
100
AcDbArc
 50
90.0
 51
126.869898
  0
ARC
  5
463
100
AcDbEntity
  8
M0
 62
     7
100
AcDbCircle
 10
85.939189
 20
338.260598
 40
1.0
100
AcDbArc
 50
270.0
 51
360.0
  0
LINE
  5
464
100
AcDbEntity
  8
M0
 62
     7
100
AcDbLine
 10
104.839189
 20
382.760598
 11
104.839189
 21
397.260598
  0
LINE
  5
465
100
AcDbEntity
  8
M0
 62
     7
100
AcDbLine
 10
95.739189
 20
398.260598
 11
95.939189
 21
398.260598
  0
LINE
  5
466
100
AcDbEntity
  8
M0
 62
     7
100
AcDbLine
 10
97.039189
 20
397.260598
 11
97.039189
 21
394.260598
  0
LINE
  5
467
100
AcDbEntity
  8
M0
 62
     7
100
AcDbLine
 10
126.039189
 20
394.860598
 11
126.489189
 21
394.860598
  0
LINE
  5
468
100
AcDbEntity
  8
M0
 62
     7
100
AcDbLine
 10
86.939189
 20
393.860598
 11
86.939189
 21
389.860598
  0
LINE
  5
469
100
AcDbEntity
  8
M0
 62
     7
100
AcDbLine
 10
125.539189
 20
382.760598
 11
86.439189
 21
382.760598
  0
LINE
  5
46A
100
AcDbEntity
  8
M0
 62
     7
100
AcDbLine
 10
111.539189
 20
359.760598
 11
100.439189
 21
359.760598
  0
LINE
  5
46B
100
AcDbEntity
  8
M0
 62
     7
100
AcDbLine
 10
100.439189
 20
356.560598
 11
111.539189
 21
356.560598
  0
LINE
  5
46C
100
AcDbEntity
  8
M0
 62
     7
100
AcDbLine
 10
100.439189
 20
361.160598
 11
111.539189
 21
361.160598
  0
ARC
  5
46D
100
AcDbEntity
  8
M0
 62
     7
100
AcDbCircle
 10
105.839189
 20
397.260598
 40
1.0
100
AcDbArc
 50
90.0
 51
180.0
  0
LINE
  5
46E
100
AcDbEntity
  8
M0
 62
     7
100
AcDbLine
 10
97.789189
 20
355.060598
 11
99.939189
 21
355.060598
  0
ARC
  5
46F
100
AcDbEntity
  8
M0
 62
     7
100
AcDbCircle
 10
96.039189
 20
397.260598
 40
1.0
100
AcDbArc
 50
0.0
 51
90.0
  0
LINE
  5
470
100
AcDbEntity
  8
M0
 62
     7
100
AcDbLine
 10
86.939189
 20
389.860598
 11
86.939189
 21
382.760598
  0
LINE
  5
471
100
AcDbEntity
  8
M0
 62
     7
100
AcDbLine
 10
85.489189
 20
394.860598
 11
85.939189
 21
394.860598
  0
LINE
  5
472
100
AcDbEntity
  8
M0
 62
     7
100
AcDbLine
 10
112.039189
 20
355.060598
 11
99.939189
 21
355.060598
  0
LINE
  5
473
100
AcDbEntity
  8
M0
 62
     7
100
AcDbLine
 10
100.689189
 20
400.877265
 11
100.689189
 21
407.960598
  0
LINE
  5
474
100
AcDbEntity
  8
M0
 62
     7
100
AcDbLine
 10
111.289189
 20
407.960598
 11
111.289189
 21
400.877265
  0
LINE
  5
475
100
AcDbEntity
  8
M0
 62
     7
100
AcDbLine
 10
94.739189
 20
396.860598
 11
88.989189
 21
396.860598
  0
LINE
  5
476
100
AcDbEntity
  8
M0
 62
     7
100
AcDbLine
 10
101.689189
 20
408.960598
 11
110.289189
 21
408.960598
  0
LINE
  5
477
100
AcDbEntity
  8
M0
 62
     7
100
AcDbLine
 10
88.989189
 20
409.860598
 11
88.989189
 21
391.760598
  0
LINE
  5
478
100
AcDbEntity
  8
M0
 62
     7
100
AcDbLine
 10
104.839189
 20
361.960598
 11
104.839189
 21
362.460598
  0
LINE
  5
479
100
AcDbEntity
  8
M0
 62
     7
100
AcDbLine
 10
111.289189
 20
370.160598
 11
111.289189
 21
361.960598
  0
LINE
  5
47A
100
AcDbEntity
  8
M0
 62
     7
100
AcDbLine
 10
108.239189
 20
370.660598
 11
110.789189
 21
370.660598
  0
LINE
  5
47B
100
AcDbEntity
  8
M0
 62
     7
100
AcDbLine
 10
103.739189
 20
370.660598
 11
101.189189
 21
370.660598
  0
LINE
  5
47C
100
AcDbEntity
  8
M0
 62
     7
100
AcDbLine
 10
101.689189
 20
400.460598
 11
110.289189
 21
400.460598
  0
LINE
  5
47D
100
AcDbEntity
  8
M0
 62
     7
100
AcDbLine
 10
100.689189
 20
398.960598
 11
100.689189
 21
400.877265
  0
LINE
  5
47E
100
AcDbEntity
  8
M0
 62
     7
100
AcDbLine
 10
100.689189
 20
398.960598
 11
111.289189
 21
398.960598
  0
LINE
  5
47F
100
AcDbEntity
  8
M0
 62
     7
100
AcDbLine
 10
102.839189
 20
337.060598
 11
99.463694
 21
337.060598
  0
LINE
  5
480
100
AcDbEntity
  8
M0
 62
     7
100
AcDbLine
 10
114.939189
 20
335.060598
 11
114.463768
 21
335.060598
  0
LINE
  5
481
100
AcDbEntity
  8
M0
 62
     7
100
AcDbLine
 10
107.139189
 20
396.860598
 11
114.939189
 21
396.860598
  0
LINE
  5
482
100
AcDbEntity
  8
M0
 62
     7
100
AcDbLine
 10
122.989189
 20
396.860598
 11
117.239189
 21
396.860598
  0
LINE
  5
483
100
AcDbEntity
  8
M0
 62
     7
100
AcDbLine
 10
122.989189
 20
391.760598
 11
122.989189
 21
396.860598
  0
LINE
  5
484
100
AcDbEntity
  8
M0
 62
     7
100
AcDbLine
 10
100.689189
 20
398.960598
 11
100.689189
 21
396.860598
  0
LINE
  5
485
100
AcDbEntity
  8
M0
 62
     7
100
AcDbLine
 10
111.289189
 20
396.860598
 11
111.289189
 21
398.960598
  0
LINE
  5
486
100
AcDbEntity
  8
M0
 62
     7
100
AcDbLine
 10
111.289189
 20
398.960598
 11
111.289189
 21
400.877265
  0
ARC
  5
487
100
AcDbEntity
  8
M0
 62
     7
100
AcDbCircle
 10
102.839189
 20
335.060598
 40
2.0
100
AcDbArc
 50
0.0
 51
90.0
  0
ARC
  5
488
100
AcDbEntity
  8
M0
 62
     7
100
AcDbCircle
 10
99.039189
 20
335.060598
 40
2.0
100
AcDbArc
 50
125.99726
 51
180.0
  0
ARC
  5
489
100
AcDbEntity
  8
M0
 62
     7
100
AcDbCircle
 10
96.039189
 20
331.560598
 40
1.0
100
AcDbArc
 50
270.0
 51
277.157169
  0
ARC
  5
48A
100
AcDbEntity
  8
M0
 62
     7
100
AcDbCircle
 10
106.139189
 20
331.560598
 40
1.0
100
AcDbArc
 50
270.0
 51
271.409134
  0
ARC
  5
48B
100
AcDbEntity
  8
M0
 62
     7
100
AcDbCircle
 10
95.739189
 20
331.560598
 40
1.0
100
AcDbArc
 50
180.0
 51
270.0
  0
ARC
  5
48C
100
AcDbEntity
  8
M0
 62
     7
100
AcDbCircle
 10
105.839189
 20
331.560598
 40
1.0
100
AcDbArc
 50
180.0
 51
270.0
  0
ARC
  5
48D
100
AcDbEntity
  8
M0
 62
     7
100
AcDbCircle
 10
108.239189
 20
370.160598
 40
0.5
100
AcDbArc
 50
90.0
 51
180.0
  0
ARC
  5
48E
100
AcDbEntity
  8
M0
 62
     7
100
AcDbCircle
 10
103.739189
 20
370.160598
 40
0.5
100
AcDbArc
 50
0.0
 51
90.0
  0
ARC
  5
48F
100
AcDbEntity
  8
M0
 62
     7
100
AcDbCircle
 10
110.789189
 20
370.160598
 40
0.5
100
AcDbArc
 50
0.0
 51
90.0
  0
ARC
  5
490
100
AcDbEntity
  8
M0
 62
     7
100
AcDbCircle
 10
110.289189
 20
407.960598
 40
1.0
100
AcDbArc
 50
0.0
 51
90.0
  0
ARC
  5
491
100
AcDbEntity
  8
M0
 62
     7
100
AcDbCircle
 10
101.189189
 20
370.160598
 40
0.5
100
AcDbArc
 50
90.0
 51
180.0
  0
LINE
  5
492
100
AcDbEntity
  8
M0
 62
     7
100
AcDbLine
 10
107.139189
 20
362.960598
 11
107.239189
 21
362.960598
  0
LINE
  5
493
100
AcDbEntity
  8
M0
 62
     7
100
AcDbLine
 10
107.139189
 20
362.460598
 11
107.139189
 21
362.960598
  0
LINE
  5
494
100
AcDbEntity
  8
M0
 62
     7
100
AcDbLine
 10
100.689189
 20
370.160598
 11
100.689189
 21
361.960598
  0
LINE
  5
495
100
AcDbEntity
  8
M0
 62
     7
100
AcDbLine
 10
107.739189
 20
363.460598
 11
107.739189
 21
370.160598
  0
LINE
  5
496
100
AcDbEntity
  8
M0
 62
     7
100
AcDbLine
 10
107.139189
 20
361.960598
 11
107.139189
 21
362.460598
  0
LINE
  5
497
100
AcDbEntity
  8
M0
 62
     7
100
AcDbLine
 10
104.239189
 20
363.460598
 11
104.239189
 21
370.160598
  0
ARC
  5
498
100
AcDbEntity
  8
M0
 62
     7
100
AcDbCircle
 10
101.689189
 20
407.960598
 40
1.0
100
AcDbArc
 50
90.0
 51
180.0
  0
LINE
  5
499
100
AcDbEntity
  8
M0
 62
     7
100
AcDbLine
 10
110.789189
 20
361.460598
 11
107.639189
 21
361.460598
  0
LINE
  5
49A
100
AcDbEntity
  8
M0
 62
     7
100
AcDbLine
 10
104.839189
 20
362.460598
 11
104.839189
 21
362.960598
  0
LINE
  5
49B
100
AcDbEntity
  8
M0
 62
     7
100
AcDbLine
 10
101.189189
 20
361.460598
 11
104.339189
 21
361.460598
  0
LINE
  5
49C
100
AcDbEntity
  8
M0
 62
     7
100
AcDbLine
 10
104.839189
 20
362.960598
 11
104.739189
 21
362.960598
  0
LINE
  5
49D
100
AcDbEntity
  8
M0
 62
     7
100
AcDbLine
 10
104.839189
 20
369.660598
 11
104.839189
 21
370.860598
  0
LINE
  5
49E
100
AcDbEntity
  8
M0
 62
     7
100
AcDbLine
 10
111.539189
 20
361.760598
 11
111.503332
 21
361.760598
  0
LINE
  5
49F
100
AcDbEntity
  8
M0
 62
     7
100
AcDbLine
 10
100.756176
 20
370.410598
 11
100.752225
 21
370.403613
  0
LINE
  5
4A0
100
AcDbEntity
  8
M0
 62
     7
100
AcDbLine
 10
100.439189
 20
361.760598
 11
100.475046
 21
361.760598
  0
LINE
  5
4A1
100
AcDbEntity
  8
M0
 62
     7
100
AcDbLine
 10
105.339189
 20
367.460598
 11
106.639189
 21
367.460598
  0
LINE
  5
4A2
100
AcDbEntity
  8
M0
 62
     7
100
AcDbLine
 10
107.139189
 20
361.160598
 11
107.139189
 21
361.960598
  0
LINE
  5
4A3
100
AcDbEntity
  8
M0
 62
     7
100
AcDbLine
 10
104.839189
 20
361.160598
 11
104.839189
 21
361.960598
  0
LINE
  5
4A4
100
AcDbEntity
  8
M0
 62
     7
100
AcDbLine
 10
107.639189
 20
370.660598
 11
108.989189
 21
370.660598
  0
LINE
  5
4A5
100
AcDbEntity
  8
M0
 62
     7
100
AcDbLine
 10
104.339189
 20
370.660598
 11
102.989189
 21
370.660598
  0
LINE
  5
4A6
100
AcDbEntity
  8
M0
 62
     7
100
AcDbLine
 10
107.139189
 20
362.960598
 11
107.139189
 21
363.460598
  0
LINE
  5
4A7
100
AcDbEntity
  8
M0
 62
     7
100
AcDbLine
 10
109.989189
 20
370.660598
 11
108.989189
 21
370.660598
  0
LINE
  5
4A8
100
AcDbEntity
  8
M0
 62
     7
100
AcDbLine
 10
104.839189
 20
362.960598
 11
104.839189
 21
363.460598
  0
LINE
  5
4A9
100
AcDbEntity
  8
M0
 62
     7
100
AcDbLine
 10
101.989189
 20
370.660598
 11
102.989189
 21
370.660598
  0
LINE
  5
4AA
100
AcDbEntity
  8
M0
 62
     7
100
AcDbLine
 10
104.839189
 20
363.960598
 11
104.839189
 21
363.460598
  0
LINE
  5
4AB
100
AcDbEntity
  8
M0
 62
     7
100
AcDbLine
 10
107.139189
 20
369.660598
 11
107.139189
 21
370.860598
  0
LINE
  5
4AC
100
AcDbEntity
  8
M0
 62
     7
100
AcDbLine
 10
107.139189
 20
363.960598
 11
107.139189
 21
363.460598
  0
LINE
  5
4AD
100
AcDbEntity
  8
M0
 62
     7
100
AcDbLine
 10
104.839189
 20
367.960598
 11
104.839189
 21
370.160598
  0
LINE
  5
4AE
100
AcDbEntity
  8
M0
 62
     7
100
AcDbLine
 10
105.339189
 20
364.460598
 11
106.639189
 21
364.460598
  0
LINE
  5
4AF
100
AcDbEntity
  8
M0
 62
     7
100
AcDbLine
 10
107.139189
 20
367.960598
 11
107.139189
 21
370.160598
  0
LINE
  5
4B0
100
AcDbEntity
  8
M0
 62
     7
100
AcDbLine
 10
94.739189
 20
341.360598
 11
93.839189
 21
341.360598
  0
LINE
  5
4B1
100
AcDbEntity
  8
M0
 62
     7
100
AcDbLine
 10
104.839189
 20
331.560598
 11
104.839189
 21
349.360598
  0
LINE
  5
4B2
100
AcDbEntity
  8
M0
 62
     7
100
AcDbLine
 10
125.039189
 20
341.360598
 11
124.139189
 21
341.360598
  0
LINE
  5
4B3
100
AcDbEntity
  8
M0
 62
     7
100
AcDbLine
 10
87.839189
 20
341.360598
 11
86.939189
 21
341.360598
  0
LINE
  5
4B4
100
AcDbEntity
  8
M0
 62
     7
100
AcDbLine
 10
108.039189
 20
341.360598
 11
107.139189
 21
341.360598
  0
LINE
  5
4B5
100
AcDbEntity
  8
M0
 62
     7
100
AcDbLine
 10
105.839189
 20
330.560598
 11
106.139189
 21
330.560598
  0
LINE
  5
4B6
100
AcDbEntity
  8
M0
 62
     7
100
AcDbLine
 10
97.039189
 20
396.860598
 11
104.839189
 21
396.860598
  0
LINE
  5
4B7
100
AcDbEntity
  8
M0
 62
     7
100
AcDbLine
 10
95.739189
 20
330.560598
 11
96.039189
 21
330.560598
  0
LINE
  5
4B8
100
AcDbEntity
  8
M0
 62
     7
100
AcDbLine
 10
94.739189
 20
331.560598
 11
94.739189
 21
349.360598
  0
LINE
  5
4B9
100
AcDbEntity
  8
M0
 62
     7
100
AcDbLine
 10
97.039189
 20
349.360598
 11
97.039189
 21
331.560598
  0
ARC
  5
4BA
100
AcDbEntity
  8
M0
 62
     7
100
AcDbCircle
 10
105.339189
 20
363.960598
 40
0.5
100
AcDbArc
 50
90.0
 51
180.0
  0
ARC
  5
4BB
100
AcDbEntity
  8
M0
 62
     7
100
AcDbCircle
 10
106.639189
 20
367.960598
 40
0.5
100
AcDbArc
 50
270.0
 51
360.0
  0
ARC
  5
4BC
100
AcDbEntity
  8
M0
 62
     7
100
AcDbCircle
 10
106.639189
 20
363.960598
 40
0.5
100
AcDbArc
 50
0.0
 51
90.0
  0
ARC
  5
4BD
100
AcDbEntity
  8
M0
 62
     7
100
AcDbCircle
 10
104.339189
 20
370.160598
 40
0.5
100
AcDbArc
 50
0.0
 51
90.0
  0
ARC
  5
4BE
100
AcDbEntity
  8
M0
 62
     7
100
AcDbCircle
 10
107.639189
 20
370.160598
 40
0.5
100
AcDbArc
 50
90.0
 51
180.0
  0
ARC
  5
4BF
100
AcDbEntity
  8
M0
 62
     7
100
AcDbCircle
 10
107.639189
 20
361.960598
 40
0.5
100
AcDbArc
 50
180.0
 51
270.0
  0
LINE
  5
4C0
100
AcDbEntity
  8
M0
 62
     7
100
AcDbLine
 10
107.139189
 20
349.360598
 11
107.139189
 21
331.560598
  0
ARC
  5
4C1
100
AcDbEntity
  8
M0
 62
     7
100
AcDbCircle
 10
101.147223
 20
361.921765
 40
0.44285
100
AcDbArc
 50
206.131697
 51
224.639687
  0
LINE
  5
4C2
100
AcDbEntity
  8
M0
 62
     7
100
AcDbLine
 10
113.789189
 20
355.060598
 11
113.789189
 21
354.960598
  0
LINE
  5
4C3
100
AcDbEntity
  8
M0
 62
     7
100
AcDbLine
 10
116.139189
 20
333.860598
 11
116.239189
 21
333.860598
  0
LINE
  5
4C4
100
AcDbEntity
  8
M0
 62
     7
100
AcDbLine
 10
98.189189
 20
354.960598
 11
98.189189
 21
355.060598
  0
LINE
  5
4C5
100
AcDbEntity
  8
M0
 62
     7
100
AcDbLine
 10
103.939189
 20
390.760598
 11
104.839189
 21
390.760598
  0
LINE
  5
4C6
100
AcDbEntity
  8
M0
 62
     7
100
AcDbLine
 10
114.039189
 20
390.760598
 11
114.939189
 21
390.760598
  0
LINE
  5
4C7
100
AcDbEntity
  8
M0
 62
     7
100
AcDbLine
 10
107.139189
 20
390.760598
 11
108.039189
 21
390.760598
  0
LINE
  5
4C8
100
AcDbEntity
  8
M0
 62
     7
100
AcDbLine
 10
97.939189
 20
341.360598
 11
97.039189
 21
341.360598
  0
LINE
  5
4C9
100
AcDbEntity
  8
M0
 62
     7
100
AcDbLine
 10
118.139189
 20
341.360598
 11
117.239189
 21
341.360598
  0
LINE
  5
4CA
100
AcDbEntity
  8
M0
 62
     7
100
AcDbLine
 10
104.839189
 20
341.360598
 11
103.939189
 21
341.360598
  0
LINE
  5
4CB
100
AcDbEntity
  8
M0
 62
     7
100
AcDbLine
 10
108.289189
 20
354.960598
 11
108.289189
 21
355.060598
  0
LINE
  5
4CC
100
AcDbEntity
  8
M0
 62
     7
100
AcDbLine
 10
114.939189
 20
341.360598
 11
114.039189
 21
341.360598
  0
LINE
  5
4CD
100
AcDbEntity
  8
M0
 62
     7
100
AcDbLine
 10
113.789189
 20
378.360598
 11
113.789189
 21
378.260598
  0
LINE
  5
4CE
100
AcDbEntity
  8
M0
 62
     7
100
AcDbLine
 10
116.239189
 20
398.260598
 11
116.139189
 21
398.260598
  0
LINE
  5
4CF
100
AcDbEntity
  8
M0
 62
     7
100
AcDbLine
 10
95.839189
 20
398.260598
 11
95.739189
 21
398.260598
  0
LINE
  5
4D0
100
AcDbEntity
  8
M0
 62
     7
100
AcDbLine
 10
96.039189
 20
331.060598
 11
95.739189
 21
331.060598
  0
LINE
  5
4D1
100
AcDbEntity
  8
M0
 62
     7
100
AcDbLine
 10
98.189189
 20
378.260598
 11
98.189189
 21
378.360598
  0
LINE
  5
4D2
100
AcDbEntity
  8
M0
 62
     7
100
AcDbLine
 10
106.139189
 20
331.060598
 11
105.839189
 21
331.060598
  0
LINE
  5
4D3
100
AcDbEntity
  8
M0
 62
     7
100
AcDbLine
 10
117.239189
 20
390.760598
 11
118.139189
 21
390.760598
  0
LINE
  5
4D4
100
AcDbEntity
  8
M0
 62
     7
100
AcDbLine
 10
103.689189
 20
355.060598
 11
103.689189
 21
354.960598
  0
LINE
  5
4D5
100
AcDbEntity
  8
M0
 62
     7
100
AcDbLine
 10
124.139189
 20
390.760598
 11
125.039189
 21
390.760598
  0
LINE
  5
4D6
100
AcDbEntity
  8
M0
 62
     7
100
AcDbLine
 10
97.039189
 20
390.760598
 11
97.939189
 21
390.760598
  0
LINE
  5
4D7
100
AcDbEntity
  8
M0
 62
     7
100
AcDbLine
 10
86.939189
 20
390.760598
 11
87.839189
 21
390.760598
  0
LINE
  5
4D8
100
AcDbEntity
  8
M0
 62
     7
100
AcDbLine
 10
93.839189
 20
390.760598
 11
94.739189
 21
390.760598
  0
LINE
  5
4D9
100
AcDbEntity
  8
M0
 62
     7
100
AcDbLine
 10
97.039189
 20
394.260598
 11
97.039189
 21
385.260598
  0
LINE
  5
4DA
100
AcDbEntity
  8
M0
 62
     7
100
AcDbLine
 10
105.839189
 20
398.260598
 11
105.939189
 21
398.260598
  0
LINE
  5
4DB
100
AcDbEntity
  8
M0
 62
     7
100
AcDbLine
 10
115.939189
 20
347.860598
 11
116.239189
 21
347.860598
  0
LINE
  5
4DC
100
AcDbEntity
  8
M0
 62
     7
100
AcDbLine
 10
95.739189
 20
347.860598
 11
96.039189
 21
347.860598
  0
LINE
  5
4DD
100
AcDbEntity
  8
M0
 62
     7
100
AcDbLine
 10
116.239189
 20
384.260598
 11
115.939189
 21
384.260598
  0
LINE
  5
4DE
100
AcDbEntity
  8
M0
 62
     7
100
AcDbLine
 10
106.139189
 20
384.260598
 11
105.839189
 21
384.260598
  0
LINE
  5
4DF
100
AcDbEntity
  8
M0
 62
     7
100
AcDbLine
 10
96.039189
 20
384.260598
 11
95.739189
 21
384.260598
  0
ARC
  5
4E0
100
AcDbEntity
  8
M0
 62
     7
100
AcDbCircle
 10
106.139189
 20
332.060598
 40
1.0
100
AcDbArc
 50
270.0
 51
360.0
  0
ARC
  5
4E1
100
AcDbEntity
  8
M0
 62
     7
100
AcDbCircle
 10
105.839189
 20
332.060598
 40
1.0
100
AcDbArc
 50
180.0
 51
270.0
  0
ARC
  5
4E2
100
AcDbEntity
  8
M0
 62
     7
100
AcDbCircle
 10
106.139189
 20
363.560598
 40
0.5
100
AcDbArc
 50
0.0
 51
90.0
  0
ARC
  5
4E3
100
AcDbEntity
  8
M0
 62
     7
100
AcDbCircle
 10
106.139189
 20
368.560598
 40
0.5
100
AcDbArc
 50
270.0
 51
360.0
  0
ARC
  5
4E4
100
AcDbEntity
  8
M0
 62
     7
100
AcDbCircle
 10
105.839189
 20
363.560598
 40
0.5
100
AcDbArc
 50
90.0
 51
180.0
  0
ARC
  5
4E5
100
AcDbEntity
  8
M0
 62
     7
100
AcDbCircle
 10
105.839189
 20
368.560598
 40
0.5
100
AcDbArc
 50
180.0
 51
270.0
  0
LINE
  5
4E6
100
AcDbEntity
  8
M0
 62
     7
100
AcDbLine
 10
106.039189
 20
398.260598
 11
106.139189
 21
398.260598
  0
LINE
  5
4E7
100
AcDbEntity
  8
M0
 62
     7
100
AcDbLine
 10
94.739189
 20
385.260598
 11
94.739189
 21
394.260598
  0
LINE
  5
4E8
100
AcDbEntity
  8
M0
 62
     7
100
AcDbLine
 10
105.939189
 20
398.260598
 11
106.039189
 21
398.260598
  0
ARC
  5
4E9
100
AcDbEntity
  8
M0
 62
     7
100
AcDbCircle
 10
96.039189
 20
332.060598
 40
1.0
100
AcDbArc
 50
270.0
 51
360.0
  0
LINE
  5
4EA
100
AcDbEntity
  8
M0
 62
     7
100
AcDbLine
 10
95.939189
 20
398.260598
 11
96.039189
 21
398.260598
  0
ARC
  5
4EB
100
AcDbEntity
  8
M0
 62
     7
100
AcDbCircle
 10
95.739189
 20
332.060598
 40
1.0
100
AcDbArc
 50
180.0
 51
270.0
  0
LINE
  5
4EC
100
AcDbEntity
  8
M0
 62
     7
100
AcDbLine
 10
97.039189
 20
340.260598
 11
97.039189
 21
339.260598
  0
LINE
  5
4ED
100
AcDbEntity
  8
M0
 62
     7
100
AcDbLine
 10
86.939189
 20
339.260598
 11
86.939189
 21
340.260598
  0
LINE
  5
4EE
100
AcDbEntity
  8
M0
 62
     7
100
AcDbLine
 10
125.039189
 20
340.260598
 11
125.039189
 21
339.260598
  0
ARC
  5
4EF
100
AcDbEntity
  8
M0
 62
     7
100
AcDbCircle
 10
101.189189
 20
361.960598
 40
0.5
100
AcDbArc
 50
180.0
 51
270.0
  0
ARC
  5
4F0
100
AcDbEntity
  8
M0
 62
     7
100
AcDbCircle
 10
110.789189
 20
361.960598
 40
0.5
100
AcDbArc
 50
270.0
 51
360.0
  0
ARC
  5
4F1
100
AcDbEntity
  8
M0
 62
     7
100
AcDbCircle
 10
104.339189
 20
361.960598
 40
0.5
100
AcDbArc
 50
270.0
 51
360.0
  0
ARC
  5
4F2
100
AcDbEntity
  8
M0
 62
     7
100
AcDbCircle
 10
107.239189
 20
363.460598
 40
0.5
100
AcDbArc
 50
270.0
 51
360.0
  0
ARC
  5
4F3
100
AcDbEntity
  8
M0
 62
     7
100
AcDbCircle
 10
104.739189
 20
363.460598
 40
0.5
100
AcDbArc
 50
180.0
 51
270.0
  0
ARC
  5
4F4
100
AcDbEntity
  8
M0
 62
     7
100
AcDbCircle
 10
105.339189
 20
367.960598
 40
0.5
100
AcDbArc
 50
180.0
 51
270.0
  0
LINE
  5
4F5
100
AcDbEntity
  8
M0
 62
     7
100
AcDbLine
 10
86.939189
 20
391.860598
 11
86.939189
 21
392.860598
  0
ELLIPSE
  5
4F6
100
AcDbEntity
  8
M0
 62
     7
100
AcDbEllipse
 10
110.289189
 20
400.877265
 11
1.0
 21
0.0
210
0.0
220
0.0
230
1.0
 40
0.416667
 41
4.71238898038469
 42
6.283185307179586
  0
LINE
  5
4F7
100
AcDbEntity
  8
M0
 62
     7
100
AcDbLine
 10
97.039189
 20
391.860598
 11
97.039189
 21
392.860598
  0
ELLIPSE
  5
4F8
100
AcDbEntity
  8
M0
 62
     7
100
AcDbEllipse
 10
101.689189
 20
400.877265
 11
1.0
 21
0.0
210
0.0
220
0.0
230
1.0
 40
0.416667
 41
3.141592653589793
 42
4.71238898038469
  0
LINE
  5
4F9
100
AcDbEntity
  8
M0
 62
     7
100
AcDbLine
 10
126.239189
 20
394.860598
 11
126.039189
 21
394.860598
  0
LINE
  5
4FA
100
AcDbEntity
  8
M0
 62
     7
100
AcDbLine
 10
125.039189
 20
393.860598
 11
125.039189
 21
382.760598
  0
LINE
  5
4FB
100
AcDbEntity
  8
M0
 62
     7
100
AcDbLine
 10
126.239189
 20
337.260598
 11
126.039189
 21
337.260598
  0
LINE
  5
4FC
100
AcDbEntity
  8
M0
 62
     7
100
AcDbLine
 10
125.039189
 20
339.260598
 11
125.039189
 21
338.260598
  0
LINE
  5
4FD
100
AcDbEntity
  8
M0
 62
     7
100
AcDbLine
 10
86.939189
 20
338.260598
 11
86.939189
 21
339.260598
  0
LINE
  5
4FE
100
AcDbEntity
  8
M0
 62
     7
100
AcDbLine
 10
86.939189
 20
392.860598
 11
86.939189
 21
393.860598
  0
LINE
  5
4FF
100
AcDbEntity
  8
M0
 62
     7
100
AcDbLine
 10
85.739189
 20
337.260598
 11
85.939189
 21
337.260598
  0
LINE
  5
500
100
AcDbEntity
  8
M0
 62
     7
100
AcDbLine
 10
105.839189
 20
368.060598
 11
106.139189
 21
368.060598
  0
LINE
  5
501
100
AcDbEntity
  8
M0
 62
     7
100
AcDbLine
 10
97.039189
 20
392.860598
 11
97.039189
 21
397.260598
  0
LINE
  5
502
100
AcDbEntity
  8
M0
 62
     7
100
AcDbLine
 10
106.639189
 20
361.160598
 11
106.639189
 21
363.560598
  0
LINE
  5
503
100
AcDbEntity
  8
M0
 62
     7
100
AcDbLine
 10
85.739189
 20
394.860598
 11
85.939189
 21
394.860598
  0
LINE
  5
504
100
AcDbEntity
  8
M0
 62
     7
100
AcDbLine
 10
105.339189
 20
363.560598
 11
105.339189
 21
361.160598
  0
LINE
  5
505
100
AcDbEntity
  8
M0
 62
     7
100
AcDbLine
 10
105.339189
 20
370.860598
 11
105.339189
 21
368.560598
  0
LINE
  5
506
100
AcDbEntity
  8
M0
 62
     7
100
AcDbLine
 10
105.839189
 20
364.060598
 11
106.139189
 21
364.060598
  0
LINE
  5
507
100
AcDbEntity
  8
M0
 62
     7
100
AcDbLine
 10
106.639189
 20
368.560598
 11
106.639189
 21
370.860598
  0
LINE
  5
508
100
AcDbEntity
  8
M0
 62
     7
100
AcDbLine
 10
86.589189
 20
382.260598
 11
86.589189
 21
370.310598
  0
LINE
  5
509
100
AcDbEntity
  8
M0
 62
     7
100
AcDbLine
 10
114.289189
 20
354.960598
 11
97.689189
 21
354.960598
  0
LINE
  5
50A
100
AcDbEntity
  8
M0
 62
     7
100
AcDbLine
 10
100.589189
 20
408.960598
 11
101.689189
 21
408.960598
  0
LINE
  5
50B
100
AcDbEntity
  8
M0
 62
     7
100
AcDbLine
 10
110.289189
 20
408.960598
 11
111.389189
 21
408.960598
  0
LINE
  5
50C
100
AcDbEntity
  8
M0
 62
     7
100
AcDbLine
 10
101.089189
 20
376.660598
 11
101.089189
 21
377.360598
  0
LINE
  5
50D
100
AcDbEntity
  8
M0
 62
     7
100
AcDbLine
 10
100.089189
 20
378.360598
 11
97.689189
 21
378.360598
  0
LINE
  5
50E
100
AcDbEntity
  8
M0
 62
     7
100
AcDbLine
 10
110.389189
 20
376.160598
 11
101.589189
 21
376.160598
  0
LINE
  5
50F
100
AcDbEntity
  8
M0
 62
     7
100
AcDbLine
 10
111.889189
 20
378.360598
 11
114.289189
 21
378.360598
  0
LINE
  5
510
100
AcDbEntity
  8
M0
 62
     7
100
AcDbLine
 10
110.889189
 20
376.660598
 11
110.889189
 21
377.360598
  0
LINE
  5
511
100
AcDbEntity
  8
M0
 62
     7
100
AcDbLine
 10
115.289189
 20
355.960598
 11
115.289189
 21
377.360598
  0
ARC
  5
512
100
AcDbEntity
  8
M0
 62
     7
100
AcDbCircle
 10
97.689189
 20
377.360598
 40
1.0
100
AcDbArc
 50
90.0
 51
180.0
  0
ARC
  5
513
100
AcDbEntity
  8
M0
 62
     7
100
AcDbCircle
 10
100.089189
 20
377.360598
 40
1.0
100
AcDbArc
 50
0.0
 51
90.0
  0
ARC
  5
514
100
AcDbEntity
  8
M0
 62
     7
100
AcDbCircle
 10
110.389189
 20
376.660598
 40
0.5
100
AcDbArc
 50
270.0
 51
360.0
  0
ARC
  5
515
100
AcDbEntity
  8
M0
 62
     7
100
AcDbCircle
 10
101.589189
 20
376.660598
 40
0.5
100
AcDbArc
 50
180.0
 51
270.0
  0
ARC
  5
516
100
AcDbEntity
  8
M0
 62
     7
100
AcDbCircle
 10
111.889189
 20
377.360598
 40
1.0
100
AcDbArc
 50
90.0
 51
180.0
  0
ARC
  5
517
100
AcDbEntity
  8
M0
 62
     7
100
AcDbCircle
 10
111.889189
 20
409.960598
 40
0.5
100
AcDbArc
 50
90.0
 51
180.0
  0
ARC
  5
518
100
AcDbEntity
  8
M0
 62
     7
100
AcDbCircle
 10
100.089189
 20
409.960598
 40
0.5
100
AcDbArc
 50
0.0
 51
90.0
  0
ARC
  5
519
100
AcDbEntity
  8
M0
 62
     7
100
AcDbCircle
 10
111.889189
 20
409.460598
 40
1.0
100
AcDbArc
 50
0.0
 51
90.0
  0
ARC
  5
51A
100
AcDbEntity
  8
M0
 62
     7
100
AcDbCircle
 10
100.089189
 20
409.460598
 40
1.0
100
AcDbArc
 50
90.0
 51
180.0
  0
ARC
  5
51B
100
AcDbEntity
  8
M0
 62
     7
100
AcDbCircle
 10
114.289189
 20
377.360598
 40
1.0
100
AcDbArc
 50
0.0
 51
90.0
  0
ARC
  5
51C
100
AcDbEntity
  8
M0
 62
     7
100
AcDbCircle
 10
114.289189
 20
355.960598
 40
1.0
100
AcDbArc
 50
270.0
 51
360.0
  0
ARC
  5
51D
100
AcDbEntity
  8
M0
 62
     7
100
AcDbCircle
 10
87.089189
 20
382.260598
 40
0.5
100
AcDbArc
 50
90.0
 51
180.0
  0
ARC
  5
51E
100
AcDbEntity
  8
M0
 62
     7
100
AcDbCircle
 10
97.689189
 20
355.960598
 40
1.0
100
AcDbArc
 50
180.0
 51
270.0
  0
ARC
  5
51F
100
AcDbEntity
  8
M0
 62
     7
100
AcDbCircle
 10
89.489189
 20
362.810598
 40
0.5
100
AcDbArc
 50
270.0
 51
360.0
  0
ARC
  5
520
100
AcDbEntity
  8
M0
 62
     7
100
AcDbCircle
 10
87.089189
 20
361.810598
 40
0.5
100
AcDbArc
 50
90.0
 51
180.0
  0
ARC
  5
521
100
AcDbEntity
  8
M0
 62
     7
100
AcDbCircle
 10
122.489189
 20
369.310598
 40
0.5
100
AcDbArc
 50
90.0
 51
180.0
  0
ARC
  5
522
100
AcDbEntity
  8
M0
 62
     7
100
AcDbCircle
 10
89.489189
 20
369.310598
 40
0.5
100
AcDbArc
 50
0.0
 51
90.0
  0
ARC
  5
523
100
AcDbEntity
  8
M0
 62
     7
100
AcDbCircle
 10
124.889189
 20
370.310598
 40
0.5
100
AcDbArc
 50
270.0
 51
360.0
  0
ARC
  5
524
100
AcDbEntity
  8
M0
 62
     7
100
AcDbCircle
 10
87.089189
 20
370.310598
 40
0.5
100
AcDbArc
 50
180.0
 51
270.0
  0
ARC
  5
525
100
AcDbEntity
  8
M0
 62
     7
100
AcDbCircle
 10
108.539189
 20
354.560598
 40
0.5
100
AcDbArc
 50
53.130102
 51
90.0
  0
ARC
  5
526
100
AcDbEntity
  8
M0
 62
     7
100
AcDbCircle
 10
113.539189
 20
354.560598
 40
0.5
100
AcDbArc
 50
90.0
 51
126.869898
  0
ARC
  5
527
100
AcDbEntity
  8
M0
 62
     7
100
AcDbCircle
 10
124.889189
 20
349.860598
 40
0.5
100
AcDbArc
 50
270.0
 51
360.0
  0
ARC
  5
528
100
AcDbEntity
  8
M0
 62
     7
100
AcDbCircle
 10
124.889189
 20
361.810598
 40
0.5
100
AcDbArc
 50
0.0
 51
90.0
  0
ARC
  5
529
100
AcDbEntity
  8
M0
 62
     7
100
AcDbCircle
 10
87.089189
 20
349.860598
 40
0.5
100
AcDbArc
 50
180.0
 51
270.0
  0
LINE
  5
52A
100
AcDbEntity
  8
M0
 62
     7
100
AcDbLine
 10
114.039189
 20
341.360598
 11
114.039189
 21
340.360598
  0
LINE
  5
52B
100
AcDbEntity
  8
M0
 62
     7
100
AcDbLine
 10
114.039189
 20
340.360598
 11
109.463694
 21
340.360598
  0
ARC
  5
52C
100
AcDbEntity
  8
M0
 62
     7
100
AcDbCircle
 10
124.889189
 20
382.260598
 40
0.5
100
AcDbArc
 50
0.0
 51
90.0
  0
ARC
  5
52D
100
AcDbEntity
  8
M0
 62
     7
100
AcDbCircle
 10
122.489189
 20
362.810598
 40
0.5
100
AcDbArc
 50
180.0
 51
270.0
  0
LINE
  5
52E
100
AcDbEntity
  8
M0
 62
     7
100
AcDbLine
 10
117.239189
 20
396.960598
 11
122.989189
 21
396.960598
  0
LINE
  5
52F
100
AcDbEntity
  8
M0
 62
     7
100
AcDbLine
 10
122.989189
 20
398.960598
 11
122.989189
 21
396.960598
  0
LINE
  5
530
100
AcDbEntity
  8
M0
 62
     7
100
AcDbLine
 10
111.389189
 20
396.960598
 11
114.939189
 21
396.960598
  0
LINE
  5
531
100
AcDbEntity
  8
M0
 62
     7
100
AcDbLine
 10
100.589189
 20
409.960598
 11
100.589189
 21
396.960598
  0
LINE
  5
532
100
AcDbEntity
  8
M0
 62
     7
100
AcDbLine
 10
97.039189
 20
396.960598
 11
100.589189
 21
396.960598
  0
LINE
  5
533
100
AcDbEntity
  8
M0
 62
     7
100
AcDbLine
 10
99.089189
 20
400.460598
 11
99.089189
 21
409.460598
  0
LINE
  5
534
100
AcDbEntity
  8
M0
 62
     7
100
AcDbLine
 10
112.889189
 20
409.460598
 11
112.889189
 21
400.460598
  0
LINE
  5
535
100
AcDbEntity
  8
M0
 62
     7
100
AcDbLine
 10
100.589189
 20
400.460598
 11
88.989189
 21
400.460598
  0
LINE
  5
536
100
AcDbEntity
  8
M0
 62
     7
100
AcDbLine
 10
100.589189
 20
398.960598
 11
88.989189
 21
398.960598
  0
LINE
  5
537
100
AcDbEntity
  8
M0
 62
     7
100
AcDbLine
 10
88.989189
 20
396.960598
 11
94.739189
 21
396.960598
  0
LINE
  5
538
100
AcDbEntity
  8
M0
 62
     7
100
AcDbLine
 10
111.389189
 20
396.960598
 11
111.389189
 21
409.960598
  0
LINE
  5
539
100
AcDbEntity
  8
M0
 62
     7
100
AcDbLine
 10
122.989189
 20
400.460598
 11
122.989189
 21
398.960598
  0
LINE
  5
53A
100
AcDbEntity
  8
M0
 62
     7
100
AcDbLine
 10
122.989189
 20
398.960598
 11
111.389189
 21
398.960598
  0
LINE
  5
53B
100
AcDbEntity
  8
M0
 62
     7
100
AcDbLine
 10
111.389189
 20
400.460598
 11
122.989189
 21
400.460598
  0
LINE
  5
53C
100
AcDbEntity
  8
M0
 62
     7
100
AcDbLine
 10
120.389189
 20
408.960598
 11
112.889189
 21
408.960598
  0
ARC
  5
53D
100
AcDbEntity
  8
M0
 62
     7
100
AcDbCircle
 10
111.539189
 20
371.360598
 40
0.5
100
AcDbArc
 50
180.0
 51
270.0
  0
ARC
  5
53E
100
AcDbEntity
  8
M0
 62
     7
100
AcDbCircle
 10
100.439189
 20
371.360598
 40
0.5
100
AcDbArc
 50
270.0
 51
360.0
  0
ARC
  5
53F
100
AcDbEntity
  8
M0
 62
     7
100
AcDbCircle
 10
112.239189
 20
377.060598
 40
1.2
100
AcDbArc
 50
90.0
 51
180.0
  0
ARC
  5
540
100
AcDbEntity
  8
M0
 62
     7
100
AcDbCircle
 10
99.739189
 20
377.060598
 40
1.2
100
AcDbArc
 50
0.0
 51
90.0
  0
ARC
  5
541
100
AcDbEntity
  8
M0
 62
     7
100
AcDbCircle
 10
97.789189
 20
377.260598
 40
1.0
100
AcDbArc
 50
90.0
 51
180.0
  0
ARC
  5
542
100
AcDbEntity
  8
M0
 62
     7
100
AcDbCircle
 10
114.189189
 20
377.260598
 40
1.0
100
AcDbArc
 50
0.0
 51
90.0
  0
ARC
  5
543
100
AcDbEntity
  8
M0
 62
     7
100
AcDbCircle
 10
114.189189
 20
356.060598
 40
1.0
100
AcDbArc
 50
270.0
 51
360.0
  0
ARC
  5
544
100
AcDbEntity
  8
M0
 62
     7
100
AcDbCircle
 10
97.789189
 20
358.560598
 40
1.0
100
AcDbArc
 50
90.0
 51
180.0
  0
ARC
  5
545
100
AcDbEntity
  8
M0
 62
     7
100
AcDbCircle
 10
97.789189
 20
356.060598
 40
1.0
100
AcDbArc
 50
180.0
 51
270.0
  0
LINE
  5
546
100
AcDbEntity
  8
M0
 62
     7
100
AcDbLine
 10
111.539189
 20
355.560598
 11
111.539189
 21
363.410598
  0
LINE
  5
547
100
AcDbEntity
  8
M0
 62
     7
100
AcDbLine
 10
100.439189
 20
355.560598
 11
100.439189
 21
363.410598
  0
LINE
  5
548
100
AcDbEntity
  8
M0
 62
     7
100
AcDbLine
 10
111.539189
 20
363.410598
 11
111.789189
 21
363.910598
  0
LINE
  5
549
100
AcDbEntity
  8
M0
 62
     7
100
AcDbLine
 10
100.439189
 20
363.410598
 11
100.189189
 21
363.910598
  0
LINE
  5
54A
100
AcDbEntity
  8
M0
 62
     7
100
AcDbLine
 10
114.189189
 20
355.060598
 11
112.039189
 21
355.060598
  0
ARC
  5
54B
100
AcDbEntity
  8
M0
 62
     7
100
AcDbCircle
 10
114.189189
 20
358.560598
 40
1.0
100
AcDbArc
 50
0.0
 51
90.0
  0
LINE
  5
54C
100
AcDbEntity
  8
M0
 62
     7
100
AcDbLine
 10
115.189189
 20
358.560598
 11
115.189189
 21
356.060598
  0
LINE
  5
54D
100
AcDbEntity
  8
M0
 62
     7
100
AcDbLine
 10
113.689189
 20
359.560598
 11
114.189189
 21
359.560598
  0
LINE
  5
54E
100
AcDbEntity
  8
M0
 62
     7
100
AcDbLine
 10
96.789189
 20
358.560598
 11
96.789189
 21
356.060598
  0
LINE
  5
54F
100
AcDbEntity
  8
M0
 62
     7
100
AcDbLine
 10
98.289189
 20
359.560598
 11
97.789189
 21
359.560598
  0
LINE
  5
550
100
AcDbEntity
  8
M0
 62
     7
100
AcDbLine
 10
124.139189
 20
341.410598
 11
124.139189
 21
340.360598
  0
LINE
  5
551
100
AcDbEntity
  8
M0
 62
     7
100
AcDbLine
 10
124.139189
 20
340.360598
 11
118.139189
 21
340.360598
  0
LINE
  5
552
100
AcDbEntity
  8
M0
 62
     7
100
AcDbLine
 10
103.939189
 20
340.360598
 11
99.463694
 21
340.360598
  0
LINE
  5
553
100
AcDbEntity
  8
M0
 62
     7
100
AcDbLine
 10
103.939189
 20
341.360598
 11
103.939189
 21
340.360598
  0
LINE
  5
554
100
AcDbEntity
  8
M0
 62
     7
100
AcDbLine
 10
118.139189
 20
340.360598
 11
118.139189
 21
341.410598
  0
LINE
  5
555
100
AcDbEntity
  8
M0
 62
     7
100
AcDbLine
 10
108.039189
 20
390.710598
 11
108.039189
 21
391.760598
  0
LINE
  5
556
100
AcDbEntity
  8
M0
 62
     7
100
AcDbLine
 10
97.789189
 20
378.260598
 11
99.739189
 21
378.260598
  0
LINE
  5
557
100
AcDbEntity
  8
M0
 62
     7
100
AcDbLine
 10
114.039189
 20
391.760598
 11
114.039189
 21
390.710598
  0
LINE
  5
558
100
AcDbEntity
  8
M0
 62
     7
100
AcDbLine
 10
113.039189
 20
378.260598
 11
113.039189
 21
378.360598
  0
LINE
  5
559
100
AcDbEntity
  8
M0
 62
     7
100
AcDbLine
 10
108.039189
 20
391.760598
 11
114.039189
 21
391.760598
  0
LINE
  5
55A
100
AcDbEntity
  8
M0
 62
     7
100
AcDbLine
 10
96.789189
 20
377.260598
 11
96.789189
 21
372.160598
  0
LINE
  5
55B
100
AcDbEntity
  8
M0
 62
     7
100
AcDbLine
 10
115.189189
 20
377.260598
 11
115.189189
 21
372.160598
  0
LINE
  5
55C
100
AcDbEntity
  8
M0
 62
     7
100
AcDbLine
 10
100.939189
 20
371.360598
 11
100.939189
 21
377.060598
  0
LINE
  5
55D
100
AcDbEntity
  8
M0
 62
     7
100
AcDbLine
 10
93.839189
 20
391.760598
 11
93.839189
 21
390.710598
  0
LINE
  5
55E
100
AcDbEntity
  8
M0
 62
     7
100
AcDbLine
 10
87.839189
 20
390.710598
 11
87.839189
 21
391.760598
  0
LINE
  5
55F
100
AcDbEntity
  8
M0
 62
     7
100
AcDbLine
 10
112.239189
 20
378.260598
 11
114.189189
 21
378.260598
  0
LINE
  5
560
100
AcDbEntity
  8
M0
 62
     7
100
AcDbLine
 10
111.789189
 20
369.410598
 11
111.539189
 21
369.910598
  0
LINE
  5
561
100
AcDbEntity
  8
M0
 62
     7
100
AcDbLine
 10
98.289189
 20
370.660598
 11
98.289189
 21
359.560598
  0
LINE
  5
562
100
AcDbEntity
  8
M0
 62
     7
100
AcDbLine
 10
113.689189
 20
370.660598
 11
113.689189
 21
359.560598
  0
LINE
  5
563
100
AcDbEntity
  8
M0
 62
     7
100
AcDbLine
 10
100.189189
 20
363.910598
 11
100.189189
 21
369.410598
  0
LINE
  5
564
100
AcDbEntity
  8
M0
 62
     7
100
AcDbLine
 10
111.789189
 20
363.910598
 11
111.789189
 21
369.410598
  0
LINE
  5
565
100
AcDbEntity
  8
M0
 62
     7
100
AcDbLine
 10
96.789189
 20
372.160598
 11
98.289189
 21
370.660598
  0
LINE
  5
566
100
AcDbEntity
  8
M0
 62
     7
100
AcDbLine
 10
115.189189
 20
372.160598
 11
113.689189
 21
370.660598
  0
LINE
  5
567
100
AcDbEntity
  8
M0
 62
     7
100
AcDbLine
 10
111.039189
 20
371.360598
 11
111.039189
 21
377.060598
  0
LINE
  5
568
100
AcDbEntity
  8
M0
 62
     7
100
AcDbLine
 10
100.189189
 20
369.410598
 11
100.439189
 21
369.910598
  0
LINE
  5
569
100
AcDbEntity
  8
M0
 62
     7
100
AcDbLine
 10
100.439189
 20
369.910598
 11
100.439189
 21
370.860598
  0
LINE
  5
56A
100
AcDbEntity
  8
M0
 62
     7
100
AcDbLine
 10
111.539189
 20
369.910598
 11
111.539189
 21
370.860598
  0
LINE
  5
56B
100
AcDbEntity
  8
M0
 62
     7
100
AcDbLine
 10
125.389189
 20
349.860598
 11
125.389189
 21
361.810598
  0
LINE
  5
56C
100
AcDbEntity
  8
M0
 62
     7
100
AcDbLine
 10
125.539189
 20
349.360598
 11
86.439189
 21
349.360598
  0
LINE
  5
56D
100
AcDbEntity
  8
M0
 62
     7
100
AcDbLine
 10
122.489189
 20
362.310598
 11
124.889189
 21
362.310598
  0
LINE
  5
56E
100
AcDbEntity
  8
M0
 62
     7
100
AcDbLine
 10
87.089189
 20
362.310598
 11
89.489189
 21
362.310598
  0
LINE
  5
56F
100
AcDbEntity
  8
M0
 62
     7
100
AcDbLine
 10
86.589189
 20
349.860598
 11
86.589189
 21
361.810598
  0
LINE
  5
570
100
AcDbEntity
  8
M0
 62
     7
100
AcDbLine
 10
121.989189
 20
369.310598
 11
121.989189
 21
362.810598
  0
LINE
  5
571
100
AcDbEntity
  8
M0
 62
     7
100
AcDbLine
 10
124.889189
 20
382.760598
 11
125.039189
 21
382.760598
  0
LINE
  5
572
100
AcDbEntity
  8
M0
 62
     7
100
AcDbLine
 10
87.089189
 20
382.760598
 11
86.939189
 21
382.760598
  0
LINE
  5
573
100
AcDbEntity
  8
M0
 62
     7
100
AcDbLine
 10
108.989189
 20
379.660598
 11
102.989189
 21
379.660598
  0
LINE
  5
574
100
AcDbEntity
  8
M0
 62
     7
100
AcDbLine
 10
102.989189
 20
379.660598
 11
102.989189
 21
378.060598
  0
LINE
  5
575
100
AcDbEntity
  8
M0
 62
     7
100
AcDbLine
 10
108.989189
 20
378.060598
 11
108.989189
 21
379.660598
  0
ARC
  5
576
100
AcDbEntity
  8
M0
 62
     7
100
AcDbCircle
 10
103.439189
 20
354.560598
 40
0.5
100
AcDbArc
 50
90.0
 51
126.869898
  0
LINE
  5
577
100
AcDbEntity
  8
M0
 62
     7
100
AcDbLine
 10
96.689189
 20
355.960598
 11
96.689189
 21
377.360598
  0
ARC
  5
578
100
AcDbEntity
  8
M0
 62
     7
100
AcDbCircle
 10
98.439189
 20
354.560598
 40
0.5
100
AcDbArc
 50
53.130102
 51
90.0
  0
LINE
  5
579
100
AcDbEntity
  8
M0
 62
     7
100
AcDbLine
 10
124.889189
 20
369.810598
 11
122.489189
 21
369.810598
  0
LINE
  5
57A
100
AcDbEntity
  8
M0
 62
     7
100
AcDbLine
 10
89.989189
 20
362.810598
 11
89.989189
 21
369.310598
  0
LINE
  5
57B
100
AcDbEntity
  8
M0
 62
     7
100
AcDbLine
 10
125.389189
 20
382.260598
 11
125.389189
 21
370.310598
  0
LINE
  5
57C
100
AcDbEntity
  8
M0
 62
     7
100
AcDbLine
 10
89.489189
 20
369.810598
 11
87.089189
 21
369.810598
  0
LINE
  5
57D
100
AcDbEntity
  8
M0
 62
     7
100
AcDbLine
 10
102.989189
 20
378.060598
 11
108.989189
 21
378.060598
  0
LINE
  5
57E
100
AcDbEntity
  8
M0
 62
     7
100
AcDbLine
 10
124.889189
 20
349.360598
 11
125.039189
 21
349.360598
  0
LINE
  5
57F
100
AcDbEntity
  8
M0
 62
     7
100
AcDbLine
 10
87.089189
 20
349.360598
 11
86.939189
 21
349.360598
  0
LINE
  5
580
100
AcDbEntity
  8
M0
 62
     7
100
AcDbLine
 10
125.436557
 20
374.810598
 11
125.389189
 21
374.810598
  0
LINE
  5
581
100
AcDbEntity
  8
M0
 62
     7
100
AcDbLine
 10
86.54182
 20
374.810598
 11
86.589189
 21
374.810598
  0
LINE
  5
582
100
AcDbEntity
  8
M0
 62
     7
100
AcDbLine
 10
125.436557
 20
372.310598
 11
125.389189
 21
372.310598
  0
LINE
  5
583
100
AcDbEntity
  8
M0
 62
     7
100
AcDbLine
 10
86.54182
 20
372.310598
 11
86.589189
 21
372.310598
  0
LINE
  5
584
100
AcDbEntity
  8
M0
 62
     7
100
AcDbLine
 10
93.839189
 20
340.360598
 11
89.463694
 21
340.360598
  0
LINE
  5
585
100
AcDbEntity
  8
M0
 62
     7
100
AcDbLine
 10
87.839189
 20
340.360598
 11
87.839189
 21
341.410598
  0
LINE
  5
586
100
AcDbEntity
  8
M0
 62
     7
100
AcDbLine
 10
93.839189
 20
341.410598
 11
93.839189
 21
340.360598
  0
LINE
  5
587
100
AcDbEntity
  8
M0
 62
     7
100
AcDbLine
 10
98.939189
 20
378.360598
 11
98.939189
 21
378.260598
  0
LINE
  5
588
100
AcDbEntity
  8
M0
 62
     7
100
AcDbLine
 10
97.939189
 20
390.710598
 11
97.939189
 21
391.760598
  0
LINE
  5
589
100
AcDbEntity
  8
M0
 62
     7
100
AcDbLine
 10
97.939189
 20
391.760598
 11
103.939189
 21
391.760598
  0
LINE
  5
58A
100
AcDbEntity
  8
M0
 62
     7
100
AcDbLine
 10
103.939189
 20
391.760598
 11
103.939189
 21
390.710598
  0
LINE
  5
58B
100
AcDbEntity
  8
M0
 62
     7
100
AcDbLine
 10
118.139189
 20
390.760598
 11
118.139189
 21
391.760598
  0
LINE
  5
58C
100
AcDbEntity
  8
M0
 62
     7
100
AcDbLine
 10
124.139189
 20
391.760598
 11
124.139189
 21
390.760598
  0
LINE
  5
58D
100
AcDbEntity
  8
M0
 62
     7
100
AcDbLine
 10
118.139189
 20
391.760598
 11
124.139189
 21
391.760598
  0
LINE
  5
58E
100
AcDbEntity
  8
M0
  6
DASHDOT
 62
     7
100
AcDbLine
 10
100.439189
 20
333.560598
 11
101.439189
 21
333.560598
  0
LINE
  5
58F
100
AcDbEntity
  8
M0
  6
DASHDOT
 62
     7
100
AcDbLine
 10
100.939189
 20
333.060598
 11
100.939189
 21
334.060598
  0
LINE
  5
590
100
AcDbEntity
  8
M0
  6
DASHDOT
 62
     7
100
AcDbLine
 10
100.439189
 20
345.160598
 11
101.439189
 21
345.160598
  0
LINE
  5
591
100
AcDbEntity
  8
M0
  6
DASHDOT
 62
     7
100
AcDbLine
 10
100.939189
 20
344.660598
 11
100.939189
 21
345.660598
  0
LINE
  5
592
100
AcDbEntity
  8
M0
  6
DASHDOT
 62
     7
100
AcDbLine
 10
110.539189
 20
345.160598
 11
111.539189
 21
345.160598
  0
LINE
  5
593
100
AcDbEntity
  8
M0
  6
DASHDOT
 62
     7
100
AcDbLine
 10
111.039189
 20
344.660598
 11
111.039189
 21
345.660598
  0
LINE
  5
594
100
AcDbEntity
  8
M0
  6
DASHDOT
 62
     7
100
AcDbLine
 10
120.639189
 20
345.160598
 11
121.639189
 21
345.160598
  0
LINE
  5
595
100
AcDbEntity
  8
M0
  6
DASHDOT
 62
     7
100
AcDbLine
 10
121.139189
 20
344.660598
 11
121.139189
 21
345.660598
  0
LINE
  5
596
100
AcDbEntity
  8
M0
  6
DASHDOT
 62
     7
100
AcDbLine
 10
120.639189
 20
386.960598
 11
121.639189
 21
386.960598
  0
LINE
  5
597
100
AcDbEntity
  8
M0
  6
DASHDOT
 62
     7
100
AcDbLine
 10
121.139189
 20
386.460598
 11
121.139189
 21
387.460598
  0
LINE
  5
598
100
AcDbEntity
  8
M0
  6
DASHDOT
 62
     7
100
AcDbLine
 10
110.539189
 20
386.960598
 11
111.539189
 21
386.960598
  0
LINE
  5
599
100
AcDbEntity
  8
M0
  6
DASHDOT
 62
     7
100
AcDbLine
 10
111.039189
 20
386.460598
 11
111.039189
 21
387.460598
  0
LINE
  5
59A
100
AcDbEntity
  8
M0
  6
DASHDOT
 62
     7
100
AcDbLine
 10
100.439189
 20
386.960598
 11
101.439189
 21
386.960598
  0
LINE
  5
59B
100
AcDbEntity
  8
M0
  6
DASHDOT
 62
     7
100
AcDbLine
 10
100.939189
 20
386.460598
 11
100.939189
 21
387.460598
  0
LINE
  5
59C
100
AcDbEntity
  8
M0
  6
DASHDOT
 62
     7
100
AcDbLine
 10
90.339189
 20
386.960598
 11
91.339189
 21
386.960598
  0
LINE
  5
59D
100
AcDbEntity
  8
M0
  6
DASHDOT
 62
     7
100
AcDbLine
 10
90.839189
 20
386.460598
 11
90.839189
 21
387.460598
  0
LINE
  5
59E
100
AcDbEntity
  8
M0
  6
DASHDOT
 62
     7
100
AcDbLine
 10
94.589189
 20
404.560598
 11
95.589189
 21
404.560598
  0
LINE
  5
59F
100
AcDbEntity
  8
M0
  6
DASHDOT
 62
     7
100
AcDbLine
 10
95.089189
 20
404.060598
 11
95.089189
 21
405.060598
  0
LINE
  5
5A0
100
AcDbEntity
  8
M0
  6
DASHDOT
 62
     7
100
AcDbLine
 10
116.389189
 20
404.560598
 11
117.389189
 21
404.560598
  0
LINE
  5
5A1
100
AcDbEntity
  8
M0
  6
DASHDOT
 62
     7
100
AcDbLine
 10
116.889189
 20
404.060598
 11
116.889189
 21
405.060598
  0
LINE
  5
5A2
100
AcDbEntity
  8
M0
  6
DASHDOT
 62
     7
100
AcDbLine
 10
90.339189
 20
345.160598
 11
91.339189
 21
345.160598
  0
LINE
  5
5A3
100
AcDbEntity
  8
M0
  6
DASHDOT
 62
     7
100
AcDbLine
 10
90.839189
 20
344.660598
 11
90.839189
 21
345.660598
  0
LINE
  5
5A4
100
AcDbEntity
  8
M0
  6
DASHDOT
 62
     7
100
AcDbLine
 10
105.489189
 20
404.160598
 11
106.489189
 21
404.160598
  0
LINE
  5
5A5
100
AcDbEntity
  8
M0
 62
     7
100
AcDbLine
 10
105.539189
 20
402.960598
 11
106.439189
 21
402.960598
  0
LINE
  5
5A6
100
AcDbEntity
  8
M0
 62
     7
100
AcDbLine
 10
105.539189
 20
403.710598
 11
105.539189
 21
402.960598
  0
LINE
  5
5A7
100
AcDbEntity
  8
M0
 62
     7
100
AcDbLine
 10
106.439189
 20
402.960598
 11
106.439189
 21
403.710598
  0
LINE
  5
5A8
100
AcDbEntity
  8
M0
  6
DASHDOT
 62
     7
100
AcDbLine
 10
105.489189
 20
404.160598
 11
106.489189
 21
404.160598
  0
LINE
  5
5A9
100
AcDbEntity
  8
M0
 62
     7
100
AcDbLine
 10
105.539189
 20
403.710598
 11
104.789189
 21
403.710598
  0
LINE
  5
5AA
100
AcDbEntity
  8
M0
 62
     7
100
AcDbLine
 10
104.789189
 20
404.610598
 11
105.539189
 21
404.610598
  0
LINE
  5
5AB
100
AcDbEntity
  8
M0
 62
     7
100
AcDbLine
 10
105.539189
 20
405.360598
 11
105.539189
 21
404.610598
  0
CIRCLE
  5
5AC
100
AcDbEntity
  8
M0
 62
     7
100
AcDbCircle
 10
105.989189
 20
404.160598
 40
2.85
  0
LINE
  5
5AD
100
AcDbEntity
  8
M0
 62
     7
100
AcDbLine
 10
106.439189
 20
405.360598
 11
105.539189
 21
405.360598
  0
LINE
  5
5AE
100
AcDbEntity
  8
M0
 62
     7
100
AcDbLine
 10
107.189189
 20
403.710598
 11
106.439189
 21
403.710598
  0
LINE
  5
5AF
100
AcDbEntity
  8
M0
 62
     7
100
AcDbLine
 10
106.439189
 20
404.610598
 11
106.439189
 21
405.360598
  0
LINE
  5
5B0
100
AcDbEntity
  8
M0
 62
     7
100
AcDbLine
 10
106.439189
 20
404.610598
 11
107.189189
 21
404.610598
  0
CIRCLE
  5
5B1
100
AcDbEntity
  8
M0
 62
     7
100
AcDbCircle
 10
116.889189
 20
404.560598
 40
3.0
  0
CIRCLE
  5
5B2
100
AcDbEntity
  8
M0
 62
     7
100
AcDbCircle
 10
121.139189
 20
386.960598
 40
3.0
  0
CIRCLE
  5
5B3
100
AcDbEntity
  8
M0
 62
     7
100
AcDbCircle
 10
111.039189
 20
386.960598
 40
3.0
  0
CIRCLE
  5
5B4
100
AcDbEntity
  8
M0
 62
     7
100
AcDbCircle
 10
100.939189
 20
386.960598
 40
3.0
  0
CIRCLE
  5
5B5
100
AcDbEntity
  8
M0
 62
     7
100
AcDbCircle
 10
90.839189
 20
386.960598
 40
3.0
  0
CIRCLE
  5
5B6
100
AcDbEntity
  8
M0
 62
     7
100
AcDbCircle
 10
111.039189
 20
345.160598
 40
3.0
  0
CIRCLE
  5
5B7
100
AcDbEntity
  8
M0
 62
     7
100
AcDbCircle
 10
90.839189
 20
345.160598
 40
3.0
  0
ARC
  5
5B8
100
AcDbEntity
  8
M0
 62
     7
100
AcDbCircle
 10
88.489189
 20
337.760598
 40
2.25
100
AcDbArc
 50
295.665313
 51
424.334687
  0
ARC
  5
5B9
100
AcDbEntity
  8
M0
 62
     7
100
AcDbCircle
 10
88.489189
 20
337.760598
 40
2.25
100
AcDbArc
 50
106.140693
 51
133.542219
  0
ARC
  5
5BA
100
AcDbEntity
  8
M0
 62
     7
100
AcDbCircle
 10
100.939189
 20
333.560598
 40
2.65
100
AcDbArc
 50
241.228452
 51
250.629626
  0
ARC
  5
5BB
100
AcDbEntity
  8
M0
 62
     7
100
AcDbCircle
 10
100.939189
 20
333.560598
 40
2.85
100
AcDbArc
 50
274.519826
 51
481.179265
  0
LINE
  5
5BC
100
AcDbEntity
  8
M0
 62
     7
100
AcDbLine
 10
107.863696
 20
335.060598
 11
107.139189
 21
335.060598
  0
LINE
  5
5BD
100
AcDbEntity
  8
M0
 62
     7
100
AcDbLine
 10
109.663695
 20
332.560598
 11
110.189189
 21
332.560598
  0
LINE
  5
5BE
100
AcDbEntity
  8
M0
 62
     7
100
AcDbLine
 10
106.16378
 20
330.560598
 11
101.16378
 21
330.560598
  0
ARC
  5
5BF
100
AcDbEntity
  8
M0
 62
     7
100
AcDbCircle
 10
106.139189
 20
331.560598
 40
1.0
100
AcDbArc
 50
330.00135
 51
360.0
  0
LINE
  5
5C0
100
AcDbEntity
  8
M0
 62
     7
100
AcDbLine
 10
111.463768
 20
335.060598
 11
109.463694
 21
335.060598
  0
LINE
  5
5C1
100
AcDbEntity
  8
M0
 62
     7
100
AcDbLine
 10
114.463768
 20
331.260598
 11
116.463768
 21
331.260598
  0
LINE
  5
5C2
100
AcDbEntity
  8
M0
 62
     7
100
AcDbLine
 10
118.613777
 20
331.260598
 11
122.489189
 21
331.260598
  0
ARC
  5
5C3
100
AcDbEntity
  8
M0
 62
     7
100
AcDbCircle
 10
100.939189
 20
333.560598
 40
2.65
100
AcDbArc
 50
274.861737
 51
483.834124
  0
ARC
  5
5C4
100
AcDbEntity
  8
M0
 62
     7
100
AcDbCircle
 10
96.039189
 20
331.560598
 40
1.0
100
AcDbArc
 50
330.000341
 51
360.0
  0
LINE
  5
5C5
100
AcDbEntity
  8
M0
 62
     7
100
AcDbLine
 10
91.463768
 20
331.260598
 11
89.663695
 21
331.260598
  0
LINE
  5
5C6
100
AcDbEntity
  8
M0
 62
     7
100
AcDbLine
 10
300.674256
 20
396.560598
 11
302.174256
 21
396.560598
  0
LINE
  5
5C7
100
AcDbEntity
  8
M0
 62
     7
100
AcDbLine
 10
300.674256
 20
389.660598
 11
300.674256
 21
395.560598
  0
LINE
  5
5C8
100
AcDbEntity
  8
M0
 62
     7
100
AcDbLine
 10
299.174256
 20
389.660598
 11
299.174256
 21
395.560598
  0
LINE
  5
5C9
100
AcDbEntity
  8
M0
 62
     7
100
AcDbLine
 10
300.674256
 20
395.560598
 11
300.674256
 21
396.560598
  0
LINE
  5
5CA
100
AcDbEntity
  8
M0
 62
     7
100
AcDbLine
 10
291.674256
 20
389.660598
 11
291.674256
 21
395.560598
  0
LINE
  5
5CB
100
AcDbEntity
  8
M0
 62
     7
100
AcDbLine
 10
311.174256
 20
389.660598
 11
311.174256
 21
395.560598
  0
LINE
  5
5CC
100
AcDbEntity
  8
M0
 62
     7
100
AcDbLine
 10
299.174256
 20
389.660598
 11
300.674256
 21
389.660598
  0
LINE
  5
5CD
100
AcDbEntity
  8
M0
 62
     7
100
AcDbLine
 10
305.174256
 20
389.660598
 11
305.174256
 21
395.560598
  0
LINE
  5
5CE
100
AcDbEntity
  8
M0
 62
     7
100
AcDbLine
 10
335.474256
 20
378.660598
 11
335.474256
 21
353.460598
  0
LINE
  5
5CF
100
AcDbEntity
  8
M0
 62
     7
100
AcDbLine
 10
336.174256
 20
349.060598
 11
337.674256
 21
349.060598
  0
LINE
  5
5D0
100
AcDbEntity
  8
M0
 62
     7
100
AcDbLine
 10
279.874256
 20
345.960598
 11
279.874256
 21
350.960598
  0
LINE
  5
5D1
100
AcDbEntity
  8
M0
 62
     7
100
AcDbLine
 10
339.674256
 20
394.210598
 11
339.974256
 21
394.210598
  0
LINE
  5
5D2
100
AcDbEntity
  8
M0
 62
     7
100
AcDbLine
 10
314.174256
 20
389.660598
 11
314.174256
 21
395.560598
  0
LINE
  5
5D3
100
AcDbEntity
  8
M0
 62
     7
100
AcDbLine
 10
299.674256
 20
348.34437
 11
299.674256
 21
348.060598
  0
LINE
  5
5D4
100
AcDbEntity
  8
M0
 62
     7
100
AcDbLine
 10
299.674256
 20
352.460598
 11
299.674256
 21
351.821153
  0
LINE
  5
5D5
100
AcDbEntity
  8
M0
 62
     7
100
AcDbLine
 10
283.874256
 20
351.521153
 11
299.374256
 21
351.521153
  0
LINE
  5
5D6
100
AcDbEntity
  8
M0
 62
     7
100
AcDbLine
 10
296.174256
 20
389.660598
 11
296.174256
 21
395.560598
  0
LINE
  5
5D7
100
AcDbEntity
  8
M0
 62
     7
100
AcDbLine
 10
303.674256
 20
389.660598
 11
303.674256
 21
395.560598
  0
LINE
  5
5D8
100
AcDbEntity
  8
M0
 62
     7
100
AcDbLine
 10
302.174256
 20
389.660598
 11
303.674256
 21
389.660598
  0
LINE
  5
5D9
100
AcDbEntity
  8
M0
 62
     7
100
AcDbLine
 10
290.174256
 20
389.660598
 11
291.674256
 21
389.660598
  0
LINE
  5
5DA
100
AcDbEntity
  8
M0
 62
     7
100
AcDbLine
 10
296.174256
 20
389.660598
 11
297.674256
 21
389.660598
  0
LINE
  5
5DB
100
AcDbEntity
  8
M0
 62
     7
100
AcDbLine
 10
297.674256
 20
396.560598
 11
299.174256
 21
396.560598
  0
LINE
  5
5DC
100
AcDbEntity
  8
M0
 62
     7
100
AcDbLine
 10
309.674256
 20
389.660598
 11
309.674256
 21
395.560598
  0
LINE
  5
5DD
100
AcDbEntity
  8
M0
 62
     7
100
AcDbLine
 10
314.174256
 20
389.660598
 11
315.674256
 21
389.660598
  0
LINE
  5
5DE
100
AcDbEntity
  8
M0
 62
     7
100
AcDbLine
 10
297.674256
 20
389.660598
 11
297.674256
 21
395.560598
  0
LINE
  5
5DF
100
AcDbEntity
  8
M0
 62
     7
100
AcDbLine
 10
308.174256
 20
389.660598
 11
308.174256
 21
395.560598
  0
LINE
  5
5E0
100
AcDbEntity
  8
M0
 62
     7
100
AcDbLine
 10
290.174256
 20
389.660598
 11
290.174256
 21
395.560598
  0
LINE
  5
5E1
100
AcDbEntity
  8
M0
 62
     7
100
AcDbLine
 10
294.674256
 20
389.660598
 11
294.674256
 21
395.560598
  0
LINE
  5
5E2
100
AcDbEntity
  8
M0
 62
     7
100
AcDbLine
 10
312.674256
 20
389.660598
 11
312.674256
 21
395.560598
  0
LINE
  5
5E3
100
AcDbEntity
  8
M0
 62
     7
100
AcDbLine
 10
305.174256
 20
389.660598
 11
306.674256
 21
389.660598
  0
LINE
  5
5E4
100
AcDbEntity
  8
M0
 62
     7
100
AcDbLine
 10
315.674256
 20
389.660598
 11
315.674256
 21
395.560598
  0
LINE
  5
5E5
100
AcDbEntity
  8
M0
 62
     7
100
AcDbLine
 10
293.174256
 20
389.660598
 11
294.674256
 21
389.660598
  0
LINE
  5
5E6
100
AcDbEntity
  8
M0
 62
     7
100
AcDbLine
 10
299.674256
 20
384.060598
 11
299.674256
 21
383.776826
  0
LINE
  5
5E7
100
AcDbEntity
  8
M0
 62
     7
100
AcDbLine
 10
299.674256
 20
348.060598
 11
339.174256
 21
348.060598
  0
LINE
  5
5E8
100
AcDbEntity
  8
M0
 62
     7
100
AcDbLine
 10
334.974256
 20
352.460598
 11
299.674256
 21
352.460598
  0
LINE
  5
5E9
100
AcDbEntity
  8
M0
 62
     7
100
AcDbLine
 10
280.374256
 20
385.360598
 11
280.874256
 21
385.360598
  0
LINE
  5
5EA
100
AcDbEntity
  8
M0
 62
     7
100
AcDbLine
 10
328.674256
 20
346.760598
 11
283.874256
 21
346.760598
  0
LINE
  5
5EB
100
AcDbEntity
  8
M0
 62
     7
100
AcDbLine
 10
339.674256
 20
347.560598
 11
339.674256
 21
331.760598
  0
LINE
  5
5EC
100
AcDbEntity
  8
M0
 62
     7
100
AcDbLine
 10
283.874256
 20
346.760598
 11
283.874256
 21
345.460598
  0
LINE
  5
5ED
100
AcDbEntity
  8
M0
 62
     7
100
AcDbLine
 10
335.674256
 20
331.060598
 11
335.674256
 21
331.260598
  0
LINE
  5
5EE
100
AcDbEntity
  8
M0
 62
     7
100
AcDbLine
 10
335.474256
 20
379.160598
 11
335.474256
 21
378.660598
  0
LINE
  5
5EF
100
AcDbEntity
  8
M0
 62
     7
100
AcDbLine
 10
283.874256
 20
383.476826
 11
283.874256
 21
380.600043
  0
LINE
  5
5F0
100
AcDbEntity
  8
M0
 62
     7
100
AcDbLine
 10
299.674256
 20
380.300043
 11
299.674256
 21
379.660598
  0
LINE
  5
5F1
100
AcDbEntity
  8
M0
 62
     7
100
AcDbLine
 10
335.474256
 20
353.460598
 11
335.474256
 21
352.960598
  0
LINE
  5
5F2
100
AcDbEntity
  8
M0
 62
     7
100
AcDbLine
 10
280.874256
 20
385.360598
 11
328.80823
 21
385.360598
  0
LINE
  5
5F3
100
AcDbEntity
  8
M0
 62
     7
100
AcDbLine
 10
339.174256
 20
384.060598
 11
299.674256
 21
384.060598
  0
LINE
  5
5F4
100
AcDbEntity
  8
M0
 62
     7
100
AcDbLine
 10
283.874256
 20
351.521153
 11
283.874256
 21
348.64437
  0
ARC
  5
5F5
100
AcDbEntity
  8
M0
 62
     7
100
AcDbCircle
 10
280.374256
 20
384.860598
 40
0.5
100
AcDbArc
 50
90.0
 51
180.0
  0
ARC
  5
5F6
100
AcDbEntity
  8
M0
 62
     7
100
AcDbCircle
 10
282.874256
 20
345.460598
 40
1.0
100
AcDbArc
 50
270.0
 51
360.0
  0
ARC
  5
5F7
100
AcDbEntity
  8
M0
 62
     7
100
AcDbCircle
 10
339.176762
 20
401.260598
 40
0.5
100
AcDbArc
 50
5.73917
 51
90.0
  0
ARC
  5
5F8
100
AcDbEntity
  8
M0
 62
     7
100
AcDbCircle
 10
339.174256
 20
347.560598
 40
0.5
100
AcDbArc
 50
0.0
 51
90.0
  0
LINE
  5
5F9
100
AcDbEntity
  8
M0
 62
     7
100
AcDbLine
 10
339.374256
 20
331.302341
 11
339.374256
 21
330.560598
  0
LINE
  5
5FA
100
AcDbEntity
  8
M0
 62
     7
100
AcDbLine
 10
302.174256
 20
389.660598
 11
302.174256
 21
395.560598
  0
LINE
  5
5FB
100
AcDbEntity
  8
M0
 62
     7
100
AcDbLine
 10
299.374256
 20
348.64437
 11
283.874256
 21
348.64437
  0
LINE
  5
5FC
100
AcDbEntity
  8
M0
 62
     7
100
AcDbLine
 10
339.674256
 20
336.410598
 11
339.974256
 21
336.410598
  0
LINE
  5
5FD
100
AcDbEntity
  8
M0
 62
     7
100
AcDbLine
 10
283.874256
 20
383.476826
 11
299.374256
 21
383.476826
  0
ARC
  5
5FE
100
AcDbEntity
  8
M0
 62
     7
100
AcDbCircle
 10
339.174256
 20
347.760598
 40
0.5
100
AcDbArc
 50
0.0
 51
90.0
  0
LINE
  5
5FF
100
AcDbEntity
  8
M0
 62
     7
100
AcDbLine
 10
328.674256
 20
336.260598
 11
328.674256
 21
346.760598
  0
LINE
  5
600
100
AcDbEntity
  8
M0
 62
     7
100
AcDbLine
 10
339.974256
 20
401.310598
 11
339.674256
 21
401.310598
  0
ARC
  5
601
100
AcDbEntity
  8
M0
 62
     7
100
AcDbCircle
 10
339.174256
 20
384.560598
 40
0.5
100
AcDbArc
 50
270.0
 51
360.0
  0
ARC
  5
602
100
AcDbEntity
  8
M0
 62
     7
100
AcDbCircle
 10
334.974256
 20
352.960598
 40
0.5
100
AcDbArc
 50
270.0
 51
360.0
  0
ARC
  5
603
100
AcDbEntity
  8
M0
 62
     7
100
AcDbCircle
 10
285.374256
 20
405.046385
 40
1.0
100
AcDbArc
 50
0.0
 51
45.0
  0
ARC
  5
604
100
AcDbEntity
  8
M0
 62
     7
100
AcDbCircle
 10
334.974256
 20
379.160598
 40
0.5
100
AcDbArc
 50
0.0
 51
90.0
  0
LINE
  5
605
100
AcDbEntity
  8
M0
 62
     7
100
AcDbLine
 10
272.474256
 20
343.560598
 11
272.474256
 21
344.560598
  0
LINE
  5
606
100
AcDbEntity
  8
M0
 62
     7
100
AcDbLine
 10
272.474256
 20
344.560598
 11
272.474256
 21
345.960598
  0
LINE
  5
607
100
AcDbEntity
  8
M0
 62
     7
100
AcDbLine
 10
272.474256
 20
331.560598
 11
272.474256
 21
335.060598
  0
LINE
  5
608
100
AcDbEntity
  8
M0
 62
     7
100
AcDbLine
 10
282.974256
 20
330.560598
 11
272.474256
 21
330.560598
  0
LINE
  5
609
100
AcDbEntity
  8
M0
 62
     7
100
AcDbLine
 10
282.874256
 20
344.460598
 11
274.474256
 21
344.460598
  0
LINE
  5
60A
100
AcDbEntity
  8
M0
 62
     7
100
AcDbLine
 10
272.474256
 20
343.560598
 11
272.474256
 21
336.060598
  0
LINE
  5
60B
100
AcDbEntity
  8
M0
 62
     7
100
AcDbLine
 10
272.474256
 20
331.560598
 11
272.474256
 21
330.560598
  0
LINE
  5
60C
100
AcDbEntity
  8
M0
 62
     7
100
AcDbLine
 10
273.574256
 20
343.560598
 11
272.474256
 21
343.560598
  0
LINE
  5
60D
100
AcDbEntity
  8
M0
 62
     7
100
AcDbLine
 10
272.474256
 20
331.560598
 11
272.474256
 21
335.060598
  0
LINE
  5
60E
100
AcDbEntity
  8
M0
 62
     7
100
AcDbLine
 10
272.474256
 20
336.060598
 11
272.474256
 21
343.560598
  0
LINE
  5
60F
100
AcDbEntity
  8
M0
 62
     7
100
AcDbLine
 10
294.674256
 20
395.560598
 11
294.674256
 21
396.560598
  0
LINE
  5
610
100
AcDbEntity
  8
M0
 62
     7
100
AcDbLine
 10
296.174256
 20
396.560598
 11
296.174256
 21
395.560598
  0
LINE
  5
611
100
AcDbEntity
  8
M0
 62
     7
100
AcDbLine
 10
274.474256
 20
344.460598
 11
274.474256
 21
336.060598
  0
LINE
  5
612
100
AcDbEntity
  8
M0
 62
     7
100
AcDbLine
 10
272.474256
 20
330.560598
 11
272.474256
 21
331.560598
  0
LINE
  5
613
100
AcDbEntity
  8
M0
 62
     7
100
AcDbLine
 10
272.474256
 20
344.560598
 11
272.474256
 21
343.560598
  0
LINE
  5
614
100
AcDbEntity
  8
M0
 62
     7
100
AcDbLine
 10
272.474256
 20
335.060598
 11
272.474256
 21
336.060598
  0
LINE
  5
615
100
AcDbEntity
  8
M0
 62
     7
100
AcDbLine
 10
293.174256
 20
396.560598
 11
293.174256
 21
395.560598
  0
ARC
  5
616
100
AcDbEntity
  8
M0
 62
     7
100
AcDbCircle
 10
285.374256
 20
405.046385
 40
1.0
100
AcDbArc
 50
0.0
 51
45.0
  0
ARC
  5
617
100
AcDbEntity
  8
M0
 62
     7
100
AcDbCircle
 10
282.460042
 20
407.960598
 40
1.0
100
AcDbArc
 50
45.0
 51
90.0
  0
ARC
  5
618
100
AcDbEntity
  8
M0
 62
     7
100
AcDbCircle
 10
273.474256
 20
336.060598
 40
1.0
100
AcDbArc
 50
270.0
 51
360.0
  0
ARC
  5
619
100
AcDbEntity
  8
M0
 62
     7
100
AcDbCircle
 10
273.574256
 20
344.460598
 40
0.9
100
AcDbArc
 50
270.0
 51
360.0
  0
ARC
  5
61A
100
AcDbEntity
  8
M0
 62
     7
100
AcDbCircle
 10
272.074256
 20
370.760598
 40
0.6
100
AcDbArc
 50
90.0
 51
180.0
  0
ARC
  5
61B
100
AcDbEntity
  8
M0
 62
     7
100
AcDbCircle
 10
272.074256
 20
361.660598
 40
0.6
100
AcDbArc
 50
180.0
 51
270.0
  0
ARC
  5
61C
100
AcDbEntity
  8
M0
 62
     7
100
AcDbCircle
 10
280.960042
 20
409.460598
 40
1.0
100
AcDbArc
 50
45.0
 51
90.0
  0
ARC
  5
61D
100
AcDbEntity
  8
M0
 62
     7
100
AcDbCircle
 10
274.774256
 20
409.860598
 40
0.6
100
AcDbArc
 50
0.0
 51
90.0
  0
LINE
  5
61E
100
AcDbEntity
  8
M0
 62
     7
100
AcDbLine
 10
281.667149
 20
410.167705
 11
283.167149
 21
408.667705
  0
LINE
  5
61F
100
AcDbEntity
  8
M0
 62
     7
100
AcDbLine
 10
274.774256
 20
410.460598
 11
280.960042
 21
410.460598
  0
LINE
  5
620
100
AcDbEntity
  8
M0
 62
     7
100
AcDbLine
 10
283.167149
 20
408.667705
 11
286.081363
 21
405.753491
  0
LINE
  5
621
100
AcDbEntity
  8
M0
 62
     7
100
AcDbLine
 10
275.374256
 20
408.960598
 11
282.460042
 21
408.960598
  0
LINE
  5
622
100
AcDbEntity
  8
M0
 62
     7
100
AcDbLine
 10
272.074256
 20
371.360598
 11
272.474256
 21
371.360598
  0
LINE
  5
623
100
AcDbEntity
  8
M0
 62
     7
100
AcDbLine
 10
271.474256
 20
361.660598
 11
271.474256
 21
370.760598
  0
LINE
  5
624
100
AcDbEntity
  8
M0
 62
     7
100
AcDbLine
 10
275.374256
 20
409.860598
 11
275.374256
 21
408.853588
  0
LINE
  5
625
100
AcDbEntity
  8
M0
 62
     7
100
AcDbLine
 10
272.074256
 20
361.060598
 11
272.474256
 21
361.060598
  0
LINE
  5
626
100
AcDbEntity
  8
M0
 62
     7
100
AcDbLine
 10
339.974256
 20
336.410598
 11
339.974256
 21
334.210598
  0
LINE
  5
627
100
AcDbEntity
  8
M0
 62
     7
100
AcDbLine
 10
293.174256
 20
389.660598
 11
293.174256
 21
395.560598
  0
LINE
  5
628
100
AcDbEntity
  8
M0
 62
     7
100
AcDbLine
 10
339.674256
 20
394.210598
 11
339.674256
 21
393.760598
  0
LINE
  5
629
100
AcDbEntity
  8
M0
 62
     7
100
AcDbLine
 10
291.674256
 20
396.560598
 11
293.174256
 21
396.560598
  0
LINE
  5
62A
100
AcDbEntity
  8
M0
 62
     7
100
AcDbLine
 10
339.674256
 20
392.460598
 11
339.674256
 21
391.960598
  0
ARC
  5
62B
100
AcDbEntity
  8
M0
 62
     7
100
AcDbCircle
 10
286.760042
 20
336.060598
 40
1.0
100
AcDbArc
 50
270.0
 51
315.0
  0
LINE
  5
62C
100
AcDbEntity
  8
M0
 62
     7
100
AcDbLine
 10
311.174256
 20
389.660598
 11
312.674256
 21
389.660598
  0
LINE
  5
62D
100
AcDbEntity
  8
M0
 62
     7
100
AcDbLine
 10
339.674256
 20
336.260598
 11
339.674256
 21
336.410598
  0
LINE
  5
62E
100
AcDbEntity
  8
M0
 62
     7
100
AcDbLine
 10
336.474256
 20
350.060598
 11
336.474256
 21
349.060598
  0
LINE
  5
62F
100
AcDbEntity
  8
M0
 62
     7
100
AcDbLine
 10
336.474256
 20
350.560598
 11
337.174256
 21
350.560598
  0
LINE
  5
630
100
AcDbEntity
  8
M0
 62
     7
100
AcDbLine
 10
286.374256
 20
396.560598
 11
290.174256
 21
396.560598
  0
LINE
  5
631
100
AcDbEntity
  8
M0
 62
     7
100
AcDbLine
 10
299.174256
 20
396.560598
 11
299.174256
 21
395.560598
  0
LINE
  5
632
100
AcDbEntity
  8
M0
 62
     7
100
AcDbLine
 10
335.674256
 20
348.260598
 11
335.674256
 21
348.560598
  0
LINE
  5
633
100
AcDbEntity
  8
M0
 62
     7
100
AcDbLine
 10
339.200133
 20
348.258465
 11
337.614256
 21
350.060598
  0
LINE
  5
634
100
AcDbEntity
  8
M0
 62
     7
100
AcDbLine
 10
337.174256
 20
350.560598
 11
337.614256
 21
350.060598
  0
LINE
  5
635
100
AcDbEntity
  8
M0
 62
     7
100
AcDbLine
 10
294.674256
 20
396.560598
 11
296.174256
 21
396.560598
  0
LINE
  5
636
100
AcDbEntity
  8
M0
 62
     7
100
AcDbLine
 10
291.674256
 20
395.560598
 11
291.674256
 21
396.560598
  0
ARC
  5
637
100
AcDbEntity
  8
M0
 62
     7
100
AcDbCircle
 10
329.674256
 20
400.760598
 40
1.0
100
AcDbArc
 50
90.0
 51
180.0
  0
ARC
  5
638
100
AcDbEntity
  8
M0
 62
     7
100
AcDbCircle
 10
299.374256
 20
348.34437
 40
0.3
100
AcDbArc
 50
0.0
 51
90.0
  0
LINE
  5
639
100
AcDbEntity
  8
M0
 62
     7
100
AcDbLine
 10
290.174256
 20
396.560598
 11
290.174256
 21
395.560598
  0
LINE
  5
63A
100
AcDbEntity
  8
M0
 62
     7
100
AcDbLine
 10
272.474256
 20
336.060598
 11
272.474256
 21
335.060598
  0
LINE
  5
63B
100
AcDbEntity
  8
M0
 62
     7
100
AcDbLine
 10
336.474256
 20
350.060598
 11
336.474256
 21
350.560598
  0
LINE
  5
63C
100
AcDbEntity
  8
M0
 62
     7
100
AcDbLine
 10
297.674256
 20
395.560598
 11
297.674256
 21
396.560598
  0
ARC
  5
63D
100
AcDbEntity
  8
M0
 62
     7
100
AcDbCircle
 10
336.174256
 20
331.060598
 40
0.5
100
AcDbArc
 50
180.0
 51
270.0
  0
ARC
  5
63E
100
AcDbEntity
  8
M0
 62
     7
100
AcDbCircle
 10
296.074256
 20
331.360598
 40
0.5
100
AcDbArc
 50
180.0
 51
270.0
  0
ARC
  5
63F
100
AcDbEntity
  8
M0
 62
     7
100
AcDbCircle
 10
282.974256
 20
331.560598
 40
1.0
100
AcDbArc
 50
270.0
 51
360.0
  0
ARC
  5
640
100
AcDbEntity
  8
M0
 62
     7
100
AcDbCircle
 10
336.174256
 20
348.560598
 40
0.5
100
AcDbArc
 50
90.0
 51
180.0
  0
ARC
  5
641
100
AcDbEntity
  8
M0
 62
     7
100
AcDbCircle
 10
299.374256
 20
383.776826
 40
0.3
100
AcDbArc
 50
270.0
 51
360.0
  0
ARC
  5
642
100
AcDbEntity
  8
M0
 62
     7
100
AcDbCircle
 10
299.374256
 20
380.300043
 40
0.3
100
AcDbArc
 50
0.0
 51
90.0
  0
ARC
  5
643
100
AcDbEntity
  8
M0
 62
     7
100
AcDbCircle
 10
299.374256
 20
351.821153
 40
0.3
100
AcDbArc
 50
270.0
 51
360.0
  0
ARC
  5
644
100
AcDbEntity
  8
M0
 62
     7
100
AcDbCircle
 10
280.960042
 20
409.460598
 40
1.0
100
AcDbArc
 50
45.0
 51
90.0
  0
LINE
  5
645
100
AcDbEntity
  8
M0
 62
     7
100
AcDbLine
 10
311.174256
 20
396.560598
 11
312.674256
 21
396.560598
  0
LINE
  5
646
100
AcDbEntity
  8
M0
 62
     7
100
AcDbLine
 10
314.174256
 20
396.560598
 11
315.674256
 21
396.560598
  0
LINE
  5
647
100
AcDbEntity
  8
M0
 62
     7
100
AcDbLine
 10
302.174256
 20
391.760598
 11
303.674256
 21
391.760598
  0
LINE
  5
648
100
AcDbEntity
  8
M0
 62
     7
100
AcDbLine
 10
299.174256
 20
391.760598
 11
300.674256
 21
391.760598
  0
LINE
  5
649
100
AcDbEntity
  8
M0
 62
     7
100
AcDbLine
 10
305.174256
 20
396.560598
 11
306.674256
 21
396.560598
  0
LINE
  5
64A
100
AcDbEntity
  8
M0
 62
     7
100
AcDbLine
 10
296.174256
 20
391.760598
 11
297.674256
 21
391.760598
  0
LINE
  5
64B
100
AcDbEntity
  8
M0
 62
     7
100
AcDbLine
 10
308.174256
 20
389.660598
 11
309.674256
 21
389.660598
  0
ARC
  5
64C
100
AcDbEntity
  8
M0
 62
     7
100
AcDbCircle
 10
336.236138
 20
346.118085
 40
2.316399
100
AcDbArc
 50
112.341791
 51
123.008287
  0
ARC
  5
64D
100
AcDbEntity
  8
M0
 62
     7
100
AcDbCircle
 10
329.674256
 20
332.260598
 40
1.0
100
AcDbArc
 50
180.0
 51
270.0
  0
ARC
  5
64E
100
AcDbEntity
  8
M0
 62
     7
100
AcDbCircle
 10
274.774256
 20
409.860598
 40
0.6
100
AcDbArc
 50
0.0
 51
90.0
  0
ARC
  5
64F
100
AcDbEntity
  8
M0
 62
     7
100
AcDbCircle
 10
274.374256
 20
387.960598
 40
1.0
100
AcDbArc
 50
0.0
 51
90.0
  0
LINE
  5
650
100
AcDbEntity
  8
M0
 62
     7
100
AcDbLine
 10
308.174256
 20
391.760598
 11
309.674256
 21
391.760598
  0
LINE
  5
651
100
AcDbEntity
  8
M0
 62
     7
100
AcDbLine
 10
305.174256
 20
391.760598
 11
306.674256
 21
391.760598
  0
ARC
  5
652
100
AcDbEntity
  8
M0
 62
     7
100
AcDbCircle
 10
335.794417
 20
385.163635
 40
1.374538
100
AcDbArc
 50
233.367407
 51
251.438337
  0
ELLIPSE
  5
653
100
AcDbEntity
  8
M0
 62
     7
100
AcDbEllipse
 10
277.665922
 20
384.360598
 11
-2.291667
 21
0.0
210
0.0
220
0.0
230
1.0
 40
0.436364
 41
4.71238898038469
 42
6.283185307179586
  0
ARC
  5
654
100
AcDbEntity
  8
M0
 62
     7
100
AcDbCircle
 10
263.874256
 20
407.460598
 40
3.0
100
AcDbArc
 50
90.0
 51
180.0
  0
LINE
  5
655
100
AcDbEntity
  8
M0
 62
     7
100
AcDbLine
 10
302.174256
 20
396.560598
 11
303.674256
 21
396.560598
  0
LINE
  5
656
100
AcDbEntity
  8
M0
 62
     7
100
AcDbLine
 10
312.674256
 20
395.060598
 11
311.174256
 21
395.060598
  0
LINE
  5
657
100
AcDbEntity
  8
M0
 62
     7
100
AcDbLine
 10
291.674256
 20
395.060598
 11
290.174256
 21
395.060598
  0
LINE
  5
658
100
AcDbEntity
  8
M0
 62
     7
100
AcDbLine
 10
294.674256
 20
395.060598
 11
293.174256
 21
395.060598
  0
LINE
  5
659
100
AcDbEntity
  8
M0
 62
     7
100
AcDbLine
 10
290.174256
 20
396.560598
 11
291.674256
 21
396.560598
  0
LINE
  5
65A
100
AcDbEntity
  8
M0
 62
     7
100
AcDbLine
 10
303.674256
 20
395.060598
 11
302.174256
 21
395.060598
  0
LINE
  5
65B
100
AcDbEntity
  8
M0
 62
     7
100
AcDbLine
 10
293.174256
 20
396.560598
 11
294.674256
 21
396.560598
  0
LINE
  5
65C
100
AcDbEntity
  8
M0
 62
     7
100
AcDbLine
 10
295.574256
 20
331.360598
 11
295.574256
 21
336.360598
  0
LINE
  5
65D
100
AcDbEntity
  8
M0
 62
     7
100
AcDbLine
 10
296.174256
 20
396.560598
 11
297.674256
 21
396.560598
  0
LINE
  5
65E
100
AcDbEntity
  8
M0
 62
     7
100
AcDbLine
 10
297.674256
 20
395.060598
 11
296.174256
 21
395.060598
  0
LINE
  5
65F
100
AcDbEntity
  8
M0
 62
     7
100
AcDbLine
 10
335.474256
 20
383.860598
 11
335.474256
 21
380.860598
  0
LINE
  5
660
100
AcDbEntity
  8
M0
 62
     7
100
AcDbLine
 10
306.674256
 20
395.060598
 11
305.174256
 21
395.060598
  0
LINE
  5
661
100
AcDbEntity
  8
M0
 62
     7
100
AcDbLine
 10
317.174256
 20
401.760598
 11
329.674256
 21
401.760598
  0
LINE
  5
662
100
AcDbEntity
  8
M0
 62
     7
100
AcDbLine
 10
300.674256
 20
395.060598
 11
299.174256
 21
395.060598
  0
LINE
  5
663
100
AcDbEntity
  8
M0
 62
     7
100
AcDbLine
 10
308.174256
 20
396.560598
 11
309.674256
 21
396.560598
  0
LINE
  5
664
100
AcDbEntity
  8
M0
 62
     7
100
AcDbLine
 10
309.674256
 20
395.060598
 11
308.174256
 21
395.060598
  0
LINE
  5
665
100
AcDbEntity
  8
M0
 62
     7
100
AcDbLine
 10
281.667149
 20
410.167705
 11
283.167149
 21
408.667705
  0
LINE
  5
666
100
AcDbEntity
  8
M0
 62
     7
100
AcDbLine
 10
308.174256
 20
396.560598
 11
306.674256
 21
396.560598
  0
LINE
  5
667
100
AcDbEntity
  8
M0
 62
     7
100
AcDbLine
 10
335.774256
 20
380.360598
 11
335.474256
 21
381.360598
  0
LINE
  5
668
100
AcDbEntity
  8
M0
 62
     7
100
AcDbLine
 10
335.774256
 20
380.360598
 11
335.774256
 21
379.860598
  0
LINE
  5
669
100
AcDbEntity
  8
M0
 62
     7
100
AcDbLine
 10
317.174256
 20
396.560598
 11
315.674256
 21
396.560598
  0
LINE
  5
66A
100
AcDbEntity
  8
M0
 62
     7
100
AcDbLine
 10
339.974256
 20
394.077087
 11
339.674256
 21
394.077087
  0
LINE
  5
66B
100
AcDbEntity
  8
M0
 62
     7
100
AcDbLine
 10
311.174256
 20
396.560598
 11
309.674256
 21
396.560598
  0
LINE
  5
66C
100
AcDbEntity
  8
M0
 62
     7
100
AcDbLine
 10
314.174256
 20
396.560598
 11
312.674256
 21
396.560598
  0
LINE
  5
66D
100
AcDbEntity
  8
M0
 62
     7
100
AcDbLine
 10
275.374256
 20
387.960598
 11
275.374256
 21
381.160598
  0
LINE
  5
66E
100
AcDbEntity
  8
M0
 62
     7
100
AcDbLine
 10
318.674256
 20
401.760598
 11
339.174256
 21
401.760598
  0
LINE
  5
66F
100
AcDbEntity
  8
M0
 62
     7
100
AcDbLine
 10
260.874256
 20
400.560598
 11
260.874256
 21
407.460598
  0
LINE
  5
670
100
AcDbEntity
  8
M0
 62
     7
100
AcDbLine
 10
275.374256
 20
409.860598
 11
275.374256
 21
387.960598
  0
LINE
  5
671
100
AcDbEntity
  8
M0
 62
     7
100
AcDbLine
 10
305.174256
 20
396.560598
 11
303.674256
 21
396.560598
  0
LINE
  5
672
100
AcDbEntity
  8
M0
 62
     7
100
AcDbLine
 10
302.174256
 20
396.560598
 11
300.674256
 21
396.560598
  0
LINE
  5
673
100
AcDbEntity
  8
M0
 62
     7
100
AcDbLine
 10
260.374256
 20
400.460598
 11
260.374256
 21
407.960598
  0
LINE
  5
674
100
AcDbEntity
  8
M0
 62
     7
100
AcDbLine
 10
331.974256
 20
401.760598
 11
339.174256
 21
401.760598
  0
LINE
  5
675
100
AcDbEntity
  8
M0
 62
     7
100
AcDbLine
 10
293.974256
 20
393.260598
 11
294.674256
 21
392.560598
  0
LINE
  5
676
100
AcDbEntity
  8
M0
 62
     7
100
AcDbLine
 10
290.174256
 20
393.260598
 11
291.674256
 21
393.260598
  0
LINE
  5
677
100
AcDbEntity
  8
M0
 62
     7
100
AcDbLine
 10
295.574256
 20
336.360598
 11
295.574256
 21
332.860598
  0
ARC
  5
678
100
AcDbEntity
  8
M0
 62
     7
100
AcDbCircle
 10
261.374256
 20
407.960598
 40
1.0
100
AcDbArc
 50
95.798093
 51
180.0
  0
LINE
  5
679
100
AcDbEntity
  8
M0
 62
     7
100
AcDbLine
 10
315.674256
 20
395.060598
 11
314.174256
 21
395.060598
  0
LINE
  5
67A
100
AcDbEntity
  8
M0
 62
     7
100
AcDbLine
 10
314.174256
 20
391.760598
 11
315.674256
 21
391.760598
  0
LINE
  5
67B
100
AcDbEntity
  8
M0
 62
     7
100
AcDbLine
 10
311.174256
 20
391.760598
 11
312.674256
 21
391.760598
  0
LINE
  5
67C
100
AcDbEntity
  8
M0
 62
     7
100
AcDbLine
 10
293.174256
 20
393.260598
 11
293.974256
 21
393.260598
  0
LINE
  5
67D
100
AcDbEntity
  8
M0
 62
     7
100
AcDbLine
 10
292.374307
 20
335.060598
 11
272.474256
 21
335.060598
  0
LINE
  5
67E
100
AcDbEntity
  8
M0
 62
     7
100
AcDbLine
 10
283.974256
 20
335.060598
 11
283.974256
 21
331.560598
  0
LINE
  5
67F
100
AcDbEntity
  8
M0
 62
     7
100
AcDbLine
 10
328.674256
 20
335.060598
 11
307.674256
 21
335.060598
  0
LINE
  5
680
100
AcDbEntity
  8
M0
 62
     7
100
AcDbLine
 10
317.174256
 20
396.560598
 11
317.174256
 21
401.760598
  0
LINE
  5
681
100
AcDbEntity
  8
M0
 62
     7
100
AcDbLine
 10
339.974256
 20
387.410598
 11
339.674256
 21
387.410598
  0
LINE
  5
682
100
AcDbEntity
  8
M0
 62
     7
100
AcDbLine
 10
336.474256
 20
382.360598
 11
336.474256
 21
383.860598
  0
LINE
  5
683
100
AcDbEntity
  8
M0
 62
     7
100
AcDbLine
 10
299.174256
 20
396.560598
 11
300.674256
 21
396.560598
  0
LINE
  5
684
100
AcDbEntity
  8
M0
 62
     7
100
AcDbLine
 10
328.674256
 20
332.260598
 11
328.674256
 21
336.260598
  0
LINE
  5
685
100
AcDbEntity
  8
M0
 62
     7
100
AcDbLine
 10
339.974256
 20
346.510598
 11
339.674256
 21
346.510598
  0
LINE
  5
686
100
AcDbEntity
  8
M0
 62
     7
100
AcDbLine
 10
314.174256
 20
396.560598
 11
314.174256
 21
395.560598
  0
LINE
  5
687
100
AcDbEntity
  8
M0
 62
     7
100
AcDbLine
 10
339.674256
 20
392.460598
 11
339.674256
 21
393.760598
  0
LINE
  5
688
100
AcDbEntity
  8
M0
 62
     7
100
AcDbLine
 10
335.474256
 20
377.860598
 11
335.774256
 21
378.360598
  0
LINE
  5
689
100
AcDbEntity
  8
M0
 62
     7
100
AcDbLine
 10
312.674256
 20
395.560598
 11
312.674256
 21
396.560598
  0
ARC
  5
68A
100
AcDbEntity
  8
M0
 62
     7
100
AcDbCircle
 10
339.174256
 20
331.760598
 40
0.5
100
AcDbArc
 50
270.0
 51
360.0
  0
ARC
  5
68B
100
AcDbEntity
  8
M0
 62
     7
100
AcDbCircle
 10
339.174256
 20
384.360598
 40
0.5
100
AcDbArc
 50
270.0
 51
360.0
  0
LINE
  5
68C
100
AcDbEntity
  8
M0
 62
     7
100
AcDbLine
 10
339.674256
 20
401.310598
 11
339.674256
 21
381.860598
  0
ARC
  5
68D
100
AcDbEntity
  8
M0
 62
     7
100
AcDbCircle
 10
339.174256
 20
381.860598
 40
0.5
100
AcDbArc
 50
270.0
 51
360.0
  0
LINE
  5
68E
100
AcDbEntity
  8
M0
 62
     7
100
AcDbLine
 10
295.074256
 20
346.760598
 11
283.874256
 21
346.760598
  0
LINE
  5
68F
100
AcDbEntity
  8
M0
 62
     7
100
AcDbLine
 10
335.374256
 20
348.260598
 11
339.174256
 21
348.260598
  0
ARC
  5
690
100
AcDbEntity
  8
M0
 62
     7
100
AcDbCircle
 10
282.460042
 20
407.960598
 40
1.0
100
AcDbArc
 50
45.0
 51
90.0
  0
LINE
  5
691
100
AcDbEntity
  8
M0
 62
     7
100
AcDbLine
 10
283.167149
 20
408.667705
 11
286.081363
 21
405.753491
  0
LINE
  5
692
100
AcDbEntity
  8
M0
 62
     7
100
AcDbLine
 10
335.774256
 20
379.860598
 11
335.474256
 21
379.860598
  0
LINE
  5
693
100
AcDbEntity
  8
M0
 62
     7
100
AcDbLine
 10
337.674256
 20
349.060598
 11
337.674256
 21
348.560598
  0
LINE
  5
694
100
AcDbEntity
  8
M0
 62
     7
100
AcDbLine
 10
299.674256
 20
379.660598
 11
334.974256
 21
379.660598
  0
LINE
  5
695
100
AcDbEntity
  8
M0
 62
     7
100
AcDbLine
 10
299.374256
 20
380.600043
 11
283.874256
 21
380.600043
  0
LINE
  5
696
100
AcDbEntity
  8
M0
 62
     7
100
AcDbLine
 10
337.674256
 20
348.560598
 11
337.674256
 21
348.260598
  0
LINE
  5
697
100
AcDbEntity
  8
M0
 62
     7
100
AcDbLine
 10
279.874256
 20
381.160598
 11
279.874256
 21
384.860598
  0
LINE
  5
698
100
AcDbEntity
  8
M0
 62
     7
100
AcDbLine
 10
339.374256
 20
330.560598
 11
336.174256
 21
330.560598
  0
LINE
  5
699
100
AcDbEntity
  8
M0
 62
     7
100
AcDbLine
 10
328.674256
 20
336.360598
 11
307.674256
 21
336.360598
  0
LINE
  5
69A
100
AcDbEntity
  8
M0
 62
     7
100
AcDbLine
 10
329.674256
 20
331.260598
 11
339.174256
 21
331.260598
  0
LINE
  5
69B
100
AcDbEntity
  8
M0
 62
     7
100
AcDbLine
 10
339.974256
 20
401.310598
 11
339.974256
 21
387.410598
  0
LINE
  5
69C
100
AcDbEntity
  8
M0
 62
     7
100
AcDbLine
 10
339.674256
 20
334.210598
 11
339.974256
 21
334.210598
  0
LINE
  5
69D
100
AcDbEntity
  8
M0
 62
     7
100
AcDbLine
 10
328.674256
 20
385.360598
 11
328.674256
 21
400.760598
  0
LINE
  5
69E
100
AcDbEntity
  8
M0
 62
     7
100
AcDbLine
 10
329.674256
 20
401.760598
 11
339.176762
 21
401.760598
  0
LINE
  5
69F
100
AcDbEntity
  8
M0
 62
     7
100
AcDbLine
 10
315.674256
 20
396.560598
 11
328.674256
 21
396.560598
  0
LINE
  5
6A0
100
AcDbEntity
  8
M0
 62
     7
100
AcDbLine
 10
335.474256
 20
383.860598
 11
335.474256
 21
380.410989
  0
LINE
  5
6A1
100
AcDbEntity
  8
M0
 62
     7
100
AcDbLine
 10
303.674256
 20
395.560598
 11
303.674256
 21
396.560598
  0
LINE
  5
6A2
100
AcDbEntity
  8
M0
 62
     7
100
AcDbLine
 10
306.674256
 20
396.560598
 11
308.174256
 21
396.560598
  0
LINE
  5
6A3
100
AcDbEntity
  8
M0
 62
     7
100
AcDbLine
 10
335.474256
 20
380.410989
 11
335.474256
 21
379.160598
  0
LINE
  5
6A4
100
AcDbEntity
  8
M0
 62
     7
100
AcDbLine
 10
335.474256
 20
352.960598
 11
335.474256
 21
350.800366
  0
LINE
  5
6A5
100
AcDbEntity
  8
M0
 62
     7
100
AcDbLine
 10
339.174256
 20
383.860598
 11
335.374256
 21
383.860598
  0
LINE
  5
6A6
100
AcDbEntity
  8
M0
 62
     7
100
AcDbLine
 10
339.674256
 20
384.560598
 11
339.674256
 21
384.360598
  0
LINE
  5
6A7
100
AcDbEntity
  8
M0
 62
     7
100
AcDbLine
 10
311.174256
 20
396.560598
 11
311.174256
 21
395.560598
  0
LINE
  5
6A8
100
AcDbEntity
  8
M0
 62
     7
100
AcDbLine
 10
302.174256
 20
396.560598
 11
302.174256
 21
395.560598
  0
LINE
  5
6A9
100
AcDbEntity
  8
M0
 62
     7
100
AcDbLine
 10
307.174256
 20
330.860598
 11
296.074256
 21
330.860598
  0
LINE
  5
6AA
100
AcDbEntity
  8
M0
 62
     7
100
AcDbLine
 10
303.674256
 20
396.560598
 11
305.174256
 21
396.560598
  0
LINE
  5
6AB
100
AcDbEntity
  8
M0
 62
     7
100
AcDbLine
 10
315.674256
 20
395.560598
 11
315.674256
 21
396.560598
  0
LINE
  5
6AC
100
AcDbEntity
  8
M0
 62
     7
100
AcDbLine
 10
305.174256
 20
396.560598
 11
305.174256
 21
395.560598
  0
LINE
  5
6AD
100
AcDbEntity
  8
M0
 62
     7
100
AcDbLine
 10
312.674256
 20
396.560598
 11
314.174256
 21
396.560598
  0
LINE
  5
6AE
100
AcDbEntity
  8
M0
 62
     7
100
AcDbLine
 10
308.174256
 20
396.560598
 11
308.174256
 21
395.560598
  0
LINE
  5
6AF
100
AcDbEntity
  8
M0
 62
     7
100
AcDbLine
 10
306.674256
 20
389.660598
 11
306.674256
 21
395.560598
  0
LINE
  5
6B0
100
AcDbEntity
  8
M0
 62
     7
100
AcDbLine
 10
339.174256
 20
381.360598
 11
337.474256
 21
381.360598
  0
LINE
  5
6B1
100
AcDbEntity
  8
M0
 62
     7
100
AcDbLine
 10
288.474256
 20
336.360598
 11
287.467149
 21
335.353491
  0
LINE
  5
6B2
100
AcDbEntity
  8
M0
 62
     7
100
AcDbLine
 10
286.374256
 20
405.046385
 11
286.374256
 21
385.360598
  0
LINE
  5
6B3
100
AcDbEntity
  8
M0
 62
     7
100
AcDbLine
 10
339.674256
 20
347.760598
 11
339.674256
 21
347.560598
  0
LINE
  5
6B4
100
AcDbEntity
  8
M0
 62
     7
100
AcDbLine
 10
295.574256
 20
336.360598
 11
288.474256
 21
336.360598
  0
LINE
  5
6B5
100
AcDbEntity
  8
M0
 62
     7
100
AcDbLine
 10
337.474256
 20
381.360598
 11
336.974256
 21
381.860598
  0
LINE
  5
6B6
100
AcDbEntity
  8
M0
 62
     7
100
AcDbLine
 10
336.474256
 20
382.360598
 11
336.974256
 21
381.860598
  0
LINE
  5
6B7
100
AcDbEntity
  8
M0
 62
     7
100
AcDbLine
 10
306.674256
 20
395.560598
 11
306.674256
 21
396.560598
  0
LINE
  5
6B8
100
AcDbEntity
  8
M0
 62
     7
100
AcDbLine
 10
309.674256
 20
395.560598
 11
309.674256
 21
396.560598
  0
LINE
  5
6B9
100
AcDbEntity
  8
M0
 62
     7
100
AcDbLine
 10
277.665922
 20
385.360598
 11
282.374256
 21
385.360598
  0
LINE
  5
6BA
100
AcDbEntity
  8
M0
 62
     7
100
AcDbLine
 10
335.474256
 20
350.800366
 11
335.474256
 21
348.260598
  0
LINE
  5
6BB
100
AcDbEntity
  8
M0
 62
     7
100
AcDbLine
 10
339.974256
 20
339.764222
 11
339.974256
 21
336.410598
  0
LINE
  5
6BC
100
AcDbEntity
  8
M0
 62
     7
100
AcDbLine
 10
335.774256
 20
379.860598
 11
335.774256
 21
378.360598
  0
LINE
  5
6BD
100
AcDbEntity
  8
M0
 62
     7
100
AcDbLine
 10
309.674256
 20
396.560598
 11
311.174256
 21
396.560598
  0
LINE
  5
6BE
100
AcDbEntity
  8
M0
 62
     7
100
AcDbLine
 10
339.974256
 20
346.510598
 11
339.974256
 21
339.764222
  0
LINE
  5
6BF
100
AcDbEntity
  8
M0
 62
     7
100
AcDbLine
 10
339.974256
 20
339.764222
 11
339.674256
 21
339.764222
  0
LINE
  5
6C0
100
AcDbEntity
  8
M0
 62
     7
100
AcDbLine
 10
266.074256
 20
400.460598
 11
266.174256
 21
400.460598
  0
LINE
  5
6C1
100
AcDbEntity
  8
M0
 62
     7
100
AcDbLine
 10
278.174256
 20
410.460598
 11
263.874256
 21
410.460598
  0
LINE
  5
6C2
100
AcDbEntity
  8
M0
 62
     7
100
AcDbLine
 10
266.174256
 20
396.960598
 11
266.074256
 21
396.960598
  0
LINE
  5
6C3
100
AcDbEntity
  8
M0
 62
     7
100
AcDbLine
 10
266.074256
 20
396.960598
 11
256.774256
 21
396.960598
  0
LINE
  5
6C4
100
AcDbEntity
  8
M0
 62
     7
100
AcDbLine
 10
265.074256
 20
397.960598
 11
265.074256
 21
399.460598
  0
LINE
  5
6C5
100
AcDbEntity
  8
M0
 62
     7
100
AcDbLine
 10
256.774256
 20
398.960598
 11
256.774256
 21
396.960598
  0
LINE
  5
6C6
100
AcDbEntity
  8
M0
 62
     7
100
AcDbLine
 10
266.074256
 20
400.460598
 11
260.374256
 21
400.460598
  0
LINE
  5
6C7
100
AcDbEntity
  8
M0
 62
     7
100
AcDbLine
 10
260.574256
 20
399.460598
 11
257.774256
 21
398.293931
  0
LINE
  5
6C8
100
AcDbEntity
  8
M0
 62
     7
100
AcDbLine
 10
265.074256
 20
399.460598
 11
260.574256
 21
399.460598
  0
LINE
  5
6C9
100
AcDbEntity
  8
M0
 62
     7
100
AcDbLine
 10
266.074256
 20
396.960598
 11
266.074256
 21
400.460598
  0
LINE
  5
6CA
100
AcDbEntity
  8
M0
 62
     7
100
AcDbLine
 10
257.774256
 20
397.960598
 11
265.074256
 21
397.960598
  0
LINE
  5
6CB
100
AcDbEntity
  8
M0
 62
     7
100
AcDbLine
 10
226.574256
 20
355.560598
 11
226.574256
 21
377.760598
  0
LINE
  5
6CC
100
AcDbEntity
  8
M0
 62
     7
100
AcDbLine
 10
246.837207
 20
331.860598
 11
246.874321
 21
332.338966
  0
LINE
  5
6CD
100
AcDbEntity
  8
M0
 62
     7
100
AcDbLine
 10
256.774256
 20
396.860598
 11
256.774256
 21
396.960598
  0
LINE
  5
6CE
100
AcDbEntity
  8
M0
 62
     7
100
AcDbLine
 10
259.774256
 20
363.460598
 11
261.274256
 21
363.460598
  0
LINE
  5
6CF
100
AcDbEntity
  8
M0
 62
     7
100
AcDbLine
 10
262.274256
 20
364.460598
 11
262.274256
 21
368.760598
  0
LINE
  5
6D0
100
AcDbEntity
  8
M0
 62
     7
100
AcDbLine
 10
272.474256
 20
361.060598
 11
272.474256
 21
330.560598
  0
LINE
  5
6D1
100
AcDbEntity
  8
M0
 62
     7
100
AcDbLine
 10
257.774256
 20
398.293931
 11
257.774256
 21
397.960598
  0
LINE
  5
6D2
100
AcDbEntity
  8
M0
 62
     7
100
AcDbLine
 10
256.474256
 20
330.560598
 11
249.94227
 21
330.979315
  0
LINE
  5
6D3
100
AcDbEntity
  8
M0
 62
     7
100
AcDbLine
 10
248.674256
 20
331.860598
 11
248.674256
 21
333.860598
  0
LINE
  5
6D4
100
AcDbEntity
  8
M0
 62
     7
100
AcDbLine
 10
272.474256
 20
330.560598
 11
256.474256
 21
330.560598
  0
LINE
  5
6D5
100
AcDbEntity
  8
M0
 62
     7
100
AcDbLine
 10
264.374256
 20
368.760598
 11
264.374256
 21
363.360598
  0
LINE
  5
6D6
100
AcDbEntity
  8
M0
 62
     7
100
AcDbLine
 10
258.274256
 20
368.260598
 11
258.274256
 21
363.860598
  0
LINE
  5
6D7
100
AcDbEntity
  8
M0
 62
     7
100
AcDbLine
 10
233.374256
 20
369.760598
 11
233.374256
 21
362.360598
  0
LINE
  5
6D8
100
AcDbEntity
  8
M0
 62
     7
100
AcDbLine
 10
258.774256
 20
363.360598
 11
271.474256
 21
363.360598
  0
LINE
  5
6D9
100
AcDbEntity
  8
M0
 62
     7
100
AcDbLine
 10
256.774256
 20
388.960598
 11
256.774256
 21
396.860598
  0
LINE
  5
6DA
100
AcDbEntity
  8
M0
 62
     7
100
AcDbLine
 10
272.474256
 20
335.060598
 11
255.774256
 21
335.060598
  0
LINE
  5
6DB
100
AcDbEntity
  8
M0
 62
     7
100
AcDbLine
 10
235.874256
 20
394.860598
 11
252.97693
 21
394.860598
  0
LINE
  5
6DC
100
AcDbEntity
  8
M0
 62
     7
100
AcDbLine
 10
255.240746
 20
393.829134
 11
255.638072
 21
393.372209
  0
LINE
  5
6DD
100
AcDbEntity
  8
M0
 62
     7
100
AcDbLine
 10
255.691878
 20
338.958706
 11
255.19626
 21
338.355703
  0
LINE
  5
6DE
100
AcDbEntity
  8
M0
 62
     7
100
AcDbLine
 10
256.374256
 20
343.560598
 11
256.374256
 21
340.863601
  0
LINE
  5
6DF
100
AcDbEntity
  8
M0
 62
     7
100
AcDbLine
 10
256.374256
 20
391.403673
 11
256.374256
 21
388.960598
  0
LINE
  5
6E0
100
AcDbEntity
  8
M0
 62
     7
100
AcDbLine
 10
248.674256
 20
394.860598
 11
248.674256
 21
397.260598
  0
LINE
  5
6E1
100
AcDbEntity
  8
M0
 62
     7
100
AcDbLine
 10
231.874256
 20
362.360598
 11
233.374256
 21
362.360598
  0
LINE
  5
6E2
100
AcDbEntity
  8
M0
 62
     7
100
AcDbLine
 10
252.878637
 20
337.260598
 11
235.874256
 21
337.260598
  0
LINE
  5
6E3
100
AcDbEntity
  8
M0
 62
     7
100
AcDbLine
 10
271.474256
 20
368.760598
 11
258.774256
 21
368.760598
  0
LINE
  5
6E4
100
AcDbEntity
  8
M0
 62
     7
100
AcDbLine
 10
272.474256
 20
330.560598
 11
272.474256
 21
331.560598
  0
LINE
  5
6E5
100
AcDbEntity
  8
M0
 62
     7
100
AcDbLine
 10
248.674256
 20
334.860598
 11
248.674256
 21
337.260598
  0
LINE
  5
6E6
100
AcDbEntity
  8
M0
 62
     7
100
AcDbLine
 10
253.674256
 20
396.860598
 11
256.774256
 21
396.860598
  0
LINE
  5
6E7
100
AcDbEntity
  8
M0
 62
     7
100
AcDbLine
 10
254.574256
 20
333.860598
 11
247.874321
 21
333.860598
  0
LINE
  5
6E8
100
AcDbEntity
  8
M0
 62
     7
100
AcDbLine
 10
232.374256
 20
362.360598
 11
232.374256
 21
369.760598
  0
LINE
  5
6E9
100
AcDbEntity
  8
M0
 62
     7
100
AcDbLine
 10
233.374256
 20
369.760598
 11
231.874256
 21
369.760598
  0
LINE
  5
6EA
100
AcDbEntity
  8
M0
 62
     7
100
AcDbLine
 10
230.874256
 20
342.260598
 11
230.874256
 21
389.860598
  0
LINE
  5
6EB
100
AcDbEntity
  8
M0
 62
     7
100
AcDbLine
 10
260.374256
 20
400.460598
 11
256.774256
 21
398.960598
  0
ARC
  5
6EC
100
AcDbEntity
  8
M0
  6
DASHED
 62
     7
100
AcDbCircle
 10
200.874256
 20
347.660592
 40
4.0
100
AcDbArc
 50
180.0
 51
270.0
  0
ARC
  5
6ED
100
AcDbEntity
  8
M0
 62
     7
100
AcDbCircle
 10
236.874256
 20
337.860598
 40
4.0
100
AcDbArc
 50
180.0
 51
270.0
  0
ARC
  5
6EE
100
AcDbEntity
  8
M0
  6
DASHED
 62
     7
100
AcDbCircle
 10
215.974256
 20
348.660592
 40
5.0
100
AcDbArc
 50
270.0
 51
360.0
  0
ARC
  5
6EF
100
AcDbEntity
  8
M0
  6
DASHED
 62
     7
100
AcDbCircle
 10
200.874256
 20
386.460592
 40
4.0
100
AcDbArc
 50
90.0
 51
180.0
  0
ARC
  5
6F0
100
AcDbEntity
  8
M0
  6
DASHED
 62
     7
100
AcDbCircle
 10
230.374256
 20
349.860598
 40
0.5
100
AcDbArc
 50
270.0
 51
360.0
  0
LINE
  5
6F1
100
AcDbEntity
  8
M0
  6
DASHED
 62
     7
100
AcDbLine
 10
215.974256
 20
343.660592
 11
200.874256
 21
343.660592
  0
LINE
  5
6F2
100
AcDbEntity
  8
M0
  6
DASHED
 62
     7
100
AcDbLine
 10
220.974256
 20
349.360598
 11
220.974256
 21
348.660592
  0
ARC
  5
6F3
100
AcDbEntity
  8
M0
 62
     7
100
AcDbCircle
 10
227.074256
 20
355.560598
 40
0.5
100
AcDbArc
 50
180.0
 51
270.0
  0
ARC
  5
6F4
100
AcDbEntity
  8
M0
 62
     7
100
AcDbCircle
 10
236.874256
 20
394.260598
 40
4.0
100
AcDbArc
 50
90.0
 51
180.0
  0
ARC
  5
6F5
100
AcDbEntity
  8
M0
 62
     7
100
AcDbCircle
 10
227.074256
 20
359.060598
 40
0.5
100
AcDbArc
 50
90.0
 51
180.0
  0
ARC
  5
6F6
100
AcDbEntity
  8
M0
  6
DASHED
 62
     7
100
AcDbCircle
 10
215.974256
 20
385.460592
 40
5.0
100
AcDbArc
 50
0.0
 51
90.0
  0
LINE
  5
6F7
100
AcDbEntity
  8
M0
  6
DIVIDE
 62
     7
100
AcDbLine
 10
342.974256
 20
379.560598
 11
336.474256
 21
379.560598
  0
LINE
  5
6F8
100
AcDbEntity
  8
M0
  6
DIVIDE
 62
     7
100
AcDbLine
 10
342.974256
 20
352.560598
 11
342.974256
 21
379.560598
  0
LINE
  5
6F9
100
AcDbEntity
  8
M0
  6
DIVIDE
 62
     7
100
AcDbLine
 10
341.974256
 20
378.560598
 11
335.474256
 21
378.560598
  0
LINE
  5
6FA
100
AcDbEntity
  8
M0
  6
DIVIDE
 62
     7
100
AcDbLine
 10
336.474256
 20
383.560598
 11
335.474256
 21
383.560598
  0
LINE
  5
6FB
100
AcDbEntity
  8
M0
  6
DIVIDE
 62
     7
100
AcDbLine
 10
336.474256
 20
383.560598
 11
336.474256
 21
379.560598
  0
LINE
  5
6FC
100
AcDbEntity
  8
M0
  6
DIVIDE
 62
     7
100
AcDbLine
 10
336.474256
 20
352.560598
 11
336.474256
 21
348.560598
  0
ARC
  5
6FD
100
AcDbEntity
  8
M0
  6
DASHED
 62
     7
100
AcDbCircle
 10
230.374256
 20
384.260586
 40
0.5
100
AcDbArc
 50
0.0
 51
90.0
  0
LINE
  5
6FE
100
AcDbEntity
  8
M0
  6
DIVIDE
 62
     7
100
AcDbLine
 10
342.974256
 20
352.560598
 11
336.474256
 21
352.560598
  0
LINE
  5
6FF
100
AcDbEntity
  8
M0
  6
DIVIDE
 62
     7
100
AcDbLine
 10
341.974256
 20
378.560598
 11
341.974256
 21
353.560598
  0
LINE
  5
700
100
AcDbEntity
  8
M0
  6
DIVIDE
 62
     7
100
AcDbLine
 10
341.974256
 20
353.560598
 11
335.474256
 21
353.560598
  0
LINE
  5
701
100
AcDbEntity
  8
M0
  6
DIVIDE
 62
     7
100
AcDbLine
 10
335.474256
 20
348.560598
 11
336.474256
 21
348.560598
  0
ELLIPSE
  5
702
100
AcDbEntity
  8
M0
 62
     7
100
AcDbEllipse
 10
227.074256
 20
370.867705
 11
0.5
 21
0.0
210
0.0
220
0.0
230
1.0
 40
0.414214
 41
3.141592653589793
 42
4.71238898038469
  0
ELLIPSE
  5
703
100
AcDbEntity
  8
M0
 62
     7
100
AcDbEllipse
 10
227.074256
 20
372.367705
 11
0.5
 21
0.0
210
0.0
220
0.0
230
1.0
 40
0.414214
 41
3.141592653589793
 42
4.71238898038469
  0
LINE
  5
704
100
AcDbEntity
  8
M0
 62
     7
100
AcDbLine
 10
258.774256
 20
368.760598
 11
258.774256
 21
364.460598
  0
LINE
  5
705
100
AcDbEntity
  8
M0
 62
     7
100
AcDbLine
 10
261.974256
 20
330.560598
 11
256.474256
 21
330.560598
  0
LINE
  5
706
100
AcDbEntity
  8
M0
 62
     7
100
AcDbLine
 10
227.074256
 20
355.060598
 11
228.074256
 21
355.060598
  0
ARC
  5
707
100
AcDbEntity
  8
M0
 62
     7
100
AcDbCircle
 10
259.774256
 20
364.460598
 40
1.0
100
AcDbArc
 50
180.0
 51
270.0
  0
ARC
  5
708
100
AcDbEntity
  8
M0
 62
     7
100
AcDbCircle
 10
227.074256
 20
377.760598
 40
0.5
100
AcDbArc
 50
90.0
 51
180.0
  0
ARC
  5
709
100
AcDbEntity
  8
M0
 62
     7
100
AcDbCircle
 10
261.274256
 20
364.460598
 40
1.0
100
AcDbArc
 50
270.0
 51
360.0
  0
LINE
  5
70A
100
AcDbEntity
  8
M0
  6
DASHED
 62
     7
100
AcDbLine
 10
195.274257
 20
368.360592
 11
195.274257
 21
365.560592
  0
LINE
  5
70B
100
AcDbEntity
  8
M0
  6
DASHED
 62
     7
100
AcDbLine
 10
215.974256
 20
390.460593
 11
200.874256
 21
390.460593
  0
LINE
  5
70C
100
AcDbEntity
  8
M0
  6
DASHED
 62
     7
100
AcDbLine
 10
220.974256
 20
384.760585
 11
220.974256
 21
385.460592
  0
LINE
  5
70D
100
AcDbEntity
  8
M0
  6
DASHED
 62
     7
100
AcDbLine
 10
228.774256
 20
384.760585
 11
228.774256
 21
386.760591
  0
LINE
  5
70E
100
AcDbEntity
  8
M0
  6
DASHED
 62
     7
100
AcDbLine
 10
228.774256
 20
386.760591
 11
229.174256
 21
386.760591
  0
LINE
  5
70F
100
AcDbEntity
  8
M0
  6
DASHED
 62
     7
100
AcDbLine
 10
229.174256
 20
386.760591
 11
229.774258
 21
384.760585
  0
LINE
  5
710
100
AcDbEntity
  8
M0
  6
DASHED
 62
     7
100
AcDbLine
 10
196.874256
 20
365.560592
 11
195.274257
 21
365.560592
  0
LINE
  5
711
100
AcDbEntity
  8
M0
  6
DASHED
 62
     7
100
AcDbLine
 10
195.274257
 20
368.360592
 11
196.874256
 21
368.360592
  0
LINE
  5
712
100
AcDbEntity
  8
M0
  6
DASHED
 62
     7
100
AcDbLine
 10
230.374256
 20
384.760585
 11
220.974256
 21
384.760585
  0
LINE
  5
713
100
AcDbEntity
  8
M0
  6
DASHED
 62
     7
100
AcDbLine
 10
196.874256
 20
347.660592
 11
196.874256
 21
386.460592
  0
LINE
  5
714
100
AcDbEntity
  8
M0
  6
DASHED
 62
     7
100
AcDbLine
 10
230.374257
 20
349.360598
 11
225.574255
 21
349.360598
  0
LINE
  5
715
100
AcDbEntity
  8
M0
 62
     7
100
AcDbLine
 10
267.074256
 20
379.060598
 11
267.074256
 21
396.960598
  0
LINE
  5
716
100
AcDbEntity
  8
M0
 62
     7
100
AcDbLine
 10
274.828006
 20
410.460598
 11
274.974256
 21
410.460598
  0
ARC
  5
717
100
AcDbEntity
  8
M0
 62
     7
100
AcDbCircle
 10
249.974256
 20
331.478291
 40
0.5
100
AcDbArc
 50
180.0
 51
266.332212
  0
LINE
  5
718
100
AcDbEntity
  8
M0
 62
     7
100
AcDbLine
 10
267.074256
 20
396.960598
 11
266.174256
 21
396.960598
  0
LINE
  5
719
100
AcDbEntity
  8
M0
 62
     7
100
AcDbLine
 10
260.574256
 20
400.560598
 11
266.174256
 21
400.560598
  0
LINE
  5
71A
100
AcDbEntity
  8
M0
 62
     7
100
AcDbLine
 10
266.174256
 20
396.960598
 11
266.174256
 21
400.560598
  0
ARC
  5
71B
100
AcDbEntity
  8
M0
 62
     7
100
AcDbCircle
 10
243.876962
 20
331.560598
 40
1.0
100
AcDbArc
 50
270.0
 51
331.699244
  0
LINE
  5
71C
100
AcDbEntity
  8
M0
 62
     7
100
AcDbLine
 10
275.974256
 20
408.960598
 11
279.260042
 21
408.960598
  0
LINE
  5
71D
100
AcDbEntity
  8
M0
 62
     7
100
AcDbLine
 10
260.574256
 20
400.560598
 11
260.374256
 21
400.560598
  0
LINE
  5
71E
100
AcDbEntity
  8
M0
 62
     7
100
AcDbLine
 10
249.474256
 20
331.860598
 11
247.874321
 21
331.860598
  0
LINE
  5
71F
100
AcDbEntity
  8
M0
 62
     7
100
AcDbLine
 10
256.474256
 20
330.560598
 11
249.94227
 21
330.979315
  0
LINE
  5
720
100
AcDbEntity
  8
M0
 62
     7
100
AcDbLine
 10
245.012717
 20
331.560598
 11
244.757433
 21
331.086498
  0
LINE
  5
721
100
AcDbEntity
  8
M0
 62
     7
100
AcDbLine
 10
242.90997
 20
330.560598
 11
239.374256
 21
333.860598
  0
LINE
  5
722
100
AcDbEntity
  8
M0
 62
     7
100
AcDbLine
 10
249.474256
 20
331.478291
 11
249.474256
 21
331.860598
  0
LINE
  5
723
100
AcDbEntity
  8
M0
 62
     7
100
AcDbLine
 10
245.174256
 20
331.860598
 11
245.012717
 21
331.560598
  0
LINE
  5
724
100
AcDbEntity
  8
M0
 62
     7
100
AcDbLine
 10
248.674256
 20
333.860598
 11
248.674256
 21
334.860598
  0
LINE
  5
725
100
AcDbEntity
  8
M0
 62
     7
100
AcDbLine
 10
246.882051
 20
334.860598
 11
246.775558
 21
333.860598
  0
LINE
  5
726
100
AcDbEntity
  8
M0
 62
     7
100
AcDbLine
 10
221.574256
 20
391.860598
 11
221.574256
 21
410.060598
  0
LINE
  5
727
100
AcDbEntity
  8
M0
 62
     7
100
AcDbLine
 10
243.876962
 20
330.560598
 11
242.90997
 21
330.560598
  0
LINE
  5
728
100
AcDbEntity
  8
M0
 62
     7
100
AcDbLine
 10
246.882051
 20
334.860598
 11
246.775558
 21
333.860598
  0
LINE
  5
729
100
AcDbEntity
  8
M0
 62
     7
100
AcDbLine
 10
232.874256
 20
393.860598
 11
232.874256
 21
394.260598
  0
ARC
  5
72A
100
AcDbEntity
  8
M0
 62
     7
100
AcDbCircle
 10
267.574256
 20
379.060598
 40
0.5
100
AcDbArc
 50
180.0
 51
270.0
  0
ARC
  5
72B
100
AcDbEntity
  8
M0
 62
     7
100
AcDbCircle
 10
252.878637
 20
340.260598
 40
3.0
100
AcDbArc
 50
270.0
 51
320.582606
  0
ARC
  5
72C
100
AcDbEntity
  8
M0
 62
     7
100
AcDbCircle
 10
271.974256
 20
378.060598
 40
0.5
100
AcDbArc
 50
0.0
 51
90.0
  0
LINE
  5
72D
100
AcDbEntity
  8
M0
 62
     7
100
AcDbLine
 10
247.137634
 20
394.860598
 11
246.882051
 21
397.260598
  0
LINE
  5
72E
100
AcDbEntity
  8
M0
 62
     7
100
AcDbLine
 10
246.775558
 20
398.260598
 11
246.882051
 21
397.260598
  0
LINE
  5
72F
100
AcDbEntity
  8
M0
 62
     7
100
AcDbLine
 10
252.274256
 20
398.260598
 11
253.674256
 21
396.860598
  0
LINE
  5
730
100
AcDbEntity
  8
M0
 62
     7
100
AcDbLine
 10
246.775558
 20
398.260598
 11
248.674256
 21
398.260598
  0
ARC
  5
731
100
AcDbEntity
  8
M0
 62
     7
100
AcDbCircle
 10
235.874256
 20
342.260598
 40
5.0
100
AcDbArc
 50
180.0
 51
270.0
  0
ARC
  5
732
100
AcDbEntity
  8
M0
 62
     7
100
AcDbCircle
 10
258.774256
 20
363.860598
 40
0.5
100
AcDbArc
 50
180.0
 51
270.0
  0
ARC
  5
733
100
AcDbEntity
  8
M0
 62
     7
100
AcDbCircle
 10
235.874256
 20
389.860598
 40
5.0
100
AcDbArc
 50
90.0
 51
180.0
  0
ARC
  5
734
100
AcDbEntity
  8
M0
 62
     7
100
AcDbCircle
 10
258.774256
 20
368.260598
 40
0.5
100
AcDbArc
 50
90.0
 51
180.0
  0
LINE
  5
735
100
AcDbEntity
  8
M0
 62
     7
100
AcDbLine
 10
272.474256
 20
377.960598
 11
272.474256
 21
371.560598
  0
LINE
  5
736
100
AcDbEntity
  8
M0
 62
     7
100
AcDbLine
 10
232.874256
 20
337.860598
 11
232.874256
 21
338.260598
  0
ARC
  5
737
100
AcDbEntity
  8
M0
 62
     7
100
AcDbCircle
 10
253.374256
 20
391.403673
 40
3.0
100
AcDbArc
 50
0.0
 51
41.009087
  0
ARC
  5
738
100
AcDbEntity
  8
M0
 62
     7
100
AcDbCircle
 10
252.97693
 20
391.860598
 40
3.0
100
AcDbArc
 50
41.009087
 51
90.0
  0
ARC
  5
739
100
AcDbEntity
  8
M0
 62
     7
100
AcDbCircle
 10
253.374256
 20
340.863601
 40
3.0
100
AcDbArc
 50
320.582606
 51
360.0
  0
ARC
  5
73A
100
AcDbEntity
  8
M0
 62
     7
100
AcDbCircle
 10
231.874256
 20
361.360598
 40
1.0
100
AcDbArc
 50
90.0
 51
180.0
  0
ARC
  5
73B
100
AcDbEntity
  8
M0
 62
     7
100
AcDbCircle
 10
231.874256
 20
370.760598
 40
1.0
100
AcDbArc
 50
180.0
 51
270.0
  0
LINE
  5
73C
100
AcDbEntity
  8
M0
  6
DASHED
 62
     7
100
AcDbLine
 10
230.374257
 20
349.360598
 11
220.974256
 21
349.360598
  0
LINE
  5
73D
100
AcDbEntity
  8
M0
 62
     7
100
AcDbLine
 10
256.374256
 20
388.960598
 11
274.374256
 21
388.960598
  0
LINE
  5
73E
100
AcDbEntity
  8
M0
 62
     7
100
AcDbLine
 10
260.374256
 20
400.460598
 11
260.374256
 21
400.560598
  0
ARC
  5
73F
100
AcDbEntity
  8
M0
 62
     7
100
AcDbCircle
 10
271.474256
 20
387.960598
 40
1.0
100
AcDbArc
 50
0.0
 51
90.0
  0
LINE
  5
740
100
AcDbEntity
  8
M0
 62
     7
100
AcDbLine
 10
279.874256
 20
345.960598
 11
272.474256
 21
345.960598
  0
LINE
  5
741
100
AcDbEntity
  8
M0
 62
     7
100
AcDbLine
 10
279.874256
 20
350.960598
 11
272.474256
 21
350.960598
  0
LINE
  5
742
100
AcDbEntity
  8
M0
 62
     7
100
AcDbLine
 10
272.474256
 20
381.160598
 11
279.874256
 21
381.160598
  0
LINE
  5
743
100
AcDbEntity
  8
M0
 62
     7
100
AcDbLine
 10
272.474256
 20
381.160598
 11
272.474256
 21
387.960598
  0
LINE
  5
744
100
AcDbEntity
  8
M0
 62
     7
100
AcDbLine
 10
272.474256
 20
371.360598
 11
272.474256
 21
378.060598
  0
LINE
  5
745
100
AcDbEntity
  8
M0
 62
     7
100
AcDbLine
 10
272.474256
 20
343.560598
 11
256.374256
 21
343.560598
  0
LINE
  5
746
100
AcDbEntity
  8
M0
 62
     7
100
AcDbLine
 10
271.974256
 20
378.560598
 11
267.574256
 21
378.560598
  0
LINE
  5
747
100
AcDbEntity
  8
M0
 62
     7
100
AcDbLine
 10
248.674256
 20
397.260598
 11
248.674256
 21
398.260598
  0
LINE
  5
748
100
AcDbEntity
  8
M0
 62
     7
100
AcDbLine
 10
230.874256
 20
355.060598
 11
227.074256
 21
355.060598
  0
LINE
  5
749
100
AcDbEntity
  8
M0
 62
     7
100
AcDbLine
 10
228.574256
 20
378.260598
 11
228.574256
 21
370.660598
  0
LINE
  5
74A
100
AcDbEntity
  8
M0
 62
     7
100
AcDbLine
 10
228.574256
 20
359.560598
 11
228.574256
 21
355.060598
  0
LINE
  5
74B
100
AcDbEntity
  8
M0
 62
     7
100
AcDbLine
 10
228.574256
 20
372.160598
 11
227.074256
 21
372.160598
  0
LINE
  5
74C
100
AcDbEntity
  8
M0
 62
     7
100
AcDbLine
 10
227.074256
 20
370.660598
 11
228.574256
 21
370.660598
  0
LINE
  5
74D
100
AcDbEntity
  8
M0
 62
     7
100
AcDbLine
 10
255.774256
 20
335.060598
 11
254.574256
 21
333.860598
  0
LINE
  5
74E
100
AcDbEntity
  8
M0
 62
     7
100
AcDbLine
 10
248.674256
 20
398.260598
 11
252.274256
 21
398.260598
  0
LINE
  5
74F
100
AcDbEntity
  8
M0
 62
     7
100
AcDbLine
 10
248.674256
 20
333.860598
 11
248.674256
 21
334.860598
  0
LINE
  5
750
100
AcDbEntity
  8
M0
 62
     7
100
AcDbLine
 10
227.074256
 20
378.260598
 11
230.874256
 21
378.260598
  0
LINE
  5
751
100
AcDbEntity
  8
M0
 62
     7
100
AcDbLine
 10
227.074256
 20
359.560598
 11
228.574256
 21
359.560598
  0
LINE
  5
752
100
AcDbEntity
  8
M0
 62
     7
100
AcDbLine
 10
236.874256
 20
398.260598
 11
246.775558
 21
398.260598
  0
LINE
  5
753
100
AcDbEntity
  8
M0
 62
     7
100
AcDbLine
 10
246.874321
 20
331.860598
 11
245.174256
 21
331.860598
  0
LINE
  5
754
100
AcDbEntity
  8
M0
 62
     7
100
AcDbLine
 10
246.874321
 20
333.860598
 11
236.874256
 21
333.860598
  0
HATCH
  5
755
100
AcDbEntity
  8
M0
 62
     7
100
AcDbHatch
 10
0.0
 20
0.0
210
0.0
220
0.0
230
1.0
  2
SOLID
 70
     1
 71
     0
 91
        1
 92
        1
 93
        4
 72
     1
 10
221.574256
 20
410.060598
 11
219.574256
 21
410.060598
 72
     1
 10
219.574256
 20
410.060598
 11
219.574256
 21
391.860598
 72
     1
 10
219.574256
 20
391.860598
 11
221.574256
 21
391.860598
 72
     1
 10
221.574256
 20
391.860598
 11
221.574256
 21
410.060598
 97
        0
 75
     0
 76
     1
 98
        1
 10
0.0
 20
0.0
  0
CIRCLE
  5
758
100
AcDbEntity
  8
M0
100
AcDbCircle
 10
121.489189
 20
146.036603
 40
1.7
  0
CIRCLE
  5
759
100
AcDbEntity
  8
M0
100
AcDbCircle
 10
88.489195
 20
201.036588
 40
1.7
  0
CIRCLE
  5
75A
100
AcDbEntity
  8
M0
100
AcDbCircle
 10
121.489203
 20
146.036603
 40
2.0
  0
LINE
  5
75B
100
AcDbEntity
  8
M0
  6
DASHDOT
100
AcDbLine
 10
126.0866
 20
146.036603
 11
116.891791
 21
146.036603
  0
LINE
  5
75C
100
AcDbEntity
  8
M0
  6
DASHDOT
100
AcDbLine
 10
121.489188
 20
150.634
 11
121.48919
 21
141.571478
  0
CIRCLE
  5
75D
100
AcDbEntity
  8
M0
100
AcDbCircle
 10
88.489203
 20
201.036588
 40
2.0
  0
LINE
  5
75E
100
AcDbEntity
  8
M0
  6
DASHDOT
100
AcDbLine
 10
92.5866
 20
201.036588
 11
84.391791
 21
201.036588
  0
LINE
  5
75F
100
AcDbEntity
  8
M0
  6
DASHDOT
100
AcDbLine
 10
88.489188
 20
205.133985
 11
88.489203
 21
196.939176
  0
LINE
  5
760
100
AcDbEntity
  8
M0
  6
DIVIDE
100
AcDbLine
 10
127.489189
 20
207.836603
 11
127.489189
 21
199.936603
  0
LINE
  5
761
100
AcDbEntity
  8
M0
  6
DIVIDE
100
AcDbLine
 10
88.989189
 20
206.636603
 11
88.989189
 21
206.536603
  0
LINE
  5
762
100
AcDbEntity
  8
M0
  6
DIVIDE
100
AcDbLine
 10
88.989189
 20
206.011541
 11
88.989189
 21
213.536603
  0
ARC
  5
763
100
AcDbEntity
  8
M0
  6
DIVIDE
100
AcDbCircle
 10
89.589189
 20
215.936603
 40
0.6
100
AcDbArc
 50
90.0
 51
180.0
  0
LINE
  5
764
100
AcDbEntity
  8
M0
  6
DIVIDE
100
AcDbLine
 10
88.989189
 20
215.936603
 11
88.989189
 21
213.536603
  0
LINE
  5
765
100
AcDbEntity
  8
M0
  6
DIVIDE
100
AcDbLine
 10
122.989189
 20
207.836603
 11
122.989189
 21
216.536603
  0
LINE
  5
766
100
AcDbEntity
  8
M0
  6
DIVIDE
100
AcDbLine
 10
89.589189
 20
216.536603
 11
122.989189
 21
216.536603
  0
LINE
  5
767
100
AcDbEntity
  8
M0
  6
DIVIDE
100
AcDbLine
 10
127.489189
 20
176.836603
 11
127.489189
 21
167.436603
  0
LINE
  5
768
100
AcDbEntity
  8
M0
  6
DIVIDE
100
AcDbLine
 10
127.489189
 20
167.436603
 11
127.489189
 21
137.336603
  0
LINE
  5
769
100
AcDbEntity
  8
M0
  6
DIVIDE
100
AcDbLine
 10
127.489189
 20
195.936603
 11
127.489189
 21
176.836603
  0
LINE
  5
76A
100
AcDbEntity
  8
M0
  6
DIVIDE
100
AcDbLine
 10
127.489189
 20
199.936603
 11
127.489189
 21
195.936603
  0
LINE
  5
76B
100
AcDbEntity
  8
M0
  6
DIVIDE
100
AcDbLine
 10
129.163658
 20
81.036603
 11
84.163689
 21
81.036603
  0
LINE
  5
76C
100
AcDbEntity
  8
M0
  6
DIVIDE
100
AcDbLine
 10
84.163689
 20
81.036603
 11
84.163689
 21
206.011541
  0
LINE
  5
76D
100
AcDbEntity
  8
M0
  6
DIVIDE
100
AcDbLine
 10
129.163658
 20
81.036603
 11
129.163658
 21
137.336603
  0
LINE
  5
76E
100
AcDbEntity
  8
M0
  6
DIVIDE
100
AcDbLine
 10
127.489189
 20
207.836603
 11
122.989189
 21
207.836603
  0
LINE
  5
76F
100
AcDbEntity
  8
M0
  6
DIVIDE
100
AcDbLine
 10
88.989189
 20
206.011541
 11
84.163689
 21
206.011541
  0
LINE
  5
770
100
AcDbEntity
  8
M0
  6
DIVIDE
100
AcDbLine
 10
127.489189
 20
137.336603
 11
129.163658
 21
137.336603
  0
LINE
  5
771
100
AcDbEntity
  8
M1
 62
     2
100
AcDbLine
 10
18.181818
 20
18.181818
 11
18.181818
 21
518.181807
  0
LINE
  5
772
100
AcDbEntity
  8
M1
 62
     2
100
AcDbLine
 10
18.181818
 20
518.181807
 11
363.636356
 21
518.181807
  0
LINE
  5
773
100
AcDbEntity
  8
M1
 62
     2
100
AcDbLine
 10
363.636356
 20
518.181807
 11
363.636356
 21
18.181818
  0
LINE
  5
774
100
AcDbEntity
  8
M1
 62
     2
100
AcDbLine
 10
363.636356
 20
18.181818
 11
18.181818
 21
18.181818
  0
LINE
  5
775
100
AcDbEntity
  8
M1
 62
     2
100
AcDbLine
 10
363.636356
 20
36.363636
 11
181.818178
 21
36.363636
  0
LINE
  5
776
100
AcDbEntity
  8
M1
 62
     2
100
AcDbLine
 10
363.636356
 20
54.545453
 11
181.818178
 21
54.545453
  0
LINE
  5
777
100
AcDbEntity
  8
M1
 62
     2
100
AcDbLine
 10
363.636356
 20
72.727271
 11
181.818178
 21
72.727271
  0
LINE
  5
778
100
AcDbEntity
  8
M1
 62
     2
100
AcDbLine
 10
181.818178
 20
18.181818
 11
181.818178
 21
72.727271
  0
TEXT
  5
779
100
AcDbEntity
  8
M1
 62
     2
100
AcDbText
 10
186.363632
 20
22.727272
 40
9.090909
  1
適　用；
 41
1.0
  7
STANDARD
100
AcDbText
  0
TEXT
  5
77A
100
AcDbEntity
  8
M1
 62
     2
100
AcDbText
 10
186.363632
 20
59.090908
 40
9.090909
  1
登録名：
 41
1.0
  7
STANDARD
100
AcDbText
  0
TEXT
  5
77B
100
AcDbEntity
  8
M1
 62
     2
100
AcDbText
 10
229.999995
 20
59.090908
 40
9.090909
  1
ＤＭＨＳ１０ＴＧＲ００
 41
0.5
  7
STANDARD
100
AcDbText
  0
TEXT
  5
77C
100
AcDbEntity
  8
M1
 62
     2
100
AcDbText
 10
186.363632
 20
40.90909
 40
9.090909
  1
形　式；
 41
1.0
  7
STANDARD
100
AcDbText
  0
TEXT
  5
77D
100
AcDbEntity
  8
M1
 62
     2
100
AcDbText
 10
229.999995
 20
40.90909
 40
9.090909
  1
ＨＳ１０－ＴＧ
 41
0.5
  7
STANDARD
100
AcDbText
  0
LINE
  5
77E
100
AcDbEntity
  8
DN0
100
AcDbLine
 10
89.570431
 20
51.326192
 11
119.079529
 21
51.326192
  0
TEXT
  5
77F
100
AcDbEntity
  8
DN0
100
AcDbText
 10
90.385583
 20
52.053464
 40
7.272727
  1
せん孔図
 41
0.833333
  7
STANDARD
100
AcDbText
  0
ENDSEC
  0
SECTION
  2
OBJECTS
  0
DICTIONARY
  5
C
100
AcDbDictionary
  3
ACAD_GROUP
350
D
  3
ACAD_MLINESTYLE
350
E
  3
ACDBVARIABLEDICTIONARY
350
756
  0
DICTIONARY
  5
D
102
{ACAD_REACTORS
330
C
102
}
100
AcDbDictionary
  0
DICTIONARY
  5
E
102
{ACAD_REACTORS
330
C
102
}
100
AcDbDictionary
  3
STANDARD
350
13
  0
DICTIONARY
  5
756
102
{ACAD_REACTORS
330
C
102
}
100
AcDbDictionary
  3
SORTENTS
350
757
  0
MLINESTYLE
  5
13
102
{ACAD_REACTORS
330
E
102
}
100
AcDbMlineStyle
  2
STANDARD
 70
     0
  3

 62
     0
 51
90.0
 52
90.0
 71
     2
 49
0.5
 62
   256
  6
BYLAYER
 49
-0.5
 62
   256
  6
BYLAYER
  0
DICTIONARYVAR
  5
757
102
{ACAD_REACTORS
330
756
102
}
100
DictionaryVariables
280
     0
  1
96
  0
ENDSEC
  0
EOF
