  0
SECTION
  2
HEADER
  9
$ACADVER
  1
AC1014
  9
$INSBASE
 10
0.000000
 20
0.000000
 30
0.0
  9
$VIEWCTR
 10
7.531722
 20
4.5
  9
$VIEWSIZE
 40
9.0
  9
$SNAPMODE
 70
     0
  9
$SNAPUNIT
 10
1.0
 20
1.0
  9
$SNAPBASE
 10
0.0
 20
0.0
  9
$SNAPANG
 50
0.0
  9
$SNAPSTYLE
 70
     0
  9
$SNAPISOPAIR
 70
     0
  9
$GRIDMODE
 70
     0
  9
$GRIDUNIT
 10
0.0
 20
0.0
  9
$ORTHOMODE
 70
     0
  9
$REGENMODE
 70
     1
  9
$FILLMODE
 70
     1
  9
$QTEXTMODE
 70
     0
  9
$DRAGMODE
 70
     2
  9
$LTSCALE
  40
     1.000000
  9
$OSMODE
 70
     0
  9
$ATTMODE
 70
     1
  9
$TEXTSIZE
 40
0.2
  9
$TRACEWID
 40
0.05
  9
$TEXTSTYLE
  7
STANDARD
  9
$CELTYPE
  6
BYLAYER
  9
$CECOLOR
 62
   256
  9
$DIMSCALE
 40
1.0
  9
$DIMASZ
 40
0.18
  9
$DIMEXO
 40
0.0625
  9
$DIMDLI
 40
0.38
  9
$DIMRND
 40
0.0
  9
$DIMDLE
 40
0.0
  9
$DIMEXE
 40
0.18
  9
$DIMTP
 40
0.0
  9
$DIMTM
 40
0.0
  9
$DIMTXT
 40
0.18
  9
$DIMCEN
 40
0.09
  9
$DIMTSZ
 40
0.0
  9
$DIMTOL
 70
     0
  9
$DIMLIM
 70
     0
  9
$DIMTIH
 70
     1
  9
$DIMTOH
 70
     1
  9
$DIMSE1
 70
     0
  9
$DIMSE2
 70
     0
  9
$DIMTAD
 70
     0
  9
$DIMZIN
 70
     0
  9
$DIMBLK
  1

  9
$LUNITS
 70
     2
  9
$LUPREC
 70
     4
  9
$AXISMODE
 70
     0
  9
$AXISUNIT
 10
0.0
 20
0.0
  9
$SKETCHINC
 40
0.1
  9
$FILLETRAD
 40
0.0
  9
$AUNITS
 70
     0
  9
$AUPREC
 70
     0
  9
$MENU
  1
ACAD
  9
$ELEVATION
 40
0.0
  9
$THICKNESS
 40
0.0
  9
$VIEWDIR
 10
0.0
 20
0.0
 30
1.0
  9
$LIMCHECK
 70
     0
  9
$BLIPMODE
 70
     1
  9
$CHAMFERA
 40
0.0
  9
$CHAMFERB
 40
0.0
  9
$FASTZOOM
 70
     1
  9
$SKPOLY
 70
     0
  9
$TDCREATE
 40
0000000.0000000000
  9
$TDUPDATE
 40
0000000.0000000000
  9
$TDINDWG
 40
0.0000000000
  9
$TDUSRTIMER
 40
0.0000000000
  9
$USRTIMER
 70
     1
  9
$ANGBASE
 50
0.0
  9
$ANGDIR
 70
     0
  9
$PDMODE
 70
     0
  9
$PDSIZE
 40
0.0
  9
$PLINEWID
 40
0.0
  9
$COORDS
 70
     0
  9
$USERI1
 70
     0
  9
$USERI2
 70
     0
  9
$USERI3
 70
     0
  9
$USERI4
 70
     0
  9
$USERI5
 70
     0
  9
$USERR1
 40
0.0
  9
$USERR2
 40
0.0
  9
$USERR3
 40
0.0
  9
$USERR4
 40
0.0
  9
$USERR5
 40
0.0
  9
$CLAYER
  8
M0
  9
$EXTMIN
 10
71.428571
 20
71.428571
  9
$EXTMAX
 10
1428.571422
 20
2035.714277
  9
$LIMMIN
 10
0.0
 20
0.0
  9
$LIMMAX
 10
210.0
 20
297.0
  9
$HANDSEED
  5
7F1
  0
ENDSEC
  0
SECTION
  2
CLASSES
  0
ENDSEC
  0
SECTION
  2
TABLES
  0
TABLE
  2
VPORT
  5
8
100
AcDbSymbolTable
 70
     2
  0
VPORT
  5
14
100
AcDbSymbolTableRecord
100
AcDbViewportTableRecord
  2
*ACTIVE
 70
     0
 10
0.0
 20
0.0
 11
1.0
 21
1.0
 12
484.0
 22
297.0
 13
0.0
 23
0.0
 14
1.0
 24
1.0
 15
0.0
 25
0.0
 16
0.0
 26
0.0
 36
1.0
 17
0.0
 27
0.0
 37
0.0
 40
594.0
 41
2.0
 42
50.0
 43
0.0
 44
0.0
 50
0.0
 51
0.0
 71
     0
 72
   100
 73
     1
 74
     1
 75
     0
 76
     0
 77
     0
 78
     0
  0
ENDTAB
  0
TABLE
  2
LTYPE
  5
5
100
AcDbSymbolTable
 70
     5
  0
LTYPE
  5
15
100
AcDbSymbolTableRecord
100
AcDbLinetypeTableRecord
  2
BYBLOCK
 70
     0
  3

 72
    65
 73
     0
 40
0.0
  0
LTYPE
  5
16
100
AcDbSymbolTableRecord
100
AcDbLinetypeTableRecord
  2
BYLAYER
 70
     0
  3

 72
    65
 73
     0
 40
0.0
  0
LTYPE
  5
17
100
AcDbSymbolTableRecord
100
AcDbLinetypeTableRecord
  2
CONTINUOUS
 70
    64
  3
Solid line
 72
    65
 73
     0
 40
0.0
  0
LTYPE
  5
18
100
AcDbSymbolTableRecord
100
AcDbLinetypeTableRecord
  2
DASHED
 70
    64
  3
__ __ __ __ __ __ __ __ __ __ __ __ __ __ __ __
 72
    65
 73
     2
 40
0.75
 49
0.5
 74
     0
 49
-0.25
 74
     0
  0
LTYPE
  5
19
100
AcDbSymbolTableRecord
100
AcDbLinetypeTableRecord
  2
DASHDOT
 70
    64
  3
__ . __ . __ . __ . __ . __ . __ . __ . __ . __
 72
    65
 73
     4
 40
1.0
 49
0.5
 74
     0
 49
-0.25
 74
     0
 49
0.0
 74
     0
 49
-0.25
 74
     0
  0
LTYPE
  5
1A
100
AcDbSymbolTableRecord
100
AcDbLinetypeTableRecord
  2
DIVIDE
 70
    64
  3
____ . . ____ . . ____ . . ____ . . ____ . . __
 72
    65
 73
     6
 40
1.25
 49
0.5
 74
     0
 49
-0.25
 74
     0
 49
0.0
 74
     0
 49
-0.25
 74
     0
 49
0.0
 74
     0
 49
-0.25
 74
     0
  0
LTYPE
  5
1B
100
AcDbSymbolTableRecord
100
AcDbLinetypeTableRecord
  2
DOT
 70
    64
  3
. . . . . . . . . . . . . . . . . . . . . . . .
 72
    65
 73
     2
 40
0.25
 49
0.0
 74
     0
 49
-0.25
 74
     0
  0
ENDTAB
  0
TABLE
  2
LAYER
  5
2
100
AcDbSymbolTable
 70
   102
  0
LAYER
  5
F
100
AcDbSymbolTableRecord
100
AcDbLayerTableRecord
  2
0
 70
     0
 62
     7
  6
CONTINUOUS
  0
LAYER
  5
1C
100
AcDbSymbolTableRecord
100
AcDbLayerTableRecord
  2
DEFPOINTS
 70
     0
 62
     7
  6
CONTINUOUS
  0
LAYER
  5
1D
100
AcDbSymbolTableRecord
100
AcDbLayerTableRecord
  2
M0
 70
     0
 62
     3
  6
CONTINUOUS
  0
LAYER
  5
1E
100
AcDbSymbolTableRecord
100
AcDbLayerTableRecord
  2
M1
 70
     0
 62
     3
  6
CONTINUOUS
  0
LAYER
  5
1F
100
AcDbSymbolTableRecord
100
AcDbLayerTableRecord
  2
DD0
 70
     0
 62
     4
  6
CONTINUOUS
  0
LAYER
  5
20
100
AcDbSymbolTableRecord
100
AcDbLayerTableRecord
  2
DN0
 70
     0
 62
     2
  6
CONTINUOUS
  0
ENDTAB
  0
TABLE
  2
STYLE
  5
3
100
AcDbSymbolTable
 70
     2
  0
STYLE
  5
10
100
AcDbSymbolTableRecord
100
AcDbTextStyleTableRecord
  2
STANDARD
 70
     0
 40
0.0
 41
1.0
 50
0.0
 71
     0
 42
0.2
  3
txt
  4
BIGFONT
  0
ENDTAB
  0
TABLE
  2
VIEW
  5
6
100
AcDbSymbolTable
 70
     0
  0
ENDTAB
  0
TABLE
  2
UCS
  5
7
100
AcDbSymbolTable
 70
     0
  0
ENDTAB
  0
TABLE
  2
APPID
  5
9
100
AcDbSymbolTable
 70
     1
  0
APPID
  5
11
100
AcDbSymbolTableRecord
100
AcDbRegAppTableRecord
  2
ACAD
 70
     0
  0
ENDTAB
  0
TABLE
  2
DIMSTYLE
  5
A
100
AcDbSymbolTable
 70
     2
  0
DIMSTYLE
105
27
100
AcDbSymbolTableRecord
100
AcDbDimStyleTableRecord
  2
STANDARD
 70
     0
  3

  4

  5

  6
_OPEN
  7
_OPEN
 40
1.0
 41
21.428571
 42
1.0
 43
8.0
 44
1.0
 45
0.0
 46
0.0
 47
0.0
 48
0.0
140
22.500001
141
0.09
142
0.0
143
0.03937
144
1.0
145
0.0
146
1.0
147
0.6
 71
     0
 72
     0
 73
     1
 74
     1
 75
     0
 76
     0
 77
     3
 78
     8
170
     0
171
     2
172
     0
173
     1
174
     0
175
     0
176
     0
177
     0
178
     0
270
     2
271
     2
272
     4
273
     2
274
     2
340
10
275
     0
280
     0
281
     0
282
     0
283
     1
284
     0
285
     0
286
     0
287
     3
288
     0
  0
DIMSTYLE
105
28
100
AcDbSymbolTableRecord
100
AcDbDimStyleTableRecord
  2
LEADSTYL
 70
     0
  3

  4

  5

  6
_OPEN
  7
_OPEN
 40
1.0
 41
21.428571
 42
0.0625
 43
0.38
 44
0.18
 45
0.0
 46
0.0
 47
0.0
 48
0.0
140
22.500001
141
0.09
142
0.0
143
25.4
144
1.0
145
0.0
146
1.0
147
0.6
 71
     0
 72
     0
 73
     1
 74
     1
 75
     0
 76
     0
 77
     0
 78
     0
170
     0
171
     2
172
     0
173
     1
174
     0
175
     0
176
     0
177
     0
178
     0
270
     2
271
     4
272
     4
273
     2
274
     2
340
10
275
     0
280
     0
281
     0
282
     0
283
     1
284
     0
285
     0
286
     0
287
     3
288
     0
  0
ENDTAB
  0
TABLE
  2
BLOCK_RECORD
  5
1
100
AcDbSymbolTable
 70
    15
  0
BLOCK_RECORD
  5
21
100
AcDbSymbolTableRecord
100
AcDbBlockTableRecord
  2
*MODEL_SPACE
  0
BLOCK_RECORD
  5
24
100
AcDbSymbolTableRecord
100
AcDbBlockTableRecord
  2
*PAPER_SPACE
  0
BLOCK_RECORD
  5
29
100
AcDbSymbolTableRecord
100
AcDbBlockTableRecord
  2
_NONE
  0
BLOCK_RECORD
  5
2D
100
AcDbSymbolTableRecord
100
AcDbBlockTableRecord
  2
_OPEN
  0
BLOCK_RECORD
  5
33
100
AcDbSymbolTableRecord
100
AcDbBlockTableRecord
  2
_CLOSED
  0
BLOCK_RECORD
  5
3A
100
AcDbSymbolTableRecord
100
AcDbBlockTableRecord
  2
_ORIGIN
  0
BLOCK_RECORD
  5
3F
100
AcDbSymbolTableRecord
100
AcDbBlockTableRecord
  2
_DOT
  0
BLOCK_RECORD
  5
47
100
AcDbSymbolTableRecord
100
AcDbBlockTableRecord
  2
_OBLIQUE
  0
BLOCK_RECORD
  5
4B
100
AcDbSymbolTableRecord
100
AcDbBlockTableRecord
  2
DIMS0
  0
BLOCK_RECORD
  5
57
100
AcDbSymbolTableRecord
100
AcDbBlockTableRecord
  2
DIMS1
  0
BLOCK_RECORD
  5
63
100
AcDbSymbolTableRecord
100
AcDbBlockTableRecord
  2
DIMS2
  0
BLOCK_RECORD
  5
6F
100
AcDbSymbolTableRecord
100
AcDbBlockTableRecord
  2
DIMS3
  0
BLOCK_RECORD
  5
7B
100
AcDbSymbolTableRecord
100
AcDbBlockTableRecord
  2
DIMS4
  0
BLOCK_RECORD
  5
87
100
AcDbSymbolTableRecord
100
AcDbBlockTableRecord
  2
DIMS5
  0
BLOCK_RECORD
  5
93
100
AcDbSymbolTableRecord
100
AcDbBlockTableRecord
  2
DIMS6
  0
BLOCK_RECORD
  5
9C
100
AcDbSymbolTableRecord
100
AcDbBlockTableRecord
  2
DIMS7
  0
BLOCK_RECORD
  5
A8
100
AcDbSymbolTableRecord
100
AcDbBlockTableRecord
  2
DIMS8
  0
ENDTAB
  0
ENDSEC
  0
SECTION
  2
BLOCKS
  0
BLOCK
  5
22
100
AcDbEntity
  8
0
100
AcDbBlockBegin
  2
*MODEL_SPACE
 70
     0
 10
0.0
 20
0.0
 30
0.0
  3
*MODEL_SPACE
  1

  0
ENDBLK
  5
23
100
AcDbEntity
  8
0
100
AcDbBlockEnd
  0
BLOCK
  5
25
100
AcDbEntity
 67
     1
  8
0
100
AcDbBlockBegin
  2
*PAPER_SPACE
 70
     0
 10
0.0
 20
0.0
 30
0.0
  3
*PAPER_SPACE
  1

  0
ENDBLK
  5
26
100
AcDbEntity
 67
     1
  8
0
100
AcDbBlockEnd
  0
BLOCK
  5
2A
100
AcDbEntity
  8
0
100
AcDbBlockBegin
  2
_NONE
 70
     0
 10
0.0
 20
0.0
  0
CIRCLE
  5
2B
100
AcDbEntity
  8
0
 62
     0
100
AcDbCircle
 10
0.0
 20
0.0
 40
0.25
  0
ENDBLK
  5
2C
100
AcDbEntity
  8
0
100
AcDbBlockEnd
  0
BLOCK
  5
2E
100
AcDbEntity
  8
0
100
AcDbBlockBegin
  2
_OPEN
 70
     0
 10
0.0
 20
0.0
  0
LINE
  5
2F
100
AcDbEntity
  8
0
 62
     0
100
AcDbLine
 10
-0.965926
 20
0.258819
 11
0.0
 21
0.0
  0
LINE
  5
30
100
AcDbEntity
  8
0
 62
     0
100
AcDbLine
 10
0.0
 20
0.0
 11
-0.965926
 21
-0.258819
  0
LINE
  5
31
100
AcDbEntity
  8
0
 62
     0
100
AcDbLine
 10
0.0
 20
0.0
 11
-1.0
 21
0.0
  0
ENDBLK
  5
32
100
AcDbEntity
  8
0
100
AcDbBlockEnd
  0
BLOCK
  5
34
100
AcDbEntity
  8
0
100
AcDbBlockBegin
  2
_CLOSED
 70
     0
 10
0.0
 20
0.0
  0
LINE
  5
35
100
AcDbEntity
  8
0
 62
     0
100
AcDbLine
 10
-0.965926
 20
0.258819
 11
0.0
 21
0.0
  0
LINE
  5
36
100
AcDbEntity
  8
0
 62
     0
100
AcDbLine
 10
0.0
 20
0.0
 11
-0.965926
 21
-0.258819
  0
LINE
  5
37
100
AcDbEntity
  8
0
 62
     0
100
AcDbLine
 10
-0.965926
 20
0.258819
 11
-0.965926
 21
-0.258819
  0
LINE
  5
38
100
AcDbEntity
  8
0
 62
     0
100
AcDbLine
 10
0.0
 20
0.0
 11
-1.0
 21
0.0
  0
ENDBLK
  5
39
100
AcDbEntity
  8
0
100
AcDbBlockEnd
  0
BLOCK
  5
3B
100
AcDbEntity
  8
0
100
AcDbBlockBegin
  2
_ORIGIN
 70
     0
 10
0.0
 20
0.0
  0
CIRCLE
  5
3C
100
AcDbEntity
  8
0
 62
     0
100
AcDbCircle
 10
0.0
 20
0.0
 40
0.5
  0
LINE
  5
3D
100
AcDbEntity
  8
0
 62
     0
100
AcDbLine
 10
0.0
 20
0.0
 11
-1.0
 21
0.0
  0
ENDBLK
  5
3E
100
AcDbEntity
  8
0
100
AcDbBlockEnd
  0
BLOCK
  5
40
100
AcDbEntity
  8
0
100
AcDbBlockBegin
  2
_DOT
 70
     0
 10
0.0
 20
0.0
  0
POLYLINE
  5
41
100
AcDbEntity
  8
0
 62
     0
100
AcDb2dPolyline
 66
     1
 70
     1
 40
0.5
 41
0.5
  0
VERTEX
  5
42
100
AcDbEntity
  8
0
 62
     0
100
AcDbVertex
100
AcDb2dVertex
 10
-0.25
 20
0.0
 42
1.0
  0
VERTEX
  5
43
100
AcDbEntity
  8
0
 62
     0
100
AcDbVertex
100
AcDb2dVertex
 10
0.25
 20
0.0
 42
1.0
  0
SEQEND
  5
44
100
AcDbEntity
  8
0
 62
     0
  0
LINE
  5
45
100
AcDbEntity
  8
0
 62
     0
100
AcDbLine
 10
-0.5
 20
0.0
 11
-1.0
 21
0.0
  0
ENDBLK
  5
46
100
AcDbEntity
  8
0
100
AcDbBlockEnd
  0
BLOCK
  5
48
100
AcDbEntity
  8
0
100
AcDbBlockBegin
  2
_OBLIQUE
 70
     0
 10
0.0
 20
0.0
  0
LINE
  5
49
100
AcDbEntity
  8
0
 62
     0
100
AcDbLine
 10
-0.353553
 20
-0.353553
 11
0.353553
 21
0.353553
  0
ENDBLK
  5
4A
100
AcDbEntity
  8
0
100
AcDbBlockEnd
  0
BLOCK
  5
4C
100
AcDbEntity
  8
DD0
100
AcDbBlockBegin
  2
DIMS0
 70
     0
 10
0.0
 20
0.0
  0
LINE
  5
4D
100
AcDbEntity
  8
DD0
100
AcDbLine
 10
230.77714
 20
1765.469789
 11
230.77714
 21
1930.909067
  0
LINE
  5
4E
100
AcDbEntity
  8
DD0
100
AcDbLine
 10
806.677352
 20
1765.469789
 11
806.677352
 21
1930.909067
  0
LINE
  5
4F
100
AcDbEntity
  8
DD0
100
AcDbLine
 10
251.47555
 20
1929.312332
 11
230.77714
 21
1923.76621
  0
LINE
  5
50
100
AcDbEntity
  8
DD0
100
AcDbLine
 10
230.77714
 20
1923.76621
 11
251.47555
 21
1918.220087
  0
LINE
  5
51
100
AcDbEntity
  8
DD0
100
AcDbLine
 10
785.978941
 20
1918.220087
 11
806.677352
 21
1923.76621
  0
LINE
  5
52
100
AcDbEntity
  8
DD0
100
AcDbLine
 10
806.677352
 20
1923.76621
 11
785.978941
 21
1929.312332
  0
LINE
  5
53
100
AcDbEntity
  8
DD0
100
AcDbLine
 10
230.77714
 20
1923.76621
 11
806.677352
 21
1923.76621
  0
TEXT
  5
54
100
AcDbEntity
  8
DD0
100
AcDbText
 10
486.816524
 20
1928.051968
 40
22.500001
  1
５７８
 41
0.833333
  7
STANDARD
100
AcDbText
  0
ENDBLK
  5
55
100
AcDbEntity
  8
DD0
100
AcDbBlockEnd
  0
BLOCK
  5
58
100
AcDbEntity
  8
DD0
100
AcDbBlockBegin
  2
DIMS1
 70
     0
 10
0.0
 20
0.0
  0
LINE
  5
59
100
AcDbEntity
  8
DD0
100
AcDbLine
 10
702.870066
 20
1859.327036
 11
906.676479
 21
1859.327036
  0
LINE
  5
5A
100
AcDbEntity
  8
DD0
 60
     1
100
AcDbLine
 10
750.869966
 20
1829.327821
 11
906.676479
 21
1829.327821
  0
LINE
  5
5B
100
AcDbEntity
  8
DD0
100
AcDbLine
 10
893.9875
 20
1880.025446
 11
899.533622
 21
1859.327036
  0
LINE
  5
5C
100
AcDbEntity
  8
DD0
100
AcDbLine
 10
899.533622
 20
1859.327036
 11
905.079745
 21
1880.025446
  0
LINE
  5
5D
100
AcDbEntity
  8
DD0
100
AcDbLine
 10
905.079745
 20
1808.62941
 11
899.533622
 21
1829.327821
  0
LINE
  5
5E
100
AcDbEntity
  8
DD0
100
AcDbLine
 10
899.533622
 20
1829.327821
 11
893.9875
 21
1808.62941
  0
LINE
  5
5F
100
AcDbEntity
  8
DD0
100
AcDbLine
 10
899.533622
 20
1935.041324
 11
899.533622
 21
1805.756393
  0
TEXT
  5
60
100
AcDbEntity
  8
DD0
100
AcDbText
 10
895.247919
 20
1884.737671
 40
22.500001
  1
３０
 50
90.000003
 41
0.833333
  7
STANDARD
100
AcDbText
  0
ENDBLK
  5
61
100
AcDbEntity
  8
DD0
100
AcDbBlockEnd
  0
BLOCK
  5
64
100
AcDbEntity
  8
DD0
100
AcDbBlockBegin
  2
DIMS2
 70
     0
 10
0.0
 20
0.0
  0
LINE
  5
65
100
AcDbEntity
  8
DD0
 60
     1
100
AcDbLine
 10
750.869966
 20
1829.327821
 11
906.676479
 21
1829.327821
  0
LINE
  5
66
100
AcDbEntity
  8
DD0
100
AcDbLine
 10
750.87002
 20
1449.325773
 11
906.676479
 21
1449.325773
  0
LINE
  5
67
100
AcDbEntity
  8
DD0
100
AcDbLine
 10
905.079745
 20
1808.62941
 11
899.533622
 21
1829.327821
  0
LINE
  5
68
100
AcDbEntity
  8
DD0
100
AcDbLine
 10
899.533622
 20
1829.327821
 11
893.9875
 21
1808.62941
  0
LINE
  5
69
100
AcDbEntity
  8
DD0
100
AcDbLine
 10
893.9875
 20
1470.024184
 11
899.533622
 21
1449.325773
  0
LINE
  5
6A
100
AcDbEntity
  8
DD0
100
AcDbLine
 10
899.533622
 20
1449.325773
 11
905.079745
 21
1470.024184
  0
LINE
  5
6B
100
AcDbEntity
  8
DD0
100
AcDbLine
 10
899.533622
 20
1829.327821
 11
899.533622
 21
1449.325773
  0
TEXT
  5
6C
100
AcDbEntity
  8
DD0
100
AcDbText
 10
895.247919
 20
1607.416048
 40
22.500001
  1
３８０
 50
90.000003
 41
0.833333
  7
STANDARD
100
AcDbText
  0
ENDBLK
  5
6D
100
AcDbEntity
  8
DD0
100
AcDbBlockEnd
  0
BLOCK
  5
70
100
AcDbEntity
  8
DD0
100
AcDbBlockBegin
  2
DIMS3
 70
     0
 10
0.0
 20
0.0
  0
LINE
  5
71
100
AcDbEntity
  8
DD0
100
AcDbLine
 10
790.870554
 20
1185.37717
 11
906.676479
 21
1185.37717
  0
LINE
  5
72
100
AcDbEntity
  8
DD0
100
AcDbLine
 10
779.37055
 20
1168.377354
 11
906.676479
 21
1168.377354
  0
LINE
  5
73
100
AcDbEntity
  8
DD0
100
AcDbLine
 10
893.9875
 20
1206.075581
 11
899.533622
 21
1185.37717
  0
LINE
  5
74
100
AcDbEntity
  8
DD0
100
AcDbLine
 10
899.533622
 20
1185.37717
 11
905.079745
 21
1206.075581
  0
LINE
  5
75
100
AcDbEntity
  8
DD0
100
AcDbLine
 10
905.079745
 20
1147.678943
 11
899.533622
 21
1168.377354
  0
LINE
  5
76
100
AcDbEntity
  8
DD0
100
AcDbLine
 10
899.533622
 20
1168.377354
 11
893.9875
 21
1147.678943
  0
LINE
  5
77
100
AcDbEntity
  8
DD0
100
AcDbLine
 10
899.533622
 20
1261.091459
 11
899.533622
 21
1144.805925
  0
TEXT
  5
78
100
AcDbEntity
  8
DD0
100
AcDbText
 10
895.247919
 20
1210.787915
 40
22.500001
  1
１７
 50
90.000003
 41
0.833333
  7
STANDARD
100
AcDbText
  0
ENDBLK
  5
79
100
AcDbEntity
  8
DD0
100
AcDbBlockEnd
  0
BLOCK
  5
7C
100
AcDbEntity
  8
DD0
100
AcDbBlockBegin
  2
DIMS4
 70
     0
 10
0.0
 20
0.0
  0
LINE
  5
7D
100
AcDbEntity
  8
DD0
 60
     1
100
AcDbLine
 10
779.37055
 20
1168.377354
 11
906.676479
 21
1168.377354
  0
LINE
  5
7E
100
AcDbEntity
  8
DD0
100
AcDbLine
 10
779.37055
 20
890.377477
 11
906.676479
 21
890.377477
  0
LINE
  5
7F
100
AcDbEntity
  8
DD0
100
AcDbLine
 10
905.079745
 20
1147.678943
 11
899.533622
 21
1168.377354
  0
LINE
  5
80
100
AcDbEntity
  8
DD0
100
AcDbLine
 10
899.533622
 20
1168.377354
 11
893.9875
 21
1147.678943
  0
LINE
  5
81
100
AcDbEntity
  8
DD0
100
AcDbLine
 10
893.9875
 20
911.075887
 11
899.533622
 21
890.377477
  0
LINE
  5
82
100
AcDbEntity
  8
DD0
100
AcDbLine
 10
899.533622
 20
890.377477
 11
905.079745
 21
911.075887
  0
LINE
  5
83
100
AcDbEntity
  8
DD0
100
AcDbLine
 10
899.533622
 20
1168.377354
 11
899.533622
 21
890.377477
  0
TEXT
  5
84
100
AcDbEntity
  8
DD0
100
AcDbText
 10
895.247919
 20
997.466666
 40
22.500001
  1
２７８
 50
90.000003
 41
0.833333
  7
STANDARD
100
AcDbText
  0
ENDBLK
  5
85
100
AcDbEntity
  8
DD0
100
AcDbBlockEnd
  0
BLOCK
  5
88
100
AcDbEntity
  8
DD0
100
AcDbBlockBegin
  2
DIMS5
 70
     0
 10
0.0
 20
0.0
  0
LINE
  5
89
100
AcDbEntity
  8
DD0
100
AcDbLine
 10
278.727775
 20
1189.021732
 11
278.727775
 21
1302.128378
  0
LINE
  5
8A
100
AcDbEntity
  8
DD0
100
AcDbLine
 10
758.727697
 20
1189.020206
 11
758.727697
 21
1302.128378
  0
LINE
  5
8B
100
AcDbEntity
  8
DD0
100
AcDbLine
 10
299.426186
 20
1300.531643
 11
278.727775
 21
1294.98552
  0
LINE
  5
8C
100
AcDbEntity
  8
DD0
100
AcDbLine
 10
278.727775
 20
1294.98552
 11
299.426186
 21
1289.439398
  0
LINE
  5
8D
100
AcDbEntity
  8
DD0
100
AcDbLine
 10
738.029287
 20
1289.439398
 11
758.727697
 21
1294.98552
  0
LINE
  5
8E
100
AcDbEntity
  8
DD0
100
AcDbLine
 10
758.727697
 20
1294.98552
 11
738.029287
 21
1300.531643
  0
LINE
  5
8F
100
AcDbEntity
  8
DD0
100
AcDbLine
 10
278.727775
 20
1294.98552
 11
758.727697
 21
1294.98552
  0
TEXT
  5
90
100
AcDbEntity
  8
DD0
100
AcDbText
 10
486.817069
 20
1299.271278
 40
22.500001
  1
４８０
 41
0.833333
  7
STANDARD
100
AcDbText
  0
ENDBLK
  5
91
100
AcDbEntity
  8
DD0
100
AcDbBlockEnd
  0
BLOCK
  5
94
100
AcDbEntity
  8
DD0
100
AcDbBlockBegin
  2
DIMS6
 70
     0
 10
0.0
 20
0.0
  0
TEXT
  5
95
100
AcDbEntity
  8
DD0
100
AcDbText
 10
826.300601
 20
770.50612
 40
22.500001
  1
４－Ｍ１０ねじ穴
 41
0.833333
  7
STANDARD
100
AcDbText
  0
LINE
  5
96
100
AcDbEntity
  8
DD0
100
AcDbLine
 10
775.22394
 20
866.707816
 11
763.744079
 21
884.801915
  0
LINE
  5
97
100
AcDbEntity
  8
DD0
100
AcDbLine
 10
763.744079
 20
884.801915
 11
764.63888
 21
863.392034
  0
LINE
  5
98
100
AcDbEntity
  8
DD0
100
AcDbLine
 10
763.744079
 20
884.801915
 11
800.889856
 21
766.220416
  0
LINE
  5
99
100
AcDbEntity
  8
DD0
100
AcDbLine
 10
800.889856
 20
766.220416
 11
1028.03268
 21
766.220416
  0
ENDBLK
  5
9A
100
AcDbEntity
  8
DD0
100
AcDbBlockEnd
  0
BLOCK
  5
9D
100
AcDbEntity
  8
DD0
100
AcDbBlockBegin
  2
DIMS7
 70
     0
 10
0.0
 20
0.0
  0
LINE
  5
9E
100
AcDbEntity
  8
DD0
100
AcDbLine
 10
1283.446497
 20
1797.96981
 11
1283.446497
 21
1866.469893
  0
LINE
  5
9F
100
AcDbEntity
  8
DD0
100
AcDbLine
 10
1258.04639
 20
1783.469601
 11
1258.04639
 21
1866.469893
  0
LINE
  5
A0
100
AcDbEntity
  8
DD0
100
AcDbLine
 10
1304.144908
 20
1864.873158
 11
1283.446497
 21
1859.327036
  0
LINE
  5
A1
100
AcDbEntity
  8
DD0
100
AcDbLine
 10
1283.446497
 20
1859.327036
 11
1304.144908
 21
1853.780913
  0
LINE
  5
A2
100
AcDbEntity
  8
DD0
100
AcDbLine
 10
1237.34798
 20
1853.780913
 11
1258.04639
 21
1859.327036
  0
LINE
  5
A3
100
AcDbEntity
  8
DD0
100
AcDbLine
 10
1258.04639
 20
1859.327036
 11
1237.34798
 21
1864.873158
  0
LINE
  5
A4
100
AcDbEntity
  8
DD0
100
AcDbLine
 10
1359.160785
 20
1859.327036
 11
1234.474962
 21
1859.327036
  0
TEXT
  5
A5
100
AcDbEntity
  8
DD0
100
AcDbText
 10
1308.857242
 20
1863.612794
 40
22.500001
  1
２５
 41
0.833333
  7
STANDARD
100
AcDbText
  0
ENDBLK
  5
A6
100
AcDbEntity
  8
DD0
100
AcDbBlockEnd
  0
BLOCK
  5
A9
100
AcDbEntity
  8
DD0
100
AcDbBlockBegin
  2
DIMS8
 70
     0
 10
0.0
 20
0.0
  0
LINE
  5
AA
100
AcDbEntity
  8
DD0
100
AcDbLine
 10
1283.446497
 20
1797.96981
 11
1283.446497
 21
1930.909067
  0
LINE
  5
AB
100
AcDbEntity
  8
DD0
100
AcDbLine
 10
1025.64566
 20
1738.469798
 11
1025.64566
 21
1930.909067
  0
LINE
  5
AC
100
AcDbEntity
  8
DD0
100
AcDbLine
 10
1262.748087
 20
1918.220087
 11
1283.446497
 21
1923.76621
  0
LINE
  5
AD
100
AcDbEntity
  8
DD0
100
AcDbLine
 10
1283.446497
 20
1923.76621
 11
1262.748087
 21
1929.312332
  0
LINE
  5
AE
100
AcDbEntity
  8
DD0
100
AcDbLine
 10
1046.344071
 20
1929.312332
 11
1025.64566
 21
1923.76621
  0
LINE
  5
AF
100
AcDbEntity
  8
DD0
100
AcDbLine
 10
1025.64566
 20
1923.76621
 11
1046.344071
 21
1918.220087
  0
LINE
  5
B0
100
AcDbEntity
  8
DD0
100
AcDbLine
 10
1283.446497
 20
1923.76621
 11
1025.64566
 21
1923.76621
  0
TEXT
  5
B1
100
AcDbEntity
  8
DD0
100
AcDbText
 10
1122.635275
 20
1928.051968
 40
22.500001
  1
２５８
 41
0.833333
  7
STANDARD
100
AcDbText
  0
ENDBLK
  5
B2
100
AcDbEntity
  8
DD0
100
AcDbBlockEnd
  0
ENDSEC
  0
SECTION
  2
ENTITIES
  0
INSERT
  5
56
100
AcDbEntity
  8
DD0
100
AcDbBlockReference
  2
DIMS0
 10
0.0
 20
0.0
  0
INSERT
  5
62
100
AcDbEntity
  8
DD0
100
AcDbBlockReference
  2
DIMS1
 10
0.0
 20
0.0
  0
INSERT
  5
6E
100
AcDbEntity
  8
DD0
100
AcDbBlockReference
  2
DIMS2
 10
0.0
 20
0.0
  0
INSERT
  5
7A
100
AcDbEntity
  8
DD0
100
AcDbBlockReference
  2
DIMS3
 10
0.0
 20
0.0
  0
INSERT
  5
86
100
AcDbEntity
  8
DD0
100
AcDbBlockReference
  2
DIMS4
 10
0.0
 20
0.0
  0
INSERT
  5
92
100
AcDbEntity
  8
DD0
100
AcDbBlockReference
  2
DIMS5
 10
0.0
 20
0.0
  0
INSERT
  5
9B
100
AcDbEntity
  8
DD0
100
AcDbBlockReference
  2
DIMS6
 10
0.0
 20
0.0
  0
INSERT
  5
A7
100
AcDbEntity
  8
DD0
100
AcDbBlockReference
  2
DIMS7
 10
0.0
 20
0.0
  0
INSERT
  5
B3
100
AcDbEntity
  8
DD0
100
AcDbBlockReference
  2
DIMS8
 10
0.0
 20
0.0
  0
ARC
  5
B4
100
AcDbEntity
  8
M0
 62
     7
100
AcDbCircle
 10
481.227236
 20
1595.826966
 40
1.5
100
AcDbArc
 50
269.999417
 51
360.0
  0
ARC
  5
B5
100
AcDbEntity
  8
M0
 62
     7
100
AcDbCircle
 10
481.227236
 20
1592.826966
 40
1.5
100
AcDbArc
 50
90.0
 51
180.0
  0
ARC
  5
B6
100
AcDbEntity
  8
M0
 62
     7
100
AcDbCircle
 10
478.727236
 20
1730.326966
 40
4.0
100
AcDbArc
 50
0.0
 51
90.0
  0
LINE
  5
B7
100
AcDbEntity
  8
M0
 62
     7
100
AcDbLine
 10
478.727236
 20
1734.326966
 11
473.727236
 21
1734.326966
  0
LINE
  5
B8
100
AcDbEntity
  8
M0
 62
     7
100
AcDbLine
 10
409.107225
 20
1730.486955
 11
409.387224
 21
1731.446961
  0
ARC
  5
B9
100
AcDbEntity
  8
M0
 62
     7
100
AcDbCircle
 10
406.227236
 20
1731.326966
 40
3.0
100
AcDbArc
 50
269.999709
 51
343.739247
  0
LINE
  5
BA
100
AcDbEntity
  8
M0
 62
     7
100
AcDbLine
 10
418.067232
 20
1731.446961
 11
418.347231
 21
1730.486955
  0
ARC
  5
BB
100
AcDbEntity
  8
M0
 62
     7
100
AcDbCircle
 10
421.227236
 20
1731.326966
 40
3.0
100
AcDbArc
 50
196.260391
 51
269.999709
  0
LINE
  5
BC
100
AcDbEntity
  8
M0
 62
     7
100
AcDbLine
 10
469.607225
 20
1730.486955
 11
469.887224
 21
1731.446961
  0
ARC
  5
BD
100
AcDbEntity
  8
M0
 62
     7
100
AcDbCircle
 10
473.727236
 20
1730.326966
 40
4.0
100
AcDbArc
 50
90.0
 51
163.740119
  0
ARC
  5
BE
100
AcDbEntity
  8
M0
 62
     7
100
AcDbCircle
 10
466.727236
 20
1731.326966
 40
3.0
100
AcDbArc
 50
269.999709
 51
343.739247
  0
LINE
  5
BF
100
AcDbEntity
  8
M0
 62
     7
100
AcDbLine
 10
466.727236
 20
1728.326966
 11
421.227236
 21
1728.326966
  0
ARC
  5
C0
100
AcDbEntity
  8
M0
 62
     7
100
AcDbCircle
 10
414.227236
 20
1730.326966
 40
4.0
100
AcDbArc
 50
16.260152
 51
90.0
  0
ARC
  5
C1
100
AcDbEntity
  8
M0
 62
     7
100
AcDbCircle
 10
413.227236
 20
1730.326966
 40
4.0
100
AcDbArc
 50
90.0
 51
163.740119
  0
LINE
  5
C2
100
AcDbEntity
  8
M0
 62
     7
100
AcDbLine
 10
413.227236
 20
1734.326966
 11
414.227236
 21
1734.326966
  0
ARC
  5
C3
100
AcDbEntity
  8
M0
 62
     7
100
AcDbCircle
 10
479.727236
 20
1717.326966
 40
3.0
100
AcDbArc
 50
269.999709
 51
360.0
  0
ARC
  5
C4
100
AcDbEntity
  8
M0
 62
     7
100
AcDbCircle
 10
479.727236
 20
1701.326966
 40
3.0
100
AcDbArc
 50
0.0
 51
90.0
  0
LINE
  5
C5
100
AcDbEntity
  8
M0
 62
     7
100
AcDbLine
 10
479.727236
 20
1714.326966
 11
474.727236
 21
1714.326966
  0
LINE
  5
C6
100
AcDbEntity
  8
M0
 62
     7
100
AcDbLine
 10
479.727236
 20
1704.326966
 11
474.727236
 21
1704.326966
  0
ARC
  5
C7
100
AcDbEntity
  8
M0
 62
     7
100
AcDbCircle
 10
474.727236
 20
1709.326966
 40
5.0
100
AcDbArc
 50
90.0
 51
269.999825
  0
ARC
  5
C8
100
AcDbEntity
  8
M0
 62
     7
100
AcDbCircle
 10
288.727236
 20
1730.326966
 40
4.0
100
AcDbArc
 50
89.999781
 51
180.0
  0
LINE
  5
C9
100
AcDbEntity
  8
M0
 62
     7
100
AcDbLine
 10
288.727236
 20
1734.326966
 11
293.727236
 21
1734.326966
  0
LINE
  5
CA
100
AcDbEntity
  8
M0
 62
     7
100
AcDbLine
 10
358.347246
 20
1730.486955
 11
358.067247
 21
1731.446961
  0
ARC
  5
CB
100
AcDbEntity
  8
M0
 62
     7
100
AcDbCircle
 10
361.227236
 20
1731.326966
 40
3.0
100
AcDbArc
 50
196.260753
 51
270.0
  0
LINE
  5
CC
100
AcDbEntity
  8
M0
 62
     7
100
AcDbLine
 10
349.387239
 20
1731.446961
 11
349.10724
 21
1730.486955
  0
ARC
  5
CD
100
AcDbEntity
  8
M0
 62
     7
100
AcDbCircle
 10
346.227236
 20
1731.326966
 40
3.0
100
AcDbArc
 50
270.0
 51
343.739609
  0
LINE
  5
CE
100
AcDbEntity
  8
M0
 62
     7
100
AcDbLine
 10
297.847246
 20
1730.486955
 11
297.567247
 21
1731.446961
  0
ARC
  5
CF
100
AcDbEntity
  8
M0
 62
     7
100
AcDbCircle
 10
293.727236
 20
1730.326966
 40
4.0
100
AcDbArc
 50
16.259881
 51
89.999781
  0
ARC
  5
D0
100
AcDbEntity
  8
M0
 62
     7
100
AcDbCircle
 10
300.727236
 20
1731.326966
 40
3.0
100
AcDbArc
 50
196.260753
 51
270.0
  0
LINE
  5
D1
100
AcDbEntity
  8
M0
 62
     7
100
AcDbLine
 10
300.727236
 20
1728.326966
 11
346.227236
 21
1728.326966
  0
LINE
  5
D2
100
AcDbEntity
  8
M0
 62
     7
100
AcDbLine
 10
406.227236
 20
1728.326966
 11
361.227236
 21
1728.326966
  0
ARC
  5
D3
100
AcDbEntity
  8
M0
 62
     7
100
AcDbCircle
 10
353.227236
 20
1730.326966
 40
4.0
100
AcDbArc
 50
89.999781
 51
163.739848
  0
ARC
  5
D4
100
AcDbEntity
  8
M0
 62
     7
100
AcDbCircle
 10
354.227236
 20
1730.326966
 40
4.0
100
AcDbArc
 50
16.259881
 51
89.999781
  0
LINE
  5
D5
100
AcDbEntity
  8
M0
 62
     7
100
AcDbLine
 10
354.227236
 20
1734.326966
 11
353.227236
 21
1734.326966
  0
ARC
  5
D6
100
AcDbEntity
  8
M0
 62
     7
100
AcDbCircle
 10
287.727236
 20
1717.326966
 40
3.0
100
AcDbArc
 50
180.0
 51
270.0
  0
ARC
  5
D7
100
AcDbEntity
  8
M0
 62
     7
100
AcDbCircle
 10
287.727236
 20
1701.326966
 40
3.0
100
AcDbArc
 50
89.999709
 51
180.0
  0
LINE
  5
D8
100
AcDbEntity
  8
M0
 62
     7
100
AcDbLine
 10
287.727236
 20
1714.326966
 11
292.727236
 21
1714.326966
  0
LINE
  5
D9
100
AcDbEntity
  8
M0
 62
     7
100
AcDbLine
 10
287.727236
 20
1704.326966
 11
292.727236
 21
1704.326966
  0
ARC
  5
DA
100
AcDbEntity
  8
M0
 62
     7
100
AcDbCircle
 10
292.727236
 20
1709.326966
 40
5.0
100
AcDbArc
 50
-90.0
 51
89.999825
  0
LINE
  5
DB
100
AcDbEntity
  8
M0
 62
     7
100
AcDbLine
 10
409.107225
 20
1548.166968
 11
409.387224
 21
1547.206968
  0
ARC
  5
DC
100
AcDbEntity
  8
M0
 62
     7
100
AcDbCircle
 10
406.227236
 20
1547.326968
 40
3.0
100
AcDbArc
 50
16.260315
 51
90.0
  0
LINE
  5
DD
100
AcDbEntity
  8
M0
 62
     7
100
AcDbLine
 10
418.067232
 20
1547.206968
 11
418.347231
 21
1548.166968
  0
ARC
  5
DE
100
AcDbEntity
  8
M0
 62
     7
100
AcDbCircle
 10
421.227236
 20
1547.326968
 40
3.0
100
AcDbArc
 50
90.0
 51
163.739819
  0
LINE
  5
DF
100
AcDbEntity
  8
M0
 62
     7
100
AcDbLine
 10
406.227236
 20
1550.326968
 11
361.227236
 21
1550.326968
  0
ARC
  5
E0
100
AcDbEntity
  8
M0
 62
     7
100
AcDbCircle
 10
414.227236
 20
1548.326968
 40
4.0
100
AcDbArc
 50
269.999781
 51
343.739756
  0
ARC
  5
E1
100
AcDbEntity
  8
M0
 62
     7
100
AcDbCircle
 10
475.727236
 20
1548.326968
 40
4.0
100
AcDbArc
 50
-90.000219
 51
0.0
  0
LINE
  5
E2
100
AcDbEntity
  8
M0
 62
     7
100
AcDbLine
 10
287.727236
 20
1548.326968
 11
287.727236
 21
1592.826966
  0
LINE
  5
E3
100
AcDbEntity
  8
M0
 62
     7
100
AcDbLine
 10
479.727236
 20
1548.326968
 11
479.727236
 21
1592.826966
  0
LINE
  5
E4
100
AcDbEntity
  8
M0
 62
     7
100
AcDbLine
 10
475.727236
 20
1544.326968
 11
473.827226
 21
1544.326968
  0
LINE
  5
E5
100
AcDbEntity
  8
M0
 62
     7
100
AcDbLine
 10
469.707231
 20
1548.166968
 11
469.98723
 21
1547.206968
  0
ARC
  5
E6
100
AcDbEntity
  8
M0
 62
     7
100
AcDbCircle
 10
473.827226
 20
1548.326968
 40
4.0
100
AcDbArc
 50
196.26013
 51
269.999781
  0
ARC
  5
E7
100
AcDbEntity
  8
M0
 62
     7
100
AcDbCircle
 10
466.827226
 20
1547.326968
 40
3.0
100
AcDbArc
 50
16.260246
 51
90.0
  0
LINE
  5
E8
100
AcDbEntity
  8
M0
 62
     7
100
AcDbLine
 10
466.827226
 20
1550.326968
 11
421.227236
 21
1550.326968
  0
ARC
  5
E9
100
AcDbEntity
  8
M0
 62
     7
100
AcDbCircle
 10
413.227236
 20
1548.326968
 40
4.0
100
AcDbArc
 50
196.260078
 51
269.999781
  0
LINE
  5
EA
100
AcDbEntity
  8
M0
 62
     7
100
AcDbLine
 10
413.227236
 20
1544.326968
 11
414.227236
 21
1544.326968
  0
LINE
  5
EB
100
AcDbEntity
  8
M0
 62
     7
100
AcDbLine
 10
358.347246
 20
1548.166968
 11
358.067247
 21
1547.206968
  0
ARC
  5
EC
100
AcDbEntity
  8
M0
 62
     7
100
AcDbCircle
 10
361.227236
 20
1547.326968
 40
3.0
100
AcDbArc
 50
89.999709
 51
163.739632
  0
LINE
  5
ED
100
AcDbEntity
  8
M0
 62
     7
100
AcDbLine
 10
349.387239
 20
1547.206968
 11
349.10724
 21
1548.166968
  0
ARC
  5
EE
100
AcDbEntity
  8
M0
 62
     7
100
AcDbCircle
 10
346.227236
 20
1547.326968
 40
3.0
100
AcDbArc
 50
16.260164
 51
89.999709
  0
ARC
  5
EF
100
AcDbEntity
  8
M0
 62
     7
100
AcDbCircle
 10
353.227236
 20
1548.326968
 40
4.0
100
AcDbArc
 50
196.260192
 51
270.0
  0
ARC
  5
F0
100
AcDbEntity
  8
M0
 62
     7
100
AcDbCircle
 10
354.227236
 20
1548.326968
 40
4.0
100
AcDbArc
 50
270.0
 51
343.73987
  0
LINE
  5
F1
100
AcDbEntity
  8
M0
 62
     7
100
AcDbLine
 10
354.227236
 20
1544.326968
 11
353.227236
 21
1544.326968
  0
ARC
  5
F2
100
AcDbEntity
  8
M0
 62
     7
100
AcDbCircle
 10
291.727236
 20
1548.326968
 40
4.0
100
AcDbArc
 50
179.999959
 51
270.0
  0
ARC
  5
F3
100
AcDbEntity
  8
M0
 62
     7
100
AcDbCircle
 10
290.727236
 20
1561.326967
 40
3.0
100
AcDbArc
 50
89.999709
 51
179.999982
  0
ARC
  5
F4
100
AcDbEntity
  8
M0
 62
     7
100
AcDbCircle
 10
290.727236
 20
1577.326966
 40
3.0
100
AcDbArc
 50
180.0
 51
270.0
  0
LINE
  5
F5
100
AcDbEntity
  8
M0
 62
     7
100
AcDbLine
 10
290.727236
 20
1564.326967
 11
295.727236
 21
1564.326967
  0
LINE
  5
F6
100
AcDbEntity
  8
M0
 62
     7
100
AcDbLine
 10
290.727236
 20
1574.326966
 11
295.727236
 21
1574.326966
  0
ARC
  5
F7
100
AcDbEntity
  8
M0
 62
     7
100
AcDbCircle
 10
295.727236
 20
1569.326966
 40
5.0
100
AcDbArc
 50
270.0
 51
449.999825
  0
ARC
  5
F8
100
AcDbEntity
  8
M0
 62
     7
100
AcDbCircle
 10
476.727236
 20
1561.326967
 40
3.0
100
AcDbArc
 50
0.0
 51
90.0
  0
ARC
  5
F9
100
AcDbEntity
  8
M0
 62
     7
100
AcDbCircle
 10
476.727236
 20
1577.326966
 40
3.0
100
AcDbArc
 50
-90.000291
 51
0.0
  0
LINE
  5
FA
100
AcDbEntity
  8
M0
 62
     7
100
AcDbLine
 10
476.727236
 20
1564.326967
 11
471.727236
 21
1564.326967
  0
LINE
  5
FB
100
AcDbEntity
  8
M0
 62
     7
100
AcDbLine
 10
476.727236
 20
1574.326966
 11
471.727236
 21
1574.326966
  0
ARC
  5
FC
100
AcDbEntity
  8
M0
 62
     7
100
AcDbCircle
 10
471.727236
 20
1569.326966
 40
5.0
100
AcDbArc
 50
90.0
 51
269.999825
  0
LINE
  5
FD
100
AcDbEntity
  8
M0
 62
     7
100
AcDbLine
 10
284.727236
 20
1595.826966
 11
284.727236
 21
1730.326966
  0
ARC
  5
FE
100
AcDbEntity
  8
M0
 62
     7
100
AcDbCircle
 10
286.227236
 20
1595.826966
 40
1.5
100
AcDbArc
 50
180.0
 51
270.0
  0
ARC
  5
FF
100
AcDbEntity
  8
M0
 62
     7
100
AcDbCircle
 10
286.227236
 20
1592.826966
 40
1.5
100
AcDbArc
 50
0.0
 51
89.999417
  0
LINE
  5
100
100
AcDbEntity
  8
M0
 62
     7
100
AcDbLine
 10
482.727236
 20
1595.826966
 11
482.727236
 21
1730.326966
  0
LINE
  5
101
100
AcDbEntity
  8
M0
 62
     7
100
AcDbLine
 10
300.627245
 20
1550.326968
 11
346.227236
 21
1550.326968
  0
ARC
  5
102
100
AcDbEntity
  8
M0
 62
     7
100
AcDbCircle
 10
300.627245
 20
1547.326968
 40
3.0
100
AcDbArc
 50
89.999709
 51
163.739737
  0
ARC
  5
103
100
AcDbEntity
  8
M0
 62
     7
100
AcDbCircle
 10
293.627245
 20
1548.326968
 40
4.0
100
AcDbArc
 50
270.0
 51
343.739817
  0
LINE
  5
104
100
AcDbEntity
  8
M0
 62
     7
100
AcDbLine
 10
297.74724
 20
1548.166968
 11
297.467241
 21
1547.206968
  0
LINE
  5
105
100
AcDbEntity
  8
M0
 62
     7
100
AcDbLine
 10
291.727236
 20
1544.326968
 11
293.627245
 21
1544.326968
  0
ARC
  5
106
100
AcDbEntity
  8
M0
 62
     7
100
AcDbCircle
 10
385.727236
 20
1666.176957
 40
1.0
100
AcDbArc
 50
0.0
 51
90.0
  0
LINE
  5
107
100
AcDbEntity
  8
M0
 62
     7
100
AcDbLine
 10
381.727236
 20
1667.176957
 11
385.727236
 21
1667.176957
  0
ARC
  5
108
100
AcDbEntity
  8
M0
 62
     7
100
AcDbCircle
 10
381.727236
 20
1666.176957
 40
1.0
100
AcDbArc
 50
90.0
 51
180.0
  0
LINE
  5
109
100
AcDbEntity
  8
M0
 62
     7
100
AcDbLine
 10
380.727236
 20
1666.176789
 11
380.727236
 21
1664.176789
  0
LINE
  5
10A
100
AcDbEntity
  8
M0
 62
     7
100
AcDbLine
 10
386.727236
 20
1666.176789
 11
386.727236
 21
1664.176789
  0
LINE
  5
10B
100
AcDbEntity
  8
M0
 62
     7
100
AcDbLine
 10
377.227236
 20
1664.176957
 11
380.727236
 21
1664.176789
  0
LINE
  5
10C
100
AcDbEntity
  8
M0
 62
     7
100
AcDbLine
 10
377.227236
 20
1664.176957
 11
377.227236
 21
1660.97696
  0
LINE
  5
10D
100
AcDbEntity
  8
M0
 62
     7
100
AcDbLine
 10
390.227236
 20
1664.176957
 11
390.227236
 21
1660.97696
  0
LINE
  5
10E
100
AcDbEntity
  8
M0
 62
     7
100
AcDbLine
 10
392.027235
 20
1660.97696
 11
390.227236
 21
1660.97696
  0
ARC
  5
10F
100
AcDbEntity
  8
M0
 62
     7
100
AcDbCircle
 10
392.027235
 20
1657.97696
 40
3.0
100
AcDbArc
 50
0.0
 51
90.0
  0
LINE
  5
110
100
AcDbEntity
  8
M0
 62
     7
100
AcDbLine
 10
377.227236
 20
1660.97696
 11
375.427236
 21
1660.97696
  0
ARC
  5
111
100
AcDbEntity
  8
M0
 62
     7
100
AcDbCircle
 10
375.427236
 20
1657.97696
 40
3.0
100
AcDbArc
 50
90.0
 51
180.0
  0
LINE
  5
112
100
AcDbEntity
  8
M0
 62
     7
100
AcDbLine
 10
372.427236
 20
1634.676957
 11
395.027235
 21
1634.676957
  0
LINE
  5
113
100
AcDbEntity
  8
M0
 62
     7
100
AcDbLine
 10
372.427236
 20
1657.97696
 11
372.427236
 21
1634.676957
  0
LINE
  5
114
100
AcDbEntity
  8
M0
 62
     7
100
AcDbLine
 10
395.027235
 20
1634.676957
 11
395.027235
 21
1657.97696
  0
LINE
  5
115
100
AcDbEntity
  8
M0
 62
     7
100
AcDbLine
 10
380.726015
 20
1647.676789
 11
386.726503
 21
1647.676789
  0
LINE
  5
116
100
AcDbEntity
  8
M0
 62
     7
100
AcDbLine
 10
380.726015
 20
1642.676789
 11
386.726503
 21
1642.676789
  0
LINE
  5
117
100
AcDbEntity
  8
M0
 62
     7
100
AcDbLine
 10
386.727236
 20
1664.176789
 11
390.227236
 21
1664.176957
  0
LINE
  5
118
100
AcDbEntity
  8
M0
 62
     6
100
AcDbLine
 10
497.627233
 20
1684.326964
 11
482.727233
 21
1684.326969
  0
LINE
  5
119
100
AcDbEntity
  8
M0
 62
     6
100
AcDbLine
 10
482.727233
 20
1684.326969
 11
482.727205
 21
1594.326969
  0
LINE
  5
11A
100
AcDbEntity
  8
M0
 62
     6
100
AcDbLine
 10
482.727205
 20
1594.326969
 11
497.627204
 21
1594.326964
  0
LINE
  5
11B
100
AcDbEntity
  8
M0
 62
     6
100
AcDbLine
 10
497.627204
 20
1594.326964
 11
497.627233
 21
1684.326964
  0
LINE
  5
11C
100
AcDbEntity
  8
M0
  6
DASHDOT
 62
     6
100
AcDbLine
 10
502.627218
 20
1639.326962
 11
477.727219
 21
1639.32697
  0
LINE
  5
11D
100
AcDbEntity
  8
M0
 62
     6
100
AcDbLine
 10
484.677213
 20
1621.326968
 11
484.677213
 21
1622.826968
  0
LINE
  5
11E
100
AcDbEntity
  8
M0
 62
     6
100
AcDbLine
 10
495.677213
 20
1621.326964
 11
495.677213
 21
1622.826964
  0
LINE
  5
11F
100
AcDbEntity
  8
M0
 62
     6
100
AcDbLine
 10
484.677213
 20
1622.826968
 11
495.677213
 21
1622.826964
  0
LINE
  5
120
100
AcDbEntity
  8
M0
 62
     6
100
AcDbLine
 10
485.677217
 20
1632.926958
 11
485.677213
 21
1622.826968
  0
LINE
  5
121
100
AcDbEntity
  8
M0
 62
     6
100
AcDbLine
 10
485.677213
 20
1621.326968
 11
485.677204
 21
1594.326968
  0
LINE
  5
122
100
AcDbEntity
  8
M0
 62
     6
100
AcDbLine
 10
494.677217
 20
1632.926956
 11
494.677213
 21
1622.826965
  0
LINE
  5
123
100
AcDbEntity
  8
M0
 62
     6
100
AcDbLine
 10
494.677213
 20
1621.326965
 11
494.677204
 21
1594.326965
  0
LINE
  5
124
100
AcDbEntity
  8
M0
 62
     6
100
AcDbLine
 10
495.677213
 20
1621.326964
 11
494.677213
 21
1621.326965
  0
LINE
  5
125
100
AcDbEntity
  8
M0
 62
     6
100
AcDbLine
 10
485.677213
 20
1621.326968
 11
484.677213
 21
1621.326968
  0
LINE
  5
126
100
AcDbEntity
  8
M0
 62
     6
100
AcDbLine
 10
494.677217
 20
1632.926956
 11
485.677217
 21
1632.926958
  0
LINE
  5
127
100
AcDbEntity
  8
M0
 62
     6
100
AcDbLine
 10
485.677206
 20
1600.326968
 11
494.677206
 21
1600.326965
  0
LINE
  5
128
100
AcDbEntity
  8
M0
 62
     6
100
AcDbLine
 10
482.727211
 20
1614.326969
 11
485.677211
 21
1614.326968
  0
LINE
  5
129
100
AcDbEntity
  8
M0
 62
     6
100
AcDbLine
 10
494.677211
 20
1614.326965
 11
497.627211
 21
1614.326964
  0
LINE
  5
12A
100
AcDbEntity
  8
M0
 62
     6
100
AcDbLine
 10
495.677224
 20
1657.326964
 11
495.677224
 21
1655.826964
  0
LINE
  5
12B
100
AcDbEntity
  8
M0
 62
     6
100
AcDbLine
 10
484.677224
 20
1655.826968
 11
495.677224
 21
1655.826964
  0
LINE
  5
12C
100
AcDbEntity
  8
M0
 62
     6
100
AcDbLine
 10
494.677221
 20
1645.726959
 11
494.677224
 21
1655.826965
  0
LINE
  5
12D
100
AcDbEntity
  8
M0
 62
     6
100
AcDbLine
 10
494.677224
 20
1657.326965
 11
494.677233
 21
1684.326965
  0
LINE
  5
12E
100
AcDbEntity
  8
M0
 62
     6
100
AcDbLine
 10
495.677224
 20
1657.326964
 11
494.677224
 21
1657.326965
  0
LINE
  5
12F
100
AcDbEntity
  8
M0
 62
     6
100
AcDbLine
 10
494.677221
 20
1645.726959
 11
485.677221
 21
1645.726962
  0
LINE
  5
130
100
AcDbEntity
  8
M0
 62
     6
100
AcDbLine
 10
485.677231
 20
1678.326968
 11
494.677231
 21
1678.326965
  0
LINE
  5
131
100
AcDbEntity
  8
M0
 62
     6
100
AcDbLine
 10
494.677226
 20
1664.326965
 11
497.627226
 21
1664.326964
  0
LINE
  5
132
100
AcDbEntity
  8
M0
 62
     6
100
AcDbLine
 10
485.677221
 20
1645.726962
 11
485.677224
 21
1655.826968
  0
LINE
  5
133
100
AcDbEntity
  8
M0
 62
     6
100
AcDbLine
 10
484.677224
 20
1657.326968
 11
484.677224
 21
1655.826968
  0
LINE
  5
134
100
AcDbEntity
  8
M0
 62
     6
100
AcDbLine
 10
485.677224
 20
1657.326968
 11
484.677224
 21
1657.326968
  0
LINE
  5
135
100
AcDbEntity
  8
M0
 62
     6
100
AcDbLine
 10
485.677224
 20
1657.326968
 11
485.677233
 21
1684.326968
  0
LINE
  5
136
100
AcDbEntity
  8
M0
 62
     6
100
AcDbLine
 10
482.727227
 20
1664.326969
 11
485.677226
 21
1664.326968
  0
CIRCLE
  5
137
100
AcDbEntity
  8
M0
 62
     6
100
AcDbCircle
 10
490.177219
 20
1639.326966
 40
2.799999
  0
LINE
  5
138
100
AcDbEntity
  8
M0
 62
     6
100
AcDbLine
 10
269.827239
 20
1684.326964
 11
284.727238
 21
1684.326969
  0
LINE
  5
139
100
AcDbEntity
  8
M0
 62
     6
100
AcDbLine
 10
284.727238
 20
1684.326969
 11
284.727266
 21
1594.326969
  0
LINE
  5
13A
100
AcDbEntity
  8
M0
 62
     6
100
AcDbLine
 10
284.727266
 20
1594.326969
 11
269.827267
 21
1594.326964
  0
LINE
  5
13B
100
AcDbEntity
  8
M0
 62
     6
100
AcDbLine
 10
269.827267
 20
1594.326964
 11
269.827239
 21
1684.326964
  0
LINE
  5
13C
100
AcDbEntity
  8
M0
 62
     6
100
AcDbLine
 10
282.777258
 20
1621.326968
 11
282.777258
 21
1622.826968
  0
LINE
  5
13D
100
AcDbEntity
  8
M0
 62
     6
100
AcDbLine
 10
271.777258
 20
1621.326964
 11
271.777258
 21
1622.826964
  0
LINE
  5
13E
100
AcDbEntity
  8
M0
 62
     6
100
AcDbLine
 10
282.777258
 20
1622.826968
 11
271.777258
 21
1622.826964
  0
LINE
  5
13F
100
AcDbEntity
  8
M0
 62
     6
100
AcDbLine
 10
281.777255
 20
1632.926958
 11
281.777258
 21
1622.826968
  0
LINE
  5
140
100
AcDbEntity
  8
M0
 62
     6
100
AcDbLine
 10
281.777258
 20
1621.326968
 11
281.777267
 21
1594.326968
  0
LINE
  5
141
100
AcDbEntity
  8
M0
 62
     6
100
AcDbLine
 10
272.777255
 20
1632.926956
 11
272.777258
 21
1622.826965
  0
LINE
  5
142
100
AcDbEntity
  8
M0
 62
     6
100
AcDbLine
 10
272.777258
 20
1621.326965
 11
272.777267
 21
1594.326965
  0
LINE
  5
143
100
AcDbEntity
  8
M0
 62
     6
100
AcDbLine
 10
271.777258
 20
1621.326964
 11
272.777258
 21
1621.326965
  0
LINE
  5
144
100
AcDbEntity
  8
M0
 62
     6
100
AcDbLine
 10
281.777258
 20
1621.326968
 11
282.777258
 21
1621.326968
  0
LINE
  5
145
100
AcDbEntity
  8
M0
 62
     6
100
AcDbLine
 10
272.777255
 20
1632.926956
 11
281.777255
 21
1632.926958
  0
LINE
  5
146
100
AcDbEntity
  8
M0
 62
     6
100
AcDbLine
 10
281.777265
 20
1600.326968
 11
272.777265
 21
1600.326965
  0
LINE
  5
147
100
AcDbEntity
  8
M0
 62
     6
100
AcDbLine
 10
284.72726
 20
1614.326969
 11
281.77726
 21
1614.326968
  0
LINE
  5
148
100
AcDbEntity
  8
M0
 62
     6
100
AcDbLine
 10
272.77726
 20
1614.326965
 11
269.827261
 21
1614.326964
  0
LINE
  5
149
100
AcDbEntity
  8
M0
 62
     6
100
AcDbLine
 10
271.777247
 20
1657.326964
 11
271.777247
 21
1655.826964
  0
LINE
  5
14A
100
AcDbEntity
  8
M0
 62
     6
100
AcDbLine
 10
282.777247
 20
1655.826968
 11
271.777247
 21
1655.826964
  0
LINE
  5
14B
100
AcDbEntity
  8
M0
 62
     6
100
AcDbLine
 10
272.777251
 20
1645.726959
 11
272.777247
 21
1655.826965
  0
LINE
  5
14C
100
AcDbEntity
  8
M0
 62
     6
100
AcDbLine
 10
272.777247
 20
1657.326965
 11
272.777238
 21
1684.326965
  0
LINE
  5
14D
100
AcDbEntity
  8
M0
 62
     6
100
AcDbLine
 10
271.777247
 20
1657.326964
 11
272.777247
 21
1657.326965
  0
LINE
  5
14E
100
AcDbEntity
  8
M0
 62
     6
100
AcDbLine
 10
272.777251
 20
1645.726959
 11
281.777251
 21
1645.726962
  0
LINE
  5
14F
100
AcDbEntity
  8
M0
 62
     6
100
AcDbLine
 10
281.77724
 20
1678.326968
 11
272.77724
 21
1678.326965
  0
LINE
  5
150
100
AcDbEntity
  8
M0
 62
     6
100
AcDbLine
 10
272.777245
 20
1664.326965
 11
269.827245
 21
1664.326964
  0
LINE
  5
151
100
AcDbEntity
  8
M0
 62
     6
100
AcDbLine
 10
281.777251
 20
1645.726962
 11
281.777247
 21
1655.826968
  0
LINE
  5
152
100
AcDbEntity
  8
M0
 62
     6
100
AcDbLine
 10
282.777247
 20
1657.326968
 11
282.777247
 21
1655.826968
  0
LINE
  5
153
100
AcDbEntity
  8
M0
 62
     6
100
AcDbLine
 10
281.777247
 20
1657.326968
 11
282.777247
 21
1657.326968
  0
LINE
  5
154
100
AcDbEntity
  8
M0
 62
     6
100
AcDbLine
 10
281.777247
 20
1657.326968
 11
281.777238
 21
1684.326968
  0
LINE
  5
155
100
AcDbEntity
  8
M0
 62
     6
100
AcDbLine
 10
284.727245
 20
1664.326969
 11
281.777245
 21
1664.326968
  0
CIRCLE
  5
156
100
AcDbEntity
  8
M0
 62
     6
100
AcDbCircle
 10
277.277253
 20
1639.326966
 40
2.799999
  0
LINE
  5
157
100
AcDbEntity
  8
M0
100
AcDbLine
 10
513.677233
 20
1514.326981
 11
513.677233
 21
1764.326966
  0
LINE
  5
158
100
AcDbEntity
  8
M0
100
AcDbLine
 10
513.677187
 20
1764.326936
 11
473.727388
 21
1764.326753
  0
LINE
  5
159
100
AcDbEntity
  8
M0
100
AcDbLine
 10
253.777239
 20
1764.326966
 11
253.777239
 21
1514.326981
  0
LINE
  5
15A
100
AcDbEntity
  8
M0
100
AcDbLine
 10
253.725954
 20
1514.326936
 11
293.725435
 21
1514.326936
  0
LINE
  5
15B
100
AcDbEntity
  8
M0
  6
DASHDOT
100
AcDbLine
 10
228.777239
 20
1639.326966
 11
538.677233
 21
1639.326966
  0
CIRCLE
  5
15C
100
AcDbEntity
  8
M0
100
AcDbCircle
 10
413.727236
 20
1750.326966
 40
5.75
  0
CIRCLE
  5
15D
100
AcDbEntity
  8
M0
100
AcDbCircle
 10
413.727236
 20
1528.326968
 40
5.75
  0
ARC
  5
15E
100
AcDbEntity
  8
M0
100
AcDbCircle
 10
413.727236
 20
1750.326966
 40
11.5
100
AcDbArc
 50
175.014058
 51
490.709348
  0
ARC
  5
15F
100
AcDbEntity
  8
M0
100
AcDbCircle
 10
413.727236
 20
1528.326968
 40
11.5
100
AcDbArc
 50
229.289899
 51
560.357632
  0
LINE
  5
160
100
AcDbEntity
  8
M0
100
AcDbLine
 10
485.677233
 20
1709.326966
 11
485.677233
 21
1707.326966
  0
LINE
  5
161
100
AcDbEntity
  8
M0
100
AcDbLine
 10
513.677233
 20
1707.326966
 11
485.677233
 21
1707.326966
  0
LINE
  5
162
100
AcDbEntity
  8
M0
100
AcDbLine
 10
513.677233
 20
1733.826966
 11
510.47722
 21
1733.826966
  0
LINE
  5
163
100
AcDbEntity
  8
M0
100
AcDbLine
 10
510.47722
 20
1764.326966
 11
510.47722
 21
1733.826966
  0
LINE
  5
164
100
AcDbEntity
  8
M0
100
AcDbLine
 10
510.47722
 20
1707.326966
 11
510.47722
 21
1684.326966
  0
LINE
  5
165
100
AcDbEntity
  8
M0
100
AcDbLine
 10
253.777239
 20
1733.826966
 11
256.547792
 21
1733.826966
  0
LINE
  5
166
100
AcDbEntity
  8
M0
100
AcDbLine
 10
256.977251
 20
1764.326966
 11
256.977251
 21
1733.826966
  0
LINE
  5
167
100
AcDbEntity
  8
M0
100
AcDbLine
 10
406.226503
 20
1514.326936
 11
428.725527
 21
1514.326936
  0
LINE
  5
168
100
AcDbEntity
  8
M0
100
AcDbLine
 10
473.727388
 20
1514.326936
 11
513.728426
 21
1514.326936
  0
ARC
  5
169
100
AcDbEntity
  8
M0
100
AcDbCircle
 10
468.727236
 20
1528.326936
 40
11.5
100
AcDbArc
 50
281.395572
 51
353.377809
  0
LINE
  5
16A
100
AcDbEntity
  8
M0
100
AcDbLine
 10
338.725771
 20
1514.326936
 11
361.226503
 21
1514.326936
  0
ARC
  5
16B
100
AcDbEntity
  8
M0
100
AcDbCircle
 10
298.727251
 20
1528.326968
 40
11.5
100
AcDbArc
 50
29.59086
 51
125.881475
  0
LINE
  5
16C
100
AcDbEntity
  8
M0
100
AcDbLine
 10
428.725527
 20
1764.326692
 11
406.226747
 21
1764.326692
  0
LINE
  5
16D
100
AcDbEntity
  8
M0
100
AcDbLine
 10
361.226747
 20
1764.326692
 11
338.725771
 21
1764.326447
  0
LINE
  5
16E
100
AcDbEntity
  8
M0
100
AcDbLine
 10
293.725298
 20
1764.326753
 11
253.777239
 21
1764.326936
  0
ARC
  5
16F
100
AcDbEntity
  8
M0
100
AcDbCircle
 10
298.727236
 20
1750.326936
 40
11.5
100
AcDbArc
 50
101.405039
 51
330.405189
  0
ARC
  5
170
100
AcDbEntity
  8
M0
100
AcDbCircle
 10
468.725527
 20
1750.326203
 40
11.5
100
AcDbArc
 50
209.607305
 51
438.600477
  0
ARC
  5
171
100
AcDbEntity
  8
M0
100
AcDbCircle
 10
468.727236
 20
1528.326968
 40
11.5
100
AcDbArc
 50
54.119484
 51
150.409148
  0
ARC
  5
172
100
AcDbEntity
  8
M0
100
AcDbCircle
 10
298.727236
 20
1528.326936
 40
11.5
100
AcDbArc
 50
186.620772
 51
258.594663
  0
LINE
  5
173
100
AcDbEntity
  8
M0
  6
DASHDOT
100
AcDbLine
 10
383.72612
 20
1452.745927
 11
383.7279
 21
1826.895783
  0
ARC
  5
174
100
AcDbEntity
  8
M0
 62
     2
100
AcDbCircle
 10
258.727236
 20
1729.326966
 40
5.0
100
AcDbArc
 50
89.999825
 51
180.0
  0
LINE
  5
175
100
AcDbEntity
  8
M0
 62
     2
100
AcDbLine
 10
293.727236
 20
1734.326966
 11
258.727236
 21
1734.326966
  0
ARC
  5
176
100
AcDbEntity
  8
M0
 62
     2
100
AcDbCircle
 10
293.727236
 20
1730.326966
 40
4.0
100
AcDbArc
 50
0.0
 51
89.999781
  0
LINE
  5
177
100
AcDbEntity
  8
M0
 62
     2
100
AcDbLine
 10
253.727236
 20
1709.326936
 11
284.727236
 21
1709.326936
  0
LINE
  5
178
100
AcDbEntity
  8
M0
 62
     2
100
AcDbLine
 10
253.727236
 20
1729.326966
 11
253.727236
 21
1519.326981
  0
ARC
  5
179
100
AcDbEntity
  8
M0
 62
     2
100
AcDbCircle
 10
258.727236
 20
1519.326981
 40
5.0
100
AcDbArc
 50
179.999825
 51
270.0
  0
ARC
  5
17A
100
AcDbEntity
  8
M0
 62
     2
100
AcDbCircle
 10
293.727236
 20
1548.326967
 40
4.0
100
AcDbArc
 50
270.0
 51
360.0
  0
ARC
  5
17B
100
AcDbEntity
  8
M0
 62
     2
100
AcDbCircle
 10
291.727236
 20
1548.326967
 40
4.0
100
AcDbArc
 50
179.999973
 51
270.0
  0
LINE
  5
17C
100
AcDbEntity
  8
M0
 62
     2
100
AcDbLine
 10
293.727236
 20
1544.326967
 11
275.727236
 21
1544.326967
  0
LINE
  5
17D
100
AcDbEntity
  8
M0
 62
     2
100
AcDbLine
 10
270.727236
 20
1544.326967
 11
253.727236
 21
1544.326967
  0
LINE
  5
17E
100
AcDbEntity
  8
M0
 62
     2
100
AcDbLine
 10
258.727236
 20
1514.326981
 11
278.464647
 21
1514.326981
  0
ARC
  5
17F
100
AcDbEntity
  8
M0
 62
     2
100
AcDbCircle
 10
278.464647
 20
1519.326981
 40
5.0
100
AcDbArc
 50
270.0
 51
336.250448
  0
LINE
  5
180
100
AcDbEntity
  8
M0
 62
     2
100
AcDbLine
 10
292.727236
 20
1539.326967
 11
292.727236
 21
1544.326967
  0
LINE
  5
181
100
AcDbEntity
  8
M0
 62
     2
100
AcDbLine
 10
253.727236
 20
1594.326966
 11
286.227236
 21
1594.326966
  0
LINE
  5
182
100
AcDbEntity
  8
M0
 62
     2
100
AcDbLine
 10
270.727236
 20
1594.326966
 11
270.727236
 21
1544.326967
  0
LINE
  5
183
100
AcDbEntity
  8
M0
 62
     2
100
AcDbLine
 10
275.727236
 20
1544.326967
 11
275.727236
 21
1594.326966
  0
LINE
  5
184
100
AcDbEntity
  8
M0
 62
     2
100
AcDbLine
 10
270.727236
 20
1557.326966
 11
273.227236
 21
1560.326966
  0
LINE
  5
185
100
AcDbEntity
  8
M0
 62
     2
100
AcDbLine
 10
270.727236
 20
1544.326967
 11
273.227236
 21
1547.326967
  0
LINE
  5
186
100
AcDbEntity
  8
M0
 62
     2
100
AcDbLine
 10
275.727236
 20
1557.326966
 11
273.227236
 21
1560.326966
  0
LINE
  5
187
100
AcDbEntity
  8
M0
 62
     2
100
AcDbLine
 10
275.727236
 20
1544.326967
 11
273.227236
 21
1547.326967
  0
LINE
  5
188
100
AcDbEntity
  8
M0
 62
     2
100
AcDbLine
 10
253.727236
 20
1557.326966
 11
270.727236
 21
1557.326966
  0
LINE
  5
189
100
AcDbEntity
  8
M0
 62
     2
100
AcDbLine
 10
275.727236
 20
1557.326966
 11
287.727236
 21
1557.326966
  0
LINE
  5
18A
100
AcDbEntity
  8
M0
 62
     2
100
AcDbLine
 10
273.227236
 20
1594.326966
 11
273.227236
 21
1547.326967
  0
LINE
  5
18B
100
AcDbEntity
  8
M0
 62
     2
100
AcDbLine
 10
258.727236
 20
1557.326966
 11
258.727236
 21
1584.826966
  0
LINE
  5
18C
100
AcDbEntity
  8
M0
 62
     2
100
AcDbLine
 10
267.727236
 20
1557.326966
 11
267.727236
 21
1584.826966
  0
LINE
  5
18D
100
AcDbEntity
  8
M0
 62
     2
100
AcDbLine
 10
278.727236
 20
1584.826966
 11
278.727236
 21
1557.326966
  0
LINE
  5
18E
100
AcDbEntity
  8
M0
 62
     2
100
AcDbLine
 10
258.727236
 20
1587.326966
 11
258.727236
 21
1594.326966
  0
ARC
  5
18F
100
AcDbEntity
  8
M0
 62
     2
100
AcDbCircle
 10
260.727236
 20
1587.326966
 40
2.0
100
AcDbArc
 50
180.0
 51
270.0
  0
LINE
  5
190
100
AcDbEntity
  8
M0
 62
     2
100
AcDbLine
 10
267.727236
 20
1587.326966
 11
267.727236
 21
1594.326966
  0
LINE
  5
191
100
AcDbEntity
  8
M0
 62
     2
100
AcDbLine
 10
278.727236
 20
1594.326966
 11
278.727236
 21
1587.326966
  0
ARC
  5
192
100
AcDbEntity
  8
M0
 62
     2
100
AcDbCircle
 10
280.727236
 20
1587.326966
 40
2.0
100
AcDbArc
 50
180.0
 51
270.0
  0
LINE
  5
193
100
AcDbEntity
  8
M0
 62
     2
100
AcDbLine
 10
283.041216
 20
1517.313279
 11
292.727236
 21
1539.326967
  0
LINE
  5
194
100
AcDbEntity
  8
M0
 62
     2
100
AcDbLine
 10
260.727236
 20
1585.326966
 11
265.727236
 21
1585.326966
  0
ARC
  5
195
100
AcDbEntity
  8
M0
 62
     2
100
AcDbCircle
 10
265.727236
 20
1587.326966
 40
2.0
100
AcDbArc
 50
270.0
 51
360.0
  0
LINE
  5
196
100
AcDbEntity
  8
M0
 62
     2
100
AcDbLine
 10
280.727236
 20
1585.326966
 11
287.727236
 21
1585.326966
  0
LINE
  5
197
100
AcDbEntity
  8
M0
 62
     2
100
AcDbLine
 10
278.727236
 20
1584.826966
 11
287.727236
 21
1584.826966
  0
LINE
  5
198
100
AcDbEntity
  8
M0
 62
     2
100
AcDbLine
 10
258.727236
 20
1584.826966
 11
267.727236
 21
1584.826966
  0
CIRCLE
  5
199
100
AcDbEntity
  8
M0
 62
     2
100
AcDbCircle
 10
263.227236
 20
1562.326966
 40
3.0
  0
CIRCLE
  5
19A
100
AcDbEntity
  8
M0
 62
     2
100
AcDbCircle
 10
263.227236
 20
1570.326966
 40
3.0
  0
CIRCLE
  5
19B
100
AcDbEntity
  8
M0
 62
     2
100
AcDbCircle
 10
263.227236
 20
1578.326966
 40
3.0
  0
CIRCLE
  5
19C
100
AcDbEntity
  8
M0
 62
     2
100
AcDbCircle
 10
283.227236
 20
1562.326966
 40
3.0
  0
CIRCLE
  5
19D
100
AcDbEntity
  8
M0
 62
     2
100
AcDbCircle
 10
283.227236
 20
1570.326966
 40
3.0
  0
CIRCLE
  5
19E
100
AcDbEntity
  8
M0
 62
     2
100
AcDbCircle
 10
283.227236
 20
1578.326966
 40
3.0
  0
ARC
  5
19F
100
AcDbEntity
  8
M0
 62
     2
100
AcDbCircle
 10
508.727236
 20
1729.326966
 40
5.0
100
AcDbArc
 50
0.0
 51
90.0
  0
LINE
  5
1A0
100
AcDbEntity
  8
M0
 62
     2
100
AcDbLine
 10
473.727236
 20
1734.326966
 11
508.727236
 21
1734.326966
  0
ARC
  5
1A1
100
AcDbEntity
  8
M0
 62
     2
100
AcDbCircle
 10
473.727236
 20
1730.326966
 40
4.0
100
AcDbArc
 50
90.0
 51
180.0
  0
LINE
  5
1A2
100
AcDbEntity
  8
M0
 62
     2
100
AcDbLine
 10
513.727236
 20
1709.326936
 11
482.727236
 21
1709.326692
  0
LINE
  5
1A3
100
AcDbEntity
  8
M0
 62
     2
100
AcDbLine
 10
513.727236
 20
1729.326966
 11
513.727236
 21
1519.326981
  0
ARC
  5
1A4
100
AcDbEntity
  8
M0
 62
     2
100
AcDbCircle
 10
508.727236
 20
1519.326981
 40
5.0
100
AcDbArc
 50
-90.000175
 51
0.0
  0
ARC
  5
1A5
100
AcDbEntity
  8
M0
 62
     2
100
AcDbCircle
 10
473.727236
 20
1548.326967
 40
4.0
100
AcDbArc
 50
179.999973
 51
269.999781
  0
ARC
  5
1A6
100
AcDbEntity
  8
M0
 62
     2
100
AcDbCircle
 10
475.727236
 20
1548.326967
 40
4.0
100
AcDbArc
 50
-90.000219
 51
0.0
  0
LINE
  5
1A7
100
AcDbEntity
  8
M0
 62
     2
100
AcDbLine
 10
473.727236
 20
1544.326967
 11
491.727236
 21
1544.326967
  0
LINE
  5
1A8
100
AcDbEntity
  8
M0
 62
     2
100
AcDbLine
 10
496.727236
 20
1544.326967
 11
513.727236
 21
1544.326967
  0
LINE
  5
1A9
100
AcDbEntity
  8
M0
 62
     2
100
AcDbLine
 10
508.727236
 20
1514.326981
 11
488.989824
 21
1514.326981
  0
ARC
  5
1AA
100
AcDbEntity
  8
M0
 62
     2
100
AcDbCircle
 10
488.989824
 20
1519.326981
 40
5.0
100
AcDbArc
 50
203.749392
 51
269.999825
  0
LINE
  5
1AB
100
AcDbEntity
  8
M0
 62
     2
100
AcDbLine
 10
474.727236
 20
1539.326967
 11
474.727236
 21
1544.326967
  0
LINE
  5
1AC
100
AcDbEntity
  8
M0
 62
     2
100
AcDbLine
 10
513.727236
 20
1594.326966
 11
481.22722
 21
1594.326966
  0
LINE
  5
1AD
100
AcDbEntity
  8
M0
 62
     2
100
AcDbLine
 10
496.727236
 20
1594.326966
 11
496.727236
 21
1544.326967
  0
LINE
  5
1AE
100
AcDbEntity
  8
M0
 62
     2
100
AcDbLine
 10
491.727236
 20
1544.326967
 11
491.727236
 21
1594.326966
  0
LINE
  5
1AF
100
AcDbEntity
  8
M0
 62
     2
100
AcDbLine
 10
496.727236
 20
1557.326966
 11
494.227236
 21
1560.326966
  0
LINE
  5
1B0
100
AcDbEntity
  8
M0
 62
     2
100
AcDbLine
 10
496.727236
 20
1544.326967
 11
494.227236
 21
1547.326967
  0
LINE
  5
1B1
100
AcDbEntity
  8
M0
 62
     2
100
AcDbLine
 10
491.727236
 20
1557.326966
 11
494.227236
 21
1560.326966
  0
LINE
  5
1B2
100
AcDbEntity
  8
M0
 62
     2
100
AcDbLine
 10
491.727236
 20
1544.326967
 11
494.227236
 21
1547.326967
  0
LINE
  5
1B3
100
AcDbEntity
  8
M0
 62
     2
100
AcDbLine
 10
513.727236
 20
1557.326966
 11
496.727236
 21
1557.326966
  0
LINE
  5
1B4
100
AcDbEntity
  8
M0
 62
     2
100
AcDbLine
 10
491.727236
 20
1557.326966
 11
479.727236
 21
1557.326966
  0
LINE
  5
1B5
100
AcDbEntity
  8
M0
 62
     2
100
AcDbLine
 10
494.227236
 20
1594.326966
 11
494.227236
 21
1547.326967
  0
LINE
  5
1B6
100
AcDbEntity
  8
M0
 62
     2
100
AcDbLine
 10
508.727236
 20
1557.326966
 11
508.727236
 21
1584.826966
  0
LINE
  5
1B7
100
AcDbEntity
  8
M0
 62
     2
100
AcDbLine
 10
499.727236
 20
1557.326966
 11
499.727236
 21
1584.826966
  0
LINE
  5
1B8
100
AcDbEntity
  8
M0
 62
     2
100
AcDbLine
 10
488.727236
 20
1584.826966
 11
488.727236
 21
1557.326966
  0
LINE
  5
1B9
100
AcDbEntity
  8
M0
 62
     2
100
AcDbLine
 10
508.727236
 20
1587.326966
 11
508.727236
 21
1594.326966
  0
ARC
  5
1BA
100
AcDbEntity
  8
M0
 62
     2
100
AcDbCircle
 10
506.727236
 20
1587.326966
 40
2.0
100
AcDbArc
 50
-90.000437
 51
0.0
  0
LINE
  5
1BB
100
AcDbEntity
  8
M0
 62
     2
100
AcDbLine
 10
499.727236
 20
1587.326966
 11
499.727236
 21
1594.326966
  0
LINE
  5
1BC
100
AcDbEntity
  8
M0
 62
     2
100
AcDbLine
 10
488.727236
 20
1594.326966
 11
488.727236
 21
1587.326966
  0
ARC
  5
1BD
100
AcDbEntity
  8
M0
 62
     2
100
AcDbCircle
 10
486.727236
 20
1587.326966
 40
2.0
100
AcDbArc
 50
-90.000437
 51
0.0
  0
LINE
  5
1BE
100
AcDbEntity
  8
M0
 62
     2
100
AcDbLine
 10
484.413255
 20
1517.313279
 11
474.727236
 21
1539.326967
  0
LINE
  5
1BF
100
AcDbEntity
  8
M0
 62
     2
100
AcDbLine
 10
506.727236
 20
1585.326966
 11
501.727236
 21
1585.326966
  0
ARC
  5
1C0
100
AcDbEntity
  8
M0
 62
     2
100
AcDbCircle
 10
501.727236
 20
1587.326966
 40
2.0
100
AcDbArc
 50
180.0
 51
269.999563
  0
LINE
  5
1C1
100
AcDbEntity
  8
M0
 62
     2
100
AcDbLine
 10
486.727236
 20
1585.326966
 11
479.727236
 21
1585.326966
  0
LINE
  5
1C2
100
AcDbEntity
  8
M0
 62
     2
100
AcDbLine
 10
488.727236
 20
1584.826966
 11
479.727236
 21
1584.826966
  0
LINE
  5
1C3
100
AcDbEntity
  8
M0
 62
     2
100
AcDbLine
 10
508.727236
 20
1584.826966
 11
499.727236
 21
1584.826966
  0
CIRCLE
  5
1C4
100
AcDbEntity
  8
M0
 62
     2
100
AcDbCircle
 10
504.227236
 20
1562.326966
 40
3.0
  0
CIRCLE
  5
1C5
100
AcDbEntity
  8
M0
 62
     2
100
AcDbCircle
 10
504.227236
 20
1570.326966
 40
3.0
  0
CIRCLE
  5
1C6
100
AcDbEntity
  8
M0
 62
     2
100
AcDbCircle
 10
504.227236
 20
1578.326966
 40
3.0
  0
CIRCLE
  5
1C7
100
AcDbEntity
  8
M0
 62
     2
100
AcDbCircle
 10
484.227236
 20
1562.326966
 40
3.0
  0
CIRCLE
  5
1C8
100
AcDbEntity
  8
M0
 62
     2
100
AcDbCircle
 10
484.227236
 20
1570.326966
 40
3.0
  0
CIRCLE
  5
1C9
100
AcDbEntity
  8
M0
 62
     2
100
AcDbCircle
 10
484.227236
 20
1578.326966
 40
3.0
  0
CIRCLE
  5
1CA
100
AcDbEntity
  8
M0
100
AcDbCircle
 10
490.177187
 20
1673.326936
 40
3.5
  0
CIRCLE
  5
1CB
100
AcDbEntity
  8
M0
100
AcDbCircle
 10
277.277284
 20
1673.326936
 40
3.5
  0
CIRCLE
  5
1CC
100
AcDbEntity
  8
M0
100
AcDbCircle
 10
277.277284
 20
1650.826936
 40
3.5
  0
CIRCLE
  5
1CD
100
AcDbEntity
  8
M0
100
AcDbCircle
 10
277.277284
 20
1605.326936
 40
3.5
  0
CIRCLE
  5
1CE
100
AcDbEntity
  8
M0
100
AcDbCircle
 10
277.277284
 20
1627.826936
 40
3.5
  0
ARC
  5
1CF
100
AcDbEntity
  8
M0
100
AcDbCircle
 10
280.377286
 20
1624.026938
 40
1.0
100
AcDbArc
 50
-90.0
 51
3.597218E-005
  0
LINE
  5
1D0
100
AcDbEntity
  8
M0
100
AcDbLine
 10
280.377287
 20
1623.026938
 11
274.177288
 21
1623.026935
  0
ARC
  5
1D1
100
AcDbEntity
  8
M0
100
AcDbCircle
 10
274.177287
 20
1624.026935
 40
1.0
100
AcDbArc
 50
180.000036
 51
270.0
  0
LINE
  5
1D2
100
AcDbEntity
  8
M0
100
AcDbLine
 10
273.177287
 20
1624.026934
 11
273.177283
 21
1631.626932
  0
ARC
  5
1D3
100
AcDbEntity
  8
M0
100
AcDbCircle
 10
274.177283
 20
1631.626933
 40
1.0
100
AcDbArc
 50
90.0
 51
180.000036
  0
LINE
  5
1D4
100
AcDbEntity
  8
M0
100
AcDbLine
 10
274.177282
 20
1632.626933
 11
280.377281
 21
1632.626937
  0
LINE
  5
1D5
100
AcDbEntity
  8
M0
100
AcDbLine
 10
281.377281
 20
1631.626938
 11
281.377286
 21
1624.026939
  0
ARC
  5
1D6
100
AcDbEntity
  8
M0
100
AcDbCircle
 10
280.377281
 20
1631.626937
 40
1.0
100
AcDbArc
 50
-1.866939E-005
 51
90.0
  0
CIRCLE
  5
1D7
100
AcDbEntity
  8
M0
100
AcDbCircle
 10
490.177187
 20
1650.826936
 40
3.5
  0
CIRCLE
  5
1D8
100
AcDbEntity
  8
M0
100
AcDbCircle
 10
490.177187
 20
1627.826936
 40
3.5
  0
CIRCLE
  5
1D9
100
AcDbEntity
  8
M0
100
AcDbCircle
 10
490.177187
 20
1605.326936
 40
3.5
  0
LINE
  5
1DA
100
AcDbEntity
  8
M0
 62
     6
100
AcDbLine
 10
512.527135
 20
1684.326964
 11
497.627135
 21
1684.326969
  0
LINE
  5
1DB
100
AcDbEntity
  8
M0
 62
     6
100
AcDbLine
 10
497.627135
 20
1684.326969
 11
497.627107
 21
1594.326969
  0
LINE
  5
1DC
100
AcDbEntity
  8
M0
 62
     6
100
AcDbLine
 10
497.627107
 20
1594.326969
 11
512.527107
 21
1594.326964
  0
LINE
  5
1DD
100
AcDbEntity
  8
M0
 62
     6
100
AcDbLine
 10
512.527107
 20
1594.326964
 11
512.527135
 21
1684.326964
  0
LINE
  5
1DE
100
AcDbEntity
  8
M0
  6
DASHDOT
 62
     6
100
AcDbLine
 10
517.527121
 20
1639.326962
 11
492.627121
 21
1639.32697
  0
LINE
  5
1DF
100
AcDbEntity
  8
M0
 62
     6
100
AcDbLine
 10
499.577115
 20
1621.326968
 11
499.577116
 21
1622.826968
  0
LINE
  5
1E0
100
AcDbEntity
  8
M0
 62
     6
100
AcDbLine
 10
510.577115
 20
1621.326964
 11
510.577116
 21
1622.826964
  0
LINE
  5
1E1
100
AcDbEntity
  8
M0
 62
     6
100
AcDbLine
 10
499.577116
 20
1622.826968
 11
510.577116
 21
1622.826964
  0
LINE
  5
1E2
100
AcDbEntity
  8
M0
 62
     6
100
AcDbLine
 10
500.577119
 20
1632.926958
 11
500.577116
 21
1622.826968
  0
LINE
  5
1E3
100
AcDbEntity
  8
M0
 62
     6
100
AcDbLine
 10
500.577115
 20
1621.326968
 11
500.577107
 21
1594.326968
  0
LINE
  5
1E4
100
AcDbEntity
  8
M0
 62
     6
100
AcDbLine
 10
509.577119
 20
1632.926956
 11
509.577116
 21
1622.826965
  0
LINE
  5
1E5
100
AcDbEntity
  8
M0
 62
     6
100
AcDbLine
 10
509.577115
 20
1621.326965
 11
509.577107
 21
1594.326965
  0
LINE
  5
1E6
100
AcDbEntity
  8
M0
 62
     6
100
AcDbLine
 10
510.577115
 20
1621.326964
 11
509.577115
 21
1621.326965
  0
LINE
  5
1E7
100
AcDbEntity
  8
M0
 62
     6
100
AcDbLine
 10
500.577115
 20
1621.326968
 11
499.577115
 21
1621.326968
  0
LINE
  5
1E8
100
AcDbEntity
  8
M0
 62
     6
100
AcDbLine
 10
509.577119
 20
1632.926956
 11
500.577119
 21
1632.926958
  0
LINE
  5
1E9
100
AcDbEntity
  8
M0
 62
     6
100
AcDbLine
 10
500.577109
 20
1600.326968
 11
509.577109
 21
1600.326965
  0
LINE
  5
1EA
100
AcDbEntity
  8
M0
 62
     6
100
AcDbLine
 10
497.627113
 20
1614.326969
 11
500.577113
 21
1614.326968
  0
LINE
  5
1EB
100
AcDbEntity
  8
M0
 62
     6
100
AcDbLine
 10
509.577113
 20
1614.326965
 11
512.527113
 21
1614.326964
  0
LINE
  5
1EC
100
AcDbEntity
  8
M0
 62
     6
100
AcDbLine
 10
510.577127
 20
1657.326964
 11
510.577126
 21
1655.826964
  0
LINE
  5
1ED
100
AcDbEntity
  8
M0
 62
     6
100
AcDbLine
 10
499.577126
 20
1655.826968
 11
510.577126
 21
1655.826964
  0
LINE
  5
1EE
100
AcDbEntity
  8
M0
 62
     6
100
AcDbLine
 10
509.577123
 20
1645.726959
 11
509.577126
 21
1655.826965
  0
LINE
  5
1EF
100
AcDbEntity
  8
M0
 62
     6
100
AcDbLine
 10
509.577127
 20
1657.326965
 11
509.577135
 21
1684.326965
  0
LINE
  5
1F0
100
AcDbEntity
  8
M0
 62
     6
100
AcDbLine
 10
510.577127
 20
1657.326964
 11
509.577127
 21
1657.326965
  0
LINE
  5
1F1
100
AcDbEntity
  8
M0
 62
     6
100
AcDbLine
 10
509.577123
 20
1645.726959
 11
500.577123
 21
1645.726962
  0
LINE
  5
1F2
100
AcDbEntity
  8
M0
 62
     6
100
AcDbLine
 10
500.577133
 20
1678.326968
 11
509.577133
 21
1678.326965
  0
LINE
  5
1F3
100
AcDbEntity
  8
M0
 62
     6
100
AcDbLine
 10
509.577129
 20
1664.326965
 11
512.527129
 21
1664.326964
  0
LINE
  5
1F4
100
AcDbEntity
  8
M0
 62
     6
100
AcDbLine
 10
500.577123
 20
1645.726962
 11
500.577126
 21
1655.826968
  0
LINE
  5
1F5
100
AcDbEntity
  8
M0
 62
     6
100
AcDbLine
 10
499.577127
 20
1657.326968
 11
499.577126
 21
1655.826968
  0
LINE
  5
1F6
100
AcDbEntity
  8
M0
 62
     6
100
AcDbLine
 10
500.577127
 20
1657.326968
 11
499.577127
 21
1657.326968
  0
LINE
  5
1F7
100
AcDbEntity
  8
M0
 62
     6
100
AcDbLine
 10
500.577127
 20
1657.326968
 11
500.577135
 21
1684.326968
  0
LINE
  5
1F8
100
AcDbEntity
  8
M0
 62
     6
100
AcDbLine
 10
497.627129
 20
1664.326969
 11
500.577129
 21
1664.326968
  0
CIRCLE
  5
1F9
100
AcDbEntity
  8
M0
 62
     6
100
AcDbCircle
 10
505.077121
 20
1639.326966
 40
2.799999
  0
CIRCLE
  5
1FA
100
AcDbEntity
  8
M0
100
AcDbCircle
 10
505.077089
 20
1673.326936
 40
3.5
  0
CIRCLE
  5
1FB
100
AcDbEntity
  8
M0
100
AcDbCircle
 10
505.077089
 20
1650.826936
 40
3.5
  0
CIRCLE
  5
1FC
100
AcDbEntity
  8
M0
100
AcDbCircle
 10
505.077089
 20
1627.826936
 40
3.5
  0
CIRCLE
  5
1FD
100
AcDbEntity
  8
M0
100
AcDbCircle
 10
505.077089
 20
1605.326936
 40
3.5
  0
LINE
  5
1FE
100
AcDbEntity
  8
M0
 62
     6
100
AcDbLine
 10
269.827428
 20
1684.326964
 11
254.927428
 21
1684.326969
  0
LINE
  5
1FF
100
AcDbEntity
  8
M0
 62
     6
100
AcDbLine
 10
254.927428
 20
1684.326969
 11
254.9274
 21
1594.326969
  0
LINE
  5
200
100
AcDbEntity
  8
M0
 62
     6
100
AcDbLine
 10
254.9274
 20
1594.326969
 11
269.8274
 21
1594.326964
  0
LINE
  5
201
100
AcDbEntity
  8
M0
 62
     6
100
AcDbLine
 10
269.8274
 20
1594.326964
 11
269.827428
 21
1684.326964
  0
LINE
  5
202
100
AcDbEntity
  8
M0
 62
     6
100
AcDbLine
 10
256.877408
 20
1621.326968
 11
256.877409
 21
1622.826968
  0
LINE
  5
203
100
AcDbEntity
  8
M0
 62
     6
100
AcDbLine
 10
267.877408
 20
1621.326964
 11
267.877409
 21
1622.826964
  0
LINE
  5
204
100
AcDbEntity
  8
M0
 62
     6
100
AcDbLine
 10
256.877409
 20
1622.826968
 11
267.877409
 21
1622.826964
  0
LINE
  5
205
100
AcDbEntity
  8
M0
 62
     6
100
AcDbLine
 10
257.877412
 20
1632.926958
 11
257.877409
 21
1622.826968
  0
LINE
  5
206
100
AcDbEntity
  8
M0
 62
     6
100
AcDbLine
 10
257.877408
 20
1621.326968
 11
257.8774
 21
1594.326968
  0
LINE
  5
207
100
AcDbEntity
  8
M0
 62
     6
100
AcDbLine
 10
266.877412
 20
1632.926956
 11
266.877409
 21
1622.826965
  0
LINE
  5
208
100
AcDbEntity
  8
M0
 62
     6
100
AcDbLine
 10
266.877408
 20
1621.326965
 11
266.8774
 21
1594.326965
  0
LINE
  5
209
100
AcDbEntity
  8
M0
 62
     6
100
AcDbLine
 10
267.877408
 20
1621.326964
 11
266.877408
 21
1621.326965
  0
LINE
  5
20A
100
AcDbEntity
  8
M0
 62
     6
100
AcDbLine
 10
257.877408
 20
1621.326968
 11
256.877408
 21
1621.326968
  0
LINE
  5
20B
100
AcDbEntity
  8
M0
 62
     6
100
AcDbLine
 10
266.877412
 20
1632.926956
 11
257.877412
 21
1632.926958
  0
LINE
  5
20C
100
AcDbEntity
  8
M0
 62
     6
100
AcDbLine
 10
257.877402
 20
1600.326968
 11
266.877402
 21
1600.326965
  0
LINE
  5
20D
100
AcDbEntity
  8
M0
 62
     6
100
AcDbLine
 10
254.927406
 20
1614.326969
 11
257.877406
 21
1614.326968
  0
LINE
  5
20E
100
AcDbEntity
  8
M0
 62
     6
100
AcDbLine
 10
266.877406
 20
1614.326965
 11
269.827406
 21
1614.326964
  0
LINE
  5
20F
100
AcDbEntity
  8
M0
 62
     6
100
AcDbLine
 10
267.87742
 20
1657.326964
 11
267.877419
 21
1655.826964
  0
LINE
  5
210
100
AcDbEntity
  8
M0
 62
     6
100
AcDbLine
 10
256.877419
 20
1655.826968
 11
267.877419
 21
1655.826964
  0
LINE
  5
211
100
AcDbEntity
  8
M0
 62
     6
100
AcDbLine
 10
266.877416
 20
1645.726959
 11
266.877419
 21
1655.826965
  0
LINE
  5
212
100
AcDbEntity
  8
M0
 62
     6
100
AcDbLine
 10
266.87742
 20
1657.326965
 11
266.877428
 21
1684.326965
  0
LINE
  5
213
100
AcDbEntity
  8
M0
 62
     6
100
AcDbLine
 10
267.87742
 20
1657.326964
 11
266.87742
 21
1657.326965
  0
LINE
  5
214
100
AcDbEntity
  8
M0
 62
     6
100
AcDbLine
 10
266.877416
 20
1645.726959
 11
257.877416
 21
1645.726962
  0
LINE
  5
215
100
AcDbEntity
  8
M0
 62
     6
100
AcDbLine
 10
257.877426
 20
1678.326968
 11
266.877426
 21
1678.326965
  0
LINE
  5
216
100
AcDbEntity
  8
M0
 62
     6
100
AcDbLine
 10
266.877422
 20
1664.326965
 11
269.827422
 21
1664.326964
  0
LINE
  5
217
100
AcDbEntity
  8
M0
 62
     6
100
AcDbLine
 10
257.877416
 20
1645.726962
 11
257.877419
 21
1655.826968
  0
LINE
  5
218
100
AcDbEntity
  8
M0
 62
     6
100
AcDbLine
 10
256.87742
 20
1657.326968
 11
256.877419
 21
1655.826968
  0
LINE
  5
219
100
AcDbEntity
  8
M0
 62
     6
100
AcDbLine
 10
257.87742
 20
1657.326968
 11
256.87742
 21
1657.326968
  0
LINE
  5
21A
100
AcDbEntity
  8
M0
 62
     6
100
AcDbLine
 10
257.87742
 20
1657.326968
 11
257.877428
 21
1684.326968
  0
LINE
  5
21B
100
AcDbEntity
  8
M0
 62
     6
100
AcDbLine
 10
254.927422
 20
1664.326969
 11
257.877422
 21
1664.326968
  0
CIRCLE
  5
21C
100
AcDbEntity
  8
M0
 62
     6
100
AcDbCircle
 10
262.377414
 20
1639.326966
 40
2.799999
  0
CIRCLE
  5
21D
100
AcDbEntity
  8
M0
100
AcDbCircle
 10
262.377382
 20
1605.326936
 40
3.5
  0
CIRCLE
  5
21E
100
AcDbEntity
  8
M0
100
AcDbCircle
 10
262.377382
 20
1627.826936
 40
3.5
  0
ARC
  5
21F
100
AcDbEntity
  8
M0
100
AcDbCircle
 10
265.477384
 20
1624.026938
 40
1.0
100
AcDbArc
 50
-90.0
 51
3.597218E-005
  0
LINE
  5
220
100
AcDbEntity
  8
M0
100
AcDbLine
 10
265.477385
 20
1623.026938
 11
259.277386
 21
1623.026935
  0
ARC
  5
221
100
AcDbEntity
  8
M0
100
AcDbCircle
 10
259.277385
 20
1624.026935
 40
1.0
100
AcDbArc
 50
180.000036
 51
270.0
  0
LINE
  5
222
100
AcDbEntity
  8
M0
100
AcDbLine
 10
258.277385
 20
1624.026934
 11
258.27738
 21
1631.626932
  0
ARC
  5
223
100
AcDbEntity
  8
M0
100
AcDbCircle
 10
259.27738
 20
1631.626933
 40
1.0
100
AcDbArc
 50
90.0
 51
180.000036
  0
LINE
  5
224
100
AcDbEntity
  8
M0
100
AcDbLine
 10
259.27738
 20
1632.626933
 11
265.477378
 21
1632.626937
  0
LINE
  5
225
100
AcDbEntity
  8
M0
100
AcDbLine
 10
266.477379
 20
1631.626938
 11
266.477384
 21
1624.026939
  0
ARC
  5
226
100
AcDbEntity
  8
M0
100
AcDbCircle
 10
265.477379
 20
1631.626937
 40
1.0
100
AcDbArc
 50
-1.866939E-005
 51
90.0
  0
CIRCLE
  5
227
100
AcDbEntity
  8
M0
100
AcDbCircle
 10
262.377382
 20
1650.826936
 40
3.5
  0
CIRCLE
  5
228
100
AcDbEntity
  8
M0
100
AcDbCircle
 10
262.377382
 20
1673.326936
 40
3.5
  0
LINE
  5
229
100
AcDbEntity
  8
M0
  6
DASHED
100
AcDbLine
 10
351.72722
 20
1733.44925
 11
351.72722
 21
1859.326936
  0
LINE
  5
22A
100
AcDbEntity
  8
M0
  6
DASHED
100
AcDbLine
 10
415.727205
 20
1734.034944
 11
415.727205
 21
1859.326936
  0
LINE
  5
22B
100
AcDbEntity
  8
M0
  6
DASHED
100
AcDbLine
 10
341.72722
 20
1859.326936
 11
351.72722
 21
1859.326936
  0
LINE
  5
22C
100
AcDbEntity
  8
M0
  6
DASHED
100
AcDbLine
 10
425.727205
 20
1859.326936
 11
425.727205
 21
1728.326936
  0
LINE
  5
22D
100
AcDbEntity
  8
M0
  6
DASHED
100
AcDbLine
 10
341.72722
 20
1859.326936
 11
341.72722
 21
1728.326936
  0
LINE
  5
22E
100
AcDbEntity
  8
M0
  6
DASHED
100
AcDbLine
 10
415.727205
 20
1859.326936
 11
425.727205
 21
1859.326936
  0
LINE
  5
22F
100
AcDbEntity
  8
M0
  6
DASHED
100
AcDbLine
 10
341.72722
 20
1403.326981
 11
351.72722
 21
1403.326981
  0
LINE
  5
230
100
AcDbEntity
  8
M0
  6
DASHED
100
AcDbLine
 10
415.727205
 20
1403.326981
 11
425.727205
 21
1403.326981
  0
LINE
  5
231
100
AcDbEntity
  8
M0
  6
DASHED
100
AcDbLine
 10
341.72722
 20
1403.326981
 11
341.72722
 21
1550.326936
  0
LINE
  5
232
100
AcDbEntity
  8
M0
  6
DASHED
100
AcDbLine
 10
425.727205
 20
1403.326981
 11
425.727205
 21
1550.326936
  0
LINE
  5
233
100
AcDbEntity
  8
M0
  6
DASHED
100
AcDbLine
 10
351.72722
 20
1545.204377
 11
351.72722
 21
1403.326981
  0
LINE
  5
234
100
AcDbEntity
  8
M0
  6
DASHED
100
AcDbLine
 10
415.727205
 20
1544.618684
 11
415.727205
 21
1403.326981
  0
LINE
  5
235
100
AcDbEntity
  8
M0
100
AcDbLine
 10
253.725954
 20
1764.326936
 11
253.725954
 21
1514.326936
  0
LINE
  5
236
100
AcDbEntity
  8
M0
100
AcDbLine
 10
338.725771
 20
1764.326692
 11
338.725771
 21
1818.326203
  0
LINE
  5
237
100
AcDbEntity
  8
M0
100
AcDbLine
 10
513.725649
 20
1764.326936
 11
513.725496
 21
1514.326936
  0
LINE
  5
238
100
AcDbEntity
  8
M0
100
AcDbLine
 10
406.226137
 20
1456.32634
 11
406.226216
 21
1524.326341
  0
LINE
  5
239
100
AcDbEntity
  8
M0
100
AcDbLine
 10
386.726695
 20
1647.676775
 11
386.726676
 21
1642.676775
  0
LINE
  5
23A
100
AcDbEntity
  8
M0
100
AcDbLine
 10
380.726015
 20
1647.676788
 11
380.726015
 21
1642.676788
  0
LINE
  5
23B
100
AcDbEntity
  8
M0
100
AcDbLine
 10
428.728609
 20
1458.325746
 11
428.728639
 21
1514.326478
  0
LINE
  5
23C
100
AcDbEntity
  8
M0
100
AcDbLine
 10
513.728578
 20
1764.326936
 11
513.728426
 21
1514.326936
  0
LINE
  5
23D
100
AcDbEntity
  8
M0
100
AcDbLine
 10
428.728792
 20
1764.326203
 11
428.728822
 21
1818.325715
  0
LINE
  5
23E
100
AcDbEntity
  8
M0
100
AcDbLine
 10
338.727013
 20
1822.328131
 11
338.726986
 21
1728.32694
  0
LINE
  5
23F
100
AcDbEntity
  8
M0
100
AcDbLine
 10
498.727007
 20
1729.832246
 11
492.227007
 21
1726.079469
  0
LINE
  5
240
100
AcDbEntity
  8
M0
100
AcDbLine
 10
492.227007
 20
1726.079469
 11
492.227007
 21
1718.57393
  0
LINE
  5
241
100
AcDbEntity
  8
M0
100
AcDbLine
 10
492.227007
 20
1718.57393
 11
498.726991
 21
1714.821153
  0
LINE
  5
242
100
AcDbEntity
  8
M0
100
AcDbLine
 10
498.726991
 20
1714.821153
 11
505.226991
 21
1718.57393
  0
LINE
  5
243
100
AcDbEntity
  8
M0
100
AcDbLine
 10
505.226991
 20
1718.57393
 11
505.227007
 21
1726.079469
  0
LINE
  5
244
100
AcDbEntity
  8
M0
100
AcDbLine
 10
505.227007
 20
1726.079469
 11
498.727007
 21
1729.832246
  0
CIRCLE
  5
245
100
AcDbEntity
  8
M0
100
AcDbCircle
 10
498.727007
 20
1722.326707
 40
6.5
  0
LINE
  5
246
100
AcDbEntity
  8
M0
100
AcDbLine
 10
498.727007
 20
1536.832246
 11
492.227007
 21
1533.079469
  0
LINE
  5
247
100
AcDbEntity
  8
M0
100
AcDbLine
 10
492.227007
 20
1533.079469
 11
492.227007
 21
1525.57393
  0
LINE
  5
248
100
AcDbEntity
  8
M0
100
AcDbLine
 10
492.227007
 20
1525.57393
 11
498.726991
 21
1521.821153
  0
LINE
  5
249
100
AcDbEntity
  8
M0
100
AcDbLine
 10
498.726991
 20
1521.821153
 11
505.226991
 21
1525.57393
  0
LINE
  5
24A
100
AcDbEntity
  8
M0
100
AcDbLine
 10
505.226991
 20
1525.57393
 11
505.227007
 21
1533.079469
  0
LINE
  5
24B
100
AcDbEntity
  8
M0
100
AcDbLine
 10
505.227007
 20
1533.079469
 11
498.727007
 21
1536.832246
  0
CIRCLE
  5
24C
100
AcDbEntity
  8
M0
100
AcDbCircle
 10
498.727007
 20
1529.326707
 40
6.5
  0
LINE
  5
24D
100
AcDbEntity
  8
M0
100
AcDbLine
 10
268.727251
 20
1536.832246
 11
262.227251
 21
1533.079469
  0
LINE
  5
24E
100
AcDbEntity
  8
M0
100
AcDbLine
 10
262.227251
 20
1533.079469
 11
262.227251
 21
1525.57393
  0
LINE
  5
24F
100
AcDbEntity
  8
M0
100
AcDbLine
 10
262.227251
 20
1525.57393
 11
268.727236
 21
1521.821153
  0
LINE
  5
250
100
AcDbEntity
  8
M0
100
AcDbLine
 10
268.727236
 20
1521.821153
 11
275.227236
 21
1525.57393
  0
LINE
  5
251
100
AcDbEntity
  8
M0
100
AcDbLine
 10
275.227236
 20
1525.57393
 11
275.227251
 21
1533.079469
  0
LINE
  5
252
100
AcDbEntity
  8
M0
100
AcDbLine
 10
275.227251
 20
1533.079469
 11
268.727251
 21
1536.832246
  0
CIRCLE
  5
253
100
AcDbEntity
  8
M0
100
AcDbCircle
 10
268.727251
 20
1529.326707
 40
6.5
  0
LINE
  5
254
100
AcDbEntity
  8
M0
100
AcDbLine
 10
268.727251
 20
1729.832246
 11
262.227251
 21
1726.079469
  0
LINE
  5
255
100
AcDbEntity
  8
M0
100
AcDbLine
 10
262.227251
 20
1726.079469
 11
262.227251
 21
1718.57393
  0
LINE
  5
256
100
AcDbEntity
  8
M0
100
AcDbLine
 10
262.227251
 20
1718.57393
 11
268.727236
 21
1714.821153
  0
LINE
  5
257
100
AcDbEntity
  8
M0
100
AcDbLine
 10
268.727236
 20
1714.821153
 11
275.227236
 21
1718.57393
  0
LINE
  5
258
100
AcDbEntity
  8
M0
100
AcDbLine
 10
275.227236
 20
1718.57393
 11
275.227251
 21
1726.079469
  0
LINE
  5
259
100
AcDbEntity
  8
M0
100
AcDbLine
 10
275.227251
 20
1726.079469
 11
268.727251
 21
1729.832246
  0
CIRCLE
  5
25A
100
AcDbEntity
  8
M0
100
AcDbCircle
 10
268.727251
 20
1722.326707
 40
6.5
  0
CIRCLE
  5
25B
100
AcDbEntity
  8
M0
100
AcDbCircle
 10
498.726991
 20
1529.326707
 40
9.0
  0
LINE
  5
25C
100
AcDbEntity
  8
M0
  6
DASHDOT
100
AcDbLine
 10
511.226991
 20
1529.326707
 11
486.226991
 21
1529.326707
  0
LINE
  5
25D
100
AcDbEntity
  8
M0
  6
DASHDOT
100
AcDbLine
 10
498.726991
 20
1516.826707
 11
498.726991
 21
1541.826707
  0
CIRCLE
  5
25E
100
AcDbEntity
  8
M0
100
AcDbCircle
 10
268.727236
 20
1529.326707
 40
9.0
  0
LINE
  5
25F
100
AcDbEntity
  8
M0
  6
DASHDOT
100
AcDbLine
 10
281.227236
 20
1529.326707
 11
256.227236
 21
1529.326707
  0
LINE
  5
260
100
AcDbEntity
  8
M0
  6
DASHDOT
100
AcDbLine
 10
268.727236
 20
1516.826707
 11
268.727236
 21
1541.826707
  0
CIRCLE
  5
261
100
AcDbEntity
  8
M0
100
AcDbCircle
 10
268.727236
 20
1722.326707
 40
9.0
  0
LINE
  5
262
100
AcDbEntity
  8
M0
  6
DASHDOT
100
AcDbLine
 10
281.227236
 20
1722.326707
 11
256.227236
 21
1722.326707
  0
LINE
  5
263
100
AcDbEntity
  8
M0
  6
DASHDOT
100
AcDbLine
 10
268.727236
 20
1709.826707
 11
268.727236
 21
1734.826707
  0
CIRCLE
  5
264
100
AcDbEntity
  8
M0
100
AcDbCircle
 10
498.726991
 20
1722.326707
 40
9.0
  0
LINE
  5
265
100
AcDbEntity
  8
M0
  6
DASHDOT
100
AcDbLine
 10
511.226991
 20
1722.326707
 11
486.226991
 21
1722.326707
  0
LINE
  5
266
100
AcDbEntity
  8
M0
  6
DASHDOT
100
AcDbLine
 10
498.726991
 20
1709.826707
 11
498.726991
 21
1734.826707
  0
CIRCLE
  5
267
100
AcDbEntity
  8
M0
100
AcDbCircle
 10
471.727007
 20
1569.326692
 40
5.0
  0
CIRCLE
  5
268
100
AcDbEntity
  8
M0
100
AcDbCircle
 10
295.727007
 20
1569.326692
 40
5.0
  0
CIRCLE
  5
269
100
AcDbEntity
  8
M0
100
AcDbCircle
 10
292.727007
 20
1709.326692
 40
5.0
  0
CIRCLE
  5
26A
100
AcDbEntity
  8
M0
100
AcDbCircle
 10
474.727007
 20
1709.326692
 40
5.0
  0
LINE
  5
26B
100
AcDbEntity
  8
M0
100
AcDbLine
 10
1058.445482
 20
1734.326936
 11
1058.445482
 21
1728.326936
  0
ARC
  5
26C
100
AcDbEntity
  8
M0
100
AcDbCircle
 10
1028.645677
 20
1731.326936
 40
3.0
100
AcDbArc
 50
90.0
 51
180.0
  0
LINE
  5
26D
100
AcDbEntity
  8
M0
100
AcDbLine
 10
1028.645677
 20
1734.326936
 11
1058.445482
 21
1734.326936
  0
LINE
  5
26E
100
AcDbEntity
  8
M0
100
AcDbLine
 10
1058.445482
 20
1550.326936
 11
1058.445482
 21
1544.326936
  0
LINE
  5
26F
100
AcDbEntity
  8
M0
100
AcDbLine
 10
1025.645677
 20
1547.326936
 11
1025.645677
 21
1731.326936
  0
ARC
  5
270
100
AcDbEntity
  8
M0
100
AcDbCircle
 10
1028.645677
 20
1547.326936
 40
3.0
100
AcDbArc
 50
179.999709
 51
269.999709
  0
LINE
  5
271
100
AcDbEntity
  8
M0
100
AcDbLine
 10
1028.645677
 20
1544.326936
 11
1058.445482
 21
1544.326936
  0
LINE
  5
272
100
AcDbEntity
  8
M0
100
AcDbLine
 10
1153.445497
 20
1514.326936
 11
1153.445497
 21
1734.326936
  0
LINE
  5
273
100
AcDbEntity
  8
M0
  6
DASHDOT
100
AcDbLine
 10
973.36043
 20
1639.326936
 11
1158.445497
 21
1639.326936
  0
ARC
  5
274
100
AcDbEntity
  8
M0
100
AcDbCircle
 10
1115.445497
 20
1642.076936
 40
3.0
100
AcDbArc
 50
109.475658
 51
179.999982
  0
LINE
  5
275
100
AcDbEntity
  8
M0
100
AcDbLine
 10
1112.445497
 20
1642.076936
 11
1112.445497
 21
1636.576936
  0
ARC
  5
276
100
AcDbEntity
  8
M0
100
AcDbCircle
 10
1115.445497
 20
1636.576936
 40
3.0
100
AcDbArc
 50
179.999964
 51
250.528902
  0
ARC
  5
277
100
AcDbEntity
  8
M0
100
AcDbCircle
 10
1126.445497
 20
1582.826936
 40
4.0
100
AcDbArc
 50
179.999781
 51
269.996503
  0
ARC
  5
278
100
AcDbEntity
  8
M0
100
AcDbCircle
 10
1126.445497
 20
1695.826936
 40
4.0
100
AcDbArc
 50
90.0
 51
180.0
  0
LINE
  5
279
100
AcDbEntity
  8
M0
100
AcDbLine
 10
1153.445497
 20
1699.826936
 11
1126.445497
 21
1699.826936
  0
LINE
  5
27A
100
AcDbEntity
  8
M0
100
AcDbLine
 10
1153.445497
 20
1578.826936
 11
1126.445497
 21
1578.826936
  0
ARC
  5
27B
100
AcDbEntity
  8
M0
100
AcDbCircle
 10
1113.445497
 20
1675.326936
 40
3.0
100
AcDbArc
 50
90.0
 51
180.0
  0
LINE
  5
27C
100
AcDbEntity
  8
M0
100
AcDbLine
 10
1114.445497
 20
1678.326936
 11
1113.445497
 21
1678.326936
  0
LINE
  5
27D
100
AcDbEntity
  8
M0
100
AcDbLine
 10
1122.445497
 20
1686.326936
 11
1122.445497
 21
1695.826936
  0
ARC
  5
27E
100
AcDbEntity
  8
M0
100
AcDbCircle
 10
1114.445497
 20
1686.326936
 40
7.999992
100
AcDbArc
 50
269.998251
 51
360.0
  0
ARC
  5
27F
100
AcDbEntity
  8
M0
100
AcDbCircle
 10
1113.445497
 20
1603.326936
 40
3.0
100
AcDbArc
 50
179.999709
 51
269.995337
  0
LINE
  5
280
100
AcDbEntity
  8
M0
100
AcDbLine
 10
1122.445497
 20
1582.826936
 11
1122.445497
 21
1592.326936
  0
LINE
  5
281
100
AcDbEntity
  8
M0
100
AcDbLine
 10
1114.445497
 20
1600.326936
 11
1113.445497
 21
1600.326936
  0
ARC
  5
282
100
AcDbEntity
  8
M0
100
AcDbCircle
 10
1114.445497
 20
1592.326936
 40
7.999992
100
AcDbArc
 50
0.0
 51
90.0
  0
LINE
  5
283
100
AcDbEntity
  8
M0
100
AcDbLine
 10
1110.445497
 20
1675.326936
 11
1110.445497
 21
1603.326936
  0
ARC
  5
284
100
AcDbEntity
  8
M0
100
AcDbCircle
 10
1113.445497
 20
1654.326936
 40
3.0
100
AcDbArc
 50
90.0
 51
179.999982
  0
ARC
  5
285
100
AcDbEntity
  8
M0
100
AcDbCircle
 10
1113.445497
 20
1624.326936
 40
3.0
100
AcDbArc
 50
179.999964
 51
269.995337
  0
LINE
  5
286
100
AcDbEntity
  8
M0
100
AcDbLine
 10
1126.445497
 20
1657.326936
 11
1113.445497
 21
1657.326936
  0
LINE
  5
287
100
AcDbEntity
  8
M0
100
AcDbLine
 10
1126.445497
 20
1621.326936
 11
1113.445497
 21
1621.326936
  0
LINE
  5
288
100
AcDbEntity
  8
M0
100
AcDbLine
 10
1095.445497
 20
1645.826936
 11
1110.445497
 21
1645.826936
  0
LINE
  5
289
100
AcDbEntity
  8
M0
100
AcDbLine
 10
1095.445497
 20
1632.826936
 11
1110.445497
 21
1632.826936
  0
LINE
  5
28A
100
AcDbEntity
  8
M0
100
AcDbLine
 10
1138.445497
 20
1734.326936
 11
1138.445497
 21
1713.326936
  0
ARC
  5
28B
100
AcDbEntity
  8
M0
100
AcDbCircle
 10
1135.445497
 20
1713.326936
 40
3.0
100
AcDbArc
 50
269.995337
 51
360.0
  0
LINE
  5
28C
100
AcDbEntity
  8
M0
100
AcDbLine
 10
1096.445497
 20
1710.326936
 11
1135.445497
 21
1710.326936
  0
ARC
  5
28D
100
AcDbEntity
  8
M0
100
AcDbCircle
 10
1096.445497
 20
1709.326936
 40
1.0
100
AcDbArc
 50
90.0
 51
180.0
  0
LINE
  5
28E
100
AcDbEntity
  8
M0
100
AcDbLine
 10
1095.445497
 20
1594.326936
 11
1095.445497
 21
1709.326936
  0
LINE
  5
28F
100
AcDbEntity
  8
M0
100
AcDbLine
 10
1095.445497
 20
1594.326936
 11
1100.445497
 21
1594.326936
  0
LINE
  5
290
100
AcDbEntity
  8
M0
100
AcDbLine
 10
1100.445497
 20
1594.326936
 11
1100.445497
 21
1557.326936
  0
LINE
  5
291
100
AcDbEntity
  8
M0
100
AcDbLine
 10
1111.445497
 20
1557.326936
 11
1138.445497
 21
1544.326936
  0
LINE
  5
292
100
AcDbEntity
  8
M0
100
AcDbLine
 10
1100.445497
 20
1557.326936
 11
1111.445497
 21
1557.326936
  0
LINE
  5
293
100
AcDbEntity
  8
M0
100
AcDbLine
 10
1138.445497
 20
1544.326936
 11
1138.445497
 21
1514.326936
  0
LINE
  5
294
100
AcDbEntity
  8
M0
100
AcDbLine
 10
1153.445497
 20
1734.326936
 11
1058.445726
 21
1734.326936
  0
ARC
  5
295
100
AcDbEntity
  8
M0
100
AcDbCircle
 10
1085.445726
 20
1525.326936
 40
1.0
100
AcDbArc
 50
179.999126
 51
269.999126
  0
LINE
  5
296
100
AcDbEntity
  8
M0
100
AcDbLine
 10
1085.445726
 20
1524.326936
 11
1115.445497
 21
1524.326936
  0
ARC
  5
297
100
AcDbEntity
  8
M0
100
AcDbCircle
 10
1115.445497
 20
1525.326936
 40
1.0
100
AcDbArc
 50
269.986012
 51
360.0
  0
LINE
  5
298
100
AcDbEntity
  8
M0
100
AcDbLine
 10
1116.445497
 20
1525.326936
 11
1116.445497
 21
1538.826936
  0
LINE
  5
299
100
AcDbEntity
  8
M0
100
AcDbLine
 10
1116.445497
 20
1538.826936
 11
1136.445497
 21
1538.826936
  0
LINE
  5
29A
100
AcDbEntity
  8
M0
100
AcDbLine
 10
1084.445726
 20
1525.326936
 11
1084.445726
 21
1544.326936
  0
LINE
  5
29B
100
AcDbEntity
  8
M0
100
AcDbLine
 10
1136.445497
 20
1544.326936
 11
1136.445497
 21
1538.826936
  0
LINE
  5
29C
100
AcDbEntity
  8
M0
100
AcDbLine
 10
1058.445726
 20
1544.326936
 11
1138.445497
 21
1544.326936
  0
LINE
  5
29D
100
AcDbEntity
  8
M0
100
AcDbLine
 10
1058.445726
 20
1734.326936
 11
1058.445726
 21
1664.326936
  0
LINE
  5
29E
100
AcDbEntity
  8
M0
100
AcDbLine
 10
1138.445497
 20
1514.326936
 11
1153.445497
 21
1514.326936
  0
ARC
  5
29F
100
AcDbEntity
  8
M0
100
AcDbCircle
 10
1085.445726
 20
1753.326936
 40
1.0
100
AcDbArc
 50
90.0
 51
180.0
  0
LINE
  5
2A0
100
AcDbEntity
  8
M0
100
AcDbLine
 10
1085.445726
 20
1754.326936
 11
1115.445497
 21
1754.326936
  0
ARC
  5
2A1
100
AcDbEntity
  8
M0
100
AcDbCircle
 10
1115.445497
 20
1753.326936
 40
1.0
100
AcDbArc
 50
0.0
 51
90.0
  0
LINE
  5
2A2
100
AcDbEntity
  8
M0
100
AcDbLine
 10
1116.445497
 20
1753.326936
 11
1116.445497
 21
1739.826936
  0
LINE
  5
2A3
100
AcDbEntity
  8
M0
100
AcDbLine
 10
1116.445497
 20
1739.826936
 11
1136.445497
 21
1739.826936
  0
LINE
  5
2A4
100
AcDbEntity
  8
M0
100
AcDbLine
 10
1084.445726
 20
1753.326936
 11
1084.445726
 21
1734.326936
  0
LINE
  5
2A5
100
AcDbEntity
  8
M0
100
AcDbLine
 10
1136.445497
 20
1734.326936
 11
1136.445497
 21
1739.826936
  0
LINE
  5
2A6
100
AcDbEntity
  8
M0
100
AcDbLine
 10
1058.445726
 20
1614.326936
 11
1058.445726
 21
1544.326936
  0
LINE
  5
2A7
100
AcDbEntity
  8
M0
100
AcDbLine
 10
1080.445726
 20
1594.326936
 11
1095.445497
 21
1594.326936
  0
ARC
  5
2A8
100
AcDbEntity
  8
M0
100
AcDbCircle
 10
1080.445726
 20
1599.326936
 40
5.0
100
AcDbArc
 50
179.999825
 51
269.999825
  0
LINE
  5
2A9
100
AcDbEntity
  8
M0
100
AcDbLine
 10
1080.445726
 20
1684.326936
 11
1095.445497
 21
1684.326936
  0
ARC
  5
2AA
100
AcDbEntity
  8
M0
100
AcDbCircle
 10
1080.445726
 20
1679.326936
 40
5.0
100
AcDbArc
 50
90.0
 51
180.0
  0
ARC
  5
2AB
100
AcDbEntity
  8
M0
100
AcDbCircle
 10
1053.445726
 20
1661.326936
 40
3.0
100
AcDbArc
 50
90.0
 51
180.0
  0
LINE
  5
2AC
100
AcDbEntity
  8
M0
100
AcDbLine
 10
1050.445726
 20
1617.326936
 11
1050.445726
 21
1661.326936
  0
ARC
  5
2AD
100
AcDbEntity
  8
M0
100
AcDbCircle
 10
1053.445726
 20
1617.326936
 40
3.0
100
AcDbArc
 50
179.999709
 51
269.999709
  0
LINE
  5
2AE
100
AcDbEntity
  8
M0
100
AcDbLine
 10
1075.445726
 20
1599.326936
 11
1075.445726
 21
1604.326936
  0
LINE
  5
2AF
100
AcDbEntity
  8
M0
100
AcDbLine
 10
1053.445726
 20
1614.326936
 11
1065.445726
 21
1614.326936
  0
ARC
  5
2B0
100
AcDbEntity
  8
M0
100
AcDbCircle
 10
1065.445726
 20
1604.326936
 40
9.99999
100
AcDbArc
 50
0.0
 51
90.0
  0
LINE
  5
2B1
100
AcDbEntity
  8
M0
100
AcDbLine
 10
1053.445726
 20
1664.326936
 11
1065.445726
 21
1664.326936
  0
LINE
  5
2B2
100
AcDbEntity
  8
M0
100
AcDbLine
 10
1075.445726
 20
1674.326936
 11
1075.445726
 21
1679.326936
  0
ARC
  5
2B3
100
AcDbEntity
  8
M0
100
AcDbCircle
 10
1065.445726
 20
1674.326936
 40
9.99999
100
AcDbArc
 50
269.999913
 51
360.0
  0
ARC
  5
2B4
100
AcDbEntity
  8
M0
100
AcDbCircle
 10
1095.445497
 20
1642.326936
 40
2.0
100
AcDbArc
 50
90.0
 51
179.999973
  0
LINE
  5
2B5
100
AcDbEntity
  8
M0
100
AcDbLine
 10
1093.445497
 20
1636.326936
 11
1093.445497
 21
1642.326936
  0
ARC
  5
2B6
100
AcDbEntity
  8
M0
100
AcDbCircle
 10
1095.445497
 20
1636.326936
 40
2.0
100
AcDbArc
 50
179.999945
 51
269.993006
  0
LINE
  5
2B7
100
AcDbEntity
  8
M0
100
AcDbLine
 10
1095.445497
 20
1594.326936
 11
1095.445497
 21
1634.326936
  0
LINE
  5
2B8
100
AcDbEntity
  8
M0
100
AcDbLine
 10
1095.445497
 20
1644.326936
 11
1095.445497
 21
1684.326936
  0
LINE
  5
2B9
100
AcDbEntity
  8
M0
100
AcDbLine
 10
1153.445497
 20
1682.326936
 11
1143.445497
 21
1682.326936
  0
ARC
  5
2BA
100
AcDbEntity
  8
M0
100
AcDbCircle
 10
1143.445497
 20
1677.326936
 40
5.0
100
AcDbArc
 50
90.0
 51
180.0
  0
LINE
  5
2BB
100
AcDbEntity
  8
M0
100
AcDbLine
 10
1143.445497
 20
1596.326936
 11
1153.445497
 21
1596.326936
  0
ARC
  5
2BC
100
AcDbEntity
  8
M0
100
AcDbCircle
 10
1143.445497
 20
1601.326936
 40
5.0
100
AcDbArc
 50
179.999825
 51
269.997202
  0
ARC
  5
2BD
100
AcDbEntity
  8
M0
100
AcDbCircle
 10
1131.445497
 20
1667.326936
 40
5.0
100
AcDbArc
 50
90.0
 51
180.0
  0
ARC
  5
2BE
100
AcDbEntity
  8
M0
100
AcDbCircle
 10
1131.445497
 20
1611.326936
 40
5.0
100
AcDbArc
 50
179.999825
 51
269.997202
  0
LINE
  5
2BF
100
AcDbEntity
  8
M0
100
AcDbLine
 10
1131.445497
 20
1672.326936
 11
1135.445497
 21
1672.326936
  0
LINE
  5
2C0
100
AcDbEntity
  8
M0
100
AcDbLine
 10
1138.445497
 20
1677.326936
 11
1138.445497
 21
1675.326936
  0
ARC
  5
2C1
100
AcDbEntity
  8
M0
100
AcDbCircle
 10
1135.445497
 20
1675.326936
 40
3.0
100
AcDbArc
 50
269.995337
 51
360.0
  0
LINE
  5
2C2
100
AcDbEntity
  8
M0
100
AcDbLine
 10
1138.445497
 20
1603.326936
 11
1138.445497
 21
1601.326936
  0
LINE
  5
2C3
100
AcDbEntity
  8
M0
100
AcDbLine
 10
1131.445497
 20
1606.326936
 11
1135.445497
 21
1606.326936
  0
ARC
  5
2C4
100
AcDbEntity
  8
M0
100
AcDbCircle
 10
1135.445497
 20
1603.326936
 40
3.0
100
AcDbArc
 50
0.0
 51
90.0
  0
LINE
  5
2C5
100
AcDbEntity
  8
M0
100
AcDbLine
 10
1114.445497
 20
1645.826936
 11
1114.445497
 21
1632.826936
  0
LINE
  5
2C6
100
AcDbEntity
  8
M0
100
AcDbLine
 10
1126.445497
 20
1667.326936
 11
1126.445497
 21
1645.826936
  0
LINE
  5
2C7
100
AcDbEntity
  8
M0
100
AcDbLine
 10
1126.445497
 20
1632.826936
 11
1126.445497
 21
1611.326936
  0
LINE
  5
2C8
100
AcDbEntity
  8
M0
100
AcDbLine
 10
1153.445497
 20
1596.326936
 11
1153.445497
 21
1626.826936
  0
LINE
  5
2C9
100
AcDbEntity
  8
M0
100
AcDbLine
 10
1153.445497
 20
1651.826936
 11
1153.445497
 21
1682.326936
  0
LINE
  5
2CA
100
AcDbEntity
  8
M0
100
AcDbLine
 10
1114.445497
 20
1632.826936
 11
1126.445497
 21
1632.826936
  0
LINE
  5
2CB
100
AcDbEntity
  8
M0
100
AcDbLine
 10
1114.445497
 20
1645.826936
 11
1126.445497
 21
1645.826936
  0
LINE
  5
2CC
100
AcDbEntity
  8
M0
100
AcDbLine
 10
1223.245302
 20
1758.326936
 11
1183.445497
 21
1758.326936
  0
LINE
  5
2CD
100
AcDbEntity
  8
M0
100
AcDbLine
 10
1153.445497
 20
1737.326936
 11
1153.445497
 21
1545.226838
  0
LINE
  5
2CE
100
AcDbEntity
  8
M0
100
AcDbLine
 10
1218.445497
 20
1520.326936
 11
1223.245302
 21
1520.326936
  0
LINE
  5
2CF
100
AcDbEntity
  8
M0
  6
DASHDOT
100
AcDbLine
 10
1148.445497
 20
1639.326936
 11
1233.445497
 21
1639.326936
  0
LINE
  5
2D0
100
AcDbEntity
  8
M0
100
AcDbLine
 10
1223.245302
 20
1520.326936
 11
1223.245302
 21
1758.326936
  0
LINE
  5
2D1
100
AcDbEntity
  8
M0
100
AcDbLine
 10
1204.545351
 20
1534.226838
 11
1218.445497
 21
1520.326936
  0
LINE
  5
2D2
100
AcDbEntity
  8
M0
100
AcDbLine
 10
1164.445497
 20
1534.226838
 11
1204.545351
 21
1534.226838
  0
ARC
  5
2D3
100
AcDbEntity
  8
M0
100
AcDbCircle
 10
1164.445497
 20
1545.226838
 40
10.999994
100
AcDbArc
 50
179.999921
 51
269.998728
  0
LINE
  5
2D4
100
AcDbEntity
  8
M0
100
AcDbLine
 10
1164.445497
 20
1748.326936
 11
1173.445497
 21
1748.326936
  0
ARC
  5
2D5
100
AcDbEntity
  8
M0
100
AcDbCircle
 10
1164.445497
 20
1737.326936
 40
10.999994
100
AcDbArc
 50
90.0
 51
180.0
  0
LINE
  5
2D6
100
AcDbEntity
  8
M0
100
AcDbLine
 10
1173.445497
 20
1748.326936
 11
1183.445497
 21
1758.326936
  0
LINE
  5
2D7
100
AcDbEntity
  8
M0
100
AcDbLine
 10
1258.045351
 20
1514.326936
 11
1153.445497
 21
1514.326936
  0
LINE
  5
2D8
100
AcDbEntity
  8
M0
  6
DASHED
100
AcDbLine
 10
1255.745546
 20
1764.326936
 11
1255.745546
 21
1758.326936
  0
LINE
  5
2D9
100
AcDbEntity
  8
M0
100
AcDbLine
 10
1258.045351
 20
1764.326936
 11
1235.745546
 21
1764.326936
  0
LINE
  5
2DA
100
AcDbEntity
  8
M0
100
AcDbLine
 10
1235.745546
 20
1764.326936
 11
1223.245546
 21
1758.880402
  0
LINE
  5
2DB
100
AcDbEntity
  8
M0
  6
DASHED
100
AcDbLine
 10
1255.745546
 20
1724.326936
 11
1255.745546
 21
1554.326936
  0
LINE
  5
2DC
100
AcDbEntity
  8
M0
  6
DASHED
100
AcDbLine
 10
1255.745546
 20
1520.326936
 11
1255.745546
 21
1514.326936
  0
LINE
  5
2DD
100
AcDbEntity
  8
M0
  6
DASHDOT
100
AcDbLine
 10
1268.045595
 20
1639.326936
 11
1213.245546
 21
1639.326936
  0
LINE
  5
2DE
100
AcDbEntity
  8
M0
100
AcDbLine
 10
1223.245546
 20
1520.326936
 11
1255.045595
 21
1520.326936
  0
ARC
  5
2DF
100
AcDbEntity
  8
M0
100
AcDbCircle
 10
1255.045595
 20
1523.326936
 40
3.0
100
AcDbArc
 50
269.995337
 51
360.0
  0
ARC
  5
2E0
100
AcDbEntity
  8
M0
100
AcDbCircle
 10
1255.045595
 20
1551.326936
 40
3.0
100
AcDbArc
 50
0.0
 51
90.0
  0
ARC
  5
2E1
100
AcDbEntity
  8
M0
100
AcDbCircle
 10
1255.045595
 20
1727.326936
 40
3.0
100
AcDbArc
 50
269.995337
 51
360.0
  0
LINE
  5
2E2
100
AcDbEntity
  8
M0
100
AcDbLine
 10
1258.045595
 20
1727.326936
 11
1258.045595
 21
1755.326936
  0
LINE
  5
2E3
100
AcDbEntity
  8
M0
100
AcDbLine
 10
1255.045595
 20
1758.326936
 11
1223.245546
 21
1758.326936
  0
ARC
  5
2E4
100
AcDbEntity
  8
M0
100
AcDbCircle
 10
1255.045595
 20
1755.326936
 40
3.0
100
AcDbArc
 50
0.0
 51
90.0
  0
LINE
  5
2E5
100
AcDbEntity
  8
M0
100
AcDbLine
 10
1225.545595
 20
1554.326936
 11
1255.045595
 21
1554.326936
  0
LINE
  5
2E6
100
AcDbEntity
  8
M0
100
AcDbLine
 10
1225.545595
 20
1724.326936
 11
1255.045595
 21
1724.326936
  0
LINE
  5
2E7
100
AcDbEntity
  8
M0
100
AcDbLine
 10
1225.545595
 20
1554.326936
 11
1225.545595
 21
1724.326936
  0
LINE
  5
2E8
100
AcDbEntity
  8
M0
100
AcDbLine
 10
1223.245546
 20
1758.326936
 11
1223.245546
 21
1520.326936
  0
LINE
  5
2E9
100
AcDbEntity
  8
M0
100
AcDbLine
 10
1225.545595
 20
1724.326936
 11
1225.545595
 21
1758.326936
  0
LINE
  5
2EA
100
AcDbEntity
  8
M0
100
AcDbLine
 10
1225.545595
 20
1520.326936
 11
1225.545595
 21
1554.326936
  0
CIRCLE
  5
2EB
100
AcDbEntity
  8
M0
100
AcDbCircle
 10
1237.045595
 20
1544.326936
 40
3.499998
  0
CIRCLE
  5
2EC
100
AcDbEntity
  8
M0
100
AcDbCircle
 10
1237.045595
 20
1528.326936
 40
3.499998
  0
CIRCLE
  5
2ED
100
AcDbEntity
  8
M0
100
AcDbCircle
 10
1237.045595
 20
1734.326936
 40
3.499998
  0
CIRCLE
  5
2EE
100
AcDbEntity
  8
M0
100
AcDbCircle
 10
1237.045595
 20
1750.326936
 40
3.499998
  0
LINE
  5
2EF
100
AcDbEntity
  8
M0
100
AcDbLine
 10
1258.046083
 20
1764.326936
 11
1258.046083
 21
1514.326936
  0
LINE
  5
2F0
100
AcDbEntity
  8
M0
100
AcDbLine
 10
1121.045839
 20
1769.328156
 11
1131.045839
 21
1769.328156
  0
LINE
  5
2F1
100
AcDbEntity
  8
M0
100
AcDbLine
 10
1131.045351
 20
1739.826936
 11
1131.045595
 21
1822.328401
  0
LINE
  5
2F2
100
AcDbEntity
  8
M0
100
AcDbLine
 10
1131.045595
 20
1822.328645
 11
1121.045595
 21
1822.328645
  0
LINE
  5
2F3
100
AcDbEntity
  8
M0
100
AcDbLine
 10
1121.045595
 20
1822.328401
 11
1121.045595
 21
1739.826936
  0
LINE
  5
2F4
100
AcDbEntity
  8
M0
100
AcDbLine
 10
1088.346849
 20
1770.136506
 11
1105.745546
 21
1770.136506
  0
LINE
  5
2F5
100
AcDbEntity
  8
M0
100
AcDbLine
 10
1141.346376
 20
1782.136018
 11
1133.346132
 21
1782.136018
  0
LINE
  5
2F6
100
AcDbEntity
  8
M0
100
AcDbLine
 10
1133.346132
 20
1787.099397
 11
1133.346132
 21
1765.173371
  0
LINE
  5
2F7
100
AcDbEntity
  8
M0
100
AcDbLine
 10
1133.346132
 20
1765.173371
 11
1141.346132
 21
1765.173371
  0
LINE
  5
2F8
100
AcDbEntity
  8
M0
100
AcDbLine
 10
1141.346132
 20
1765.173371
 11
1141.346132
 21
1787.099397
  0
LINE
  5
2F9
100
AcDbEntity
  8
M0
100
AcDbLine
 10
1141.346132
 20
1787.099397
 11
1133.346132
 21
1787.099397
  0
LINE
  5
2FA
100
AcDbEntity
  8
M0
100
AcDbLine
 10
1088.346605
 20
1770.136506
 11
1088.346605
 21
1782.136262
  0
LINE
  5
2FB
100
AcDbEntity
  8
M0
100
AcDbLine
 10
1133.346132
 20
1770.136506
 11
1141.346132
 21
1770.136262
  0
LINE
  5
2FC
100
AcDbEntity
  8
M0
100
AcDbLine
 10
1105.745546
 20
1782.13585
 11
1088.346849
 21
1782.136018
  0
LINE
  5
2FD
100
AcDbEntity
  8
M0
100
AcDbLine
 10
1121.045839
 20
1789.328401
 11
1118.74579
 21
1789.328401
  0
LINE
  5
2FE
100
AcDbEntity
  8
M0
100
AcDbLine
 10
1118.74579
 20
1789.328401
 11
1118.74579
 21
1763.328401
  0
LINE
  5
2FF
100
AcDbEntity
  8
M0
100
AcDbLine
 10
1118.74579
 20
1763.328401
 11
1121.045839
 21
1763.328401
  0
LINE
  5
300
100
AcDbEntity
  8
M0
100
AcDbLine
 10
1121.045839
 20
1763.328401
 11
1121.045839
 21
1789.328401
  0
LINE
  5
301
100
AcDbEntity
  8
M0
100
AcDbLine
 10
1133.345888
 20
1789.328401
 11
1131.045839
 21
1789.328401
  0
LINE
  5
302
100
AcDbEntity
  8
M0
100
AcDbLine
 10
1131.045839
 20
1789.328401
 11
1131.045839
 21
1763.328401
  0
LINE
  5
303
100
AcDbEntity
  8
M0
100
AcDbLine
 10
1131.045839
 20
1763.328401
 11
1133.345888
 21
1763.328401
  0
LINE
  5
304
100
AcDbEntity
  8
M0
100
AcDbLine
 10
1133.345888
 20
1763.328401
 11
1133.345888
 21
1789.328401
  0
LINE
  5
305
100
AcDbEntity
  8
M0
100
AcDbLine
 10
1118.74579
 20
1787.078645
 11
1115.74579
 21
1787.078645
  0
LINE
  5
306
100
AcDbEntity
  8
M0
100
AcDbLine
 10
1115.74579
 20
1787.278504
 11
1115.74579
 21
1765.37851
  0
LINE
  5
307
100
AcDbEntity
  8
M0
100
AcDbLine
 10
1115.74579
 20
1765.578645
 11
1118.74579
 21
1765.578645
  0
LINE
  5
308
100
AcDbEntity
  8
M0
100
AcDbLine
 10
1118.74579
 20
1765.578645
 11
1118.74579
 21
1787.078645
  0
LINE
  5
309
100
AcDbEntity
  8
M0
100
AcDbLine
 10
1118.74579
 20
1776.328401
 11
1115.74579
 21
1778.060578
  0
LINE
  5
30A
100
AcDbEntity
  8
M0
100
AcDbLine
 10
1118.74579
 20
1774.596467
 11
1115.74579
 21
1776.328645
  0
LINE
  5
30B
100
AcDbEntity
  8
M0
  6
DASHDOT
100
AcDbLine
 10
1145.989687
 20
1776.328645
 11
1084.87517
 21
1776.328401
  0
LINE
  5
30C
100
AcDbEntity
  8
M0
100
AcDbLine
 10
1121.045595
 20
1509.325715
 11
1131.045595
 21
1509.325715
  0
LINE
  5
30D
100
AcDbEntity
  8
M0
100
AcDbLine
 10
1131.045351
 20
1538.826692
 11
1131.045351
 21
1536.827424
  0
LINE
  5
30E
100
AcDbEntity
  8
M0
100
AcDbLine
 10
1121.045351
 20
1449.325227
 11
1121.045595
 21
1538.826692
  0
LINE
  5
30F
100
AcDbEntity
  8
M0
100
AcDbLine
 10
1088.346605
 20
1508.517365
 11
1105.745546
 21
1508.517365
  0
LINE
  5
310
100
AcDbEntity
  8
M0
100
AcDbLine
 10
1141.346132
 20
1496.51761
 11
1133.345888
 21
1496.517854
  0
LINE
  5
311
100
AcDbEntity
  8
M0
100
AcDbLine
 10
1133.345888
 20
1491.554475
 11
1133.345888
 21
1513.4805
  0
LINE
  5
312
100
AcDbEntity
  8
M0
100
AcDbLine
 10
1133.345888
 20
1513.4805
 11
1141.345888
 21
1513.480256
  0
LINE
  5
313
100
AcDbEntity
  8
M0
100
AcDbLine
 10
1141.345888
 20
1513.480256
 11
1141.345888
 21
1491.554231
  0
LINE
  5
314
100
AcDbEntity
  8
M0
100
AcDbLine
 10
1141.345888
 20
1491.554231
 11
1133.345888
 21
1491.554475
  0
LINE
  5
315
100
AcDbEntity
  8
M0
100
AcDbLine
 10
1088.346361
 20
1508.517365
 11
1088.346361
 21
1496.51761
  0
LINE
  5
316
100
AcDbEntity
  8
M0
100
AcDbLine
 10
1133.345888
 20
1508.517365
 11
1141.345888
 21
1508.517365
  0
LINE
  5
317
100
AcDbEntity
  8
M0
100
AcDbLine
 10
1105.745546
 20
1496.518022
 11
1088.346605
 21
1496.517854
  0
LINE
  5
318
100
AcDbEntity
  8
M0
100
AcDbLine
 10
1121.045595
 20
1489.325471
 11
1118.745546
 21
1489.325471
  0
LINE
  5
319
100
AcDbEntity
  8
M0
100
AcDbLine
 10
1118.745546
 20
1489.325471
 11
1118.745546
 21
1515.325471
  0
LINE
  5
31A
100
AcDbEntity
  8
M0
100
AcDbLine
 10
1118.745546
 20
1515.325471
 11
1121.045595
 21
1515.325471
  0
LINE
  5
31B
100
AcDbEntity
  8
M0
100
AcDbLine
 10
1121.045595
 20
1515.325471
 11
1121.045595
 21
1489.325471
  0
LINE
  5
31C
100
AcDbEntity
  8
M0
100
AcDbLine
 10
1133.345644
 20
1489.325471
 11
1131.045595
 21
1489.325471
  0
LINE
  5
31D
100
AcDbEntity
  8
M0
100
AcDbLine
 10
1131.045595
 20
1489.325471
 11
1131.045595
 21
1515.325471
  0
LINE
  5
31E
100
AcDbEntity
  8
M0
100
AcDbLine
 10
1131.045595
 20
1515.325471
 11
1133.345644
 21
1515.325471
  0
LINE
  5
31F
100
AcDbEntity
  8
M0
100
AcDbLine
 10
1133.345644
 20
1515.325471
 11
1133.345644
 21
1489.325471
  0
LINE
  5
320
100
AcDbEntity
  8
M0
100
AcDbLine
 10
1118.745546
 20
1491.575227
 11
1115.745546
 21
1491.575227
  0
LINE
  5
321
100
AcDbEntity
  8
M0
100
AcDbLine
 10
1115.745546
 20
1491.375214
 11
1115.745546
 21
1513.275208
  0
LINE
  5
322
100
AcDbEntity
  8
M0
100
AcDbLine
 10
1115.745546
 20
1513.075227
 11
1118.745546
 21
1513.075227
  0
LINE
  5
323
100
AcDbEntity
  8
M0
100
AcDbLine
 10
1118.745546
 20
1513.075227
 11
1118.745546
 21
1491.575227
  0
LINE
  5
324
100
AcDbEntity
  8
M0
100
AcDbLine
 10
1118.745546
 20
1502.325471
 11
1115.745546
 21
1500.593293
  0
LINE
  5
325
100
AcDbEntity
  8
M0
100
AcDbLine
 10
1118.745546
 20
1504.057404
 11
1115.745546
 21
1502.325227
  0
LINE
  5
326
100
AcDbEntity
  8
M0
  6
DASHDOT
100
AcDbLine
 10
1145.989687
 20
1502.324983
 11
1084.874925
 21
1502.325471
  0
LINE
  5
327
100
AcDbEntity
  8
M0
100
AcDbLine
 10
1131.045351
 20
1521.825471
 11
1131.045351
 21
1449.325227
  0
CIRCLE
  5
328
100
AcDbEntity
  8
M0
100
AcDbCircle
 10
1248.045351
 20
1528.326447
 40
5.499992
  0
CIRCLE
  5
329
100
AcDbEntity
  8
M0
100
AcDbCircle
 10
1248.045351
 20
1544.326447
 40
5.499992
  0
CIRCLE
  5
32A
100
AcDbEntity
  8
M0
100
AcDbCircle
 10
1248.045351
 20
1750.326447
 40
5.499992
  0
CIRCLE
  5
32B
100
AcDbEntity
  8
M0
100
AcDbCircle
 10
1248.045351
 20
1734.326447
 40
5.499992
  0
LINE
  5
32C
100
AcDbEntity
  8
M0
100
AcDbLine
 10
1134.8454
 20
1726.326692
 11
1129.3454
 21
1726.326936
  0
LINE
  5
32D
100
AcDbEntity
  8
M0
100
AcDbLine
 10
1129.3454
 20
1718.326936
 11
1134.8454
 21
1718.326936
  0
LINE
  5
32E
100
AcDbEntity
  8
M0
100
AcDbLine
 10
1134.8454
 20
1714.825715
 11
1134.8454
 21
1729.827912
  0
LINE
  5
32F
100
AcDbEntity
  8
M0
100
AcDbLine
 10
1134.8454
 20
1729.827912
 11
1129.3454
 21
1729.827912
  0
LINE
  5
330
100
AcDbEntity
  8
M0
100
AcDbLine
 10
1129.3454
 20
1729.827912
 11
1129.3454
 21
1714.825715
  0
LINE
  5
331
100
AcDbEntity
  8
M0
100
AcDbLine
 10
1129.3454
 20
1714.825715
 11
1134.8454
 21
1714.825715
  0
LINE
  5
332
100
AcDbEntity
  8
M0
100
AcDbLine
 10
1134.8454
 20
1533.326447
 11
1129.3454
 21
1533.326692
  0
LINE
  5
333
100
AcDbEntity
  8
M0
100
AcDbLine
 10
1129.3454
 20
1525.326692
 11
1134.8454
 21
1525.326692
  0
LINE
  5
334
100
AcDbEntity
  8
M0
100
AcDbLine
 10
1134.8454
 20
1521.825471
 11
1134.8454
 21
1536.827668
  0
LINE
  5
335
100
AcDbEntity
  8
M0
100
AcDbLine
 10
1134.8454
 20
1536.827668
 11
1129.3454
 21
1536.827668
  0
LINE
  5
336
100
AcDbEntity
  8
M0
100
AcDbLine
 10
1129.3454
 20
1536.827668
 11
1129.3454
 21
1521.825471
  0
LINE
  5
337
100
AcDbEntity
  8
M0
100
AcDbLine
 10
1129.3454
 20
1521.825471
 11
1134.8454
 21
1521.825471
  0
LINE
  5
338
100
AcDbEntity
  8
M0
100
AcDbLine
 10
1136.8454
 20
1520.326447
 11
1138.445497
 21
1520.326447
  0
LINE
  5
339
100
AcDbEntity
  8
M0
100
AcDbLine
 10
1138.445497
 20
1520.326447
 11
1138.445497
 21
1538.326447
  0
LINE
  5
33A
100
AcDbEntity
  8
M0
100
AcDbLine
 10
1138.445497
 20
1538.326447
 11
1136.8454
 21
1538.326447
  0
LINE
  5
33B
100
AcDbEntity
  8
M0
100
AcDbLine
 10
1136.8454
 20
1538.326447
 11
1136.8454
 21
1520.326447
  0
LINE
  5
33C
100
AcDbEntity
  8
M0
  6
DASHDOT
100
AcDbLine
 10
1126.692323
 20
1529.326447
 11
1141.445497
 21
1529.326447
  0
LINE
  5
33D
100
AcDbEntity
  8
M0
100
AcDbLine
 10
1136.8454
 20
1713.326692
 11
1138.445497
 21
1713.326692
  0
LINE
  5
33E
100
AcDbEntity
  8
M0
100
AcDbLine
 10
1138.445497
 20
1713.326692
 11
1138.445497
 21
1731.326692
  0
LINE
  5
33F
100
AcDbEntity
  8
M0
100
AcDbLine
 10
1138.445497
 20
1731.326692
 11
1136.8454
 21
1731.326692
  0
LINE
  5
340
100
AcDbEntity
  8
M0
100
AcDbLine
 10
1136.8454
 20
1731.326692
 11
1136.8454
 21
1713.326692
  0
LINE
  5
341
100
AcDbEntity
  8
M0
  6
DASHDOT
100
AcDbLine
 10
1126.115419
 20
1722.326447
 11
1141.445497
 21
1722.326692
  0
LINE
  5
342
100
AcDbEntity
  8
M0
100
AcDbLine
 10
1134.8454
 20
1521.626252
 11
1136.8454
 21
1521.626252
  0
LINE
  5
343
100
AcDbEntity
  8
M0
100
AcDbLine
 10
1136.8454
 20
1521.626252
 11
1136.8454
 21
1537.026399
  0
LINE
  5
344
100
AcDbEntity
  8
M0
100
AcDbLine
 10
1136.8454
 20
1537.026399
 11
1134.8454
 21
1537.026399
  0
LINE
  5
345
100
AcDbEntity
  8
M0
100
AcDbLine
 10
1134.8454
 20
1537.026399
 11
1134.8454
 21
1521.626252
  0
LINE
  5
346
100
AcDbEntity
  8
M0
100
AcDbLine
 10
1134.8454
 20
1529.326203
 11
1136.8454
 21
1528.171662
  0
LINE
  5
347
100
AcDbEntity
  8
M0
100
AcDbLine
 10
1134.8454
 20
1530.480988
 11
1136.8454
 21
1529.326203
  0
LINE
  5
348
100
AcDbEntity
  8
M0
100
AcDbLine
 10
1134.8454
 20
1714.626496
 11
1136.8454
 21
1714.626496
  0
LINE
  5
349
100
AcDbEntity
  8
M0
100
AcDbLine
 10
1136.8454
 20
1714.626496
 11
1136.8454
 21
1730.026643
  0
LINE
  5
34A
100
AcDbEntity
  8
M0
100
AcDbLine
 10
1136.8454
 20
1730.026643
 11
1134.8454
 21
1730.026643
  0
LINE
  5
34B
100
AcDbEntity
  8
M0
100
AcDbLine
 10
1134.8454
 20
1730.026643
 11
1134.8454
 21
1714.626496
  0
LINE
  5
34C
100
AcDbEntity
  8
M0
100
AcDbLine
 10
1134.8454
 20
1722.326447
 11
1136.8454
 21
1721.171906
  0
LINE
  5
34D
100
AcDbEntity
  8
M0
100
AcDbLine
 10
1134.8454
 20
1723.481233
 11
1136.8454
 21
1722.326447
  0
LINE
  5
34E
100
AcDbEntity
  8
M0
100
AcDbLine
 10
1121.045351
 20
1449.325227
 11
1131.045351
 21
1449.325227
  0
LINE
  5
34F
100
AcDbEntity
  8
M0
 62
     7
100
AcDbLine
 10
473.72722
 20
1514.32578
 11
458.72532
 21
1529.32585
  0
CIRCLE
  5
350
100
AcDbEntity
  8
M0
 62
     7
100
AcDbCircle
 10
453.727217
 20
1502.324991
 40
6.5
  0
CIRCLE
  5
351
100
AcDbEntity
  8
M0
 62
     7
100
AcDbCircle
 10
453.727217
 20
1464.324998
 40
6.5
  0
LINE
  5
352
100
AcDbEntity
  8
M0
  6
DASHDOT
 62
     7
100
AcDbLine
 10
453.727191
 20
1452.430367
 11
453.727237
 21
1517.812415
  0
LINE
  5
353
100
AcDbEntity
  8
M0
  6
DASHDOT
 62
     7
100
AcDbLine
 10
468.700478
 20
1502.324984
 11
435.720812
 21
1502.325001
  0
LINE
  5
354
100
AcDbEntity
  8
M0
 62
     7
100
AcDbLine
 10
464.677305
 20
1502.325208
 11
459.202296
 21
1511.808116
  0
LINE
  5
355
100
AcDbEntity
  8
M0
 62
     7
100
AcDbLine
 10
459.202296
 20
1511.808116
 11
448.252342
 21
1511.808144
  0
LINE
  5
356
100
AcDbEntity
  8
M0
 62
     7
100
AcDbLine
 10
448.252342
 20
1511.808144
 11
442.777327
 21
1502.325231
  0
LINE
  5
357
100
AcDbEntity
  8
M0
 62
     7
100
AcDbLine
 10
442.777327
 20
1502.325231
 11
448.252325
 21
1492.842088
  0
LINE
  5
358
100
AcDbEntity
  8
M0
 62
     7
100
AcDbLine
 10
448.252325
 20
1492.842088
 11
459.202332
 21
1492.842057
  0
LINE
  5
359
100
AcDbEntity
  8
M0
 62
     7
100
AcDbLine
 10
459.202332
 20
1492.842057
 11
464.677305
 21
1502.325208
  0
CIRCLE
  5
35A
100
AcDbEntity
  8
M0
 62
     7
100
AcDbCircle
 10
453.727324
 20
1502.325235
 40
5.999994
  0
CIRCLE
  5
35B
100
AcDbEntity
  8
M0
 62
     7
100
AcDbCircle
 10
453.727217
 20
1502.324991
 40
12.999992
  0
CIRCLE
  5
35C
100
AcDbEntity
  8
M0
 62
     7
100
AcDbCircle
 10
453.727217
 20
1502.324991
 40
6.24999
  0
CIRCLE
  5
35D
100
AcDbEntity
  8
M0
 62
     7
100
AcDbCircle
 10
453.727217
 20
1502.324991
 40
6.099992
  0
CIRCLE
  5
35E
100
AcDbEntity
  8
M0
 62
     7
100
AcDbCircle
 10
453.727217
 20
1502.324991
 40
10.749993
  0
LINE
  5
35F
100
AcDbEntity
  8
M0
 62
     7
100
AcDbLine
 10
458.725262
 20
1550.326722
 11
458.72532
 21
1529.32585
  0
LINE
  5
360
100
AcDbEntity
  8
M0
 62
     7
100
AcDbLine
 10
473.727174
 20
1449.325791
 11
473.72722
 21
1514.326696
  0
LINE
  5
361
100
AcDbEntity
  8
M0
 62
     7
100
AcDbLine
 10
428.725542
 20
1449.326005
 11
473.727175
 21
1449.325791
  0
LINE
  5
362
100
AcDbEntity
  8
M0
 62
     7
100
AcDbLine
 10
428.725527
 20
1458.326005
 11
428.725374
 21
1514.326696
  0
LINE
  5
363
100
AcDbEntity
  8
M0
 62
     7
100
AcDbLine
 10
428.727189
 20
1449.326005
 11
428.727266
 21
1546.740556
  0
LINE
  5
364
100
AcDbEntity
  8
M0
 62
     7
100
AcDbLine
 10
428.727251
 20
1456.325013
 11
428.727342
 21
1550.326188
  0
LINE
  5
365
100
AcDbEntity
  8
M0
 62
     7
100
AcDbLine
 10
293.725298
 20
1514.326512
 11
308.727198
 21
1529.326583
  0
CIRCLE
  5
366
100
AcDbEntity
  8
M0
 62
     7
100
AcDbCircle
 10
313.725301
 20
1502.325724
 40
6.5
  0
CIRCLE
  5
367
100
AcDbEntity
  8
M0
 62
     7
100
AcDbCircle
 10
313.725301
 20
1464.32573
 40
6.5
  0
LINE
  5
368
100
AcDbEntity
  8
M0
  6
DASHDOT
 62
     7
100
AcDbLine
 10
313.725327
 20
1452.712248
 11
313.725281
 21
1517.813147
  0
LINE
  5
369
100
AcDbEntity
  8
M0
  6
DASHDOT
 62
     7
100
AcDbLine
 10
298.75204
 20
1502.325716
 11
331.731706
 21
1502.325733
  0
LINE
  5
36A
100
AcDbEntity
  8
M0
 62
     7
100
AcDbLine
 10
302.775213
 20
1502.32594
 11
308.250222
 21
1511.808848
  0
LINE
  5
36B
100
AcDbEntity
  8
M0
 62
     7
100
AcDbLine
 10
308.250222
 20
1511.808848
 11
319.200176
 21
1511.808876
  0
LINE
  5
36C
100
AcDbEntity
  8
M0
 62
     7
100
AcDbLine
 10
319.200176
 20
1511.808876
 11
324.675191
 21
1502.325964
  0
LINE
  5
36D
100
AcDbEntity
  8
M0
 62
     7
100
AcDbLine
 10
324.675191
 20
1502.325964
 11
319.200193
 21
1492.84282
  0
LINE
  5
36E
100
AcDbEntity
  8
M0
 62
     7
100
AcDbLine
 10
319.200193
 20
1492.84282
 11
308.250186
 21
1492.84279
  0
LINE
  5
36F
100
AcDbEntity
  8
M0
 62
     7
100
AcDbLine
 10
308.250186
 20
1492.84279
 11
302.775213
 21
1502.32594
  0
CIRCLE
  5
370
100
AcDbEntity
  8
M0
 62
     7
100
AcDbCircle
 10
313.725194
 20
1502.325968
 40
5.999994
  0
CIRCLE
  5
371
100
AcDbEntity
  8
M0
 62
     7
100
AcDbCircle
 10
313.725301
 20
1502.325724
 40
12.999992
  0
CIRCLE
  5
372
100
AcDbEntity
  8
M0
 62
     7
100
AcDbCircle
 10
313.725301
 20
1502.325724
 40
6.24999
  0
CIRCLE
  5
373
100
AcDbEntity
  8
M0
 62
     7
100
AcDbCircle
 10
313.725301
 20
1502.325724
 40
6.099992
  0
CIRCLE
  5
374
100
AcDbEntity
  8
M0
 62
     7
100
AcDbCircle
 10
313.725301
 20
1502.325724
 40
10.749993
  0
LINE
  5
375
100
AcDbEntity
  8
M0
 62
     7
100
AcDbLine
 10
308.727256
 20
1550.327454
 11
308.727198
 21
1529.326583
  0
LINE
  5
376
100
AcDbEntity
  8
M0
 62
     7
100
AcDbLine
 10
293.725359
 20
1449.326539
 11
293.725298
 21
1514.327429
  0
LINE
  5
377
100
AcDbEntity
  8
M0
 62
     7
100
AcDbLine
 10
338.726976
 20
1449.326737
 11
293.725343
 21
1449.326524
  0
LINE
  5
378
100
AcDbEntity
  8
M0
 62
     7
100
AcDbLine
 10
338.726991
 20
1458.326737
 11
338.727144
 21
1514.327429
  0
LINE
  5
379
100
AcDbEntity
  8
M0
 62
     7
100
AcDbLine
 10
338.725328
 20
1449.326737
 11
338.725252
 21
1546.741288
  0
LINE
  5
37A
100
AcDbEntity
  8
M0
 62
     7
100
AcDbLine
 10
338.725267
 20
1456.325746
 11
338.725176
 21
1550.32692
  0
LINE
  5
37B
100
AcDbEntity
  8
M0
 62
     7
100
AcDbLine
 10
473.72722
 20
1764.32786
 11
458.725328
 21
1749.32778
  0
CIRCLE
  5
37C
100
AcDbEntity
  8
M0
 62
     7
100
AcDbCircle
 10
453.727209
 20
1776.328636
 40
6.5
  0
CIRCLE
  5
37D
100
AcDbEntity
  8
M0
 62
     7
100
AcDbCircle
 10
453.727185
 20
1814.328629
 40
6.5
  0
LINE
  5
37E
100
AcDbEntity
  8
M0
  6
DASHDOT
 62
     7
100
AcDbLine
 10
453.727151
 20
1826.100422
 11
453.727239
 21
1760.841212
  0
LINE
  5
37F
100
AcDbEntity
  8
M0
  6
DASHDOT
 62
     7
100
AcDbLine
 10
468.70047
 20
1776.328653
 11
435.720803
 21
1776.328615
  0
LINE
  5
380
100
AcDbEntity
  8
M0
 62
     7
100
AcDbLine
 10
464.677297
 20
1776.328426
 11
459.202294
 21
1766.845515
  0
LINE
  5
381
100
AcDbEntity
  8
M0
 62
     7
100
AcDbLine
 10
459.202294
 20
1766.845515
 11
448.25234
 21
1766.84548
  0
LINE
  5
382
100
AcDbEntity
  8
M0
 62
     7
100
AcDbLine
 10
448.25234
 20
1766.84548
 11
442.777319
 21
1776.328389
  0
LINE
  5
383
100
AcDbEntity
  8
M0
 62
     7
100
AcDbLine
 10
442.777319
 20
1776.328389
 11
448.252311
 21
1785.811536
  0
LINE
  5
384
100
AcDbEntity
  8
M0
 62
     7
100
AcDbLine
 10
448.252311
 20
1785.811536
 11
459.202318
 21
1785.811574
  0
LINE
  5
385
100
AcDbEntity
  8
M0
 62
     7
100
AcDbLine
 10
459.202318
 20
1785.811574
 11
464.677297
 21
1776.328426
  0
CIRCLE
  5
386
100
AcDbEntity
  8
M0
 62
     7
100
AcDbCircle
 10
453.727316
 20
1776.328392
 40
5.999994
  0
CIRCLE
  5
387
100
AcDbEntity
  8
M0
 62
     7
100
AcDbCircle
 10
453.727209
 20
1776.328636
 40
12.999992
  0
CIRCLE
  5
388
100
AcDbEntity
  8
M0
 62
     7
100
AcDbCircle
 10
453.727209
 20
1776.328636
 40
6.24999
  0
CIRCLE
  5
389
100
AcDbEntity
  8
M0
 62
     7
100
AcDbCircle
 10
453.727209
 20
1776.328636
 40
6.099992
  0
CIRCLE
  5
38A
100
AcDbEntity
  8
M0
 62
     7
100
AcDbCircle
 10
453.727209
 20
1776.328636
 40
10.749993
  0
LINE
  5
38B
100
AcDbEntity
  8
M0
 62
     7
100
AcDbLine
 10
458.725284
 20
1728.326908
 11
458.725328
 21
1749.32778
  0
LINE
  5
38C
100
AcDbEntity
  8
M0
 62
     7
100
AcDbLine
 10
473.727133
 20
1828.751524
 11
473.72722
 21
1764.326944
  0
LINE
  5
38D
100
AcDbEntity
  8
M0
 62
     7
100
AcDbLine
 10
428.7255
 20
1829.327607
 11
473.727133
 21
1829.327849
  0
LINE
  5
38E
100
AcDbEntity
  8
M0
 62
     7
100
AcDbLine
 10
428.725491
 20
1820.327607
 11
428.725373
 21
1764.326915
  0
LINE
  5
38F
100
AcDbEntity
  8
M0
 62
     7
100
AcDbLine
 10
428.727149
 20
1828.368775
 11
428.727286
 21
1731.913056
  0
LINE
  5
390
100
AcDbEntity
  8
M0
 62
     7
100
AcDbLine
 10
428.727214
 20
1822.328598
 11
428.727364
 21
1728.327424
  0
LINE
  5
391
100
AcDbEntity
  8
M0
 62
     7
100
AcDbLine
 10
293.725297
 20
1764.327103
 11
308.727207
 21
1749.327041
  0
CIRCLE
  5
392
100
AcDbEntity
  8
M0
 62
     7
100
AcDbCircle
 10
313.725293
 20
1776.327904
 40
6.5
  0
CIRCLE
  5
393
100
AcDbEntity
  8
M0
 62
     7
100
AcDbCircle
 10
313.725269
 20
1814.327897
 40
6.5
  0
LINE
  5
394
100
AcDbEntity
  8
M0
  6
DASHDOT
 62
     7
100
AcDbLine
 10
313.725288
 20
1826.88254
 11
313.725282
 21
1760.84048
  0
LINE
  5
395
100
AcDbEntity
  8
M0
  6
DASHDOT
 62
     7
100
AcDbLine
 10
298.752032
 20
1776.327902
 11
331.731698
 21
1776.327905
  0
LINE
  5
396
100
AcDbEntity
  8
M0
 62
     7
100
AcDbLine
 10
302.775205
 20
1776.32768
 11
308.25022
 21
1766.844775
  0
LINE
  5
397
100
AcDbEntity
  8
M0
 62
     7
100
AcDbLine
 10
308.25022
 20
1766.844775
 11
319.200174
 21
1766.844755
  0
LINE
  5
398
100
AcDbEntity
  8
M0
 62
     7
100
AcDbLine
 10
319.200174
 20
1766.844755
 11
324.675183
 21
1776.32767
  0
LINE
  5
399
100
AcDbEntity
  8
M0
 62
     7
100
AcDbLine
 10
324.675183
 20
1776.32767
 11
319.200179
 21
1785.810811
  0
LINE
  5
39A
100
AcDbEntity
  8
M0
 62
     7
100
AcDbLine
 10
319.200179
 20
1785.810811
 11
308.250172
 21
1785.810834
  0
LINE
  5
39B
100
AcDbEntity
  8
M0
 62
     7
100
AcDbLine
 10
308.250172
 20
1785.810834
 11
302.775205
 21
1776.32768
  0
CIRCLE
  5
39C
100
AcDbEntity
  8
M0
 62
     7
100
AcDbCircle
 10
313.725186
 20
1776.32766
 40
5.999994
  0
CIRCLE
  5
39D
100
AcDbEntity
  8
M0
 62
     7
100
AcDbCircle
 10
313.725293
 20
1776.327904
 40
12.999992
  0
CIRCLE
  5
39E
100
AcDbEntity
  8
M0
 62
     7
100
AcDbCircle
 10
313.725293
 20
1776.327904
 40
6.24999
  0
CIRCLE
  5
39F
100
AcDbEntity
  8
M0
 62
     7
100
AcDbCircle
 10
313.725293
 20
1776.327904
 40
6.099992
  0
CIRCLE
  5
3A0
100
AcDbEntity
  8
M0
 62
     7
100
AcDbCircle
 10
313.725293
 20
1776.327904
 40
10.749993
  0
LINE
  5
3A1
100
AcDbEntity
  8
M0
 62
     7
100
AcDbLine
 10
308.727278
 20
1728.32617
 11
308.727207
 21
1749.327041
  0
LINE
  5
3A2
100
AcDbEntity
  8
M0
 62
     7
100
AcDbLine
 10
293.725302
 20
1828.750767
 11
293.725297
 21
1764.326186
  0
LINE
  5
3A3
100
AcDbEntity
  8
M0
 62
     7
100
AcDbLine
 10
338.726935
 20
1829.326906
 11
293.725302
 21
1829.327091
  0
LINE
  5
3A4
100
AcDbEntity
  8
M0
 62
     7
100
AcDbLine
 10
338.726956
 20
1820.326906
 11
338.727143
 21
1764.326214
  0
LINE
  5
3A5
100
AcDbEntity
  8
M0
 62
     7
100
AcDbLine
 10
338.725287
 20
1828.368074
 11
338.725272
 21
1731.912355
  0
LINE
  5
3A6
100
AcDbEntity
  8
M0
 62
     7
100
AcDbLine
 10
338.72523
 20
1822.327897
 11
338.725198
 21
1728.326723
  0
LINE
  5
3A7
100
AcDbEntity
  8
M0
 62
     7
100
AcDbLine
 10
372.776058
 20
1502.326715
 11
378.251201
 21
1511.809599
  0
LINE
  5
3A8
100
AcDbEntity
  8
M0
 62
     7
100
AcDbLine
 10
378.251201
 20
1511.809599
 11
389.201152
 21
1511.809546
  0
LINE
  5
3A9
100
AcDbEntity
  8
M0
 62
     7
100
AcDbLine
 10
389.201152
 20
1511.809546
 11
394.675951
 21
1502.326611
  0
LINE
  5
3AA
100
AcDbEntity
  8
M0
 62
     7
100
AcDbLine
 10
394.675951
 20
1502.326611
 11
389.201061
 21
1492.843483
  0
LINE
  5
3AB
100
AcDbEntity
  8
M0
 62
     7
100
AcDbLine
 10
389.201061
 20
1492.843483
 11
378.251111
 21
1492.843535
  0
LINE
  5
3AC
100
AcDbEntity
  8
M0
 62
     7
100
AcDbLine
 10
378.251111
 20
1492.843535
 11
372.776058
 21
1502.326715
  0
CIRCLE
  5
3AD
100
AcDbEntity
  8
M0
 62
     7
100
AcDbCircle
 10
383.726008
 20
1502.326663
 40
5.999994
  0
CIRCLE
  5
3AE
100
AcDbEntity
  8
M0
 62
     7
100
AcDbCircle
 10
383.726252
 20
1502.326419
 40
12.999992
  0
CIRCLE
  5
3AF
100
AcDbEntity
  8
M0
 62
     7
100
AcDbCircle
 10
383.726252
 20
1502.326419
 40
6.24999
  0
LINE
  5
3B0
100
AcDbEntity
  8
M0
  6
DASHDOT
 62
     7
100
AcDbLine
 10
369.476253
 20
1502.326487
 11
397.976244
 21
1502.326351
  0
CIRCLE
  5
3B1
100
AcDbEntity
  8
M0
 62
     7
100
AcDbCircle
 10
383.726252
 20
1502.326419
 40
6.099992
  0
CIRCLE
  5
3B2
100
AcDbEntity
  8
M0
 62
     7
100
AcDbCircle
 10
383.726252
 20
1502.326419
 40
10.749993
  0
CIRCLE
  5
3B3
100
AcDbEntity
  8
M0
 62
     7
100
AcDbCircle
 10
383.726252
 20
1464.326432
 40
6.5
  0
LINE
  5
3B4
100
AcDbEntity
  8
M0
 62
     7
100
AcDbLine
 10
406.226
 20
1449.326325
 11
406.226351
 21
1524.32631
  0
LINE
  5
3B5
100
AcDbEntity
  8
M0
 62
     7
100
AcDbLine
 10
361.226015
 20
1449.326539
 11
406.226015
 21
1449.326325
  0
LINE
  5
3B6
100
AcDbEntity
  8
M0
 62
     7
100
AcDbLine
 10
361.226366
 20
1524.326524
 11
361.226015
 21
1449.326539
  0
LINE
  5
3B7
100
AcDbEntity
  8
M0
 62
     7
100
AcDbLine
 10
368.726238
 20
1550.326722
 11
368.726391
 21
1524.326478
  0
LINE
  5
3B8
100
AcDbEntity
  8
M0
 62
     7
100
AcDbLine
 10
361.226366
 20
1524.326524
 11
368.726391
 21
1524.326478
  0
LINE
  5
3B9
100
AcDbEntity
  8
M0
 62
     7
100
AcDbLine
 10
398.726351
 20
1524.326341
 11
398.726473
 21
1550.326585
  0
LINE
  5
3BA
100
AcDbEntity
  8
M0
 62
     7
100
AcDbLine
 10
398.726351
 20
1524.326341
 11
406.226122
 21
1524.32631
  0
LINE
  5
3BB
100
AcDbEntity
  8
M0
 62
     7
100
AcDbLine
 10
372.776058
 20
1776.327153
 11
378.251207
 21
1766.844273
  0
LINE
  5
3BC
100
AcDbEntity
  8
M0
 62
     7
100
AcDbLine
 10
378.251207
 20
1766.844273
 11
389.201158
 21
1766.844332
  0
LINE
  5
3BD
100
AcDbEntity
  8
M0
 62
     7
100
AcDbLine
 10
389.201158
 20
1766.844332
 11
394.675951
 21
1776.327271
  0
LINE
  5
3BE
100
AcDbEntity
  8
M0
 62
     7
100
AcDbLine
 10
394.675951
 20
1776.327271
 11
389.201055
 21
1785.810396
  0
LINE
  5
3BF
100
AcDbEntity
  8
M0
 62
     7
100
AcDbLine
 10
389.201055
 20
1785.810396
 11
378.251105
 21
1785.810336
  0
LINE
  5
3C0
100
AcDbEntity
  8
M0
 62
     7
100
AcDbLine
 10
378.251105
 20
1785.810336
 11
372.776058
 21
1776.327153
  0
CIRCLE
  5
3C1
100
AcDbEntity
  8
M0
 62
     7
100
AcDbCircle
 10
383.726008
 20
1776.327212
 40
5.999994
  0
CIRCLE
  5
3C2
100
AcDbEntity
  8
M0
 62
     7
100
AcDbCircle
 10
383.726252
 20
1776.327456
 40
12.999992
  0
CIRCLE
  5
3C3
100
AcDbEntity
  8
M0
 62
     7
100
AcDbCircle
 10
383.726252
 20
1776.327456
 40
6.24999
  0
LINE
  5
3C4
100
AcDbEntity
  8
M0
  6
DASHDOT
 62
     7
100
AcDbLine
 10
369.476253
 20
1776.32738
 11
397.976244
 21
1776.327533
  0
CIRCLE
  5
3C5
100
AcDbEntity
  8
M0
 62
     7
100
AcDbCircle
 10
383.726252
 20
1776.327456
 40
6.099992
  0
CIRCLE
  5
3C6
100
AcDbEntity
  8
M0
 62
     7
100
AcDbCircle
 10
383.726252
 20
1776.327456
 40
10.749993
  0
CIRCLE
  5
3C7
100
AcDbEntity
  8
M0
 62
     7
100
AcDbCircle
 10
383.726228
 20
1814.327443
 40
6.5
  0
LINE
  5
3C8
100
AcDbEntity
  8
M0
 62
     7
100
AcDbLine
 10
406.225966
 20
1829.327564
 11
406.226364
 21
1754.327579
  0
LINE
  5
3C9
100
AcDbEntity
  8
M0
 62
     7
100
AcDbLine
 10
361.225982
 20
1829.327322
 11
406.225982
 21
1829.327564
  0
LINE
  5
3CA
100
AcDbEntity
  8
M0
 62
     7
100
AcDbLine
 10
361.22638
 20
1754.327337
 11
361.225982
 21
1829.327322
  0
LINE
  5
3CB
100
AcDbEntity
  8
M0
 62
     7
100
AcDbLine
 10
368.726268
 20
1728.327144
 11
368.726404
 21
1754.327388
  0
LINE
  5
3CC
100
AcDbEntity
  8
M0
 62
     7
100
AcDbLine
 10
361.22638
 20
1754.327337
 11
368.726404
 21
1754.327388
  0
LINE
  5
3CD
100
AcDbEntity
  8
M0
 62
     7
100
AcDbLine
 10
398.726364
 20
1754.327544
 11
398.726503
 21
1728.3273
  0
LINE
  5
3CE
100
AcDbEntity
  8
M0
 62
     7
100
AcDbLine
 10
398.726364
 20
1754.327544
 11
406.226135
 21
1754.327579
  0
LINE
  5
3CF
100
AcDbEntity
  8
M0
  6
DASHDOT
 62
     7
100
AcDbLine
 10
331.731767
 20
1814.327668
 11
298.752031
 21
1814.327668
  0
LINE
  5
3D0
100
AcDbEntity
  8
M0
  6
DASHDOT
 62
     7
100
AcDbLine
 10
401.73432
 20
1814.327897
 11
368.754584
 21
1814.327897
  0
LINE
  5
3D1
100
AcDbEntity
  8
M0
  6
DASHDOT
 62
     7
100
AcDbLine
 10
471.733648
 20
1814.327443
 11
438.753912
 21
1814.327443
  0
LINE
  5
3D2
100
AcDbEntity
  8
M0
  6
DASHDOT
 62
     7
100
AcDbLine
 10
471.733648
 20
1814.327443
 11
438.753912
 21
1814.327443
  0
LINE
  5
3D3
100
AcDbEntity
  8
M0
  6
DASHDOT
 62
     7
100
AcDbLine
 10
471.733648
 20
1814.327443
 11
438.753912
 21
1814.327443
  0
LINE
  5
3D4
100
AcDbEntity
  8
M0
  6
DASHDOT
 62
     7
100
AcDbLine
 10
741.733648
 20
1814.328175
 11
708.753912
 21
1814.328175
  0
LINE
  5
3D5
100
AcDbEntity
  8
M0
  6
DASHDOT
 62
     7
100
AcDbLine
 10
671.73432
 20
1814.328629
 11
638.754584
 21
1814.328629
  0
LINE
  5
3D6
100
AcDbEntity
  8
M0
  6
DASHDOT
 62
     7
100
AcDbLine
 10
601.731767
 20
1814.328629
 11
568.752031
 21
1814.328629
  0
LINE
  5
3D7
100
AcDbEntity
  8
M0
  6
DASHDOT
 62
     7
100
AcDbLine
 10
741.733648
 20
1464.325757
 11
708.753912
 21
1464.325757
  0
LINE
  5
3D8
100
AcDbEntity
  8
M0
  6
DASHDOT
 62
     7
100
AcDbLine
 10
671.73432
 20
1464.325303
 11
638.754584
 21
1464.325303
  0
LINE
  5
3D9
100
AcDbEntity
  8
M0
  6
DASHDOT
 62
     7
100
AcDbLine
 10
601.731767
 20
1464.325303
 11
568.752031
 21
1464.325303
  0
LINE
  5
3DA
100
AcDbEntity
  8
M0
  6
DASHDOT
 62
     7
100
AcDbLine
 10
471.733648
 20
1464.326489
 11
438.753912
 21
1464.326489
  0
LINE
  5
3DB
100
AcDbEntity
  8
M0
  6
DASHDOT
 62
     7
100
AcDbLine
 10
401.73432
 20
1464.326035
 11
368.754584
 21
1464.326035
  0
LINE
  5
3DC
100
AcDbEntity
  8
M0
  6
DASHDOT
 62
     7
100
AcDbLine
 10
331.731767
 20
1464.326264
 11
298.752031
 21
1464.326264
  0
LINE
  5
3DD
100
AcDbEntity
  8
M0
100
AcDbLine
 10
1121.445497
 20
1449.325227
 11
1131.445497
 21
1449.325227
  0
ARC
  5
3DE
100
AcDbEntity
  8
M0
 62
     7
100
AcDbCircle
 10
751.227236
 20
1595.826966
 40
1.5
100
AcDbArc
 50
269.999417
 51
360.0
  0
ARC
  5
3DF
100
AcDbEntity
  8
M0
 62
     7
100
AcDbCircle
 10
751.227236
 20
1592.826966
 40
1.5
100
AcDbArc
 50
90.0
 51
180.0
  0
ARC
  5
3E0
100
AcDbEntity
  8
M0
 62
     7
100
AcDbCircle
 10
748.727236
 20
1730.326966
 40
4.0
100
AcDbArc
 50
0.0
 51
90.0
  0
LINE
  5
3E1
100
AcDbEntity
  8
M0
 62
     7
100
AcDbLine
 10
748.727236
 20
1734.326966
 11
743.727236
 21
1734.326966
  0
LINE
  5
3E2
100
AcDbEntity
  8
M0
 62
     7
100
AcDbLine
 10
679.107225
 20
1730.486955
 11
679.387224
 21
1731.446961
  0
ARC
  5
3E3
100
AcDbEntity
  8
M0
 62
     7
100
AcDbCircle
 10
676.227236
 20
1731.326966
 40
3.0
100
AcDbArc
 50
269.999709
 51
343.739247
  0
LINE
  5
3E4
100
AcDbEntity
  8
M0
 62
     7
100
AcDbLine
 10
688.067232
 20
1731.446961
 11
688.347231
 21
1730.486955
  0
ARC
  5
3E5
100
AcDbEntity
  8
M0
 62
     7
100
AcDbCircle
 10
691.227236
 20
1731.326966
 40
3.0
100
AcDbArc
 50
196.260391
 51
269.999709
  0
LINE
  5
3E6
100
AcDbEntity
  8
M0
 62
     7
100
AcDbLine
 10
739.607225
 20
1730.486955
 11
739.887224
 21
1731.446961
  0
ARC
  5
3E7
100
AcDbEntity
  8
M0
 62
     7
100
AcDbCircle
 10
743.727236
 20
1730.326966
 40
4.0
100
AcDbArc
 50
90.0
 51
163.740119
  0
ARC
  5
3E8
100
AcDbEntity
  8
M0
 62
     7
100
AcDbCircle
 10
736.727236
 20
1731.326966
 40
3.0
100
AcDbArc
 50
269.999709
 51
343.739247
  0
LINE
  5
3E9
100
AcDbEntity
  8
M0
 62
     7
100
AcDbLine
 10
736.727236
 20
1728.326966
 11
691.227236
 21
1728.326966
  0
ARC
  5
3EA
100
AcDbEntity
  8
M0
 62
     7
100
AcDbCircle
 10
684.227236
 20
1730.326966
 40
4.0
100
AcDbArc
 50
16.260152
 51
90.0
  0
ARC
  5
3EB
100
AcDbEntity
  8
M0
 62
     7
100
AcDbCircle
 10
683.227236
 20
1730.326966
 40
4.0
100
AcDbArc
 50
90.0
 51
163.740119
  0
LINE
  5
3EC
100
AcDbEntity
  8
M0
 62
     7
100
AcDbLine
 10
683.227236
 20
1734.326966
 11
684.227236
 21
1734.326966
  0
ARC
  5
3ED
100
AcDbEntity
  8
M0
 62
     7
100
AcDbCircle
 10
749.727236
 20
1717.326966
 40
3.0
100
AcDbArc
 50
269.999709
 51
360.0
  0
ARC
  5
3EE
100
AcDbEntity
  8
M0
 62
     7
100
AcDbCircle
 10
749.727236
 20
1701.326966
 40
3.0
100
AcDbArc
 50
0.0
 51
90.0
  0
LINE
  5
3EF
100
AcDbEntity
  8
M0
 62
     7
100
AcDbLine
 10
749.727236
 20
1714.326966
 11
744.727236
 21
1714.326966
  0
LINE
  5
3F0
100
AcDbEntity
  8
M0
 62
     7
100
AcDbLine
 10
749.727236
 20
1704.326966
 11
744.727236
 21
1704.326966
  0
ARC
  5
3F1
100
AcDbEntity
  8
M0
 62
     7
100
AcDbCircle
 10
744.727236
 20
1709.326966
 40
5.0
100
AcDbArc
 50
90.0
 51
269.999825
  0
ARC
  5
3F2
100
AcDbEntity
  8
M0
 62
     7
100
AcDbCircle
 10
558.727236
 20
1730.326966
 40
4.0
100
AcDbArc
 50
89.999781
 51
180.0
  0
LINE
  5
3F3
100
AcDbEntity
  8
M0
 62
     7
100
AcDbLine
 10
558.727236
 20
1734.326966
 11
563.727236
 21
1734.326966
  0
LINE
  5
3F4
100
AcDbEntity
  8
M0
 62
     7
100
AcDbLine
 10
628.347246
 20
1730.486955
 11
628.067247
 21
1731.446961
  0
ARC
  5
3F5
100
AcDbEntity
  8
M0
 62
     7
100
AcDbCircle
 10
631.227236
 20
1731.326966
 40
3.0
100
AcDbArc
 50
196.260753
 51
270.0
  0
LINE
  5
3F6
100
AcDbEntity
  8
M0
 62
     7
100
AcDbLine
 10
619.387239
 20
1731.446961
 11
619.10724
 21
1730.486955
  0
ARC
  5
3F7
100
AcDbEntity
  8
M0
 62
     7
100
AcDbCircle
 10
616.227236
 20
1731.326966
 40
3.0
100
AcDbArc
 50
270.0
 51
343.739609
  0
LINE
  5
3F8
100
AcDbEntity
  8
M0
 62
     7
100
AcDbLine
 10
567.847246
 20
1730.486955
 11
567.567247
 21
1731.446961
  0
ARC
  5
3F9
100
AcDbEntity
  8
M0
 62
     7
100
AcDbCircle
 10
563.727236
 20
1730.326966
 40
4.0
100
AcDbArc
 50
16.259881
 51
89.999781
  0
ARC
  5
3FA
100
AcDbEntity
  8
M0
 62
     7
100
AcDbCircle
 10
570.727236
 20
1731.326966
 40
3.0
100
AcDbArc
 50
196.260753
 51
270.0
  0
LINE
  5
3FB
100
AcDbEntity
  8
M0
 62
     7
100
AcDbLine
 10
570.727236
 20
1728.326966
 11
616.227236
 21
1728.326966
  0
LINE
  5
3FC
100
AcDbEntity
  8
M0
 62
     7
100
AcDbLine
 10
676.227236
 20
1728.326966
 11
631.227236
 21
1728.326966
  0
ARC
  5
3FD
100
AcDbEntity
  8
M0
 62
     7
100
AcDbCircle
 10
623.227236
 20
1730.326966
 40
4.0
100
AcDbArc
 50
89.999781
 51
163.739848
  0
ARC
  5
3FE
100
AcDbEntity
  8
M0
 62
     7
100
AcDbCircle
 10
624.227236
 20
1730.326966
 40
4.0
100
AcDbArc
 50
16.259881
 51
89.999781
  0
LINE
  5
3FF
100
AcDbEntity
  8
M0
 62
     7
100
AcDbLine
 10
624.227236
 20
1734.326966
 11
623.227236
 21
1734.326966
  0
ARC
  5
400
100
AcDbEntity
  8
M0
 62
     7
100
AcDbCircle
 10
557.727236
 20
1717.326966
 40
3.0
100
AcDbArc
 50
180.0
 51
270.0
  0
ARC
  5
401
100
AcDbEntity
  8
M0
 62
     7
100
AcDbCircle
 10
557.727236
 20
1701.326966
 40
3.0
100
AcDbArc
 50
89.999709
 51
180.0
  0
LINE
  5
402
100
AcDbEntity
  8
M0
 62
     7
100
AcDbLine
 10
557.727236
 20
1714.326966
 11
562.727236
 21
1714.326966
  0
LINE
  5
403
100
AcDbEntity
  8
M0
 62
     7
100
AcDbLine
 10
557.727236
 20
1704.326966
 11
562.727236
 21
1704.326966
  0
ARC
  5
404
100
AcDbEntity
  8
M0
 62
     7
100
AcDbCircle
 10
562.727236
 20
1709.326966
 40
5.0
100
AcDbArc
 50
-90.0
 51
89.999825
  0
LINE
  5
405
100
AcDbEntity
  8
M0
 62
     7
100
AcDbLine
 10
679.107225
 20
1548.166968
 11
679.387224
 21
1547.206968
  0
ARC
  5
406
100
AcDbEntity
  8
M0
 62
     7
100
AcDbCircle
 10
676.227236
 20
1547.326968
 40
3.0
100
AcDbArc
 50
16.260315
 51
90.0
  0
LINE
  5
407
100
AcDbEntity
  8
M0
 62
     7
100
AcDbLine
 10
688.067232
 20
1547.206968
 11
688.347231
 21
1548.166968
  0
ARC
  5
408
100
AcDbEntity
  8
M0
 62
     7
100
AcDbCircle
 10
691.227236
 20
1547.326968
 40
3.0
100
AcDbArc
 50
90.0
 51
163.739819
  0
LINE
  5
409
100
AcDbEntity
  8
M0
 62
     7
100
AcDbLine
 10
676.227236
 20
1550.326968
 11
631.227236
 21
1550.326968
  0
ARC
  5
40A
100
AcDbEntity
  8
M0
 62
     7
100
AcDbCircle
 10
684.227236
 20
1548.326968
 40
4.0
100
AcDbArc
 50
269.999781
 51
343.739756
  0
ARC
  5
40B
100
AcDbEntity
  8
M0
 62
     7
100
AcDbCircle
 10
745.727236
 20
1548.326968
 40
4.0
100
AcDbArc
 50
-90.000219
 51
0.0
  0
LINE
  5
40C
100
AcDbEntity
  8
M0
 62
     7
100
AcDbLine
 10
557.727236
 20
1548.326968
 11
557.727236
 21
1592.826966
  0
LINE
  5
40D
100
AcDbEntity
  8
M0
 62
     7
100
AcDbLine
 10
749.727236
 20
1548.326968
 11
749.727236
 21
1592.826966
  0
LINE
  5
40E
100
AcDbEntity
  8
M0
 62
     7
100
AcDbLine
 10
745.727236
 20
1544.326968
 11
743.827226
 21
1544.326968
  0
LINE
  5
40F
100
AcDbEntity
  8
M0
 62
     7
100
AcDbLine
 10
739.707231
 20
1548.166968
 11
739.98723
 21
1547.206968
  0
ARC
  5
410
100
AcDbEntity
  8
M0
 62
     7
100
AcDbCircle
 10
743.827226
 20
1548.326968
 40
4.0
100
AcDbArc
 50
196.26013
 51
269.999781
  0
ARC
  5
411
100
AcDbEntity
  8
M0
 62
     7
100
AcDbCircle
 10
736.827226
 20
1547.326968
 40
3.0
100
AcDbArc
 50
16.260246
 51
90.0
  0
LINE
  5
412
100
AcDbEntity
  8
M0
 62
     7
100
AcDbLine
 10
736.827226
 20
1550.326968
 11
691.227236
 21
1550.326968
  0
ARC
  5
413
100
AcDbEntity
  8
M0
 62
     7
100
AcDbCircle
 10
683.227236
 20
1548.326968
 40
4.0
100
AcDbArc
 50
196.260078
 51
269.999781
  0
LINE
  5
414
100
AcDbEntity
  8
M0
 62
     7
100
AcDbLine
 10
683.227236
 20
1544.326968
 11
684.227236
 21
1544.326968
  0
LINE
  5
415
100
AcDbEntity
  8
M0
 62
     7
100
AcDbLine
 10
628.347246
 20
1548.166968
 11
628.067247
 21
1547.206968
  0
ARC
  5
416
100
AcDbEntity
  8
M0
 62
     7
100
AcDbCircle
 10
631.227236
 20
1547.326968
 40
3.0
100
AcDbArc
 50
89.999709
 51
163.739632
  0
LINE
  5
417
100
AcDbEntity
  8
M0
 62
     7
100
AcDbLine
 10
619.387239
 20
1547.206968
 11
619.10724
 21
1548.166968
  0
ARC
  5
418
100
AcDbEntity
  8
M0
 62
     7
100
AcDbCircle
 10
616.227236
 20
1547.326968
 40
3.0
100
AcDbArc
 50
16.260164
 51
89.999709
  0
ARC
  5
419
100
AcDbEntity
  8
M0
 62
     7
100
AcDbCircle
 10
623.227236
 20
1548.326968
 40
4.0
100
AcDbArc
 50
196.260192
 51
270.0
  0
ARC
  5
41A
100
AcDbEntity
  8
M0
 62
     7
100
AcDbCircle
 10
624.227236
 20
1548.326968
 40
4.0
100
AcDbArc
 50
270.0
 51
343.73987
  0
LINE
  5
41B
100
AcDbEntity
  8
M0
 62
     7
100
AcDbLine
 10
624.227236
 20
1544.326968
 11
623.227236
 21
1544.326968
  0
ARC
  5
41C
100
AcDbEntity
  8
M0
 62
     7
100
AcDbCircle
 10
561.727236
 20
1548.326968
 40
4.0
100
AcDbArc
 50
179.999959
 51
270.0
  0
ARC
  5
41D
100
AcDbEntity
  8
M0
 62
     7
100
AcDbCircle
 10
560.727236
 20
1561.326967
 40
3.0
100
AcDbArc
 50
89.999709
 51
179.999982
  0
ARC
  5
41E
100
AcDbEntity
  8
M0
 62
     7
100
AcDbCircle
 10
560.727236
 20
1577.326966
 40
3.0
100
AcDbArc
 50
180.0
 51
270.0
  0
LINE
  5
41F
100
AcDbEntity
  8
M0
 62
     7
100
AcDbLine
 10
560.727236
 20
1564.326967
 11
565.727236
 21
1564.326967
  0
LINE
  5
420
100
AcDbEntity
  8
M0
 62
     7
100
AcDbLine
 10
560.727236
 20
1574.326966
 11
565.727236
 21
1574.326966
  0
ARC
  5
421
100
AcDbEntity
  8
M0
 62
     7
100
AcDbCircle
 10
565.727236
 20
1569.326966
 40
5.0
100
AcDbArc
 50
270.0
 51
449.999825
  0
ARC
  5
422
100
AcDbEntity
  8
M0
 62
     7
100
AcDbCircle
 10
746.727236
 20
1561.326967
 40
3.0
100
AcDbArc
 50
0.0
 51
90.0
  0
ARC
  5
423
100
AcDbEntity
  8
M0
 62
     7
100
AcDbCircle
 10
746.727236
 20
1577.326966
 40
3.0
100
AcDbArc
 50
-90.000291
 51
0.0
  0
LINE
  5
424
100
AcDbEntity
  8
M0
 62
     7
100
AcDbLine
 10
746.727236
 20
1564.326967
 11
741.727236
 21
1564.326967
  0
LINE
  5
425
100
AcDbEntity
  8
M0
 62
     7
100
AcDbLine
 10
746.727236
 20
1574.326966
 11
741.727236
 21
1574.326966
  0
ARC
  5
426
100
AcDbEntity
  8
M0
 62
     7
100
AcDbCircle
 10
741.727236
 20
1569.326966
 40
5.0
100
AcDbArc
 50
90.0
 51
269.999825
  0
LINE
  5
427
100
AcDbEntity
  8
M0
 62
     7
100
AcDbLine
 10
554.727236
 20
1595.826966
 11
554.727236
 21
1730.326966
  0
ARC
  5
428
100
AcDbEntity
  8
M0
 62
     7
100
AcDbCircle
 10
556.227236
 20
1595.826966
 40
1.5
100
AcDbArc
 50
180.0
 51
270.0
  0
ARC
  5
429
100
AcDbEntity
  8
M0
 62
     7
100
AcDbCircle
 10
556.227236
 20
1592.826966
 40
1.5
100
AcDbArc
 50
0.0
 51
89.999417
  0
LINE
  5
42A
100
AcDbEntity
  8
M0
 62
     7
100
AcDbLine
 10
752.727236
 20
1595.826966
 11
752.727236
 21
1730.326966
  0
LINE
  5
42B
100
AcDbEntity
  8
M0
 62
     7
100
AcDbLine
 10
570.627245
 20
1550.326968
 11
616.227236
 21
1550.326968
  0
ARC
  5
42C
100
AcDbEntity
  8
M0
 62
     7
100
AcDbCircle
 10
570.627245
 20
1547.326968
 40
3.0
100
AcDbArc
 50
89.999709
 51
163.739737
  0
ARC
  5
42D
100
AcDbEntity
  8
M0
 62
     7
100
AcDbCircle
 10
563.627245
 20
1548.326968
 40
4.0
100
AcDbArc
 50
270.0
 51
343.739817
  0
LINE
  5
42E
100
AcDbEntity
  8
M0
 62
     7
100
AcDbLine
 10
567.74724
 20
1548.166968
 11
567.467241
 21
1547.206968
  0
LINE
  5
42F
100
AcDbEntity
  8
M0
 62
     7
100
AcDbLine
 10
561.727236
 20
1544.326968
 11
563.627245
 21
1544.326968
  0
ARC
  5
430
100
AcDbEntity
  8
M0
 62
     7
100
AcDbCircle
 10
655.727236
 20
1666.176957
 40
1.0
100
AcDbArc
 50
0.0
 51
90.0
  0
LINE
  5
431
100
AcDbEntity
  8
M0
 62
     7
100
AcDbLine
 10
651.727236
 20
1667.176957
 11
655.727236
 21
1667.176957
  0
ARC
  5
432
100
AcDbEntity
  8
M0
 62
     7
100
AcDbCircle
 10
651.727236
 20
1666.176957
 40
1.0
100
AcDbArc
 50
90.0
 51
180.0
  0
LINE
  5
433
100
AcDbEntity
  8
M0
 62
     7
100
AcDbLine
 10
650.727236
 20
1666.176789
 11
650.727236
 21
1664.176789
  0
LINE
  5
434
100
AcDbEntity
  8
M0
 62
     7
100
AcDbLine
 10
656.727236
 20
1666.176789
 11
656.727236
 21
1664.176789
  0
LINE
  5
435
100
AcDbEntity
  8
M0
 62
     7
100
AcDbLine
 10
647.227236
 20
1664.176957
 11
650.727236
 21
1664.176789
  0
LINE
  5
436
100
AcDbEntity
  8
M0
 62
     7
100
AcDbLine
 10
647.227236
 20
1664.176957
 11
647.227236
 21
1660.97696
  0
LINE
  5
437
100
AcDbEntity
  8
M0
 62
     7
100
AcDbLine
 10
660.227236
 20
1664.176957
 11
660.227236
 21
1660.97696
  0
LINE
  5
438
100
AcDbEntity
  8
M0
 62
     7
100
AcDbLine
 10
662.027235
 20
1660.97696
 11
660.227236
 21
1660.97696
  0
ARC
  5
439
100
AcDbEntity
  8
M0
 62
     7
100
AcDbCircle
 10
662.027235
 20
1657.97696
 40
3.0
100
AcDbArc
 50
0.0
 51
90.0
  0
LINE
  5
43A
100
AcDbEntity
  8
M0
 62
     7
100
AcDbLine
 10
647.227236
 20
1660.97696
 11
645.427236
 21
1660.97696
  0
ARC
  5
43B
100
AcDbEntity
  8
M0
 62
     7
100
AcDbCircle
 10
645.427236
 20
1657.97696
 40
3.0
100
AcDbArc
 50
90.0
 51
180.0
  0
LINE
  5
43C
100
AcDbEntity
  8
M0
 62
     7
100
AcDbLine
 10
642.427236
 20
1634.676957
 11
665.027235
 21
1634.676957
  0
LINE
  5
43D
100
AcDbEntity
  8
M0
 62
     7
100
AcDbLine
 10
642.427236
 20
1657.97696
 11
642.427236
 21
1634.676957
  0
LINE
  5
43E
100
AcDbEntity
  8
M0
 62
     7
100
AcDbLine
 10
665.027235
 20
1634.676957
 11
665.027235
 21
1657.97696
  0
LINE
  5
43F
100
AcDbEntity
  8
M0
 62
     7
100
AcDbLine
 10
650.726015
 20
1647.676789
 11
656.726503
 21
1647.676789
  0
LINE
  5
440
100
AcDbEntity
  8
M0
 62
     7
100
AcDbLine
 10
650.726015
 20
1642.676789
 11
656.726503
 21
1642.676789
  0
LINE
  5
441
100
AcDbEntity
  8
M0
 62
     7
100
AcDbLine
 10
656.727236
 20
1664.176789
 11
660.227236
 21
1664.176957
  0
LINE
  5
442
100
AcDbEntity
  8
M0
 62
     6
100
AcDbLine
 10
767.627233
 20
1684.326964
 11
752.727233
 21
1684.326969
  0
LINE
  5
443
100
AcDbEntity
  8
M0
 62
     6
100
AcDbLine
 10
752.727233
 20
1684.326969
 11
752.727205
 21
1594.326969
  0
LINE
  5
444
100
AcDbEntity
  8
M0
 62
     6
100
AcDbLine
 10
752.727205
 20
1594.326969
 11
767.627204
 21
1594.326964
  0
LINE
  5
445
100
AcDbEntity
  8
M0
 62
     6
100
AcDbLine
 10
767.627204
 20
1594.326964
 11
767.627233
 21
1684.326964
  0
LINE
  5
446
100
AcDbEntity
  8
M0
 62
     6
100
AcDbLine
 10
754.677213
 20
1621.326968
 11
754.677213
 21
1622.826968
  0
LINE
  5
447
100
AcDbEntity
  8
M0
 62
     6
100
AcDbLine
 10
765.677213
 20
1621.326964
 11
765.677213
 21
1622.826964
  0
LINE
  5
448
100
AcDbEntity
  8
M0
 62
     6
100
AcDbLine
 10
754.677213
 20
1622.826968
 11
765.677213
 21
1622.826964
  0
LINE
  5
449
100
AcDbEntity
  8
M0
 62
     6
100
AcDbLine
 10
755.677217
 20
1632.926958
 11
755.677213
 21
1622.826968
  0
LINE
  5
44A
100
AcDbEntity
  8
M0
 62
     6
100
AcDbLine
 10
755.677213
 20
1621.326968
 11
755.677204
 21
1594.326968
  0
LINE
  5
44B
100
AcDbEntity
  8
M0
 62
     6
100
AcDbLine
 10
764.677217
 20
1632.926956
 11
764.677213
 21
1622.826965
  0
LINE
  5
44C
100
AcDbEntity
  8
M0
 62
     6
100
AcDbLine
 10
764.677213
 20
1621.326965
 11
764.677204
 21
1594.326965
  0
LINE
  5
44D
100
AcDbEntity
  8
M0
 62
     6
100
AcDbLine
 10
765.677213
 20
1621.326964
 11
764.677213
 21
1621.326965
  0
LINE
  5
44E
100
AcDbEntity
  8
M0
 62
     6
100
AcDbLine
 10
755.677213
 20
1621.326968
 11
754.677213
 21
1621.326968
  0
LINE
  5
44F
100
AcDbEntity
  8
M0
 62
     6
100
AcDbLine
 10
764.677217
 20
1632.926956
 11
755.677217
 21
1632.926958
  0
LINE
  5
450
100
AcDbEntity
  8
M0
 62
     6
100
AcDbLine
 10
755.677206
 20
1600.326968
 11
764.677206
 21
1600.326965
  0
LINE
  5
451
100
AcDbEntity
  8
M0
 62
     6
100
AcDbLine
 10
752.727211
 20
1614.326969
 11
755.677211
 21
1614.326968
  0
LINE
  5
452
100
AcDbEntity
  8
M0
 62
     6
100
AcDbLine
 10
764.677211
 20
1614.326965
 11
767.627211
 21
1614.326964
  0
LINE
  5
453
100
AcDbEntity
  8
M0
 62
     6
100
AcDbLine
 10
765.677224
 20
1657.326964
 11
765.677224
 21
1655.826964
  0
LINE
  5
454
100
AcDbEntity
  8
M0
 62
     6
100
AcDbLine
 10
754.677224
 20
1655.826968
 11
765.677224
 21
1655.826964
  0
LINE
  5
455
100
AcDbEntity
  8
M0
 62
     6
100
AcDbLine
 10
764.677221
 20
1645.726959
 11
764.677224
 21
1655.826965
  0
LINE
  5
456
100
AcDbEntity
  8
M0
 62
     6
100
AcDbLine
 10
764.677224
 20
1657.326965
 11
764.677233
 21
1684.326965
  0
LINE
  5
457
100
AcDbEntity
  8
M0
 62
     6
100
AcDbLine
 10
765.677224
 20
1657.326964
 11
764.677224
 21
1657.326965
  0
LINE
  5
458
100
AcDbEntity
  8
M0
 62
     6
100
AcDbLine
 10
764.677221
 20
1645.726959
 11
755.677221
 21
1645.726962
  0
LINE
  5
459
100
AcDbEntity
  8
M0
 62
     6
100
AcDbLine
 10
755.677231
 20
1678.326968
 11
764.677231
 21
1678.326965
  0
LINE
  5
45A
100
AcDbEntity
  8
M0
 62
     6
100
AcDbLine
 10
764.677226
 20
1664.326965
 11
767.627226
 21
1664.326964
  0
LINE
  5
45B
100
AcDbEntity
  8
M0
 62
     6
100
AcDbLine
 10
755.677221
 20
1645.726962
 11
755.677224
 21
1655.826968
  0
LINE
  5
45C
100
AcDbEntity
  8
M0
 62
     6
100
AcDbLine
 10
754.677224
 20
1657.326968
 11
754.677224
 21
1655.826968
  0
LINE
  5
45D
100
AcDbEntity
  8
M0
 62
     6
100
AcDbLine
 10
755.677224
 20
1657.326968
 11
754.677224
 21
1657.326968
  0
LINE
  5
45E
100
AcDbEntity
  8
M0
 62
     6
100
AcDbLine
 10
755.677224
 20
1657.326968
 11
755.677233
 21
1684.326968
  0
LINE
  5
45F
100
AcDbEntity
  8
M0
 62
     6
100
AcDbLine
 10
752.727227
 20
1664.326969
 11
755.677226
 21
1664.326968
  0
CIRCLE
  5
460
100
AcDbEntity
  8
M0
 62
     6
100
AcDbCircle
 10
760.177219
 20
1639.326966
 40
2.799999
  0
LINE
  5
461
100
AcDbEntity
  8
M0
 62
     6
100
AcDbLine
 10
539.827239
 20
1684.326964
 11
554.727238
 21
1684.326969
  0
LINE
  5
462
100
AcDbEntity
  8
M0
 62
     6
100
AcDbLine
 10
554.727238
 20
1684.326969
 11
554.727266
 21
1594.326969
  0
LINE
  5
463
100
AcDbEntity
  8
M0
 62
     6
100
AcDbLine
 10
554.727266
 20
1594.326969
 11
539.827267
 21
1594.326964
  0
LINE
  5
464
100
AcDbEntity
  8
M0
 62
     6
100
AcDbLine
 10
539.827267
 20
1594.326964
 11
539.827239
 21
1684.326964
  0
LINE
  5
465
100
AcDbEntity
  8
M0
 62
     6
100
AcDbLine
 10
552.777258
 20
1621.326968
 11
552.777258
 21
1622.826968
  0
LINE
  5
466
100
AcDbEntity
  8
M0
 62
     6
100
AcDbLine
 10
541.777258
 20
1621.326964
 11
541.777258
 21
1622.826964
  0
LINE
  5
467
100
AcDbEntity
  8
M0
 62
     6
100
AcDbLine
 10
552.777258
 20
1622.826968
 11
541.777258
 21
1622.826964
  0
LINE
  5
468
100
AcDbEntity
  8
M0
 62
     6
100
AcDbLine
 10
551.777255
 20
1632.926958
 11
551.777258
 21
1622.826968
  0
LINE
  5
469
100
AcDbEntity
  8
M0
 62
     6
100
AcDbLine
 10
551.777258
 20
1621.326968
 11
551.777267
 21
1594.326968
  0
LINE
  5
46A
100
AcDbEntity
  8
M0
 62
     6
100
AcDbLine
 10
542.777255
 20
1632.926956
 11
542.777258
 21
1622.826965
  0
LINE
  5
46B
100
AcDbEntity
  8
M0
 62
     6
100
AcDbLine
 10
542.777258
 20
1621.326965
 11
542.777267
 21
1594.326965
  0
LINE
  5
46C
100
AcDbEntity
  8
M0
 62
     6
100
AcDbLine
 10
541.777258
 20
1621.326964
 11
542.777258
 21
1621.326965
  0
LINE
  5
46D
100
AcDbEntity
  8
M0
 62
     6
100
AcDbLine
 10
551.777258
 20
1621.326968
 11
552.777258
 21
1621.326968
  0
LINE
  5
46E
100
AcDbEntity
  8
M0
 62
     6
100
AcDbLine
 10
542.777255
 20
1632.926956
 11
551.777255
 21
1632.926958
  0
LINE
  5
46F
100
AcDbEntity
  8
M0
 62
     6
100
AcDbLine
 10
551.777265
 20
1600.326968
 11
542.777265
 21
1600.326965
  0
LINE
  5
470
100
AcDbEntity
  8
M0
 62
     6
100
AcDbLine
 10
554.72726
 20
1614.326969
 11
551.77726
 21
1614.326968
  0
LINE
  5
471
100
AcDbEntity
  8
M0
 62
     6
100
AcDbLine
 10
542.77726
 20
1614.326965
 11
539.827261
 21
1614.326964
  0
LINE
  5
472
100
AcDbEntity
  8
M0
 62
     6
100
AcDbLine
 10
541.777247
 20
1657.326964
 11
541.777247
 21
1655.826964
  0
LINE
  5
473
100
AcDbEntity
  8
M0
 62
     6
100
AcDbLine
 10
552.777247
 20
1655.826968
 11
541.777247
 21
1655.826964
  0
LINE
  5
474
100
AcDbEntity
  8
M0
 62
     6
100
AcDbLine
 10
542.777251
 20
1645.726959
 11
542.777247
 21
1655.826965
  0
LINE
  5
475
100
AcDbEntity
  8
M0
 62
     6
100
AcDbLine
 10
542.777247
 20
1657.326965
 11
542.777238
 21
1684.326965
  0
LINE
  5
476
100
AcDbEntity
  8
M0
 62
     6
100
AcDbLine
 10
541.777247
 20
1657.326964
 11
542.777247
 21
1657.326965
  0
LINE
  5
477
100
AcDbEntity
  8
M0
 62
     6
100
AcDbLine
 10
542.777251
 20
1645.726959
 11
551.777251
 21
1645.726962
  0
LINE
  5
478
100
AcDbEntity
  8
M0
 62
     6
100
AcDbLine
 10
551.77724
 20
1678.326968
 11
542.77724
 21
1678.326965
  0
LINE
  5
479
100
AcDbEntity
  8
M0
 62
     6
100
AcDbLine
 10
542.777245
 20
1664.326965
 11
539.827245
 21
1664.326964
  0
LINE
  5
47A
100
AcDbEntity
  8
M0
 62
     6
100
AcDbLine
 10
551.777251
 20
1645.726962
 11
551.777247
 21
1655.826968
  0
LINE
  5
47B
100
AcDbEntity
  8
M0
 62
     6
100
AcDbLine
 10
552.777247
 20
1657.326968
 11
552.777247
 21
1655.826968
  0
LINE
  5
47C
100
AcDbEntity
  8
M0
 62
     6
100
AcDbLine
 10
551.777247
 20
1657.326968
 11
552.777247
 21
1657.326968
  0
LINE
  5
47D
100
AcDbEntity
  8
M0
 62
     6
100
AcDbLine
 10
551.777247
 20
1657.326968
 11
551.777238
 21
1684.326968
  0
LINE
  5
47E
100
AcDbEntity
  8
M0
 62
     6
100
AcDbLine
 10
554.727245
 20
1664.326969
 11
551.777245
 21
1664.326968
  0
CIRCLE
  5
47F
100
AcDbEntity
  8
M0
 62
     6
100
AcDbCircle
 10
547.277253
 20
1639.326966
 40
2.799999
  0
LINE
  5
480
100
AcDbEntity
  8
M0
 62
     4
100
AcDbLine
 10
795.177141
 20
1682.326968
 11
783.177141
 21
1682.326964
  0
LINE
  5
481
100
AcDbEntity
  8
M0
  6
DASHDOT
 62
     4
100
AcDbLine
 10
805.798539
 20
1639.326971
 11
774.56495
 21
1639.326962
  0
LINE
  5
482
100
AcDbEntity
  8
M0
 62
     4
100
AcDbLine
 10
795.177155
 20
1639.326968
 11
795.177141
 21
1682.326968
  0
LINE
  5
483
100
AcDbEntity
  8
M0
 62
     4
100
AcDbLine
 10
795.177168
 20
1596.326968
 11
783.177168
 21
1596.326964
  0
LINE
  5
484
100
AcDbEntity
  8
M0
  6
DASHDOT
 62
     4
100
AcDbLine
 10
805.798539
 20
1639.326971
 11
774.56495
 21
1639.326962
  0
LINE
  5
485
100
AcDbEntity
  8
M0
 62
     4
100
AcDbLine
 10
795.177155
 20
1639.326968
 11
795.177168
 21
1596.326968
  0
LINE
  5
486
100
AcDbEntity
  8
M0
100
AcDbLine
 10
783.677233
 20
1514.326981
 11
783.677233
 21
1764.326966
  0
LINE
  5
487
100
AcDbEntity
  8
M0
100
AcDbLine
 10
783.677187
 20
1764.326936
 11
743.727388
 21
1764.326753
  0
LINE
  5
488
100
AcDbEntity
  8
M0
100
AcDbLine
 10
523.777239
 20
1764.326966
 11
523.777239
 21
1514.326981
  0
LINE
  5
489
100
AcDbEntity
  8
M0
100
AcDbLine
 10
523.725954
 20
1514.326936
 11
563.725435
 21
1514.326936
  0
CIRCLE
  5
48A
100
AcDbEntity
  8
M0
100
AcDbCircle
 10
683.727236
 20
1750.326966
 40
5.75
  0
CIRCLE
  5
48B
100
AcDbEntity
  8
M0
100
AcDbCircle
 10
683.727236
 20
1528.326968
 40
5.75
  0
ARC
  5
48C
100
AcDbEntity
  8
M0
100
AcDbCircle
 10
683.727236
 20
1750.326966
 40
11.5
100
AcDbArc
 50
175.014058
 51
490.709348
  0
ARC
  5
48D
100
AcDbEntity
  8
M0
100
AcDbCircle
 10
683.727236
 20
1528.326968
 40
11.5
100
AcDbArc
 50
229.289899
 51
560.357632
  0
LINE
  5
48E
100
AcDbEntity
  8
M0
100
AcDbLine
 10
755.677233
 20
1709.326966
 11
755.677233
 21
1707.326966
  0
LINE
  5
48F
100
AcDbEntity
  8
M0
100
AcDbLine
 10
783.677233
 20
1707.326966
 11
755.677233
 21
1707.326966
  0
LINE
  5
490
100
AcDbEntity
  8
M0
100
AcDbLine
 10
783.677233
 20
1733.826966
 11
780.47722
 21
1733.826966
  0
LINE
  5
491
100
AcDbEntity
  8
M0
100
AcDbLine
 10
780.47722
 20
1764.326966
 11
780.47722
 21
1733.826966
  0
LINE
  5
492
100
AcDbEntity
  8
M0
100
AcDbLine
 10
780.47722
 20
1707.326966
 11
780.47722
 21
1684.326966
  0
LINE
  5
493
100
AcDbEntity
  8
M0
100
AcDbLine
 10
523.777239
 20
1733.826966
 11
526.547792
 21
1733.826966
  0
LINE
  5
494
100
AcDbEntity
  8
M0
100
AcDbLine
 10
526.977251
 20
1764.326966
 11
526.977251
 21
1733.826966
  0
LINE
  5
495
100
AcDbEntity
  8
M0
100
AcDbLine
 10
676.226503
 20
1514.326936
 11
698.725527
 21
1514.326936
  0
LINE
  5
496
100
AcDbEntity
  8
M0
100
AcDbLine
 10
743.727388
 20
1514.326936
 11
783.728426
 21
1514.326936
  0
ARC
  5
497
100
AcDbEntity
  8
M0
100
AcDbCircle
 10
738.727236
 20
1528.326936
 40
11.5
100
AcDbArc
 50
281.395572
 51
353.377809
  0
LINE
  5
498
100
AcDbEntity
  8
M0
100
AcDbLine
 10
608.725771
 20
1514.326936
 11
631.226503
 21
1514.326936
  0
ARC
  5
499
100
AcDbEntity
  8
M0
100
AcDbCircle
 10
568.727251
 20
1528.326968
 40
11.5
100
AcDbArc
 50
29.59086
 51
125.881475
  0
LINE
  5
49A
100
AcDbEntity
  8
M0
100
AcDbLine
 10
698.725527
 20
1764.326692
 11
676.226747
 21
1764.326692
  0
LINE
  5
49B
100
AcDbEntity
  8
M0
100
AcDbLine
 10
631.226747
 20
1764.326692
 11
608.725771
 21
1764.326447
  0
LINE
  5
49C
100
AcDbEntity
  8
M0
100
AcDbLine
 10
578.726747
 20
1764.326692
 11
523.777239
 21
1764.326936
  0
ARC
  5
49D
100
AcDbEntity
  8
M0
100
AcDbCircle
 10
568.727236
 20
1750.326936
 40
11.5
100
AcDbArc
 50
101.405039
 51
330.405189
  0
ARC
  5
49E
100
AcDbEntity
  8
M0
100
AcDbCircle
 10
738.725527
 20
1750.326203
 40
11.5
100
AcDbArc
 50
209.607305
 51
438.600477
  0
ARC
  5
49F
100
AcDbEntity
  8
M0
100
AcDbCircle
 10
738.727236
 20
1528.326968
 40
11.5
100
AcDbArc
 50
54.119484
 51
150.409148
  0
ARC
  5
4A0
100
AcDbEntity
  8
M0
100
AcDbCircle
 10
568.727236
 20
1528.326936
 40
11.5
100
AcDbArc
 50
186.620772
 51
258.594663
  0
LINE
  5
4A1
100
AcDbEntity
  8
M0
  6
DASHDOT
100
AcDbLine
 10
653.72612
 20
1452.745927
 11
653.7279
 21
1826.895783
  0
LINE
  5
4A2
100
AcDbEntity
  8
M0
 62
     6
100
AcDbLine
 10
783.677325
 20
1758.326973
 11
783.677176
 21
1520.326989
  0
LINE
  5
4A3
100
AcDbEntity
  8
M0
 62
     6
100
AcDbLine
 10
783.677176
 20
1520.326989
 11
806.677176
 21
1520.326974
  0
LINE
  5
4A4
100
AcDbEntity
  8
M0
 62
     6
100
AcDbLine
 10
806.677176
 20
1520.326974
 11
806.677325
 21
1758.326959
  0
LINE
  5
4A5
100
AcDbEntity
  8
M0
 62
     6
100
AcDbLine
 10
806.677325
 20
1758.326959
 11
783.677325
 21
1758.326973
  0
LINE
  5
4A6
100
AcDbEntity
  8
M0
  6
DASHDOT
 62
     6
100
AcDbLine
 10
811.67725
 20
1639.326956
 11
778.67725
 21
1639.326977
  0
LINE
  5
4A7
100
AcDbEntity
  8
M0
  6
DASHDOT
 62
     6
100
AcDbLine
 10
795.177328
 20
1763.326966
 11
795.177173
 21
1515.326981
  0
LINE
  5
4A8
100
AcDbEntity
  8
M0
 62
     6
100
AcDbLine
 10
790.177178
 20
1523.326971
 11
790.177183
 21
1532.326971
  0
LINE
  5
4A9
100
AcDbEntity
  8
M0
 62
     6
100
AcDbLine
 10
800.177178
 20
1523.326965
 11
800.177183
 21
1532.326965
  0
LINE
  5
4AA
100
AcDbEntity
  8
M0
 62
     6
100
AcDbLine
 10
787.077178
 20
1523.326973
 11
790.177178
 21
1523.326971
  0
LINE
  5
4AB
100
AcDbEntity
  8
M0
 62
     6
100
AcDbLine
 10
803.277183
 20
1532.326963
 11
800.177183
 21
1532.326965
  0
LINE
  5
4AC
100
AcDbEntity
  8
M0
 62
     6
100
AcDbLine
 10
800.177178
 20
1523.326965
 11
803.277177
 21
1523.326963
  0
LINE
  5
4AD
100
AcDbEntity
  8
M0
 62
     6
100
AcDbLine
 10
790.177183
 20
1532.326971
 11
787.077184
 21
1532.326973
  0
LINE
  5
4AE
100
AcDbEntity
  8
M0
 62
     6
100
AcDbLine
 10
806.677182
 20
1530.326961
 11
803.177182
 21
1530.326963
  0
LINE
  5
4AF
100
AcDbEntity
  8
M0
 62
     6
100
AcDbLine
 10
787.177182
 20
1530.326973
 11
783.677182
 21
1530.326975
  0
LINE
  5
4B0
100
AcDbEntity
  8
M0
 62
     6
100
AcDbLine
 10
803.177186
 20
1536.326963
 11
787.177186
 21
1536.326973
  0
LINE
  5
4B1
100
AcDbEntity
  8
M0
 62
     6
100
AcDbLine
 10
787.177189
 20
1540.826972
 11
803.177189
 21
1540.826962
  0
LINE
  5
4B2
100
AcDbEntity
  8
M0
 62
     6
100
AcDbLine
 10
796.927189
 20
1540.826966
 11
796.927189
 21
1542.074737
  0
LINE
  5
4B3
100
AcDbEntity
  8
M0
 62
     6
100
AcDbLine
 10
793.427189
 20
1540.826968
 11
793.427189
 21
1542.07474
  0
LINE
  5
4B4
100
AcDbEntity
  8
M0
 62
     6
100
AcDbLine
 10
796.9272
 20
1559.326965
 11
803.1772
 21
1559.326961
  0
LINE
  5
4B5
100
AcDbEntity
  8
M0
 62
     6
100
AcDbLine
 10
796.927194
 20
1549.326966
 11
796.927196
 21
1552.074005
  0
LINE
  5
4B6
100
AcDbEntity
  8
M0
 62
     6
100
AcDbLine
 10
803.177194
 20
1549.326962
 11
787.177194
 21
1549.326972
  0
LINE
  5
4B7
100
AcDbEntity
  8
M0
 62
     6
100
AcDbLine
 10
803.177176
 20
1520.326976
 11
803.176945
 21
1541.262478
  0
LINE
  5
4B8
100
AcDbEntity
  8
M0
 62
     6
100
AcDbLine
 10
793.427201
 20
1560.826967
 11
805.177201
 21
1560.82696
  0
LINE
  5
4B9
100
AcDbEntity
  8
M0
 62
     6
100
AcDbLine
 10
787.177176
 20
1520.326986
 11
787.176945
 21
1541.263464
  0
LINE
  5
4BA
100
AcDbEntity
  8
M0
 62
     6
100
AcDbLine
 10
790.177194
 20
1549.32697
 11
790.1772
 21
1559.326969
  0
LINE
  5
4BB
100
AcDbEntity
  8
M0
 62
     6
100
AcDbLine
 10
790.177195
 20
1551.32697
 11
787.177195
 21
1551.326972
  0
LINE
  5
4BC
100
AcDbEntity
  8
M0
 62
     6
100
AcDbLine
 10
790.177195
 20
1551.32697
 11
787.177195
 21
1551.326972
  0
LINE
  5
4BD
100
AcDbEntity
  8
M0
 62
     6
100
AcDbLine
 10
793.4272
 20
1559.326967
 11
787.1772
 21
1559.326971
  0
LINE
  5
4BE
100
AcDbEntity
  8
M0
 62
     6
100
AcDbLine
 10
793.4272
 20
1559.326967
 11
793.427201
 21
1560.826967
  0
LINE
  5
4BF
100
AcDbEntity
  8
M0
 62
     6
100
AcDbLine
 10
793.4272
 20
1559.326967
 11
787.1772
 21
1559.326971
  0
LINE
  5
4C0
100
AcDbEntity
  8
M0
 62
     6
100
AcDbLine
 10
793.4272
 20
1559.326967
 11
793.427201
 21
1560.826967
  0
ARC
  5
4C1
100
AcDbEntity
  8
M0
 62
     6
100
AcDbCircle
 10
789.177203
 20
1563.82697
 40
1.0
100
AcDbArc
 50
179.999964
 51
270.0
  0
LINE
  5
4C2
100
AcDbEntity
  8
M0
 62
     6
100
AcDbLine
 10
801.177202
 20
1562.826962
 11
789.177202
 21
1562.82697
  0
ARC
  5
4C3
100
AcDbEntity
  8
M0
 62
     6
100
AcDbCircle
 10
801.177203
 20
1563.826962
 40
1.0
100
AcDbArc
 50
270.0
 51
359.99909
  0
ARC
  5
4C4
100
AcDbEntity
  8
M0
 62
     6
100
AcDbCircle
 10
801.177203
 20
1563.826962
 40
1.0
100
AcDbArc
 50
359.99909
 51
450.0
  0
LINE
  5
4C5
100
AcDbEntity
  8
M0
 62
     6
100
AcDbLine
 10
801.177204
 20
1564.826962
 11
789.177204
 21
1564.82697
  0
ARC
  5
4C6
100
AcDbEntity
  8
M0
 62
     6
100
AcDbCircle
 10
789.177203
 20
1563.82697
 40
1.0
100
AcDbArc
 50
90.0
 51
179.999964
  0
LINE
  5
4C7
100
AcDbEntity
  8
M0
 62
     6
100
AcDbLine
 10
796.177205
 20
1566.826966
 11
796.177214
 21
1580.826966
  0
LINE
  5
4C8
100
AcDbEntity
  8
M0
 62
     6
100
AcDbLine
 10
794.177205
 20
1566.826967
 11
794.177209
 21
1573.326967
  0
LINE
  5
4C9
100
AcDbEntity
  8
M0
 62
     6
100
AcDbLine
 10
801.177205
 20
1566.826962
 11
801.177214
 21
1580.826962
  0
LINE
  5
4CA
100
AcDbEntity
  8
M0
 62
     6
100
AcDbLine
 10
801.177214
 20
1580.826962
 11
796.177214
 21
1580.826966
  0
LINE
  5
4CB
100
AcDbEntity
  8
M0
 62
     6
100
AcDbLine
 10
801.17721
 20
1574.326962
 11
796.17721
 21
1574.326966
  0
LINE
  5
4CC
100
AcDbEntity
  8
M0
 62
     6
100
AcDbLine
 10
789.177205
 20
1566.82697
 11
789.177209
 21
1573.32697
  0
LINE
  5
4CD
100
AcDbEntity
  8
M0
 62
     6
100
AcDbLine
 10
801.177205
 20
1566.826962
 11
789.177205
 21
1566.82697
  0
LINE
  5
4CE
100
AcDbEntity
  8
M0
 62
     6
100
AcDbLine
 10
801.177209
 20
1573.326962
 11
789.177209
 21
1573.32697
  0
LINE
  5
4CF
100
AcDbEntity
  8
M0
 62
     6
100
AcDbLine
 10
787.177195
 20
1551.326972
 11
787.1772
 21
1559.326971
  0
LINE
  5
4D0
100
AcDbEntity
  8
M0
 62
     6
100
AcDbLine
 10
800.177323
 20
1755.326963
 11
800.177318
 21
1746.326963
  0
LINE
  5
4D1
100
AcDbEntity
  8
M0
 62
     6
100
AcDbLine
 10
803.277317
 20
1746.326961
 11
800.177318
 21
1746.326963
  0
LINE
  5
4D2
100
AcDbEntity
  8
M0
 62
     6
100
AcDbLine
 10
800.177323
 20
1755.326963
 11
803.277323
 21
1755.326961
  0
LINE
  5
4D3
100
AcDbEntity
  8
M0
 62
     6
100
AcDbLine
 10
790.177323
 20
1755.326969
 11
790.177318
 21
1746.326969
  0
LINE
  5
4D4
100
AcDbEntity
  8
M0
 62
     6
100
AcDbLine
 10
787.077324
 20
1755.326971
 11
790.177323
 21
1755.326969
  0
LINE
  5
4D5
100
AcDbEntity
  8
M0
 62
     6
100
AcDbLine
 10
787.077318
 20
1746.326971
 11
790.177318
 21
1746.326969
  0
LINE
  5
4D6
100
AcDbEntity
  8
M0
 62
     6
100
AcDbLine
 10
805.177313
 20
1739.32696
 11
785.177313
 21
1739.326972
  0
LINE
  5
4D7
100
AcDbEntity
  8
M0
 62
     6
100
AcDbLine
 10
805.177314
 20
1740.32696
 11
785.177314
 21
1740.326972
  0
LINE
  5
4D8
100
AcDbEntity
  8
M0
 62
     6
100
AcDbLine
 10
803.177325
 20
1758.326961
 11
803.177314
 21
1740.326961
  0
LINE
  5
4D9
100
AcDbEntity
  8
M0
 62
     6
100
AcDbLine
 10
787.177325
 20
1758.326971
 11
787.177314
 21
1740.326971
  0
LINE
  5
4DA
100
AcDbEntity
  8
M0
 62
     6
100
AcDbLine
 10
801.177314
 20
1740.326962
 11
801.177315
 21
1741.426953
  0
ARC
  5
4DB
100
AcDbEntity
  8
M0
 62
     6
100
AcDbCircle
 10
798.177315
 20
1741.426955
 40
3.0
100
AcDbArc
 50
359.999673
 51
450.0
  0
LINE
  5
4DC
100
AcDbEntity
  8
M0
 62
     6
100
AcDbLine
 10
798.177316
 20
1744.426955
 11
792.177316
 21
1744.426959
  0
LINE
  5
4DD
100
AcDbEntity
  8
M0
 62
     6
100
AcDbLine
 10
789.177314
 20
1740.32697
 11
789.177315
 21
1741.426961
  0
ARC
  5
4DE
100
AcDbEntity
  8
M0
 62
     6
100
AcDbCircle
 10
792.177315
 20
1741.426959
 40
3.0
100
AcDbArc
 50
90.0
 51
179.999964
  0
LINE
  5
4DF
100
AcDbEntity
  8
M0
 62
     6
100
AcDbLine
 10
785.177182
 20
1530.326974
 11
785.177223
 21
1596.326972
  0
LINE
  5
4E0
100
AcDbEntity
  8
M0
 62
     6
100
AcDbLine
 10
785.177277
 20
1682.326972
 11
785.177314
 21
1740.326972
  0
LINE
  5
4E1
100
AcDbEntity
  8
M0
 62
     6
100
AcDbLine
 10
787.172438
 20
1540.826972
 11
787.177194
 21
1549.326972
  0
LINE
  5
4E2
100
AcDbEntity
  8
M0
 62
     6
100
AcDbLine
 10
793.427189
 20
1540.826968
 11
793.427194
 21
1549.326968
  0
LINE
  5
4E3
100
AcDbEntity
  8
M0
 62
     6
100
AcDbLine
 10
796.927193
 20
1548.078888
 11
796.927194
 21
1549.326966
  0
LINE
  5
4E4
100
AcDbEntity
  8
M0
 62
     6
100
AcDbLine
 10
803.17695
 20
1548.89114
 11
803.176951
 21
1551.262233
  0
LINE
  5
4E5
100
AcDbEntity
  8
M0
 62
     6
100
AcDbLine
 10
796.927189
 20
1540.826966
 11
796.9272
 21
1559.326965
  0
LINE
  5
4E6
100
AcDbEntity
  8
M0
 62
     6
100
AcDbLine
 10
803.166813
 20
1540.826962
 11
803.1772
 21
1559.326961
  0
ARC
  5
4E7
100
AcDbEntity
  8
M0
 62
     2
100
AcDbCircle
 10
528.727236
 20
1729.326966
 40
5.0
100
AcDbArc
 50
89.999825
 51
180.0
  0
LINE
  5
4E8
100
AcDbEntity
  8
M0
 62
     2
100
AcDbLine
 10
563.727236
 20
1734.326966
 11
528.727236
 21
1734.326966
  0
ARC
  5
4E9
100
AcDbEntity
  8
M0
 62
     2
100
AcDbCircle
 10
563.727236
 20
1730.326966
 40
4.0
100
AcDbArc
 50
0.0
 51
89.999781
  0
LINE
  5
4EA
100
AcDbEntity
  8
M0
 62
     2
100
AcDbLine
 10
523.727236
 20
1709.326936
 11
554.727236
 21
1709.326936
  0
LINE
  5
4EB
100
AcDbEntity
  8
M0
 62
     2
100
AcDbLine
 10
523.727236
 20
1729.326966
 11
523.727236
 21
1519.326981
  0
ARC
  5
4EC
100
AcDbEntity
  8
M0
 62
     2
100
AcDbCircle
 10
528.727236
 20
1519.326981
 40
5.0
100
AcDbArc
 50
179.999825
 51
270.0
  0
ARC
  5
4ED
100
AcDbEntity
  8
M0
 62
     2
100
AcDbCircle
 10
563.727236
 20
1548.326967
 40
4.0
100
AcDbArc
 50
270.0
 51
360.0
  0
ARC
  5
4EE
100
AcDbEntity
  8
M0
 62
     2
100
AcDbCircle
 10
561.727236
 20
1548.326967
 40
4.0
100
AcDbArc
 50
179.999973
 51
270.0
  0
LINE
  5
4EF
100
AcDbEntity
  8
M0
 62
     2
100
AcDbLine
 10
563.727236
 20
1544.326967
 11
545.727236
 21
1544.326967
  0
LINE
  5
4F0
100
AcDbEntity
  8
M0
 62
     2
100
AcDbLine
 10
540.727236
 20
1544.326967
 11
523.727236
 21
1544.326967
  0
LINE
  5
4F1
100
AcDbEntity
  8
M0
 62
     2
100
AcDbLine
 10
528.727236
 20
1514.326981
 11
548.464647
 21
1514.326981
  0
ARC
  5
4F2
100
AcDbEntity
  8
M0
 62
     2
100
AcDbCircle
 10
548.464647
 20
1519.326981
 40
5.0
100
AcDbArc
 50
270.0
 51
336.250448
  0
LINE
  5
4F3
100
AcDbEntity
  8
M0
 62
     2
100
AcDbLine
 10
562.727236
 20
1539.326967
 11
562.727236
 21
1544.326967
  0
LINE
  5
4F4
100
AcDbEntity
  8
M0
 62
     2
100
AcDbLine
 10
523.727236
 20
1594.326966
 11
556.227236
 21
1594.326966
  0
LINE
  5
4F5
100
AcDbEntity
  8
M0
 62
     2
100
AcDbLine
 10
540.727236
 20
1594.326966
 11
540.727236
 21
1544.326967
  0
LINE
  5
4F6
100
AcDbEntity
  8
M0
 62
     2
100
AcDbLine
 10
545.727236
 20
1544.326967
 11
545.727236
 21
1594.326966
  0
LINE
  5
4F7
100
AcDbEntity
  8
M0
 62
     2
100
AcDbLine
 10
540.727236
 20
1557.326966
 11
543.227236
 21
1560.326966
  0
LINE
  5
4F8
100
AcDbEntity
  8
M0
 62
     2
100
AcDbLine
 10
540.727236
 20
1544.326967
 11
543.227236
 21
1547.326967
  0
LINE
  5
4F9
100
AcDbEntity
  8
M0
 62
     2
100
AcDbLine
 10
545.727236
 20
1557.326966
 11
543.227236
 21
1560.326966
  0
LINE
  5
4FA
100
AcDbEntity
  8
M0
 62
     2
100
AcDbLine
 10
545.727236
 20
1544.326967
 11
543.227236
 21
1547.326967
  0
LINE
  5
4FB
100
AcDbEntity
  8
M0
 62
     2
100
AcDbLine
 10
523.727236
 20
1557.326966
 11
540.727236
 21
1557.326966
  0
LINE
  5
4FC
100
AcDbEntity
  8
M0
 62
     2
100
AcDbLine
 10
545.727236
 20
1557.326966
 11
557.727236
 21
1557.326966
  0
LINE
  5
4FD
100
AcDbEntity
  8
M0
 62
     2
100
AcDbLine
 10
543.227236
 20
1594.326966
 11
543.227236
 21
1547.326967
  0
LINE
  5
4FE
100
AcDbEntity
  8
M0
 62
     2
100
AcDbLine
 10
528.727236
 20
1557.326966
 11
528.727236
 21
1584.826966
  0
LINE
  5
4FF
100
AcDbEntity
  8
M0
 62
     2
100
AcDbLine
 10
537.727236
 20
1557.326966
 11
537.727236
 21
1584.826966
  0
LINE
  5
500
100
AcDbEntity
  8
M0
 62
     2
100
AcDbLine
 10
548.727236
 20
1584.826966
 11
548.727236
 21
1557.326966
  0
LINE
  5
501
100
AcDbEntity
  8
M0
 62
     2
100
AcDbLine
 10
528.727236
 20
1587.326966
 11
528.727236
 21
1594.326966
  0
ARC
  5
502
100
AcDbEntity
  8
M0
 62
     2
100
AcDbCircle
 10
530.727236
 20
1587.326966
 40
2.0
100
AcDbArc
 50
180.0
 51
270.0
  0
LINE
  5
503
100
AcDbEntity
  8
M0
 62
     2
100
AcDbLine
 10
537.727236
 20
1587.326966
 11
537.727236
 21
1594.326966
  0
LINE
  5
504
100
AcDbEntity
  8
M0
 62
     2
100
AcDbLine
 10
548.727236
 20
1594.326966
 11
548.727236
 21
1587.326966
  0
ARC
  5
505
100
AcDbEntity
  8
M0
 62
     2
100
AcDbCircle
 10
550.727236
 20
1587.326966
 40
2.0
100
AcDbArc
 50
180.0
 51
270.0
  0
LINE
  5
506
100
AcDbEntity
  8
M0
 62
     2
100
AcDbLine
 10
553.041216
 20
1517.313279
 11
562.727236
 21
1539.326967
  0
LINE
  5
507
100
AcDbEntity
  8
M0
 62
     2
100
AcDbLine
 10
530.727236
 20
1585.326966
 11
535.727236
 21
1585.326966
  0
ARC
  5
508
100
AcDbEntity
  8
M0
 62
     2
100
AcDbCircle
 10
535.727236
 20
1587.326966
 40
2.0
100
AcDbArc
 50
270.0
 51
360.0
  0
LINE
  5
509
100
AcDbEntity
  8
M0
 62
     2
100
AcDbLine
 10
550.727236
 20
1585.326966
 11
557.727236
 21
1585.326966
  0
LINE
  5
50A
100
AcDbEntity
  8
M0
 62
     2
100
AcDbLine
 10
548.727236
 20
1584.826966
 11
557.727236
 21
1584.826966
  0
LINE
  5
50B
100
AcDbEntity
  8
M0
 62
     2
100
AcDbLine
 10
528.727236
 20
1584.826966
 11
537.727236
 21
1584.826966
  0
CIRCLE
  5
50C
100
AcDbEntity
  8
M0
 62
     2
100
AcDbCircle
 10
533.227236
 20
1562.326966
 40
3.0
  0
CIRCLE
  5
50D
100
AcDbEntity
  8
M0
 62
     2
100
AcDbCircle
 10
533.227236
 20
1570.326966
 40
3.0
  0
CIRCLE
  5
50E
100
AcDbEntity
  8
M0
 62
     2
100
AcDbCircle
 10
533.227236
 20
1578.326966
 40
3.0
  0
CIRCLE
  5
50F
100
AcDbEntity
  8
M0
 62
     2
100
AcDbCircle
 10
553.227236
 20
1562.326966
 40
3.0
  0
CIRCLE
  5
510
100
AcDbEntity
  8
M0
 62
     2
100
AcDbCircle
 10
553.227236
 20
1570.326966
 40
3.0
  0
CIRCLE
  5
511
100
AcDbEntity
  8
M0
 62
     2
100
AcDbCircle
 10
553.227236
 20
1578.326966
 40
3.0
  0
ARC
  5
512
100
AcDbEntity
  8
M0
 62
     2
100
AcDbCircle
 10
778.727236
 20
1729.326966
 40
5.0
100
AcDbArc
 50
0.0
 51
90.0
  0
LINE
  5
513
100
AcDbEntity
  8
M0
 62
     2
100
AcDbLine
 10
743.727236
 20
1734.326966
 11
778.727236
 21
1734.326966
  0
ARC
  5
514
100
AcDbEntity
  8
M0
 62
     2
100
AcDbCircle
 10
743.727236
 20
1730.326966
 40
4.0
100
AcDbArc
 50
90.0
 51
180.0
  0
LINE
  5
515
100
AcDbEntity
  8
M0
 62
     2
100
AcDbLine
 10
783.727236
 20
1709.326936
 11
752.727236
 21
1709.326692
  0
LINE
  5
516
100
AcDbEntity
  8
M0
 62
     2
100
AcDbLine
 10
783.727236
 20
1729.326966
 11
783.727236
 21
1519.326981
  0
ARC
  5
517
100
AcDbEntity
  8
M0
 62
     2
100
AcDbCircle
 10
778.727236
 20
1519.326981
 40
5.0
100
AcDbArc
 50
-90.000175
 51
0.0
  0
ARC
  5
518
100
AcDbEntity
  8
M0
 62
     2
100
AcDbCircle
 10
743.727236
 20
1548.326967
 40
4.0
100
AcDbArc
 50
179.999973
 51
269.999781
  0
ARC
  5
519
100
AcDbEntity
  8
M0
 62
     2
100
AcDbCircle
 10
745.727236
 20
1548.326967
 40
4.0
100
AcDbArc
 50
-90.000219
 51
0.0
  0
LINE
  5
51A
100
AcDbEntity
  8
M0
 62
     2
100
AcDbLine
 10
743.727236
 20
1544.326967
 11
761.727236
 21
1544.326967
  0
LINE
  5
51B
100
AcDbEntity
  8
M0
 62
     2
100
AcDbLine
 10
766.727236
 20
1544.326967
 11
783.727236
 21
1544.326967
  0
LINE
  5
51C
100
AcDbEntity
  8
M0
 62
     2
100
AcDbLine
 10
778.727236
 20
1514.326981
 11
758.989824
 21
1514.326981
  0
ARC
  5
51D
100
AcDbEntity
  8
M0
 62
     2
100
AcDbCircle
 10
758.989824
 20
1519.326981
 40
5.0
100
AcDbArc
 50
203.749392
 51
269.999825
  0
LINE
  5
51E
100
AcDbEntity
  8
M0
 62
     2
100
AcDbLine
 10
744.727236
 20
1539.326967
 11
744.727236
 21
1544.326967
  0
LINE
  5
51F
100
AcDbEntity
  8
M0
 62
     2
100
AcDbLine
 10
783.727236
 20
1594.326966
 11
751.22722
 21
1594.326966
  0
LINE
  5
520
100
AcDbEntity
  8
M0
 62
     2
100
AcDbLine
 10
766.727236
 20
1594.326966
 11
766.727236
 21
1544.326967
  0
LINE
  5
521
100
AcDbEntity
  8
M0
 62
     2
100
AcDbLine
 10
761.727236
 20
1544.326967
 11
761.727236
 21
1594.326966
  0
LINE
  5
522
100
AcDbEntity
  8
M0
 62
     2
100
AcDbLine
 10
766.727236
 20
1557.326966
 11
764.227236
 21
1560.326966
  0
LINE
  5
523
100
AcDbEntity
  8
M0
 62
     2
100
AcDbLine
 10
766.727236
 20
1544.326967
 11
764.227236
 21
1547.326967
  0
LINE
  5
524
100
AcDbEntity
  8
M0
 62
     2
100
AcDbLine
 10
761.727236
 20
1557.326966
 11
764.227236
 21
1560.326966
  0
LINE
  5
525
100
AcDbEntity
  8
M0
 62
     2
100
AcDbLine
 10
761.727236
 20
1544.326967
 11
764.227236
 21
1547.326967
  0
LINE
  5
526
100
AcDbEntity
  8
M0
 62
     2
100
AcDbLine
 10
783.727236
 20
1557.326966
 11
766.727236
 21
1557.326966
  0
LINE
  5
527
100
AcDbEntity
  8
M0
 62
     2
100
AcDbLine
 10
761.727236
 20
1557.326966
 11
749.727236
 21
1557.326966
  0
LINE
  5
528
100
AcDbEntity
  8
M0
 62
     2
100
AcDbLine
 10
764.227236
 20
1594.326966
 11
764.227236
 21
1547.326967
  0
LINE
  5
529
100
AcDbEntity
  8
M0
 62
     2
100
AcDbLine
 10
778.727236
 20
1557.326966
 11
778.727236
 21
1584.826966
  0
LINE
  5
52A
100
AcDbEntity
  8
M0
 62
     2
100
AcDbLine
 10
769.727236
 20
1557.326966
 11
769.727236
 21
1584.826966
  0
LINE
  5
52B
100
AcDbEntity
  8
M0
 62
     2
100
AcDbLine
 10
758.727236
 20
1584.826966
 11
758.727236
 21
1557.326966
  0
LINE
  5
52C
100
AcDbEntity
  8
M0
 62
     2
100
AcDbLine
 10
778.727236
 20
1587.326966
 11
778.727236
 21
1594.326966
  0
ARC
  5
52D
100
AcDbEntity
  8
M0
 62
     2
100
AcDbCircle
 10
776.727236
 20
1587.326966
 40
2.0
100
AcDbArc
 50
-90.000437
 51
0.0
  0
LINE
  5
52E
100
AcDbEntity
  8
M0
 62
     2
100
AcDbLine
 10
769.727236
 20
1587.326966
 11
769.727236
 21
1594.326966
  0
LINE
  5
52F
100
AcDbEntity
  8
M0
 62
     2
100
AcDbLine
 10
758.727236
 20
1594.326966
 11
758.727236
 21
1587.326966
  0
ARC
  5
530
100
AcDbEntity
  8
M0
 62
     2
100
AcDbCircle
 10
756.727236
 20
1587.326966
 40
2.0
100
AcDbArc
 50
-90.000437
 51
0.0
  0
LINE
  5
531
100
AcDbEntity
  8
M0
 62
     2
100
AcDbLine
 10
754.413255
 20
1517.313279
 11
744.727236
 21
1539.326967
  0
LINE
  5
532
100
AcDbEntity
  8
M0
 62
     2
100
AcDbLine
 10
776.727236
 20
1585.326966
 11
771.727236
 21
1585.326966
  0
ARC
  5
533
100
AcDbEntity
  8
M0
 62
     2
100
AcDbCircle
 10
771.727236
 20
1587.326966
 40
2.0
100
AcDbArc
 50
180.0
 51
269.999563
  0
LINE
  5
534
100
AcDbEntity
  8
M0
 62
     2
100
AcDbLine
 10
756.727236
 20
1585.326966
 11
749.727236
 21
1585.326966
  0
LINE
  5
535
100
AcDbEntity
  8
M0
 62
     2
100
AcDbLine
 10
758.727236
 20
1584.826966
 11
749.727236
 21
1584.826966
  0
LINE
  5
536
100
AcDbEntity
  8
M0
 62
     2
100
AcDbLine
 10
778.727236
 20
1584.826966
 11
769.727236
 21
1584.826966
  0
CIRCLE
  5
537
100
AcDbEntity
  8
M0
 62
     2
100
AcDbCircle
 10
774.227236
 20
1562.326966
 40
3.0
  0
CIRCLE
  5
538
100
AcDbEntity
  8
M0
 62
     2
100
AcDbCircle
 10
774.227236
 20
1570.326966
 40
3.0
  0
CIRCLE
  5
539
100
AcDbEntity
  8
M0
 62
     2
100
AcDbCircle
 10
774.227236
 20
1578.326966
 40
3.0
  0
CIRCLE
  5
53A
100
AcDbEntity
  8
M0
 62
     2
100
AcDbCircle
 10
754.227236
 20
1562.326966
 40
3.0
  0
CIRCLE
  5
53B
100
AcDbEntity
  8
M0
 62
     2
100
AcDbCircle
 10
754.227236
 20
1570.326966
 40
3.0
  0
CIRCLE
  5
53C
100
AcDbEntity
  8
M0
 62
     2
100
AcDbCircle
 10
754.227236
 20
1578.326966
 40
3.0
  0
CIRCLE
  5
53D
100
AcDbEntity
  8
M0
100
AcDbCircle
 10
790.177187
 20
1545.076936
 40
3.0
  0
CIRCLE
  5
53E
100
AcDbEntity
  8
M0
100
AcDbCircle
 10
800.177187
 20
1545.076936
 40
3.0
  0
CIRCLE
  5
53F
100
AcDbEntity
  8
M0
100
AcDbCircle
 10
800.177187
 20
1555.076936
 40
3.0
  0
CIRCLE
  5
540
100
AcDbEntity
  8
M0
100
AcDbCircle
 10
760.177187
 20
1673.326936
 40
3.5
  0
ARC
  5
541
100
AcDbEntity
  8
M0
100
AcDbCircle
 10
763.277186
 20
1677.126935
 40
1.0
100
AcDbArc
 50
0.0
 51
90.0
  0
LINE
  5
542
100
AcDbEntity
  8
M0
100
AcDbLine
 10
763.277186
 20
1678.126935
 11
757.077187
 21
1678.126935
  0
ARC
  5
543
100
AcDbEntity
  8
M0
100
AcDbCircle
 10
757.077187
 20
1677.126935
 40
1.0
100
AcDbArc
 50
90.0
 51
180.0
  0
LINE
  5
544
100
AcDbEntity
  8
M0
100
AcDbLine
 10
756.077187
 20
1677.126935
 11
756.077187
 21
1669.526936
  0
ARC
  5
545
100
AcDbEntity
  8
M0
100
AcDbCircle
 10
757.077187
 20
1669.526936
 40
1.0
100
AcDbArc
 50
179.999945
 51
270.0
  0
LINE
  5
546
100
AcDbEntity
  8
M0
100
AcDbLine
 10
757.077187
 20
1668.526936
 11
763.277186
 21
1668.526936
  0
LINE
  5
547
100
AcDbEntity
  8
M0
100
AcDbLine
 10
764.277186
 20
1669.526936
 11
764.277186
 21
1677.126935
  0
ARC
  5
548
100
AcDbEntity
  8
M0
100
AcDbCircle
 10
763.277186
 20
1669.526936
 40
1.0
100
AcDbArc
 50
270.0
 51
360.0
  0
CIRCLE
  5
549
100
AcDbEntity
  8
M0
100
AcDbCircle
 10
547.277284
 20
1673.326936
 40
3.5
  0
ARC
  5
54A
100
AcDbEntity
  8
M0
100
AcDbCircle
 10
550.377284
 20
1677.126935
 40
1.0
100
AcDbArc
 50
0.0
 51
90.0
  0
LINE
  5
54B
100
AcDbEntity
  8
M0
100
AcDbLine
 10
550.377284
 20
1678.126935
 11
544.177285
 21
1678.126935
  0
ARC
  5
54C
100
AcDbEntity
  8
M0
100
AcDbCircle
 10
544.177285
 20
1677.126935
 40
1.0
100
AcDbArc
 50
90.0
 51
180.0
  0
LINE
  5
54D
100
AcDbEntity
  8
M0
100
AcDbLine
 10
543.177285
 20
1677.126935
 11
543.177285
 21
1669.526936
  0
ARC
  5
54E
100
AcDbEntity
  8
M0
100
AcDbCircle
 10
544.177285
 20
1669.526936
 40
1.0
100
AcDbArc
 50
179.999945
 51
270.0
  0
LINE
  5
54F
100
AcDbEntity
  8
M0
100
AcDbLine
 10
544.177285
 20
1668.526936
 11
550.377284
 21
1668.526936
  0
LINE
  5
550
100
AcDbEntity
  8
M0
100
AcDbLine
 10
551.377284
 20
1669.526936
 11
551.377284
 21
1677.126935
  0
ARC
  5
551
100
AcDbEntity
  8
M0
100
AcDbCircle
 10
550.377284
 20
1669.526936
 40
1.0
100
AcDbArc
 50
270.0
 51
360.0
  0
CIRCLE
  5
552
100
AcDbEntity
  8
M0
100
AcDbCircle
 10
547.277284
 20
1650.826936
 40
3.5
  0
ARC
  5
553
100
AcDbEntity
  8
M0
100
AcDbCircle
 10
550.377284
 20
1654.626935
 40
1.0
100
AcDbArc
 50
0.0
 51
90.0
  0
LINE
  5
554
100
AcDbEntity
  8
M0
100
AcDbLine
 10
550.377284
 20
1655.626935
 11
544.177285
 21
1655.626935
  0
ARC
  5
555
100
AcDbEntity
  8
M0
100
AcDbCircle
 10
544.177285
 20
1654.626935
 40
1.0
100
AcDbArc
 50
90.0
 51
180.0
  0
LINE
  5
556
100
AcDbEntity
  8
M0
100
AcDbLine
 10
543.177285
 20
1654.626935
 11
543.177285
 21
1647.026936
  0
ARC
  5
557
100
AcDbEntity
  8
M0
100
AcDbCircle
 10
544.177285
 20
1647.026936
 40
1.0
100
AcDbArc
 50
179.999945
 51
270.0
  0
LINE
  5
558
100
AcDbEntity
  8
M0
100
AcDbLine
 10
544.177285
 20
1646.026936
 11
550.377284
 21
1646.026936
  0
LINE
  5
559
100
AcDbEntity
  8
M0
100
AcDbLine
 10
551.377284
 20
1647.026936
 11
551.377284
 21
1654.626935
  0
ARC
  5
55A
100
AcDbEntity
  8
M0
100
AcDbCircle
 10
550.377284
 20
1647.026936
 40
1.0
100
AcDbArc
 50
270.0
 51
360.0
  0
CIRCLE
  5
55B
100
AcDbEntity
  8
M0
100
AcDbCircle
 10
547.277284
 20
1605.326936
 40
3.5
  0
ARC
  5
55C
100
AcDbEntity
  8
M0
100
AcDbCircle
 10
550.377286
 20
1601.526938
 40
1.0
100
AcDbArc
 50
-90.0
 51
3.597218E-005
  0
LINE
  5
55D
100
AcDbEntity
  8
M0
100
AcDbLine
 10
550.377287
 20
1600.526938
 11
544.177288
 21
1600.526935
  0
ARC
  5
55E
100
AcDbEntity
  8
M0
100
AcDbCircle
 10
544.177287
 20
1601.526935
 40
1.0
100
AcDbArc
 50
180.000036
 51
270.0
  0
LINE
  5
55F
100
AcDbEntity
  8
M0
100
AcDbLine
 10
543.177287
 20
1601.526934
 11
543.177283
 21
1609.126932
  0
ARC
  5
560
100
AcDbEntity
  8
M0
100
AcDbCircle
 10
544.177283
 20
1609.126933
 40
1.0
100
AcDbArc
 50
90.0
 51
180.000036
  0
LINE
  5
561
100
AcDbEntity
  8
M0
100
AcDbLine
 10
544.177282
 20
1610.126933
 11
550.377281
 21
1610.126937
  0
LINE
  5
562
100
AcDbEntity
  8
M0
100
AcDbLine
 10
551.377281
 20
1609.126938
 11
551.377286
 21
1601.526939
  0
ARC
  5
563
100
AcDbEntity
  8
M0
100
AcDbCircle
 10
550.377281
 20
1609.126937
 40
1.0
100
AcDbArc
 50
-1.866939E-005
 51
90.0
  0
CIRCLE
  5
564
100
AcDbEntity
  8
M0
100
AcDbCircle
 10
547.277284
 20
1627.826936
 40
3.5
  0
ARC
  5
565
100
AcDbEntity
  8
M0
100
AcDbCircle
 10
550.377286
 20
1624.026938
 40
1.0
100
AcDbArc
 50
-90.0
 51
3.597218E-005
  0
LINE
  5
566
100
AcDbEntity
  8
M0
100
AcDbLine
 10
550.377287
 20
1623.026938
 11
544.177288
 21
1623.026935
  0
ARC
  5
567
100
AcDbEntity
  8
M0
100
AcDbCircle
 10
544.177287
 20
1624.026935
 40
1.0
100
AcDbArc
 50
180.000036
 51
270.0
  0
LINE
  5
568
100
AcDbEntity
  8
M0
100
AcDbLine
 10
543.177287
 20
1624.026934
 11
543.177283
 21
1631.626932
  0
ARC
  5
569
100
AcDbEntity
  8
M0
100
AcDbCircle
 10
544.177283
 20
1631.626933
 40
1.0
100
AcDbArc
 50
90.0
 51
180.000036
  0
LINE
  5
56A
100
AcDbEntity
  8
M0
100
AcDbLine
 10
544.177282
 20
1632.626933
 11
550.377281
 21
1632.626937
  0
LINE
  5
56B
100
AcDbEntity
  8
M0
100
AcDbLine
 10
551.377281
 20
1631.626938
 11
551.377286
 21
1624.026939
  0
ARC
  5
56C
100
AcDbEntity
  8
M0
100
AcDbCircle
 10
550.377281
 20
1631.626937
 40
1.0
100
AcDbArc
 50
-1.866939E-005
 51
90.0
  0
CIRCLE
  5
56D
100
AcDbEntity
  8
M0
100
AcDbCircle
 10
760.177187
 20
1650.826936
 40
3.5
  0
CIRCLE
  5
56E
100
AcDbEntity
  8
M0
100
AcDbCircle
 10
760.177187
 20
1627.826936
 40
3.5
  0
CIRCLE
  5
56F
100
AcDbEntity
  8
M0
100
AcDbCircle
 10
760.177187
 20
1605.326936
 40
3.5
  0
LINE
  5
570
100
AcDbEntity
  8
M0
 62
     6
100
AcDbLine
 10
782.527135
 20
1684.326964
 11
767.627135
 21
1684.326969
  0
LINE
  5
571
100
AcDbEntity
  8
M0
 62
     6
100
AcDbLine
 10
767.627135
 20
1684.326969
 11
767.627107
 21
1594.326969
  0
LINE
  5
572
100
AcDbEntity
  8
M0
 62
     6
100
AcDbLine
 10
767.627107
 20
1594.326969
 11
782.527107
 21
1594.326964
  0
LINE
  5
573
100
AcDbEntity
  8
M0
 62
     6
100
AcDbLine
 10
782.527107
 20
1594.326964
 11
782.527135
 21
1684.326964
  0
LINE
  5
574
100
AcDbEntity
  8
M0
  6
DASHDOT
 62
     6
100
AcDbLine
 10
787.527121
 20
1639.326962
 11
534.746127
 21
1639.327042
  0
LINE
  5
575
100
AcDbEntity
  8
M0
 62
     6
100
AcDbLine
 10
769.577115
 20
1621.326968
 11
769.577116
 21
1622.826968
  0
LINE
  5
576
100
AcDbEntity
  8
M0
 62
     6
100
AcDbLine
 10
780.577115
 20
1621.326964
 11
780.577116
 21
1622.826964
  0
LINE
  5
577
100
AcDbEntity
  8
M0
 62
     6
100
AcDbLine
 10
769.577116
 20
1622.826968
 11
780.577116
 21
1622.826964
  0
LINE
  5
578
100
AcDbEntity
  8
M0
 62
     6
100
AcDbLine
 10
770.577119
 20
1632.926958
 11
770.577116
 21
1622.826968
  0
LINE
  5
579
100
AcDbEntity
  8
M0
 62
     6
100
AcDbLine
 10
770.577115
 20
1621.326968
 11
770.577107
 21
1594.326968
  0
LINE
  5
57A
100
AcDbEntity
  8
M0
 62
     6
100
AcDbLine
 10
779.577119
 20
1632.926956
 11
779.577116
 21
1622.826965
  0
LINE
  5
57B
100
AcDbEntity
  8
M0
 62
     6
100
AcDbLine
 10
779.577115
 20
1621.326965
 11
779.577107
 21
1594.326965
  0
LINE
  5
57C
100
AcDbEntity
  8
M0
 62
     6
100
AcDbLine
 10
780.577115
 20
1621.326964
 11
779.577115
 21
1621.326965
  0
LINE
  5
57D
100
AcDbEntity
  8
M0
 62
     6
100
AcDbLine
 10
770.577115
 20
1621.326968
 11
769.577115
 21
1621.326968
  0
LINE
  5
57E
100
AcDbEntity
  8
M0
 62
     6
100
AcDbLine
 10
779.577119
 20
1632.926956
 11
770.577119
 21
1632.926958
  0
LINE
  5
57F
100
AcDbEntity
  8
M0
 62
     6
100
AcDbLine
 10
770.577109
 20
1600.326968
 11
779.577109
 21
1600.326965
  0
LINE
  5
580
100
AcDbEntity
  8
M0
 62
     6
100
AcDbLine
 10
767.627113
 20
1614.326969
 11
770.577113
 21
1614.326968
  0
LINE
  5
581
100
AcDbEntity
  8
M0
 62
     6
100
AcDbLine
 10
779.577113
 20
1614.326965
 11
782.527113
 21
1614.326964
  0
LINE
  5
582
100
AcDbEntity
  8
M0
 62
     6
100
AcDbLine
 10
780.577127
 20
1657.326964
 11
780.577126
 21
1655.826964
  0
LINE
  5
583
100
AcDbEntity
  8
M0
 62
     6
100
AcDbLine
 10
769.577126
 20
1655.826968
 11
780.577126
 21
1655.826964
  0
LINE
  5
584
100
AcDbEntity
  8
M0
 62
     6
100
AcDbLine
 10
779.577123
 20
1645.726959
 11
779.577126
 21
1655.826965
  0
LINE
  5
585
100
AcDbEntity
  8
M0
 62
     6
100
AcDbLine
 10
779.577127
 20
1657.326965
 11
779.577135
 21
1684.326965
  0
LINE
  5
586
100
AcDbEntity
  8
M0
 62
     6
100
AcDbLine
 10
780.577127
 20
1657.326964
 11
779.577127
 21
1657.326965
  0
LINE
  5
587
100
AcDbEntity
  8
M0
 62
     6
100
AcDbLine
 10
779.577123
 20
1645.726959
 11
770.577123
 21
1645.726962
  0
LINE
  5
588
100
AcDbEntity
  8
M0
 62
     6
100
AcDbLine
 10
770.577133
 20
1678.326968
 11
779.577133
 21
1678.326965
  0
LINE
  5
589
100
AcDbEntity
  8
M0
 62
     6
100
AcDbLine
 10
779.577129
 20
1664.326965
 11
782.527129
 21
1664.326964
  0
LINE
  5
58A
100
AcDbEntity
  8
M0
 62
     6
100
AcDbLine
 10
770.577123
 20
1645.726962
 11
770.577126
 21
1655.826968
  0
LINE
  5
58B
100
AcDbEntity
  8
M0
 62
     6
100
AcDbLine
 10
769.577127
 20
1657.326968
 11
769.577126
 21
1655.826968
  0
LINE
  5
58C
100
AcDbEntity
  8
M0
 62
     6
100
AcDbLine
 10
770.577127
 20
1657.326968
 11
769.577127
 21
1657.326968
  0
LINE
  5
58D
100
AcDbEntity
  8
M0
 62
     6
100
AcDbLine
 10
770.577127
 20
1657.326968
 11
770.577135
 21
1684.326968
  0
LINE
  5
58E
100
AcDbEntity
  8
M0
 62
     6
100
AcDbLine
 10
767.627129
 20
1664.326969
 11
770.577129
 21
1664.326968
  0
CIRCLE
  5
58F
100
AcDbEntity
  8
M0
 62
     6
100
AcDbCircle
 10
775.077121
 20
1639.326966
 40
2.799999
  0
CIRCLE
  5
590
100
AcDbEntity
  8
M0
100
AcDbCircle
 10
775.077089
 20
1673.326936
 40
3.5
  0
ARC
  5
591
100
AcDbEntity
  8
M0
100
AcDbCircle
 10
771.97709
 20
1677.126935
 40
1.0
100
AcDbArc
 50
90.0
 51
180.0
  0
LINE
  5
592
100
AcDbEntity
  8
M0
100
AcDbLine
 10
771.97709
 20
1678.126935
 11
778.177089
 21
1678.126935
  0
ARC
  5
593
100
AcDbEntity
  8
M0
100
AcDbCircle
 10
778.177089
 20
1677.126935
 40
1.0
100
AcDbArc
 50
0.0
 51
90.0
  0
LINE
  5
594
100
AcDbEntity
  8
M0
100
AcDbLine
 10
779.177089
 20
1677.126935
 11
779.177089
 21
1669.526936
  0
ARC
  5
595
100
AcDbEntity
  8
M0
100
AcDbCircle
 10
778.177089
 20
1669.526936
 40
1.0
100
AcDbArc
 50
-90.0
 51
0.0
  0
LINE
  5
596
100
AcDbEntity
  8
M0
100
AcDbLine
 10
778.177089
 20
1668.526936
 11
771.97709
 21
1668.526936
  0
LINE
  5
597
100
AcDbEntity
  8
M0
100
AcDbLine
 10
770.97709
 20
1669.526936
 11
770.97709
 21
1677.126935
  0
ARC
  5
598
100
AcDbEntity
  8
M0
100
AcDbCircle
 10
771.97709
 20
1669.526936
 40
1.0
100
AcDbArc
 50
179.999945
 51
270.0
  0
CIRCLE
  5
599
100
AcDbEntity
  8
M0
100
AcDbCircle
 10
775.077089
 20
1650.826936
 40
3.5
  0
CIRCLE
  5
59A
100
AcDbEntity
  8
M0
100
AcDbCircle
 10
775.077089
 20
1627.826936
 40
3.5
  0
CIRCLE
  5
59B
100
AcDbEntity
  8
M0
100
AcDbCircle
 10
775.077089
 20
1605.326936
 40
3.5
  0
LINE
  5
59C
100
AcDbEntity
  8
M0
 62
     6
100
AcDbLine
 10
539.827428
 20
1684.326964
 11
524.927428
 21
1684.326969
  0
LINE
  5
59D
100
AcDbEntity
  8
M0
 62
     6
100
AcDbLine
 10
524.927428
 20
1684.326969
 11
524.9274
 21
1594.326969
  0
LINE
  5
59E
100
AcDbEntity
  8
M0
 62
     6
100
AcDbLine
 10
524.9274
 20
1594.326969
 11
539.8274
 21
1594.326964
  0
LINE
  5
59F
100
AcDbEntity
  8
M0
 62
     6
100
AcDbLine
 10
539.8274
 20
1594.326964
 11
539.827428
 21
1684.326964
  0
LINE
  5
5A0
100
AcDbEntity
  8
M0
 62
     6
100
AcDbLine
 10
526.877408
 20
1621.326968
 11
526.877409
 21
1622.826968
  0
LINE
  5
5A1
100
AcDbEntity
  8
M0
 62
     6
100
AcDbLine
 10
537.877408
 20
1621.326964
 11
537.877409
 21
1622.826964
  0
LINE
  5
5A2
100
AcDbEntity
  8
M0
 62
     6
100
AcDbLine
 10
526.877409
 20
1622.826968
 11
537.877409
 21
1622.826964
  0
LINE
  5
5A3
100
AcDbEntity
  8
M0
 62
     6
100
AcDbLine
 10
527.877412
 20
1632.926958
 11
527.877409
 21
1622.826968
  0
LINE
  5
5A4
100
AcDbEntity
  8
M0
 62
     6
100
AcDbLine
 10
527.877408
 20
1621.326968
 11
527.8774
 21
1594.326968
  0
LINE
  5
5A5
100
AcDbEntity
  8
M0
 62
     6
100
AcDbLine
 10
536.877412
 20
1632.926956
 11
536.877409
 21
1622.826965
  0
LINE
  5
5A6
100
AcDbEntity
  8
M0
 62
     6
100
AcDbLine
 10
536.877408
 20
1621.326965
 11
536.8774
 21
1594.326965
  0
LINE
  5
5A7
100
AcDbEntity
  8
M0
 62
     6
100
AcDbLine
 10
537.877408
 20
1621.326964
 11
536.877408
 21
1621.326965
  0
LINE
  5
5A8
100
AcDbEntity
  8
M0
 62
     6
100
AcDbLine
 10
527.877408
 20
1621.326968
 11
526.877408
 21
1621.326968
  0
LINE
  5
5A9
100
AcDbEntity
  8
M0
 62
     6
100
AcDbLine
 10
536.877412
 20
1632.926956
 11
527.877412
 21
1632.926958
  0
LINE
  5
5AA
100
AcDbEntity
  8
M0
 62
     6
100
AcDbLine
 10
527.877402
 20
1600.326968
 11
536.877402
 21
1600.326965
  0
LINE
  5
5AB
100
AcDbEntity
  8
M0
 62
     6
100
AcDbLine
 10
524.927406
 20
1614.326969
 11
527.877406
 21
1614.326968
  0
LINE
  5
5AC
100
AcDbEntity
  8
M0
 62
     6
100
AcDbLine
 10
536.877406
 20
1614.326965
 11
539.827406
 21
1614.326964
  0
LINE
  5
5AD
100
AcDbEntity
  8
M0
 62
     6
100
AcDbLine
 10
537.87742
 20
1657.326964
 11
537.877419
 21
1655.826964
  0
LINE
  5
5AE
100
AcDbEntity
  8
M0
 62
     6
100
AcDbLine
 10
526.877419
 20
1655.826968
 11
537.877419
 21
1655.826964
  0
LINE
  5
5AF
100
AcDbEntity
  8
M0
 62
     6
100
AcDbLine
 10
536.877416
 20
1645.726959
 11
536.877419
 21
1655.826965
  0
LINE
  5
5B0
100
AcDbEntity
  8
M0
 62
     6
100
AcDbLine
 10
536.87742
 20
1657.326965
 11
536.877428
 21
1684.326965
  0
LINE
  5
5B1
100
AcDbEntity
  8
M0
 62
     6
100
AcDbLine
 10
537.87742
 20
1657.326964
 11
536.87742
 21
1657.326965
  0
LINE
  5
5B2
100
AcDbEntity
  8
M0
 62
     6
100
AcDbLine
 10
536.877416
 20
1645.726959
 11
527.877416
 21
1645.726962
  0
LINE
  5
5B3
100
AcDbEntity
  8
M0
 62
     6
100
AcDbLine
 10
527.877426
 20
1678.326968
 11
536.877426
 21
1678.326965
  0
LINE
  5
5B4
100
AcDbEntity
  8
M0
 62
     6
100
AcDbLine
 10
536.877422
 20
1664.326965
 11
539.827422
 21
1664.326964
  0
LINE
  5
5B5
100
AcDbEntity
  8
M0
 62
     6
100
AcDbLine
 10
527.877416
 20
1645.726962
 11
527.877419
 21
1655.826968
  0
LINE
  5
5B6
100
AcDbEntity
  8
M0
 62
     6
100
AcDbLine
 10
526.87742
 20
1657.326968
 11
526.877419
 21
1655.826968
  0
LINE
  5
5B7
100
AcDbEntity
  8
M0
 62
     6
100
AcDbLine
 10
527.87742
 20
1657.326968
 11
526.87742
 21
1657.326968
  0
LINE
  5
5B8
100
AcDbEntity
  8
M0
 62
     6
100
AcDbLine
 10
527.87742
 20
1657.326968
 11
527.877428
 21
1684.326968
  0
LINE
  5
5B9
100
AcDbEntity
  8
M0
 62
     6
100
AcDbLine
 10
524.927422
 20
1664.326969
 11
527.877422
 21
1664.326968
  0
CIRCLE
  5
5BA
100
AcDbEntity
  8
M0
 62
     6
100
AcDbCircle
 10
532.377414
 20
1639.326966
 40
2.799999
  0
CIRCLE
  5
5BB
100
AcDbEntity
  8
M0
100
AcDbCircle
 10
532.377382
 20
1605.326936
 40
3.5
  0
CIRCLE
  5
5BC
100
AcDbEntity
  8
M0
100
AcDbCircle
 10
532.377382
 20
1627.826936
 40
3.5
  0
CIRCLE
  5
5BD
100
AcDbEntity
  8
M0
100
AcDbCircle
 10
532.377382
 20
1650.826936
 40
3.5
  0
CIRCLE
  5
5BE
100
AcDbEntity
  8
M0
100
AcDbCircle
 10
532.377382
 20
1673.326936
 40
3.5
  0
LINE
  5
5BF
100
AcDbEntity
  8
M0
  6
DASHED
100
AcDbLine
 10
621.72722
 20
1733.44925
 11
621.72722
 21
1859.326936
  0
LINE
  5
5C0
100
AcDbEntity
  8
M0
  6
DASHED
100
AcDbLine
 10
685.727205
 20
1734.034944
 11
685.727205
 21
1859.326936
  0
LINE
  5
5C1
100
AcDbEntity
  8
M0
  6
DASHED
100
AcDbLine
 10
611.72722
 20
1859.326936
 11
621.72722
 21
1859.326936
  0
LINE
  5
5C2
100
AcDbEntity
  8
M0
  6
DASHED
100
AcDbLine
 10
695.727205
 20
1859.326936
 11
695.727205
 21
1728.326936
  0
LINE
  5
5C3
100
AcDbEntity
  8
M0
  6
DASHED
100
AcDbLine
 10
611.72722
 20
1859.326936
 11
611.72722
 21
1728.326936
  0
LINE
  5
5C4
100
AcDbEntity
  8
M0
  6
DASHED
100
AcDbLine
 10
685.727205
 20
1859.326936
 11
695.727205
 21
1859.326936
  0
LINE
  5
5C5
100
AcDbEntity
  8
M0
  6
DASHED
100
AcDbLine
 10
611.72722
 20
1403.326981
 11
621.72722
 21
1403.326981
  0
LINE
  5
5C6
100
AcDbEntity
  8
M0
  6
DASHED
100
AcDbLine
 10
685.727205
 20
1403.326981
 11
695.727205
 21
1403.326981
  0
LINE
  5
5C7
100
AcDbEntity
  8
M0
  6
DASHED
100
AcDbLine
 10
611.72722
 20
1403.326981
 11
611.72722
 21
1550.326936
  0
LINE
  5
5C8
100
AcDbEntity
  8
M0
  6
DASHED
100
AcDbLine
 10
695.727205
 20
1403.326981
 11
695.727205
 21
1550.326936
  0
LINE
  5
5C9
100
AcDbEntity
  8
M0
  6
DASHED
100
AcDbLine
 10
621.72722
 20
1545.204377
 11
621.72722
 21
1403.326981
  0
LINE
  5
5CA
100
AcDbEntity
  8
M0
  6
DASHED
100
AcDbLine
 10
685.727205
 20
1544.618684
 11
685.727205
 21
1403.326981
  0
LINE
  5
5CB
100
AcDbEntity
  8
M0
100
AcDbLine
 10
523.725954
 20
1764.326936
 11
523.725954
 21
1514.326936
  0
LINE
  5
5CC
100
AcDbEntity
  8
M0
100
AcDbLine
 10
608.725771
 20
1764.326692
 11
608.725771
 21
1818.326203
  0
LINE
  5
5CD
100
AcDbEntity
  8
M0
100
AcDbLine
 10
783.725649
 20
1764.326936
 11
783.725496
 21
1514.326936
  0
LINE
  5
5CE
100
AcDbEntity
  8
M0
100
AcDbLine
 10
676.226137
 20
1456.32634
 11
676.226216
 21
1524.326341
  0
LINE
  5
5CF
100
AcDbEntity
  8
M0
100
AcDbLine
 10
656.726695
 20
1647.676775
 11
656.726676
 21
1642.676775
  0
LINE
  5
5D0
100
AcDbEntity
  8
M0
100
AcDbLine
 10
650.726015
 20
1647.676788
 11
650.726015
 21
1642.676788
  0
LINE
  5
5D1
100
AcDbEntity
  8
M0
100
AcDbLine
 10
698.728609
 20
1458.325746
 11
698.728639
 21
1514.326478
  0
LINE
  5
5D2
100
AcDbEntity
  8
M0
100
AcDbLine
 10
783.728578
 20
1764.326936
 11
783.728426
 21
1514.326936
  0
LINE
  5
5D3
100
AcDbEntity
  8
M0
100
AcDbLine
 10
698.728792
 20
1764.326203
 11
698.728822
 21
1818.325715
  0
LINE
  5
5D4
100
AcDbEntity
  8
M0
100
AcDbLine
 10
608.727013
 20
1822.328131
 11
608.726986
 21
1728.32694
  0
LINE
  5
5D5
100
AcDbEntity
  8
M0
100
AcDbLine
 10
768.727007
 20
1729.832246
 11
762.227007
 21
1726.079469
  0
LINE
  5
5D6
100
AcDbEntity
  8
M0
100
AcDbLine
 10
762.227007
 20
1726.079469
 11
762.227007
 21
1718.57393
  0
LINE
  5
5D7
100
AcDbEntity
  8
M0
100
AcDbLine
 10
762.227007
 20
1718.57393
 11
768.726991
 21
1714.821153
  0
LINE
  5
5D8
100
AcDbEntity
  8
M0
100
AcDbLine
 10
768.726991
 20
1714.821153
 11
775.226991
 21
1718.57393
  0
LINE
  5
5D9
100
AcDbEntity
  8
M0
100
AcDbLine
 10
775.226991
 20
1718.57393
 11
775.227007
 21
1726.079469
  0
LINE
  5
5DA
100
AcDbEntity
  8
M0
100
AcDbLine
 10
775.227007
 20
1726.079469
 11
768.727007
 21
1729.832246
  0
CIRCLE
  5
5DB
100
AcDbEntity
  8
M0
100
AcDbCircle
 10
768.727007
 20
1722.326707
 40
6.5
  0
LINE
  5
5DC
100
AcDbEntity
  8
M0
100
AcDbLine
 10
768.727007
 20
1536.832246
 11
762.227007
 21
1533.079469
  0
LINE
  5
5DD
100
AcDbEntity
  8
M0
100
AcDbLine
 10
762.227007
 20
1533.079469
 11
762.227007
 21
1525.57393
  0
LINE
  5
5DE
100
AcDbEntity
  8
M0
100
AcDbLine
 10
762.227007
 20
1525.57393
 11
768.726991
 21
1521.821153
  0
LINE
  5
5DF
100
AcDbEntity
  8
M0
100
AcDbLine
 10
768.726991
 20
1521.821153
 11
775.226991
 21
1525.57393
  0
LINE
  5
5E0
100
AcDbEntity
  8
M0
100
AcDbLine
 10
775.226991
 20
1525.57393
 11
775.227007
 21
1533.079469
  0
LINE
  5
5E1
100
AcDbEntity
  8
M0
100
AcDbLine
 10
775.227007
 20
1533.079469
 11
768.727007
 21
1536.832246
  0
CIRCLE
  5
5E2
100
AcDbEntity
  8
M0
100
AcDbCircle
 10
768.727007
 20
1529.326707
 40
6.5
  0
LINE
  5
5E3
100
AcDbEntity
  8
M0
100
AcDbLine
 10
538.727251
 20
1536.832246
 11
532.227251
 21
1533.079469
  0
LINE
  5
5E4
100
AcDbEntity
  8
M0
100
AcDbLine
 10
532.227251
 20
1533.079469
 11
532.227251
 21
1525.57393
  0
LINE
  5
5E5
100
AcDbEntity
  8
M0
100
AcDbLine
 10
532.227251
 20
1525.57393
 11
538.727236
 21
1521.821153
  0
LINE
  5
5E6
100
AcDbEntity
  8
M0
100
AcDbLine
 10
538.727236
 20
1521.821153
 11
545.227236
 21
1525.57393
  0
LINE
  5
5E7
100
AcDbEntity
  8
M0
100
AcDbLine
 10
545.227236
 20
1525.57393
 11
545.227251
 21
1533.079469
  0
LINE
  5
5E8
100
AcDbEntity
  8
M0
100
AcDbLine
 10
545.227251
 20
1533.079469
 11
538.727251
 21
1536.832246
  0
CIRCLE
  5
5E9
100
AcDbEntity
  8
M0
100
AcDbCircle
 10
538.727251
 20
1529.326707
 40
6.5
  0
LINE
  5
5EA
100
AcDbEntity
  8
M0
100
AcDbLine
 10
538.727251
 20
1729.832246
 11
532.227251
 21
1726.079469
  0
LINE
  5
5EB
100
AcDbEntity
  8
M0
100
AcDbLine
 10
532.227251
 20
1726.079469
 11
532.227251
 21
1718.57393
  0
LINE
  5
5EC
100
AcDbEntity
  8
M0
100
AcDbLine
 10
532.227251
 20
1718.57393
 11
538.727236
 21
1714.821153
  0
LINE
  5
5ED
100
AcDbEntity
  8
M0
100
AcDbLine
 10
538.727236
 20
1714.821153
 11
545.227236
 21
1718.57393
  0
LINE
  5
5EE
100
AcDbEntity
  8
M0
100
AcDbLine
 10
545.227236
 20
1718.57393
 11
545.227251
 21
1726.079469
  0
LINE
  5
5EF
100
AcDbEntity
  8
M0
100
AcDbLine
 10
545.227251
 20
1726.079469
 11
538.727251
 21
1729.832246
  0
CIRCLE
  5
5F0
100
AcDbEntity
  8
M0
100
AcDbCircle
 10
538.727251
 20
1722.326707
 40
6.5
  0
CIRCLE
  5
5F1
100
AcDbEntity
  8
M0
100
AcDbCircle
 10
768.726991
 20
1529.326707
 40
9.0
  0
LINE
  5
5F2
100
AcDbEntity
  8
M0
  6
DASHDOT
100
AcDbLine
 10
781.226991
 20
1529.326707
 11
756.226991
 21
1529.326707
  0
LINE
  5
5F3
100
AcDbEntity
  8
M0
  6
DASHDOT
100
AcDbLine
 10
768.726991
 20
1516.826707
 11
768.726991
 21
1541.826707
  0
CIRCLE
  5
5F4
100
AcDbEntity
  8
M0
100
AcDbCircle
 10
538.727236
 20
1529.326707
 40
9.0
  0
LINE
  5
5F5
100
AcDbEntity
  8
M0
  6
DASHDOT
100
AcDbLine
 10
551.227236
 20
1529.326707
 11
526.227236
 21
1529.326707
  0
LINE
  5
5F6
100
AcDbEntity
  8
M0
  6
DASHDOT
100
AcDbLine
 10
538.727236
 20
1516.826707
 11
538.727236
 21
1541.826707
  0
CIRCLE
  5
5F7
100
AcDbEntity
  8
M0
100
AcDbCircle
 10
538.727236
 20
1722.326707
 40
9.0
  0
LINE
  5
5F8
100
AcDbEntity
  8
M0
  6
DASHDOT
100
AcDbLine
 10
551.227236
 20
1722.326707
 11
526.227236
 21
1722.326707
  0
LINE
  5
5F9
100
AcDbEntity
  8
M0
  6
DASHDOT
100
AcDbLine
 10
538.727236
 20
1709.826707
 11
538.727236
 21
1734.826707
  0
CIRCLE
  5
5FA
100
AcDbEntity
  8
M0
100
AcDbCircle
 10
768.726991
 20
1722.326707
 40
9.0
  0
LINE
  5
5FB
100
AcDbEntity
  8
M0
  6
DASHDOT
100
AcDbLine
 10
781.226991
 20
1722.326707
 11
756.226991
 21
1722.326707
  0
LINE
  5
5FC
100
AcDbEntity
  8
M0
  6
DASHDOT
100
AcDbLine
 10
768.726991
 20
1709.826707
 11
768.726991
 21
1734.826707
  0
CIRCLE
  5
5FD
100
AcDbEntity
  8
M0
100
AcDbCircle
 10
741.727007
 20
1569.326692
 40
5.0
  0
CIRCLE
  5
5FE
100
AcDbEntity
  8
M0
100
AcDbCircle
 10
565.727007
 20
1569.326692
 40
5.0
  0
CIRCLE
  5
5FF
100
AcDbEntity
  8
M0
100
AcDbCircle
 10
562.727007
 20
1709.326692
 40
5.0
  0
CIRCLE
  5
600
100
AcDbEntity
  8
M0
100
AcDbCircle
 10
744.727007
 20
1709.326692
 40
5.0
  0
CIRCLE
  5
601
100
AcDbEntity
  8
M0
100
AcDbCircle
 10
795.176958
 20
1750.326692
 40
5.0
  0
CIRCLE
  5
602
100
AcDbEntity
  8
M0
100
AcDbCircle
 10
795.176958
 20
1528.326692
 40
5.0
  0
LINE
  5
603
100
AcDbEntity
  8
M0
 62
     7
100
AcDbLine
 10
743.72722
 20
1514.32578
 11
728.72532
 21
1529.32585
  0
CIRCLE
  5
604
100
AcDbEntity
  8
M0
 62
     7
100
AcDbCircle
 10
723.727217
 20
1502.324991
 40
6.5
  0
CIRCLE
  5
605
100
AcDbEntity
  8
M0
 62
     7
100
AcDbCircle
 10
723.727217
 20
1464.324998
 40
6.5
  0
LINE
  5
606
100
AcDbEntity
  8
M0
  6
DASHDOT
 62
     7
100
AcDbLine
 10
723.727191
 20
1452.054526
 11
723.727237
 21
1517.812415
  0
LINE
  5
607
100
AcDbEntity
  8
M0
  6
DASHDOT
 62
     7
100
AcDbLine
 10
738.700478
 20
1502.324984
 11
705.720812
 21
1502.325001
  0
LINE
  5
608
100
AcDbEntity
  8
M0
 62
     7
100
AcDbLine
 10
734.677305
 20
1502.325208
 11
729.202296
 21
1511.808116
  0
LINE
  5
609
100
AcDbEntity
  8
M0
 62
     7
100
AcDbLine
 10
729.202296
 20
1511.808116
 11
718.252342
 21
1511.808144
  0
LINE
  5
60A
100
AcDbEntity
  8
M0
 62
     7
100
AcDbLine
 10
718.252342
 20
1511.808144
 11
712.777327
 21
1502.325231
  0
LINE
  5
60B
100
AcDbEntity
  8
M0
 62
     7
100
AcDbLine
 10
712.777327
 20
1502.325231
 11
718.252325
 21
1492.842088
  0
LINE
  5
60C
100
AcDbEntity
  8
M0
 62
     7
100
AcDbLine
 10
718.252325
 20
1492.842088
 11
729.202332
 21
1492.842057
  0
LINE
  5
60D
100
AcDbEntity
  8
M0
 62
     7
100
AcDbLine
 10
729.202332
 20
1492.842057
 11
734.677305
 21
1502.325208
  0
CIRCLE
  5
60E
100
AcDbEntity
  8
M0
 62
     7
100
AcDbCircle
 10
723.727324
 20
1502.325235
 40
5.999994
  0
CIRCLE
  5
60F
100
AcDbEntity
  8
M0
 62
     7
100
AcDbCircle
 10
723.727217
 20
1502.324991
 40
12.999992
  0
CIRCLE
  5
610
100
AcDbEntity
  8
M0
 62
     7
100
AcDbCircle
 10
723.727217
 20
1502.324991
 40
6.24999
  0
CIRCLE
  5
611
100
AcDbEntity
  8
M0
 62
     7
100
AcDbCircle
 10
723.727217
 20
1502.324991
 40
6.099992
  0
CIRCLE
  5
612
100
AcDbEntity
  8
M0
 62
     7
100
AcDbCircle
 10
723.727217
 20
1502.324991
 40
10.749993
  0
LINE
  5
613
100
AcDbEntity
  8
M0
 62
     7
100
AcDbLine
 10
728.725262
 20
1550.326722
 11
728.72532
 21
1529.32585
  0
LINE
  5
614
100
AcDbEntity
  8
M0
 62
     7
100
AcDbLine
 10
743.727174
 20
1449.325791
 11
743.72722
 21
1514.326696
  0
LINE
  5
615
100
AcDbEntity
  8
M0
 62
     7
100
AcDbLine
 10
698.725542
 20
1449.326005
 11
743.727175
 21
1449.325791
  0
LINE
  5
616
100
AcDbEntity
  8
M0
 62
     7
100
AcDbLine
 10
698.725527
 20
1458.326005
 11
698.725374
 21
1514.326696
  0
LINE
  5
617
100
AcDbEntity
  8
M0
 62
     7
100
AcDbLine
 10
698.727189
 20
1449.326005
 11
698.727266
 21
1546.740556
  0
LINE
  5
618
100
AcDbEntity
  8
M0
 62
     7
100
AcDbLine
 10
698.727251
 20
1456.325013
 11
698.727342
 21
1550.326188
  0
LINE
  5
619
100
AcDbEntity
  8
M0
  6
DASHDOT
 62
     7
100
AcDbLine
 10
716.227217
 20
1464.324998
 11
731.227217
 21
1464.324998
  0
LINE
  5
61A
100
AcDbEntity
  8
M0
 62
     7
100
AcDbLine
 10
563.725298
 20
1514.326512
 11
578.727198
 21
1529.326583
  0
CIRCLE
  5
61B
100
AcDbEntity
  8
M0
 62
     7
100
AcDbCircle
 10
583.725301
 20
1502.325724
 40
6.5
  0
CIRCLE
  5
61C
100
AcDbEntity
  8
M0
 62
     7
100
AcDbCircle
 10
583.725301
 20
1464.32573
 40
6.5
  0
LINE
  5
61D
100
AcDbEntity
  8
M0
  6
DASHDOT
 62
     7
100
AcDbLine
 10
583.725327
 20
1452.806208
 11
583.725281
 21
1517.813147
  0
LINE
  5
61E
100
AcDbEntity
  8
M0
  6
DASHDOT
 62
     7
100
AcDbLine
 10
568.75204
 20
1502.325716
 11
601.731706
 21
1502.325733
  0
LINE
  5
61F
100
AcDbEntity
  8
M0
 62
     7
100
AcDbLine
 10
572.775213
 20
1502.32594
 11
578.250222
 21
1511.808848
  0
LINE
  5
620
100
AcDbEntity
  8
M0
 62
     7
100
AcDbLine
 10
578.250222
 20
1511.808848
 11
589.200176
 21
1511.808876
  0
LINE
  5
621
100
AcDbEntity
  8
M0
 62
     7
100
AcDbLine
 10
589.200176
 20
1511.808876
 11
594.675191
 21
1502.325964
  0
LINE
  5
622
100
AcDbEntity
  8
M0
 62
     7
100
AcDbLine
 10
594.675191
 20
1502.325964
 11
589.200193
 21
1492.84282
  0
LINE
  5
623
100
AcDbEntity
  8
M0
 62
     7
100
AcDbLine
 10
589.200193
 20
1492.84282
 11
578.250186
 21
1492.84279
  0
LINE
  5
624
100
AcDbEntity
  8
M0
 62
     7
100
AcDbLine
 10
578.250186
 20
1492.84279
 11
572.775213
 21
1502.32594
  0
CIRCLE
  5
625
100
AcDbEntity
  8
M0
 62
     7
100
AcDbCircle
 10
583.725194
 20
1502.325968
 40
5.999994
  0
CIRCLE
  5
626
100
AcDbEntity
  8
M0
 62
     7
100
AcDbCircle
 10
583.725301
 20
1502.325724
 40
12.999992
  0
CIRCLE
  5
627
100
AcDbEntity
  8
M0
 62
     7
100
AcDbCircle
 10
583.725301
 20
1502.325724
 40
6.24999
  0
CIRCLE
  5
628
100
AcDbEntity
  8
M0
 62
     7
100
AcDbCircle
 10
583.725301
 20
1502.325724
 40
6.099992
  0
CIRCLE
  5
629
100
AcDbEntity
  8
M0
 62
     7
100
AcDbCircle
 10
583.725301
 20
1502.325724
 40
10.749993
  0
LINE
  5
62A
100
AcDbEntity
  8
M0
 62
     7
100
AcDbLine
 10
578.727256
 20
1550.327454
 11
578.727198
 21
1529.326583
  0
LINE
  5
62B
100
AcDbEntity
  8
M0
 62
     7
100
AcDbLine
 10
563.725344
 20
1449.326524
 11
563.725298
 21
1514.327429
  0
LINE
  5
62C
100
AcDbEntity
  8
M0
 62
     7
100
AcDbLine
 10
608.726976
 20
1449.326737
 11
563.725343
 21
1449.326524
  0
LINE
  5
62D
100
AcDbEntity
  8
M0
 62
     7
100
AcDbLine
 10
608.726991
 20
1458.326737
 11
608.727144
 21
1514.327429
  0
LINE
  5
62E
100
AcDbEntity
  8
M0
 62
     7
100
AcDbLine
 10
608.725329
 20
1449.326737
 11
608.725252
 21
1546.741288
  0
LINE
  5
62F
100
AcDbEntity
  8
M0
 62
     7
100
AcDbLine
 10
608.725267
 20
1456.325746
 11
608.725176
 21
1550.32692
  0
LINE
  5
630
100
AcDbEntity
  8
M0
 62
     7
100
AcDbLine
 10
743.72722
 20
1764.32786
 11
728.725328
 21
1749.32778
  0
CIRCLE
  5
631
100
AcDbEntity
  8
M0
 62
     7
100
AcDbCircle
 10
723.727209
 20
1776.328636
 40
6.5
  0
CIRCLE
  5
632
100
AcDbEntity
  8
M0
 62
     7
100
AcDbCircle
 10
723.727185
 20
1814.328629
 40
6.5
  0
LINE
  5
633
100
AcDbEntity
  8
M0
  6
DASHDOT
 62
     7
100
AcDbLine
 10
723.727152
 20
1825.878312
 11
723.727239
 21
1760.841212
  0
LINE
  5
634
100
AcDbEntity
  8
M0
  6
DASHDOT
 62
     7
100
AcDbLine
 10
738.70047
 20
1776.328653
 11
705.720803
 21
1776.328615
  0
LINE
  5
635
100
AcDbEntity
  8
M0
 62
     7
100
AcDbLine
 10
734.677297
 20
1776.328426
 11
729.202294
 21
1766.845515
  0
LINE
  5
636
100
AcDbEntity
  8
M0
 62
     7
100
AcDbLine
 10
729.202294
 20
1766.845515
 11
718.25234
 21
1766.84548
  0
LINE
  5
637
100
AcDbEntity
  8
M0
 62
     7
100
AcDbLine
 10
718.25234
 20
1766.84548
 11
712.777319
 21
1776.328389
  0
LINE
  5
638
100
AcDbEntity
  8
M0
 62
     7
100
AcDbLine
 10
712.777319
 20
1776.328389
 11
718.252311
 21
1785.811536
  0
LINE
  5
639
100
AcDbEntity
  8
M0
 62
     7
100
AcDbLine
 10
718.252311
 20
1785.811536
 11
729.202318
 21
1785.811574
  0
LINE
  5
63A
100
AcDbEntity
  8
M0
 62
     7
100
AcDbLine
 10
729.202318
 20
1785.811574
 11
734.677297
 21
1776.328426
  0
CIRCLE
  5
63B
100
AcDbEntity
  8
M0
 62
     7
100
AcDbCircle
 10
723.727316
 20
1776.328392
 40
5.999994
  0
CIRCLE
  5
63C
100
AcDbEntity
  8
M0
 62
     7
100
AcDbCircle
 10
723.727209
 20
1776.328636
 40
12.999992
  0
CIRCLE
  5
63D
100
AcDbEntity
  8
M0
 62
     7
100
AcDbCircle
 10
723.727209
 20
1776.328636
 40
6.24999
  0
CIRCLE
  5
63E
100
AcDbEntity
  8
M0
 62
     7
100
AcDbCircle
 10
723.727209
 20
1776.328636
 40
6.099992
  0
CIRCLE
  5
63F
100
AcDbEntity
  8
M0
 62
     7
100
AcDbCircle
 10
723.727209
 20
1776.328636
 40
10.749993
  0
LINE
  5
640
100
AcDbEntity
  8
M0
 62
     7
100
AcDbLine
 10
728.725284
 20
1728.326908
 11
728.725328
 21
1749.32778
  0
LINE
  5
641
100
AcDbEntity
  8
M0
 62
     7
100
AcDbLine
 10
743.727133
 20
1829.327849
 11
743.72722
 21
1764.326944
  0
LINE
  5
642
100
AcDbEntity
  8
M0
 62
     7
100
AcDbLine
 10
698.7255
 20
1829.327607
 11
743.727133
 21
1829.327849
  0
LINE
  5
643
100
AcDbEntity
  8
M0
 62
     7
100
AcDbLine
 10
698.725491
 20
1820.327607
 11
698.725373
 21
1764.326915
  0
LINE
  5
644
100
AcDbEntity
  8
M0
 62
     7
100
AcDbLine
 10
698.727148
 20
1829.327607
 11
698.727286
 21
1731.913056
  0
LINE
  5
645
100
AcDbEntity
  8
M0
 62
     7
100
AcDbLine
 10
698.727214
 20
1822.328598
 11
698.727364
 21
1728.327424
  0
LINE
  5
646
100
AcDbEntity
  8
M0
 62
     7
100
AcDbLine
 10
563.725297
 20
1764.327103
 11
578.727207
 21
1749.327041
  0
CIRCLE
  5
647
100
AcDbEntity
  8
M0
 62
     7
100
AcDbCircle
 10
583.725293
 20
1776.327904
 40
6.5
  0
CIRCLE
  5
648
100
AcDbEntity
  8
M0
 62
     7
100
AcDbCircle
 10
583.725269
 20
1814.327897
 40
6.5
  0
LINE
  5
649
100
AcDbEntity
  8
M0
  6
DASHDOT
 62
     7
100
AcDbLine
 10
583.725288
 20
1826.323753
 11
583.725282
 21
1760.84048
  0
LINE
  5
64A
100
AcDbEntity
  8
M0
  6
DASHDOT
 62
     7
100
AcDbLine
 10
568.752032
 20
1776.327902
 11
601.731698
 21
1776.327905
  0
LINE
  5
64B
100
AcDbEntity
  8
M0
 62
     7
100
AcDbLine
 10
572.775205
 20
1776.32768
 11
578.25022
 21
1766.844775
  0
LINE
  5
64C
100
AcDbEntity
  8
M0
 62
     7
100
AcDbLine
 10
578.25022
 20
1766.844775
 11
589.200174
 21
1766.844755
  0
LINE
  5
64D
100
AcDbEntity
  8
M0
 62
     7
100
AcDbLine
 10
589.200174
 20
1766.844755
 11
594.675183
 21
1776.32767
  0
LINE
  5
64E
100
AcDbEntity
  8
M0
 62
     7
100
AcDbLine
 10
594.675183
 20
1776.32767
 11
589.200179
 21
1785.810811
  0
LINE
  5
64F
100
AcDbEntity
  8
M0
 62
     7
100
AcDbLine
 10
589.200179
 20
1785.810811
 11
578.250172
 21
1785.810834
  0
LINE
  5
650
100
AcDbEntity
  8
M0
 62
     7
100
AcDbLine
 10
578.250172
 20
1785.810834
 11
572.775205
 21
1776.32768
  0
CIRCLE
  5
651
100
AcDbEntity
  8
M0
 62
     7
100
AcDbCircle
 10
583.725186
 20
1776.32766
 40
5.999994
  0
CIRCLE
  5
652
100
AcDbEntity
  8
M0
 62
     7
100
AcDbCircle
 10
583.725293
 20
1776.327904
 40
12.999992
  0
CIRCLE
  5
653
100
AcDbEntity
  8
M0
 62
     7
100
AcDbCircle
 10
583.725293
 20
1776.327904
 40
6.24999
  0
CIRCLE
  5
654
100
AcDbEntity
  8
M0
 62
     7
100
AcDbCircle
 10
583.725293
 20
1776.327904
 40
6.099992
  0
CIRCLE
  5
655
100
AcDbEntity
  8
M0
 62
     7
100
AcDbCircle
 10
583.725293
 20
1776.327904
 40
10.749993
  0
LINE
  5
656
100
AcDbEntity
  8
M0
 62
     7
100
AcDbLine
 10
578.727278
 20
1728.32617
 11
578.727207
 21
1749.327041
  0
LINE
  5
657
100
AcDbEntity
  8
M0
 62
     7
100
AcDbLine
 10
563.725302
 20
1829.327091
 11
563.725297
 21
1764.326186
  0
LINE
  5
658
100
AcDbEntity
  8
M0
 62
     7
100
AcDbLine
 10
608.726935
 20
1829.326906
 11
563.725302
 21
1829.327091
  0
LINE
  5
659
100
AcDbEntity
  8
M0
 62
     7
100
AcDbLine
 10
608.726956
 20
1820.326906
 11
608.727143
 21
1764.326214
  0
LINE
  5
65A
100
AcDbEntity
  8
M0
 62
     7
100
AcDbLine
 10
608.725288
 20
1829.326906
 11
608.725272
 21
1731.912355
  0
LINE
  5
65B
100
AcDbEntity
  8
M0
 62
     7
100
AcDbLine
 10
608.72523
 20
1822.327897
 11
608.725198
 21
1728.326723
  0
LINE
  5
65C
100
AcDbEntity
  8
M0
 62
     7
100
AcDbLine
 10
642.776058
 20
1502.326715
 11
648.251201
 21
1511.809599
  0
LINE
  5
65D
100
AcDbEntity
  8
M0
 62
     7
100
AcDbLine
 10
648.251201
 20
1511.809599
 11
659.201152
 21
1511.809546
  0
LINE
  5
65E
100
AcDbEntity
  8
M0
 62
     7
100
AcDbLine
 10
659.201152
 20
1511.809546
 11
664.675951
 21
1502.326611
  0
LINE
  5
65F
100
AcDbEntity
  8
M0
 62
     7
100
AcDbLine
 10
664.675951
 20
1502.326611
 11
659.201061
 21
1492.843483
  0
LINE
  5
660
100
AcDbEntity
  8
M0
 62
     7
100
AcDbLine
 10
659.201061
 20
1492.843483
 11
648.251111
 21
1492.843535
  0
LINE
  5
661
100
AcDbEntity
  8
M0
 62
     7
100
AcDbLine
 10
648.251111
 20
1492.843535
 11
642.776058
 21
1502.326715
  0
CIRCLE
  5
662
100
AcDbEntity
  8
M0
 62
     7
100
AcDbCircle
 10
653.726008
 20
1502.326663
 40
5.999994
  0
CIRCLE
  5
663
100
AcDbEntity
  8
M0
 62
     7
100
AcDbCircle
 10
653.726252
 20
1502.326419
 40
12.999992
  0
CIRCLE
  5
664
100
AcDbEntity
  8
M0
 62
     7
100
AcDbCircle
 10
653.726252
 20
1502.326419
 40
6.24999
  0
LINE
  5
665
100
AcDbEntity
  8
M0
  6
DASHDOT
 62
     7
100
AcDbLine
 10
639.476253
 20
1502.326487
 11
667.976244
 21
1502.326351
  0
CIRCLE
  5
666
100
AcDbEntity
  8
M0
 62
     7
100
AcDbCircle
 10
653.726252
 20
1502.326419
 40
6.099992
  0
CIRCLE
  5
667
100
AcDbEntity
  8
M0
 62
     7
100
AcDbCircle
 10
653.726252
 20
1502.326419
 40
10.749993
  0
CIRCLE
  5
668
100
AcDbEntity
  8
M0
 62
     7
100
AcDbCircle
 10
653.726252
 20
1464.326432
 40
6.5
  0
LINE
  5
669
100
AcDbEntity
  8
M0
 62
     7
100
AcDbLine
 10
676.226
 20
1449.326325
 11
676.226351
 21
1524.32631
  0
LINE
  5
66A
100
AcDbEntity
  8
M0
 62
     7
100
AcDbLine
 10
631.226015
 20
1449.326539
 11
676.226015
 21
1449.326325
  0
LINE
  5
66B
100
AcDbEntity
  8
M0
 62
     7
100
AcDbLine
 10
631.226366
 20
1524.326524
 11
631.226015
 21
1449.326539
  0
LINE
  5
66C
100
AcDbEntity
  8
M0
 62
     7
100
AcDbLine
 10
638.726238
 20
1550.326722
 11
638.726391
 21
1524.326478
  0
LINE
  5
66D
100
AcDbEntity
  8
M0
 62
     7
100
AcDbLine
 10
631.226366
 20
1524.326524
 11
638.726391
 21
1524.326478
  0
LINE
  5
66E
100
AcDbEntity
  8
M0
 62
     7
100
AcDbLine
 10
668.726351
 20
1524.326341
 11
668.726473
 21
1550.326585
  0
LINE
  5
66F
100
AcDbEntity
  8
M0
 62
     7
100
AcDbLine
 10
668.726351
 20
1524.326341
 11
676.226122
 21
1524.32631
  0
LINE
  5
670
100
AcDbEntity
  8
M0
 62
     7
100
AcDbLine
 10
642.776058
 20
1776.327153
 11
648.251207
 21
1766.844273
  0
LINE
  5
671
100
AcDbEntity
  8
M0
 62
     7
100
AcDbLine
 10
648.251207
 20
1766.844273
 11
659.201158
 21
1766.844332
  0
LINE
  5
672
100
AcDbEntity
  8
M0
 62
     7
100
AcDbLine
 10
659.201158
 20
1766.844332
 11
664.675951
 21
1776.327271
  0
LINE
  5
673
100
AcDbEntity
  8
M0
 62
     7
100
AcDbLine
 10
664.675951
 20
1776.327271
 11
659.201055
 21
1785.810396
  0
LINE
  5
674
100
AcDbEntity
  8
M0
 62
     7
100
AcDbLine
 10
659.201055
 20
1785.810396
 11
648.251105
 21
1785.810336
  0
LINE
  5
675
100
AcDbEntity
  8
M0
 62
     7
100
AcDbLine
 10
648.251105
 20
1785.810336
 11
642.776058
 21
1776.327153
  0
CIRCLE
  5
676
100
AcDbEntity
  8
M0
 62
     7
100
AcDbCircle
 10
653.726008
 20
1776.327212
 40
5.999994
  0
CIRCLE
  5
677
100
AcDbEntity
  8
M0
 62
     7
100
AcDbCircle
 10
653.726252
 20
1776.327456
 40
12.999992
  0
CIRCLE
  5
678
100
AcDbEntity
  8
M0
 62
     7
100
AcDbCircle
 10
653.726252
 20
1776.327456
 40
6.24999
  0
LINE
  5
679
100
AcDbEntity
  8
M0
  6
DASHDOT
 62
     7
100
AcDbLine
 10
639.476253
 20
1776.32738
 11
667.976244
 21
1776.327533
  0
CIRCLE
  5
67A
100
AcDbEntity
  8
M0
 62
     7
100
AcDbCircle
 10
653.726252
 20
1776.327456
 40
6.099992
  0
CIRCLE
  5
67B
100
AcDbEntity
  8
M0
 62
     7
100
AcDbCircle
 10
653.726252
 20
1776.327456
 40
10.749993
  0
CIRCLE
  5
67C
100
AcDbEntity
  8
M0
 62
     7
100
AcDbCircle
 10
653.726228
 20
1814.327443
 40
6.5
  0
LINE
  5
67D
100
AcDbEntity
  8
M0
 62
     7
100
AcDbLine
 10
676.225966
 20
1829.327564
 11
676.226364
 21
1754.327579
  0
LINE
  5
67E
100
AcDbEntity
  8
M0
 62
     7
100
AcDbLine
 10
631.225982
 20
1829.327322
 11
676.225982
 21
1829.327564
  0
LINE
  5
67F
100
AcDbEntity
  8
M0
 62
     7
100
AcDbLine
 10
631.22638
 20
1754.327337
 11
631.225982
 21
1829.327322
  0
LINE
  5
680
100
AcDbEntity
  8
M0
 62
     7
100
AcDbLine
 10
638.726268
 20
1728.327144
 11
638.726404
 21
1754.327388
  0
LINE
  5
681
100
AcDbEntity
  8
M0
 62
     7
100
AcDbLine
 10
631.22638
 20
1754.327337
 11
638.726404
 21
1754.327388
  0
LINE
  5
682
100
AcDbEntity
  8
M0
 62
     7
100
AcDbLine
 10
668.726364
 20
1754.327544
 11
668.726503
 21
1728.3273
  0
LINE
  5
683
100
AcDbEntity
  8
M0
 62
     7
100
AcDbLine
 10
668.726364
 20
1754.327544
 11
676.226135
 21
1754.327579
  0
LINE
  5
684
100
AcDbEntity
  8
M0
  6
DASHDOT
100
AcDbLine
 10
278.727236
 20
1768.576936
 11
278.727236
 21
1788.076936
  0
LINE
  5
685
100
AcDbEntity
  8
M0
  6
DASHDOT
100
AcDbLine
 10
268.977236
 20
1778.326936
 11
288.477236
 21
1778.326936
  0
CIRCLE
  5
686
100
AcDbEntity
  8
M0
100
AcDbCircle
 10
278.727236
 20
1778.326936
 40
5.75
  0
LINE
  5
687
100
AcDbEntity
  8
M0
  6
DASHDOT
100
AcDbLine
 10
758.726991
 20
1768.576936
 11
758.726991
 21
1788.076936
  0
LINE
  5
688
100
AcDbEntity
  8
M0
  6
DASHDOT
100
AcDbLine
 10
748.976991
 20
1778.326936
 11
768.477236
 21
1778.326936
  0
CIRCLE
  5
689
100
AcDbEntity
  8
M0
100
AcDbCircle
 10
758.726991
 20
1778.326936
 40
5.75
  0
LINE
  5
68A
100
AcDbEntity
  8
M0
  6
DASHDOT
100
AcDbLine
 10
518.727236
 20
1725.326936
 11
518.727236
 21
1805.326936
  0
LINE
  5
68B
100
AcDbEntity
  8
M0
100
AcDbLine
 10
253.727236
 20
1795.326936
 11
253.727236
 21
1735.326936
  0
LINE
  5
68C
100
AcDbEntity
  8
M0
100
AcDbLine
 10
783.727236
 20
1795.326936
 11
743.726991
 21
1795.326936
  0
LINE
  5
68D
100
AcDbEntity
  8
M0
100
AcDbLine
 10
783.727236
 20
1735.326936
 11
783.727236
 21
1795.326936
  0
LINE
  5
68E
100
AcDbEntity
  8
M0
100
AcDbLine
 10
698.7287
 20
1795.326936
 11
695.726991
 21
1795.326936
  0
LINE
  5
68F
100
AcDbEntity
  8
M0
100
AcDbLine
 10
695.726991
 20
1795.326936
 11
676.226015
 21
1795.326936
  0
LINE
  5
690
100
AcDbEntity
  8
M0
100
AcDbLine
 10
631.226015
 20
1795.326936
 11
621.726991
 21
1795.326936
  0
LINE
  5
691
100
AcDbEntity
  8
M0
100
AcDbLine
 10
621.726991
 20
1795.326936
 11
608.725771
 21
1795.326936
  0
LINE
  5
692
100
AcDbEntity
  8
M0
100
AcDbLine
 10
563.725282
 20
1795.326936
 11
473.727175
 21
1795.326936
  0
LINE
  5
693
100
AcDbEntity
  8
M0
100
AcDbLine
 10
428.728807
 20
1795.326936
 11
425.727205
 21
1795.326936
  0
LINE
  5
694
100
AcDbEntity
  8
M0
100
AcDbLine
 10
425.727205
 20
1795.326936
 11
406.226137
 21
1795.326936
  0
LINE
  5
695
100
AcDbEntity
  8
M0
100
AcDbLine
 10
361.226152
 20
1795.326936
 11
351.72722
 21
1795.326936
  0
LINE
  5
696
100
AcDbEntity
  8
M0
100
AcDbLine
 10
351.72722
 20
1795.326936
 11
338.725771
 21
1795.326936
  0
LINE
  5
697
100
AcDbEntity
  8
M0
100
AcDbLine
 10
293.725298
 20
1795.326936
 11
253.727236
 21
1795.326936
  0
LINE
  5
698
100
AcDbEntity
  8
M0
 62
     6
100
AcDbLine
 10
253.777146
 20
1758.326973
 11
253.777295
 21
1520.326989
  0
LINE
  5
699
100
AcDbEntity
  8
M0
 62
     6
100
AcDbLine
 10
253.777295
 20
1520.326989
 11
230.777295
 21
1520.326974
  0
LINE
  5
69A
100
AcDbEntity
  8
M0
 62
     6
100
AcDbLine
 10
230.777295
 20
1520.326974
 11
230.777146
 21
1758.326959
  0
LINE
  5
69B
100
AcDbEntity
  8
M0
 62
     6
100
AcDbLine
 10
230.777146
 20
1758.326959
 11
253.777146
 21
1758.326973
  0
LINE
  5
69C
100
AcDbEntity
  8
M0
  6
DASHDOT
 62
     6
100
AcDbLine
 10
225.777221
 20
1639.326956
 11
258.777221
 21
1639.326977
  0
LINE
  5
69D
100
AcDbEntity
  8
M0
  6
DASHDOT
 62
     6
100
AcDbLine
 10
242.277143
 20
1763.326966
 11
242.277299
 21
1515.326981
  0
LINE
  5
69E
100
AcDbEntity
  8
M0
 62
     6
100
AcDbLine
 10
247.277294
 20
1523.326971
 11
247.277288
 21
1532.326971
  0
LINE
  5
69F
100
AcDbEntity
  8
M0
 62
     6
100
AcDbLine
 10
237.277294
 20
1523.326965
 11
237.277288
 21
1532.326965
  0
LINE
  5
6A0
100
AcDbEntity
  8
M0
 62
     6
100
AcDbLine
 10
250.377293
 20
1523.326973
 11
247.277294
 21
1523.326971
  0
LINE
  5
6A1
100
AcDbEntity
  8
M0
 62
     6
100
AcDbLine
 10
234.177288
 20
1532.326963
 11
237.277288
 21
1532.326965
  0
LINE
  5
6A2
100
AcDbEntity
  8
M0
 62
     6
100
AcDbLine
 10
237.277294
 20
1523.326965
 11
234.177294
 21
1523.326963
  0
LINE
  5
6A3
100
AcDbEntity
  8
M0
 62
     6
100
AcDbLine
 10
247.277288
 20
1532.326971
 11
250.377287
 21
1532.326973
  0
LINE
  5
6A4
100
AcDbEntity
  8
M0
 62
     6
100
AcDbLine
 10
230.777289
 20
1530.326961
 11
234.277289
 21
1530.326963
  0
LINE
  5
6A5
100
AcDbEntity
  8
M0
 62
     6
100
AcDbLine
 10
250.277289
 20
1530.326973
 11
253.777289
 21
1530.326975
  0
LINE
  5
6A6
100
AcDbEntity
  8
M0
 62
     6
100
AcDbLine
 10
234.277285
 20
1536.326963
 11
250.277285
 21
1536.326973
  0
LINE
  5
6A7
100
AcDbEntity
  8
M0
 62
     6
100
AcDbLine
 10
250.277283
 20
1540.826972
 11
234.277283
 21
1540.826962
  0
LINE
  5
6A8
100
AcDbEntity
  8
M0
 62
     6
100
AcDbLine
 10
240.527283
 20
1540.826966
 11
240.527282
 21
1542.074737
  0
LINE
  5
6A9
100
AcDbEntity
  8
M0
 62
     6
100
AcDbLine
 10
244.027283
 20
1540.826968
 11
244.027282
 21
1542.07474
  0
LINE
  5
6AA
100
AcDbEntity
  8
M0
 62
     6
100
AcDbLine
 10
240.527271
 20
1559.326965
 11
234.277271
 21
1559.326961
  0
LINE
  5
6AB
100
AcDbEntity
  8
M0
 62
     6
100
AcDbLine
 10
240.527277
 20
1549.326966
 11
240.527275
 21
1552.074005
  0
LINE
  5
6AC
100
AcDbEntity
  8
M0
 62
     6
100
AcDbLine
 10
244.027275
 20
1553.076968
 11
242.277274
 21
1554.076966
  0
LINE
  5
6AD
100
AcDbEntity
  8
M0
 62
     6
100
AcDbLine
 10
244.027272
 20
1557.576967
 11
242.277273
 21
1556.576966
  0
LINE
  5
6AE
100
AcDbEntity
  8
M0
 62
     6
100
AcDbLine
 10
244.027275
 20
1553.076968
 11
245.777275
 21
1553.076969
  0
LINE
  5
6AF
100
AcDbEntity
  8
M0
 62
     6
100
AcDbLine
 10
244.027272
 20
1557.576967
 11
245.777272
 21
1557.576968
  0
LINE
  5
6B0
100
AcDbEntity
  8
M0
 62
     6
100
AcDbLine
 10
245.777273
 20
1556.576968
 11
247.277273
 21
1556.576969
  0
LINE
  5
6B1
100
AcDbEntity
  8
M0
 62
     6
100
AcDbLine
 10
245.777274
 20
1554.076968
 11
247.277274
 21
1554.076969
  0
LINE
  5
6B2
100
AcDbEntity
  8
M0
 62
     6
100
AcDbLine
 10
245.777275
 20
1553.076969
 11
245.777274
 21
1554.076968
  0
LINE
  5
6B3
100
AcDbEntity
  8
M0
 62
     6
100
AcDbLine
 10
234.277277
 20
1549.326962
 11
250.277277
 21
1549.326972
  0
LINE
  5
6B4
100
AcDbEntity
  8
M0
 62
     6
100
AcDbLine
 10
234.277295
 20
1520.326976
 11
234.277526
 21
1541.262478
  0
LINE
  5
6B5
100
AcDbEntity
  8
M0
 62
     6
100
AcDbLine
 10
244.02727
 20
1560.826967
 11
232.27727
 21
1560.82696
  0
LINE
  5
6B6
100
AcDbEntity
  8
M0
 62
     6
100
AcDbLine
 10
250.277295
 20
1520.326986
 11
250.277526
 21
1541.263464
  0
LINE
  5
6B7
100
AcDbEntity
  8
M0
 62
     6
100
AcDbLine
 10
247.277277
 20
1549.32697
 11
247.277271
 21
1559.326969
  0
LINE
  5
6B8
100
AcDbEntity
  8
M0
 62
     6
100
AcDbLine
 10
242.277274
 20
1554.076966
 11
242.277273
 21
1556.576966
  0
LINE
  5
6B9
100
AcDbEntity
  8
M0
 62
     6
100
AcDbLine
 10
245.777273
 20
1556.576968
 11
245.777272
 21
1557.576968
  0
LINE
  5
6BA
100
AcDbEntity
  8
M0
 62
     6
100
AcDbLine
 10
247.277276
 20
1551.32697
 11
250.277276
 21
1551.326972
  0
LINE
  5
6BB
100
AcDbEntity
  8
M0
 62
     6
100
AcDbLine
 10
247.277276
 20
1551.32697
 11
250.277276
 21
1551.326972
  0
LINE
  5
6BC
100
AcDbEntity
  8
M0
 62
     6
100
AcDbLine
 10
244.027271
 20
1559.326967
 11
250.277271
 21
1559.326971
  0
LINE
  5
6BD
100
AcDbEntity
  8
M0
 62
     6
100
AcDbLine
 10
244.027271
 20
1559.326967
 11
244.02727
 21
1560.826967
  0
LINE
  5
6BE
100
AcDbEntity
  8
M0
 62
     6
100
AcDbLine
 10
244.027271
 20
1559.326967
 11
250.277271
 21
1559.326971
  0
LINE
  5
6BF
100
AcDbEntity
  8
M0
 62
     6
100
AcDbLine
 10
244.027271
 20
1559.326967
 11
244.02727
 21
1560.826967
  0
LINE
  5
6C0
100
AcDbEntity
  8
M0
 62
     6
100
AcDbLine
 10
242.277273
 20
1556.576966
 11
241.052186
 21
1556.576965
  0
LINE
  5
6C1
100
AcDbEntity
  8
M0
 62
     6
100
AcDbLine
 10
242.277274
 20
1554.076966
 11
241.052188
 21
1554.076965
  0
ARC
  5
6C2
100
AcDbEntity
  8
M0
 62
     6
100
AcDbCircle
 10
248.277268
 20
1563.82697
 40
1.0
100
AcDbArc
 50
270.0
 51
359.999162
  0
LINE
  5
6C3
100
AcDbEntity
  8
M0
 62
     6
100
AcDbLine
 10
236.277269
 20
1562.826962
 11
248.277269
 21
1562.82697
  0
ARC
  5
6C4
100
AcDbEntity
  8
M0
 62
     6
100
AcDbCircle
 10
236.277268
 20
1563.826962
 40
1.0
100
AcDbArc
 50
180.000036
 51
270.0
  0
ARC
  5
6C5
100
AcDbEntity
  8
M0
 62
     6
100
AcDbCircle
 10
236.277268
 20
1563.826962
 40
1.0
100
AcDbArc
 50
90.0
 51
180.000036
  0
LINE
  5
6C6
100
AcDbEntity
  8
M0
 62
     6
100
AcDbLine
 10
236.277267
 20
1564.826962
 11
248.277267
 21
1564.82697
  0
ARC
  5
6C7
100
AcDbEntity
  8
M0
 62
     6
100
AcDbCircle
 10
248.277268
 20
1563.82697
 40
1.0
100
AcDbArc
 50
-0.000838
 51
90.0
  0
LINE
  5
6C8
100
AcDbEntity
  8
M0
 62
     6
100
AcDbLine
 10
241.277266
 20
1566.826966
 11
241.277257
 21
1580.826966
  0
LINE
  5
6C9
100
AcDbEntity
  8
M0
 62
     6
100
AcDbLine
 10
243.277266
 20
1566.826967
 11
243.277262
 21
1573.326967
  0
LINE
  5
6CA
100
AcDbEntity
  8
M0
 62
     6
100
AcDbLine
 10
236.277266
 20
1566.826962
 11
236.277257
 21
1580.826962
  0
LINE
  5
6CB
100
AcDbEntity
  8
M0
 62
     6
100
AcDbLine
 10
236.277257
 20
1580.826962
 11
241.277257
 21
1580.826966
  0
LINE
  5
6CC
100
AcDbEntity
  8
M0
 62
     6
100
AcDbLine
 10
236.277262
 20
1574.326962
 11
241.277262
 21
1574.326966
  0
LINE
  5
6CD
100
AcDbEntity
  8
M0
 62
     6
100
AcDbLine
 10
248.277266
 20
1566.82697
 11
248.277262
 21
1573.32697
  0
LINE
  5
6CE
100
AcDbEntity
  8
M0
 62
     6
100
AcDbLine
 10
236.277266
 20
1566.826962
 11
248.277266
 21
1566.82697
  0
LINE
  5
6CF
100
AcDbEntity
  8
M0
 62
     6
100
AcDbLine
 10
236.277262
 20
1573.326962
 11
248.277262
 21
1573.32697
  0
LINE
  5
6D0
100
AcDbEntity
  8
M0
 62
     6
100
AcDbLine
 10
250.277276
 20
1551.326972
 11
250.277271
 21
1559.326971
  0
LINE
  5
6D1
100
AcDbEntity
  8
M0
 62
     6
100
AcDbLine
 10
237.277148
 20
1755.326963
 11
237.277154
 21
1746.326963
  0
LINE
  5
6D2
100
AcDbEntity
  8
M0
 62
     6
100
AcDbLine
 10
234.177154
 20
1746.326961
 11
237.277154
 21
1746.326963
  0
LINE
  5
6D3
100
AcDbEntity
  8
M0
 62
     6
100
AcDbLine
 10
237.277148
 20
1755.326963
 11
234.177148
 21
1755.326961
  0
LINE
  5
6D4
100
AcDbEntity
  8
M0
 62
     6
100
AcDbLine
 10
247.277148
 20
1755.326969
 11
247.277154
 21
1746.326969
  0
LINE
  5
6D5
100
AcDbEntity
  8
M0
 62
     6
100
AcDbLine
 10
250.377147
 20
1755.326971
 11
247.277148
 21
1755.326969
  0
LINE
  5
6D6
100
AcDbEntity
  8
M0
 62
     6
100
AcDbLine
 10
250.377153
 20
1746.326971
 11
247.277154
 21
1746.326969
  0
LINE
  5
6D7
100
AcDbEntity
  8
M0
 62
     6
100
AcDbLine
 10
232.277158
 20
1739.32696
 11
252.277158
 21
1739.326972
  0
LINE
  5
6D8
100
AcDbEntity
  8
M0
 62
     6
100
AcDbLine
 10
232.277157
 20
1740.32696
 11
252.277157
 21
1740.326972
  0
LINE
  5
6D9
100
AcDbEntity
  8
M0
 62
     6
100
AcDbLine
 10
234.277146
 20
1758.326961
 11
234.277157
 21
1740.326961
  0
LINE
  5
6DA
100
AcDbEntity
  8
M0
 62
     6
100
AcDbLine
 10
250.277146
 20
1758.326971
 11
250.277157
 21
1740.326971
  0
LINE
  5
6DB
100
AcDbEntity
  8
M0
 62
     6
100
AcDbLine
 10
236.277157
 20
1740.326962
 11
236.277157
 21
1741.426953
  0
ARC
  5
6DC
100
AcDbEntity
  8
M0
 62
     6
100
AcDbCircle
 10
239.277157
 20
1741.426955
 40
3.0
100
AcDbArc
 50
90.0
 51
180.000036
  0
LINE
  5
6DD
100
AcDbEntity
  8
M0
 62
     6
100
AcDbLine
 10
239.277155
 20
1744.426955
 11
245.277155
 21
1744.426959
  0
LINE
  5
6DE
100
AcDbEntity
  8
M0
 62
     6
100
AcDbLine
 10
248.277157
 20
1740.32697
 11
248.277157
 21
1741.426961
  0
ARC
  5
6DF
100
AcDbEntity
  8
M0
 62
     6
100
AcDbCircle
 10
245.277157
 20
1741.426959
 40
3.0
100
AcDbArc
 50
-0.000255
 51
90.0
  0
LINE
  5
6E0
100
AcDbEntity
  8
M0
 62
     6
100
AcDbLine
 10
252.277289
 20
1530.326974
 11
252.277248
 21
1596.326972
  0
LINE
  5
6E1
100
AcDbEntity
  8
M0
 62
     6
100
AcDbLine
 10
252.277194
 20
1682.326972
 11
252.277157
 21
1740.326972
  0
LINE
  5
6E2
100
AcDbEntity
  8
M0
 62
     6
100
AcDbLine
 10
250.282033
 20
1540.826972
 11
250.277277
 21
1549.326972
  0
LINE
  5
6E3
100
AcDbEntity
  8
M0
 62
     6
100
AcDbLine
 10
244.027283
 20
1540.826968
 11
244.027277
 21
1549.326968
  0
LINE
  5
6E4
100
AcDbEntity
  8
M0
 62
     6
100
AcDbLine
 10
240.527278
 20
1548.078888
 11
240.527277
 21
1549.326966
  0
LINE
  5
6E5
100
AcDbEntity
  8
M0
 62
     6
100
AcDbLine
 10
234.277522
 20
1548.89114
 11
234.27752
 21
1551.262233
  0
LINE
  5
6E6
100
AcDbEntity
  8
M0
 62
     6
100
AcDbLine
 10
240.527283
 20
1540.826966
 11
240.527271
 21
1559.326965
  0
LINE
  5
6E7
100
AcDbEntity
  8
M0
 62
     6
100
AcDbLine
 10
234.287659
 20
1540.826962
 11
234.277271
 21
1559.326961
  0
CIRCLE
  5
6E8
100
AcDbEntity
  8
M0
100
AcDbCircle
 10
242.277513
 20
1528.326692
 40
5.0
  0
CIRCLE
  5
6E9
100
AcDbEntity
  8
M0
100
AcDbCircle
 10
237.277284
 20
1555.076936
 40
3.0
  0
CIRCLE
  5
6EA
100
AcDbEntity
  8
M0
100
AcDbCircle
 10
237.277284
 20
1545.076936
 40
3.0
  0
CIRCLE
  5
6EB
100
AcDbEntity
  8
M0
100
AcDbCircle
 10
247.277284
 20
1545.076936
 40
3.0
  0
CIRCLE
  5
6EC
100
AcDbEntity
  8
M0
100
AcDbCircle
 10
242.277513
 20
1750.326692
 40
5.0
  0
LINE
  5
6ED
100
AcDbEntity
  8
M0
  6
DASHDOT
100
AcDbLine
 10
278.727256
 20
1510.077196
 11
278.727269
 21
1490.577196
  0
LINE
  5
6EE
100
AcDbEntity
  8
M0
  6
DASHDOT
100
AcDbLine
 10
268.977263
 20
1500.327189
 11
288.477263
 21
1500.327202
  0
CIRCLE
  5
6EF
100
AcDbEntity
  8
M0
100
AcDbCircle
 10
278.727263
 20
1500.327196
 40
5.75
  0
LINE
  5
6F0
100
AcDbEntity
  8
M0
  6
DASHDOT
100
AcDbLine
 10
758.727012
 20
1510.077497
 11
758.727025
 21
1490.577497
  0
LINE
  5
6F1
100
AcDbEntity
  8
M0
  6
DASHDOT
100
AcDbLine
 10
748.977018
 20
1500.327491
 11
768.477263
 21
1500.327503
  0
CIRCLE
  5
6F2
100
AcDbEntity
  8
M0
100
AcDbCircle
 10
758.727018
 20
1500.327497
 40
5.75
  0
LINE
  5
6F3
100
AcDbEntity
  8
M0
  6
DASHDOT
100
AcDbLine
 10
518.727229
 20
1553.327346
 11
518.72728
 21
1473.327346
  0
LINE
  5
6F4
100
AcDbEntity
  8
M0
100
AcDbLine
 10
253.727273
 20
1483.32718
 11
253.727236
 21
1543.32718
  0
LINE
  5
6F5
100
AcDbEntity
  8
M0
100
AcDbLine
 10
783.727273
 20
1483.327513
 11
743.727029
 21
1483.327487
  0
LINE
  5
6F6
100
AcDbEntity
  8
M0
100
AcDbLine
 10
783.727236
 20
1543.327513
 11
783.727273
 21
1483.327513
  0
LINE
  5
6F7
100
AcDbEntity
  8
M0
100
AcDbLine
 10
698.728738
 20
1483.327459
 11
695.727029
 21
1483.327457
  0
LINE
  5
6F8
100
AcDbEntity
  8
M0
100
AcDbLine
 10
695.727029
 20
1483.327457
 11
676.226053
 21
1483.327445
  0
LINE
  5
6F9
100
AcDbEntity
  8
M0
100
AcDbLine
 10
631.226053
 20
1483.327417
 11
621.727029
 21
1483.327411
  0
LINE
  5
6FA
100
AcDbEntity
  8
M0
100
AcDbLine
 10
621.727029
 20
1483.327411
 11
608.725808
 21
1483.327403
  0
LINE
  5
6FB
100
AcDbEntity
  8
M0
100
AcDbLine
 10
563.72532
 20
1483.327374
 11
473.727212
 21
1483.327318
  0
LINE
  5
6FC
100
AcDbEntity
  8
M0
100
AcDbLine
 10
428.728845
 20
1483.32729
 11
425.727243
 21
1483.327288
  0
LINE
  5
6FD
100
AcDbEntity
  8
M0
100
AcDbLine
 10
425.727197
 20
1483.327288
 11
406.226175
 21
1483.327276
  0
LINE
  5
6FE
100
AcDbEntity
  8
M0
100
AcDbLine
 10
361.22619
 20
1483.327247
 11
351.727258
 21
1483.327241
  0
LINE
  5
6FF
100
AcDbEntity
  8
M0
100
AcDbLine
 10
351.727212
 20
1483.327241
 11
338.725808
 21
1483.327233
  0
LINE
  5
700
100
AcDbEntity
  8
M0
100
AcDbLine
 10
293.725335
 20
1483.327205
 11
253.727273
 21
1483.32718
  0
LINE
  5
701
100
AcDbEntity
  8
M0
100
AcDbLine
 10
1264.446489
 20
1739.826923
 11
1283.446489
 21
1739.826923
  0
LINE
  5
702
100
AcDbEntity
  8
M0
100
AcDbLine
 10
1264.446489
 20
1790.82692
 11
1283.446489
 21
1790.82692
  0
LINE
  5
703
100
AcDbEntity
  8
M0
100
AcDbLine
 10
1283.446489
 20
1790.82692
 11
1283.446489
 21
1739.826923
  0
LINE
  5
704
100
AcDbEntity
  8
M0
100
AcDbLine
 10
1281.246474
 20
1795.326936
 11
1281.246474
 21
1792.126923
  0
LINE
  5
705
100
AcDbEntity
  8
M0
100
AcDbLine
 10
1281.246474
 20
1738.526935
 11
1281.246474
 21
1735.326936
  0
LINE
  5
706
100
AcDbEntity
  8
M0
100
AcDbLine
 10
1281.246474
 20
1738.526935
 11
1281.246474
 21
1735.326936
  0
LINE
  5
707
100
AcDbEntity
  8
M0
100
AcDbLine
 10
1281.246474
 20
1795.326936
 11
1281.246474
 21
1792.126923
  0
LINE
  5
708
100
AcDbEntity
  8
M0
100
AcDbLine
 10
1265.446489
 20
1735.326936
 11
1281.246474
 21
1735.326936
  0
LINE
  5
709
100
AcDbEntity
  8
M0
100
AcDbLine
 10
1281.246474
 20
1795.326936
 11
1265.446489
 21
1795.326936
  0
ARC
  5
70A
100
AcDbEntity
  8
M0
100
AcDbCircle
 10
1265.446489
 20
1739.526935
 40
4.2
100
AcDbArc
 50
179.999974
 51
270.0
  0
LINE
  5
70B
100
AcDbEntity
  8
M0
100
AcDbLine
 10
1261.246492
 20
1791.126923
 11
1261.246492
 21
1739.526935
  0
ARC
  5
70C
100
AcDbEntity
  8
M0
100
AcDbCircle
 10
1265.446489
 20
1791.126923
 40
4.2
100
AcDbArc
 50
89.999792
 51
180.0
  0
ARC
  5
70D
100
AcDbEntity
  8
M0
100
AcDbCircle
 10
1265.446489
 20
1739.526935
 40
1.0
100
AcDbArc
 50
180.0
 51
270.0
  0
LINE
  5
70E
100
AcDbEntity
  8
M0
100
AcDbLine
 10
1265.446489
 20
1738.526935
 11
1281.246474
 21
1738.526935
  0
LINE
  5
70F
100
AcDbEntity
  8
M0
100
AcDbLine
 10
1264.446489
 20
1791.126923
 11
1264.446489
 21
1739.526935
  0
ARC
  5
710
100
AcDbEntity
  8
M0
100
AcDbCircle
 10
1265.446489
 20
1791.126923
 40
1.0
100
AcDbArc
 50
89.999126
 51
180.0
  0
LINE
  5
711
100
AcDbEntity
  8
M0
100
AcDbLine
 10
1265.446489
 20
1792.126923
 11
1281.246474
 21
1792.126923
  0
LINE
  5
712
100
AcDbEntity
  8
M0
100
AcDbLine
 10
1264.446492
 20
1538.826936
 11
1283.446492
 21
1538.826948
  0
LINE
  5
713
100
AcDbEntity
  8
M0
100
AcDbLine
 10
1264.446524
 20
1487.826939
 11
1283.446524
 21
1487.826951
  0
LINE
  5
714
100
AcDbEntity
  8
M0
100
AcDbLine
 10
1283.446524
 20
1487.826951
 11
1283.446492
 21
1538.826948
  0
LINE
  5
715
100
AcDbEntity
  8
M0
100
AcDbLine
 10
1281.246512
 20
1483.326934
 11
1281.24651
 21
1486.526947
  0
LINE
  5
716
100
AcDbEntity
  8
M0
100
AcDbLine
 10
1281.246476
 20
1540.126934
 11
1281.246474
 21
1543.326934
  0
LINE
  5
717
100
AcDbEntity
  8
M0
100
AcDbLine
 10
1281.246476
 20
1540.126934
 11
1281.246474
 21
1543.326934
  0
LINE
  5
718
100
AcDbEntity
  8
M0
100
AcDbLine
 10
1281.246512
 20
1483.326934
 11
1281.24651
 21
1486.526947
  0
LINE
  5
719
100
AcDbEntity
  8
M0
100
AcDbLine
 10
1265.446489
 20
1543.326924
 11
1281.246474
 21
1543.326934
  0
LINE
  5
71A
100
AcDbEntity
  8
M0
100
AcDbLine
 10
1281.246512
 20
1483.326934
 11
1265.446527
 21
1483.326924
  0
ARC
  5
71B
100
AcDbEntity
  8
M0
100
AcDbCircle
 10
1265.446492
 20
1539.126925
 40
4.2
100
AcDbArc
 50
89.999828
 51
180.000036
  0
LINE
  5
71C
100
AcDbEntity
  8
M0
100
AcDbLine
 10
1261.246527
 20
1487.526934
 11
1261.246495
 21
1539.126922
  0
ARC
  5
71D
100
AcDbEntity
  8
M0
100
AcDbCircle
 10
1265.446524
 20
1487.526937
 40
4.2
100
AcDbArc
 50
180.000036
 51
270.0
  0
ARC
  5
71E
100
AcDbEntity
  8
M0
100
AcDbCircle
 10
1265.446492
 20
1539.126925
 40
1.0
100
AcDbArc
 50
89.999162
 51
180.000036
  0
LINE
  5
71F
100
AcDbEntity
  8
M0
100
AcDbLine
 10
1265.446491
 20
1540.126925
 11
1281.246476
 21
1540.126934
  0
LINE
  5
720
100
AcDbEntity
  8
M0
100
AcDbLine
 10
1264.446524
 20
1487.526936
 11
1264.446492
 21
1539.126924
  0
ARC
  5
721
100
AcDbEntity
  8
M0
100
AcDbCircle
 10
1265.446524
 20
1487.526937
 40
1.0
100
AcDbArc
 50
180.000036
 51
270.0
  0
LINE
  5
722
100
AcDbEntity
  8
M0
100
AcDbLine
 10
1265.446525
 20
1486.526937
 11
1281.24651
 21
1486.526947
  0
LINE
  5
723
100
AcDbEntity
  8
M0
100
AcDbLine
 10
1261.246424
 20
1754.326692
 11
1261.246424
 21
1776.326692
  0
LINE
  5
724
100
AcDbEntity
  8
M0
100
AcDbLine
 10
1261.246424
 20
1776.326692
 11
1258.046426
 21
1776.326692
  0
LINE
  5
725
100
AcDbEntity
  8
M0
100
AcDbLine
 10
1258.046426
 20
1776.326692
 11
1258.046426
 21
1754.326692
  0
LINE
  5
726
100
AcDbEntity
  8
M0
100
AcDbLine
 10
1258.046426
 20
1754.326692
 11
1261.246424
 21
1754.326692
  0
LINE
  5
727
100
AcDbEntity
  8
M0
100
AcDbLine
 10
1261.246431
 20
1524.326935
 11
1261.246418
 21
1502.326935
  0
LINE
  5
728
100
AcDbEntity
  8
M0
100
AcDbLine
 10
1261.246418
 20
1502.326935
 11
1258.046419
 21
1502.326937
  0
LINE
  5
729
100
AcDbEntity
  8
M0
100
AcDbLine
 10
1258.046419
 20
1502.326937
 11
1258.046433
 21
1524.326937
  0
LINE
  5
72A
100
AcDbEntity
  8
M0
100
AcDbLine
 10
1258.046433
 20
1524.326937
 11
1261.246431
 21
1524.326935
  0
LINE
  5
72B
100
AcDbEntity
  8
M0
 62
     6
100
AcDbLine
 10
298.209872
 20
1759.84305
 11
290.225527
 21
1755.233293
  0
LINE
  5
72C
100
AcDbEntity
  8
M0
 62
     6
100
AcDbLine
 10
290.225527
 20
1755.233293
 11
290.225527
 21
1745.418473
  0
LINE
  5
72D
100
AcDbEntity
  8
M0
 62
     6
100
AcDbLine
 10
290.225527
 20
1745.418473
 11
298.725527
 21
1740.511002
  0
LINE
  5
72E
100
AcDbEntity
  8
M0
 62
     6
100
AcDbLine
 10
298.725527
 20
1740.511002
 11
307.225282
 21
1745.418473
  0
LINE
  5
72F
100
AcDbEntity
  8
M0
 62
     6
100
AcDbLine
 10
307.225282
 20
1745.418473
 11
307.225417
 21
1750.828616
  0
LINE
  5
730
100
AcDbEntity
  8
M0
  6
DASHDOT
 62
     6
100
AcDbLine
 10
307.728135
 20
1750.325959
 11
288.225527
 21
1750.325959
  0
LINE
  5
731
100
AcDbEntity
  8
M0
  6
DASHDOT
 62
     6
100
AcDbLine
 10
298.725512
 20
1759.327473
 11
298.725527
 21
1739.825959
  0
ARC
  5
732
100
AcDbEntity
  8
M0
 62
     6
100
AcDbCircle
 10
298.725527
 20
1750.325959
 40
8.5
100
AcDbArc
 50
86.510739
 51
363.496309
  0
LINE
  5
733
100
AcDbEntity
  8
M0
 62
     6
100
AcDbLine
 10
460.2287
 20
1750.831033
 11
460.2287
 21
1745.418473
  0
LINE
  5
734
100
AcDbEntity
  8
M0
 62
     6
100
AcDbLine
 10
460.2287
 20
1745.418473
 11
468.7287
 21
1740.511002
  0
LINE
  5
735
100
AcDbEntity
  8
M0
 62
     6
100
AcDbLine
 10
468.7287
 20
1740.511002
 11
477.228456
 21
1745.418473
  0
LINE
  5
736
100
AcDbEntity
  8
M0
 62
     6
100
AcDbLine
 10
477.228456
 20
1745.418473
 11
477.2287
 21
1755.233293
  0
LINE
  5
737
100
AcDbEntity
  8
M0
 62
     6
100
AcDbLine
 10
477.2287
 20
1755.233293
 11
469.242739
 21
1759.843983
  0
LINE
  5
738
100
AcDbEntity
  8
M0
  6
DASHDOT
 62
     6
100
AcDbLine
 10
479.2287
 20
1750.325959
 11
459.723566
 21
1750.325959
  0
LINE
  5
739
100
AcDbEntity
  8
M0
  6
DASHDOT
 62
     6
100
AcDbLine
 10
468.728686
 20
1759.329992
 11
468.7287
 21
1739.825959
  0
ARC
  5
73A
100
AcDbEntity
  8
M0
 62
     6
100
AcDbCircle
 10
468.7287
 20
1750.325959
 40
8.5
100
AcDbArc
 50
176.485476
 51
453.50753
  0
LINE
  5
73B
100
AcDbEntity
  8
M0
 62
     6
100
AcDbLine
 10
468.725282
 20
1538.141007
 11
460.225282
 21
1533.233537
  0
LINE
  5
73C
100
AcDbEntity
  8
M0
 62
     6
100
AcDbLine
 10
460.225282
 20
1533.233537
 11
460.225282
 21
1527.826064
  0
LINE
  5
73D
100
AcDbEntity
  8
M0
 62
     6
100
AcDbLine
 10
469.242548
 20
1518.809899
 11
477.225038
 21
1523.418717
  0
LINE
  5
73E
100
AcDbEntity
  8
M0
 62
     6
100
AcDbLine
 10
477.225038
 20
1523.418717
 11
477.225282
 21
1533.233537
  0
LINE
  5
73F
100
AcDbEntity
  8
M0
 62
     6
100
AcDbLine
 10
477.225282
 20
1533.233537
 11
468.725282
 21
1538.141007
  0
LINE
  5
740
100
AcDbEntity
  8
M0
  6
DASHDOT
 62
     6
100
AcDbLine
 10
479.225282
 20
1528.326203
 11
459.725083
 21
1528.326203
  0
LINE
  5
741
100
AcDbEntity
  8
M0
  6
DASHDOT
 62
     6
100
AcDbLine
 10
468.725267
 20
1538.826203
 11
468.725281
 21
1519.327103
  0
ARC
  5
742
100
AcDbEntity
  8
M0
 62
     6
100
AcDbCircle
 10
468.725282
 20
1528.326203
 40
8.5
100
AcDbArc
 50
266.52797
 51
543.478989
  0
LINE
  5
743
100
AcDbEntity
  8
M0
 62
     6
100
AcDbLine
 10
298.725527
 20
1538.141007
 11
290.225527
 21
1533.233537
  0
LINE
  5
744
100
AcDbEntity
  8
M0
 62
     6
100
AcDbLine
 10
290.225527
 20
1533.233537
 11
290.225527
 21
1523.418717
  0
LINE
  5
745
100
AcDbEntity
  8
M0
 62
     6
100
AcDbLine
 10
290.225527
 20
1523.418717
 11
298.725527
 21
1518.511247
  0
LINE
  5
746
100
AcDbEntity
  8
M0
 62
     6
100
AcDbLine
 10
298.725527
 20
1518.511247
 11
307.225282
 21
1523.418717
  0
LINE
  5
747
100
AcDbEntity
  8
M0
 62
     6
100
AcDbLine
 10
307.225282
 20
1523.418717
 11
307.225527
 21
1533.233537
  0
LINE
  5
748
100
AcDbEntity
  8
M0
 62
     6
100
AcDbLine
 10
307.225527
 20
1533.233537
 11
298.725527
 21
1538.141007
  0
CIRCLE
  5
749
100
AcDbEntity
  8
M0
 62
     6
100
AcDbCircle
 10
298.725527
 20
1528.326203
 40
8.5
  0
LINE
  5
74A
100
AcDbEntity
  8
M0
  6
DASHDOT
 62
     6
100
AcDbLine
 10
309.225527
 20
1528.326203
 11
288.225527
 21
1528.326203
  0
LINE
  5
74B
100
AcDbEntity
  8
M0
  6
DASHDOT
 62
     6
100
AcDbLine
 10
298.725511
 20
1538.826203
 11
298.725527
 21
1517.826203
  0
LINE
  5
74C
100
AcDbEntity
  8
M0
 62
     6
100
AcDbLine
 10
568.209872
 20
1759.84305
 11
560.225527
 21
1755.233293
  0
LINE
  5
74D
100
AcDbEntity
  8
M0
 62
     6
100
AcDbLine
 10
560.225527
 20
1755.233293
 11
560.225527
 21
1745.418473
  0
LINE
  5
74E
100
AcDbEntity
  8
M0
 62
     6
100
AcDbLine
 10
560.225527
 20
1745.418473
 11
568.725527
 21
1740.511002
  0
LINE
  5
74F
100
AcDbEntity
  8
M0
 62
     6
100
AcDbLine
 10
568.725527
 20
1740.511002
 11
577.225282
 21
1745.418473
  0
LINE
  5
750
100
AcDbEntity
  8
M0
 62
     6
100
AcDbLine
 10
577.225282
 20
1745.418473
 11
577.225417
 21
1750.828616
  0
LINE
  5
751
100
AcDbEntity
  8
M0
  6
DASHDOT
 62
     6
100
AcDbLine
 10
577.728135
 20
1750.325959
 11
558.225527
 21
1750.325959
  0
LINE
  5
752
100
AcDbEntity
  8
M0
  6
DASHDOT
 62
     6
100
AcDbLine
 10
568.725512
 20
1759.327473
 11
568.725527
 21
1739.825959
  0
ARC
  5
753
100
AcDbEntity
  8
M0
 62
     6
100
AcDbCircle
 10
568.725527
 20
1750.325959
 40
8.5
100
AcDbArc
 50
86.510739
 51
363.496309
  0
LINE
  5
754
100
AcDbEntity
  8
M0
 62
     6
100
AcDbLine
 10
730.2287
 20
1750.831033
 11
730.2287
 21
1745.418473
  0
LINE
  5
755
100
AcDbEntity
  8
M0
 62
     6
100
AcDbLine
 10
730.2287
 20
1745.418473
 11
738.7287
 21
1740.511002
  0
LINE
  5
756
100
AcDbEntity
  8
M0
 62
     6
100
AcDbLine
 10
738.7287
 20
1740.511002
 11
747.228456
 21
1745.418473
  0
LINE
  5
757
100
AcDbEntity
  8
M0
 62
     6
100
AcDbLine
 10
747.228456
 20
1745.418473
 11
747.2287
 21
1755.233293
  0
LINE
  5
758
100
AcDbEntity
  8
M0
 62
     6
100
AcDbLine
 10
747.2287
 20
1755.233293
 11
739.242739
 21
1759.843983
  0
LINE
  5
759
100
AcDbEntity
  8
M0
  6
DASHDOT
 62
     6
100
AcDbLine
 10
749.2287
 20
1750.325959
 11
729.723566
 21
1750.325959
  0
LINE
  5
75A
100
AcDbEntity
  8
M0
  6
DASHDOT
 62
     6
100
AcDbLine
 10
738.728686
 20
1759.329992
 11
738.7287
 21
1739.825959
  0
ARC
  5
75B
100
AcDbEntity
  8
M0
 62
     6
100
AcDbCircle
 10
738.7287
 20
1750.325959
 40
8.5
100
AcDbArc
 50
176.485476
 51
453.50753
  0
LINE
  5
75C
100
AcDbEntity
  8
M0
 62
     6
100
AcDbLine
 10
568.725527
 20
1538.141007
 11
560.225527
 21
1533.233537
  0
LINE
  5
75D
100
AcDbEntity
  8
M0
 62
     6
100
AcDbLine
 10
560.225527
 20
1533.233537
 11
560.225527
 21
1523.418717
  0
LINE
  5
75E
100
AcDbEntity
  8
M0
 62
     6
100
AcDbLine
 10
560.225527
 20
1523.418717
 11
568.208861
 21
1518.809544
  0
LINE
  5
75F
100
AcDbEntity
  8
M0
 62
     6
100
AcDbLine
 10
577.225391
 20
1527.824975
 11
577.225527
 21
1533.233537
  0
LINE
  5
760
100
AcDbEntity
  8
M0
 62
     6
100
AcDbLine
 10
577.225527
 20
1533.233537
 11
568.725527
 21
1538.141007
  0
LINE
  5
761
100
AcDbEntity
  8
M0
  6
DASHDOT
 62
     6
100
AcDbLine
 10
577.726681
 20
1528.326203
 11
558.225527
 21
1528.326203
  0
LINE
  5
762
100
AcDbEntity
  8
M0
  6
DASHDOT
 62
     6
100
AcDbLine
 10
568.725511
 20
1538.826203
 11
568.725526
 21
1519.326146
  0
ARC
  5
763
100
AcDbEntity
  8
M0
 62
     6
100
AcDbCircle
 10
568.725527
 20
1528.326203
 40
8.5
100
AcDbArc
 50
356.514127
 51
633.478862
  0
LINE
  5
764
100
AcDbEntity
  8
M0
 62
     6
100
AcDbLine
 10
738.725282
 20
1538.141007
 11
730.225282
 21
1533.233537
  0
LINE
  5
765
100
AcDbEntity
  8
M0
 62
     6
100
AcDbLine
 10
730.225282
 20
1533.233537
 11
730.225282
 21
1527.826064
  0
LINE
  5
766
100
AcDbEntity
  8
M0
 62
     6
100
AcDbLine
 10
739.242548
 20
1518.809899
 11
747.225038
 21
1523.418717
  0
LINE
  5
767
100
AcDbEntity
  8
M0
 62
     6
100
AcDbLine
 10
747.225038
 20
1523.418717
 11
747.225282
 21
1533.233537
  0
LINE
  5
768
100
AcDbEntity
  8
M0
 62
     6
100
AcDbLine
 10
747.225282
 20
1533.233537
 11
738.725282
 21
1538.141007
  0
LINE
  5
769
100
AcDbEntity
  8
M0
  6
DASHDOT
 62
     6
100
AcDbLine
 10
749.225282
 20
1528.326203
 11
729.725083
 21
1528.326203
  0
LINE
  5
76A
100
AcDbEntity
  8
M0
  6
DASHDOT
 62
     6
100
AcDbLine
 10
738.725267
 20
1538.826203
 11
738.725281
 21
1519.327103
  0
ARC
  5
76B
100
AcDbEntity
  8
M0
 62
     6
100
AcDbCircle
 10
738.725282
 20
1528.326203
 40
8.5
100
AcDbArc
 50
266.52797
 51
543.478989
  0
LINE
  5
76C
100
AcDbEntity
  8
M0
 62
     4
100
AcDbLine
 10
242.27733
 20
1682.326968
 11
254.27733
 21
1682.326964
  0
LINE
  5
76D
100
AcDbEntity
  8
M0
  6
DASHDOT
 62
     4
100
AcDbLine
 10
231.655933
 20
1639.326971
 11
262.889521
 21
1639.326962
  0
LINE
  5
76E
100
AcDbEntity
  8
M0
 62
     4
100
AcDbLine
 10
242.277316
 20
1639.326968
 11
242.27733
 21
1682.326968
  0
LINE
  5
76F
100
AcDbEntity
  8
M0
 62
     4
100
AcDbLine
 10
242.277303
 20
1596.326968
 11
254.277303
 21
1596.326964
  0
LINE
  5
770
100
AcDbEntity
  8
M0
  6
DASHDOT
 62
     4
100
AcDbLine
 10
231.655933
 20
1639.326971
 11
262.889521
 21
1639.326962
  0
LINE
  5
771
100
AcDbEntity
  8
M0
 62
     4
100
AcDbLine
 10
242.277316
 20
1639.326968
 11
242.277303
 21
1596.326968
  0
LINE
  5
772
100
AcDbEntity
  8
M0
 62
     6
100
AcDbLine
 10
1105.745546
 20
1765.378404
 11
1115.745546
 21
1765.378404
  0
LINE
  5
773
100
AcDbEntity
  8
M0
 62
     6
100
AcDbLine
 10
1105.74579
 20
1787.278367
 11
1105.74579
 21
1765.378388
  0
LINE
  5
774
100
AcDbEntity
  8
M0
 62
     6
100
AcDbLine
 10
1115.745546
 20
1770.853379
 11
1105.745546
 21
1770.853379
  0
LINE
  5
775
100
AcDbEntity
  8
M0
 62
     6
100
AcDbLine
 10
1105.745302
 20
1787.278397
 11
1115.745546
 21
1787.278397
  0
LINE
  5
776
100
AcDbEntity
  8
M0
 62
     6
100
AcDbLine
 10
1115.745546
 20
1781.803391
 11
1105.745302
 21
1781.803391
  0
LINE
  5
777
100
AcDbEntity
  8
M0
 62
     6
100
AcDbLine
 10
1105.745302
 20
1491.374986
 11
1115.745302
 21
1491.374986
  0
LINE
  5
778
100
AcDbEntity
  8
M0
 62
     6
100
AcDbLine
 10
1105.745546
 20
1513.274949
 11
1105.745546
 21
1491.37497
  0
LINE
  5
779
100
AcDbEntity
  8
M0
 62
     6
100
AcDbLine
 10
1115.745302
 20
1496.849961
 11
1105.745302
 21
1496.849961
  0
LINE
  5
77A
100
AcDbEntity
  8
M0
 62
     6
100
AcDbLine
 10
1105.745058
 20
1513.27498
 11
1115.745302
 21
1513.27498
  0
LINE
  5
77B
100
AcDbEntity
  8
M0
 62
     6
100
AcDbLine
 10
1115.745302
 20
1507.799973
 11
1105.745058
 21
1507.799973
  0
LINE
  5
77C
100
AcDbEntity
  8
M0
  6
DASHDOT
 62
     6
100
AcDbLine
 10
518.727852
 20
1213.549493
 11
518.726677
 21
835.533537
  0
LINE
  5
77D
100
AcDbEntity
  8
M0
  6
DIVIDE
 62
     6
100
AcDbLine
 10
253.727747
 20
1185.377126
 11
253.727747
 21
1125.377211
  0
LINE
  5
77E
100
AcDbEntity
  8
M0
  6
DIVIDE
 62
     6
100
AcDbLine
 10
783.727682
 20
1185.377126
 11
743.726701
 21
1185.377126
  0
LINE
  5
77F
100
AcDbEntity
  8
M0
  6
DIVIDE
 62
     6
100
AcDbLine
 10
518.72776
 20
1185.377126
 11
473.728747
 21
1185.377126
  0
LINE
  5
780
100
AcDbEntity
  8
M0
  6
DIVIDE
 62
     6
100
AcDbLine
 10
293.728737
 20
1185.377126
 11
253.727747
 21
1185.377126
  0
LINE
  5
781
100
AcDbEntity
  8
M0
  6
DIVIDE
 62
     6
100
AcDbLine
 10
363.728736
 20
1185.377126
 11
333.728733
 21
1185.377126
  0
LINE
  5
782
100
AcDbEntity
  8
M0
  6
DIVIDE
 62
     6
100
AcDbLine
 10
433.728743
 20
1185.377126
 11
403.72874
 21
1185.377126
  0
LINE
  5
783
100
AcDbEntity
  8
M0
  6
DIVIDE
 62
     6
100
AcDbLine
 10
563.726682
 20
1185.377126
 11
518.72776
 21
1185.377126
  0
LINE
  5
784
100
AcDbEntity
  8
M0
  6
DIVIDE
 62
     6
100
AcDbLine
 10
633.726689
 20
1185.377126
 11
603.726686
 21
1185.377126
  0
LINE
  5
785
100
AcDbEntity
  8
M0
  6
DIVIDE
 62
     6
100
AcDbLine
 10
703.726697
 20
1185.377126
 11
673.726694
 21
1185.377126
  0
LINE
  5
786
100
AcDbEntity
  8
M0
  6
DIVIDE
 62
     6
100
AcDbLine
 10
253.727778
 20
873.377444
 11
253.727747
 21
933.377435
  0
LINE
  5
787
100
AcDbEntity
  8
M0
  6
DIVIDE
 62
     6
100
AcDbLine
 10
783.727682
 20
873.37778
 11
743.727433
 21
873.377749
  0
LINE
  5
788
100
AcDbEntity
  8
M0
  6
DIVIDE
 62
     6
100
AcDbLine
 10
698.729138
 20
873.377719
 11
695.727428
 21
873.377719
  0
LINE
  5
789
100
AcDbEntity
  8
M0
  6
DIVIDE
 62
     6
100
AcDbLine
 10
703.726697
 20
873.377719
 11
673.726694
 21
873.377703
  0
LINE
  5
78A
100
AcDbEntity
  8
M0
  6
DIVIDE
 62
     6
100
AcDbLine
 10
633.726689
 20
873.377673
 11
603.726686
 21
873.377658
  0
LINE
  5
78B
100
AcDbEntity
  8
M0
  6
DIVIDE
 62
     6
100
AcDbLine
 10
621.72742
 20
873.377673
 11
608.726198
 21
873.377658
  0
LINE
  5
78C
100
AcDbEntity
  8
M0
  6
DIVIDE
 62
     6
100
AcDbLine
 10
563.725705
 20
873.377642
 11
473.727725
 21
873.377581
  0
LINE
  5
78D
100
AcDbEntity
  8
M0
  6
DIVIDE
 62
     6
100
AcDbLine
 10
428.729353
 20
873.377551
 11
425.727751
 21
873.377551
  0
LINE
  5
78E
100
AcDbEntity
  8
M0
  6
DIVIDE
 62
     6
100
AcDbLine
 10
433.728667
 20
873.377551
 11
403.728664
 21
873.377536
  0
LINE
  5
78F
100
AcDbEntity
  8
M0
  6
DIVIDE
 62
     6
100
AcDbLine
 10
361.226691
 20
873.377505
 11
351.727758
 21
873.377505
  0
LINE
  5
790
100
AcDbEntity
  8
M0
  6
DIVIDE
 62
     6
100
AcDbLine
 10
363.728659
 20
873.377505
 11
333.728656
 21
873.37749
  0
LINE
  5
791
100
AcDbEntity
  8
M0
  6
DIVIDE
 62
     6
100
AcDbLine
 10
293.725844
 20
873.377459
 11
253.727778
 21
873.377444
  0
LINE
  5
792
100
AcDbEntity
  8
M0
  6
DIVIDE
 62
     6
100
AcDbLine
 10
783.727438
 20
1185.377126
 11
783.727682
 21
873.37778
  0
LINE
  5
793
100
AcDbEntity
  8
M0
  6
DASHDOT
 62
     6
100
AcDbLine
 10
832.013576
 20
1029.37772
 11
227.788673
 21
1029.37772
  0
LINE
  5
794
100
AcDbEntity
  8
M0
  6
DIVIDE
 62
     6
100
AcDbLine
 10
703.726697
 20
873.377719
 11
703.726697
 21
871.377718
  0
LINE
  5
795
100
AcDbEntity
  8
M0
  6
DIVIDE
 62
     6
100
AcDbLine
 10
743.726701
 20
871.377718
 11
743.726701
 21
873.377749
  0
LINE
  5
796
100
AcDbEntity
  8
M0
  6
DIVIDE
 62
     6
100
AcDbLine
 10
633.726689
 20
873.377673
 11
633.726689
 21
871.377718
  0
LINE
  5
797
100
AcDbEntity
  8
M0
  6
DIVIDE
 62
     6
100
AcDbLine
 10
673.726694
 20
871.377718
 11
673.726694
 21
873.377703
  0
LINE
  5
798
100
AcDbEntity
  8
M0
  6
DIVIDE
 62
     6
100
AcDbLine
 10
563.726682
 20
871.377718
 11
563.726682
 21
873.377642
  0
LINE
  5
799
100
AcDbEntity
  8
M0
  6
DIVIDE
 62
     6
100
AcDbLine
 10
603.726686
 20
873.377658
 11
603.726686
 21
871.377718
  0
LINE
  5
79A
100
AcDbEntity
  8
M0
  6
DIVIDE
 62
     6
100
AcDbLine
 10
563.726682
 20
1187.377615
 11
563.726682
 21
1185.377126
  0
LINE
  5
79B
100
AcDbEntity
  8
M0
  6
DIVIDE
 62
     6
100
AcDbLine
 10
603.726686
 20
1185.377126
 11
603.726686
 21
1187.377615
  0
LINE
  5
79C
100
AcDbEntity
  8
M0
  6
DIVIDE
 62
     6
100
AcDbLine
 10
633.726689
 20
1185.377126
 11
633.726689
 21
1187.377615
  0
LINE
  5
79D
100
AcDbEntity
  8
M0
  6
DIVIDE
 62
     6
100
AcDbLine
 10
673.726694
 20
1187.377615
 11
673.726694
 21
1185.377126
  0
LINE
  5
79E
100
AcDbEntity
  8
M0
  6
DIVIDE
 62
     6
100
AcDbLine
 10
703.726697
 20
1185.377126
 11
703.726697
 21
1187.377615
  0
LINE
  5
79F
100
AcDbEntity
  8
M0
  6
DIVIDE
 62
     6
100
AcDbLine
 10
743.726701
 20
1187.377615
 11
743.726701
 21
1185.377126
  0
LINE
  5
7A0
100
AcDbEntity
  8
M0
  6
DIVIDE
 62
     6
100
AcDbLine
 10
293.728664
 20
871.377718
 11
293.728664
 21
873.377459
  0
LINE
  5
7A1
100
AcDbEntity
  8
M0
  6
DIVIDE
 62
     6
100
AcDbLine
 10
333.728656
 20
873.37749
 11
333.728656
 21
871.377718
  0
LINE
  5
7A2
100
AcDbEntity
  8
M0
  6
DIVIDE
 62
     6
100
AcDbLine
 10
363.728659
 20
871.377718
 11
363.728659
 21
873.377505
  0
LINE
  5
7A3
100
AcDbEntity
  8
M0
  6
DIVIDE
 62
     6
100
AcDbLine
 10
403.728664
 20
873.377536
 11
403.728664
 21
871.377718
  0
LINE
  5
7A4
100
AcDbEntity
  8
M0
  6
DIVIDE
 62
     6
100
AcDbLine
 10
433.728667
 20
873.377551
 11
433.728667
 21
871.377718
  0
LINE
  5
7A5
100
AcDbEntity
  8
M0
  6
DIVIDE
 62
     6
100
AcDbLine
 10
473.728671
 20
871.377718
 11
473.728671
 21
873.377581
  0
LINE
  5
7A6
100
AcDbEntity
  8
M0
  6
DIVIDE
 62
     6
100
AcDbLine
 10
473.728747
 20
1187.377615
 11
473.728747
 21
1185.377126
  0
LINE
  5
7A7
100
AcDbEntity
  8
M0
  6
DIVIDE
 62
     6
100
AcDbLine
 10
433.728743
 20
1185.377126
 11
433.728743
 21
1187.377615
  0
LINE
  5
7A8
100
AcDbEntity
  8
M0
  6
DIVIDE
 62
     6
100
AcDbLine
 10
403.72874
 20
1185.377126
 11
403.72874
 21
1187.377615
  0
LINE
  5
7A9
100
AcDbEntity
  8
M0
  6
DIVIDE
 62
     6
100
AcDbLine
 10
363.728736
 20
1187.377615
 11
363.728736
 21
1185.377126
  0
LINE
  5
7AA
100
AcDbEntity
  8
M0
  6
DIVIDE
 62
     6
100
AcDbLine
 10
333.728733
 20
1185.377126
 11
333.728733
 21
1187.377615
  0
LINE
  5
7AB
100
AcDbEntity
  8
M0
  6
DIVIDE
 62
     6
100
AcDbLine
 10
293.728739
 20
1187.377615
 11
293.728737
 21
1185.377126
  0
LINE
  5
7AC
100
AcDbEntity
  8
M0
  6
DIVIDE
 62
     6
100
AcDbLine
 10
253.778666
 20
904.377728
 11
253.778666
 21
1154.377611
  0
CIRCLE
  5
7AD
100
AcDbEntity
  8
M0
  6
DIVIDE
 62
     6
100
AcDbCircle
 10
758.727679
 20
1168.377369
 40
3.5
  0
LINE
  5
7AE
100
AcDbEntity
  8
M0
  6
DIVIDE
 62
     6
100
AcDbLine
 10
745.227678
 20
1168.377369
 11
772.227681
 21
1168.377369
  0
LINE
  5
7AF
100
AcDbEntity
  8
M0
  6
DIVIDE
 62
     6
100
AcDbLine
 10
758.727679
 20
1154.877367
 11
758.727679
 21
1181.87737
  0
CIRCLE
  5
7B0
100
AcDbEntity
  8
M0
  6
DIVIDE
 62
     6
100
AcDbCircle
 10
758.727679
 20
1168.377124
 40
7.500001
  0
CIRCLE
  5
7B1
100
AcDbEntity
  8
M0
  6
DIVIDE
 62
     6
100
AcDbCircle
 10
758.727679
 20
890.377496
 40
3.5
  0
LINE
  5
7B2
100
AcDbEntity
  8
M0
  6
DIVIDE
 62
     6
100
AcDbLine
 10
745.227678
 20
890.377496
 11
772.227681
 21
890.377496
  0
LINE
  5
7B3
100
AcDbEntity
  8
M0
  6
DIVIDE
 62
     6
100
AcDbLine
 10
758.727679
 20
876.877495
 11
758.727679
 21
903.877497
  0
CIRCLE
  5
7B4
100
AcDbEntity
  8
M0
  6
DIVIDE
 62
     6
100
AcDbCircle
 10
758.727679
 20
890.377343
 40
7.500001
  0
CIRCLE
  5
7B5
100
AcDbEntity
  8
M0
  6
DIVIDE
 62
     6
100
AcDbCircle
 10
278.727704
 20
1168.378833
 40
3.5
  0
LINE
  5
7B6
100
AcDbEntity
  8
M0
  6
DIVIDE
 62
     6
100
AcDbLine
 10
292.227708
 20
1168.378589
 11
265.227703
 21
1168.378833
  0
LINE
  5
7B7
100
AcDbEntity
  8
M0
  6
DIVIDE
 62
     6
100
AcDbLine
 10
278.727613
 20
1154.878832
 11
278.727781
 21
1181.878835
  0
CIRCLE
  5
7B8
100
AcDbEntity
  8
M0
  6
DIVIDE
 62
     6
100
AcDbCircle
 10
278.727704
 20
1168.378589
 40
7.500001
  0
CIRCLE
  5
7B9
100
AcDbEntity
  8
M0
  6
DIVIDE
 62
     6
100
AcDbCircle
 10
278.725965
 20
890.378987
 40
3.5
  0
LINE
  5
7BA
100
AcDbEntity
  8
M0
  6
DIVIDE
 62
     6
100
AcDbLine
 10
292.22598
 20
890.378903
 11
265.225963
 21
890.379071
  0
LINE
  5
7BB
100
AcDbEntity
  8
M0
  6
DIVIDE
 62
     6
100
AcDbLine
 10
278.725889
 20
876.878986
 11
278.726056
 21
903.878988
  0
CIRCLE
  5
7BC
100
AcDbEntity
  8
M0
  6
DIVIDE
 62
     6
100
AcDbCircle
 10
278.725965
 20
890.378835
 40
7.500001
  0
LINE
  5
7BD
100
AcDbEntity
  8
M0
  6
DIVIDE
 62
     6
100
AcDbLine
 10
743.726701
 20
1187.377615
 11
743.726701
 21
1219.394202
  0
LINE
  5
7BE
100
AcDbEntity
  8
M0
  6
DIVIDE
 62
     6
100
AcDbLine
 10
743.726701
 20
1219.394202
 11
703.726697
 21
1219.394202
  0
LINE
  5
7BF
100
AcDbEntity
  8
M0
  6
DIVIDE
 62
     6
100
AcDbLine
 10
703.726697
 20
1219.394202
 11
703.726697
 21
1187.377615
  0
LINE
  5
7C0
100
AcDbEntity
  8
M0
  6
DIVIDE
 62
     6
100
AcDbLine
 10
363.728659
 20
871.377804
 11
363.728659
 21
839.361217
  0
LINE
  5
7C1
100
AcDbEntity
  8
M0
  6
DIVIDE
 62
     6
100
AcDbLine
 10
363.728659
 20
839.361217
 11
403.728664
 21
839.361217
  0
LINE
  5
7C2
100
AcDbEntity
  8
M0
  6
DIVIDE
 62
     6
100
AcDbLine
 10
403.728664
 20
839.361217
 11
403.728664
 21
871.377804
  0
LINE
  5
7C3
100
AcDbEntity
  8
M0
  6
DIVIDE
 62
     6
100
AcDbLine
 10
563.726682
 20
871.377804
 11
563.726682
 21
839.361217
  0
LINE
  5
7C4
100
AcDbEntity
  8
M0
  6
DIVIDE
 62
     6
100
AcDbLine
 10
563.726682
 20
839.361217
 11
603.726686
 21
839.361217
  0
LINE
  5
7C5
100
AcDbEntity
  8
M0
  6
DIVIDE
 62
     6
100
AcDbLine
 10
603.726686
 20
839.361217
 11
603.726686
 21
871.377804
  0
LINE
  5
7C6
100
AcDbEntity
  8
M0
  6
DIVIDE
 62
     6
100
AcDbLine
 10
633.726689
 20
871.377804
 11
633.726689
 21
839.361217
  0
LINE
  5
7C7
100
AcDbEntity
  8
M0
  6
DIVIDE
 62
     6
100
AcDbLine
 10
633.726689
 20
839.361217
 11
673.726694
 21
839.361217
  0
LINE
  5
7C8
100
AcDbEntity
  8
M0
  6
DIVIDE
 62
     6
100
AcDbLine
 10
673.726694
 20
839.361217
 11
673.726694
 21
871.377804
  0
LINE
  5
7C9
100
AcDbEntity
  8
M0
  6
DIVIDE
 62
     6
100
AcDbLine
 10
433.728667
 20
871.377804
 11
433.728667
 21
839.361217
  0
LINE
  5
7CA
100
AcDbEntity
  8
M0
  6
DIVIDE
 62
     6
100
AcDbLine
 10
433.728667
 20
839.361217
 11
473.728671
 21
839.361217
  0
LINE
  5
7CB
100
AcDbEntity
  8
M0
  6
DIVIDE
 62
     6
100
AcDbLine
 10
473.728671
 20
839.361217
 11
473.728671
 21
871.377804
  0
LINE
  5
7CC
100
AcDbEntity
  8
M0
  6
DIVIDE
 62
     6
100
AcDbLine
 10
703.726697
 20
871.377804
 11
703.726697
 21
839.361217
  0
LINE
  5
7CD
100
AcDbEntity
  8
M0
  6
DIVIDE
 62
     6
100
AcDbLine
 10
703.726697
 20
839.361217
 11
743.726701
 21
839.361217
  0
LINE
  5
7CE
100
AcDbEntity
  8
M0
  6
DIVIDE
 62
     6
100
AcDbLine
 10
743.726701
 20
839.361217
 11
743.726701
 21
871.377804
  0
LINE
  5
7CF
100
AcDbEntity
  8
M0
  6
DIVIDE
 62
     6
100
AcDbLine
 10
603.726686
 20
1187.377615
 11
603.726686
 21
1219.394202
  0
LINE
  5
7D0
100
AcDbEntity
  8
M0
  6
DIVIDE
 62
     6
100
AcDbLine
 10
603.726686
 20
1219.394202
 11
563.726682
 21
1219.394202
  0
LINE
  5
7D1
100
AcDbEntity
  8
M0
  6
DIVIDE
 62
     6
100
AcDbLine
 10
563.726682
 20
1219.394202
 11
563.726682
 21
1187.377615
  0
LINE
  5
7D2
100
AcDbEntity
  8
M0
  6
DIVIDE
 62
     6
100
AcDbLine
 10
673.726694
 20
1187.377615
 11
673.726694
 21
1219.394202
  0
LINE
  5
7D3
100
AcDbEntity
  8
M0
  6
DIVIDE
 62
     6
100
AcDbLine
 10
673.726694
 20
1219.394202
 11
633.726689
 21
1219.394202
  0
LINE
  5
7D4
100
AcDbEntity
  8
M0
  6
DIVIDE
 62
     6
100
AcDbLine
 10
633.726689
 20
1219.394202
 11
633.726689
 21
1187.377615
  0
LINE
  5
7D5
100
AcDbEntity
  8
M0
  6
DIVIDE
 62
     6
100
AcDbLine
 10
473.728747
 20
1187.377615
 11
473.728747
 21
1219.394202
  0
LINE
  5
7D6
100
AcDbEntity
  8
M0
  6
DIVIDE
 62
     6
100
AcDbLine
 10
473.728747
 20
1219.394202
 11
433.728743
 21
1219.394202
  0
LINE
  5
7D7
100
AcDbEntity
  8
M0
  6
DIVIDE
 62
     6
100
AcDbLine
 10
433.728743
 20
1219.394202
 11
433.728743
 21
1187.377615
  0
LINE
  5
7D8
100
AcDbEntity
  8
M0
  6
DIVIDE
 62
     6
100
AcDbLine
 10
293.728652
 20
871.377804
 11
293.728652
 21
839.361217
  0
LINE
  5
7D9
100
AcDbEntity
  8
M0
  6
DIVIDE
 62
     6
100
AcDbLine
 10
293.728652
 20
839.361217
 11
333.728656
 21
839.361217
  0
LINE
  5
7DA
100
AcDbEntity
  8
M0
  6
DIVIDE
 62
     6
100
AcDbLine
 10
333.728656
 20
839.361217
 11
333.728656
 21
871.377804
  0
LINE
  5
7DB
100
AcDbEntity
  8
M0
  6
DIVIDE
 62
     6
100
AcDbLine
 10
403.72874
 20
1187.377615
 11
403.72874
 21
1219.394202
  0
LINE
  5
7DC
100
AcDbEntity
  8
M0
  6
DIVIDE
 62
     6
100
AcDbLine
 10
403.72874
 20
1219.394202
 11
363.728736
 21
1219.394202
  0
LINE
  5
7DD
100
AcDbEntity
  8
M0
  6
DIVIDE
 62
     6
100
AcDbLine
 10
363.728736
 20
1219.394202
 11
363.728736
 21
1187.377615
  0
LINE
  5
7DE
100
AcDbEntity
  8
M0
  6
DIVIDE
 62
     6
100
AcDbLine
 10
333.728737
 20
1187.377615
 11
333.728737
 21
1219.394202
  0
LINE
  5
7DF
100
AcDbEntity
  8
M0
  6
DIVIDE
 62
     6
100
AcDbLine
 10
333.728737
 20
1219.394202
 11
293.728732
 21
1219.394202
  0
LINE
  5
7E0
100
AcDbEntity
  8
M0
  6
DIVIDE
 62
     6
100
AcDbLine
 10
293.728732
 20
1219.394202
 11
293.728732
 21
1187.377615
  0
LINE
  5
7E1
100
AcDbEntity
  8
M1
 62
     2
100
AcDbLine
 10
71.428571
 20
71.428571
 11
71.428571
 21
2035.714277
  0
LINE
  5
7E2
100
AcDbEntity
  8
M1
 62
     2
100
AcDbLine
 10
71.428571
 20
2035.714277
 11
1428.571422
 21
2035.714277
  0
LINE
  5
7E3
100
AcDbEntity
  8
M1
 62
     2
100
AcDbLine
 10
1428.571422
 20
2035.714277
 11
1428.571422
 21
71.428571
  0
LINE
  5
7E4
100
AcDbEntity
  8
M1
 62
     2
100
AcDbLine
 10
1428.571422
 20
71.428571
 11
71.428571
 21
71.428571
  0
LINE
  5
7E5
100
AcDbEntity
  8
M1
 62
     2
100
AcDbLine
 10
1428.571422
 20
142.857142
 11
714.285711
 21
142.857142
  0
LINE
  5
7E6
100
AcDbEntity
  8
M1
 62
     2
100
AcDbLine
 10
1428.571422
 20
214.285713
 11
714.285711
 21
214.285713
  0
LINE
  5
7E7
100
AcDbEntity
  8
M1
 62
     2
100
AcDbLine
 10
1428.571422
 20
285.714284
 11
714.285711
 21
285.714284
  0
LINE
  5
7E8
100
AcDbEntity
  8
M1
 62
     2
100
AcDbLine
 10
714.285711
 20
71.428571
 11
714.285711
 21
285.714284
  0
TEXT
  5
7E9
100
AcDbEntity
  8
M1
 62
     2
100
AcDbText
 10
732.142854
 20
89.285714
 40
35.714287
  1
適　用；
 41
1.0
  7
STANDARD
100
AcDbText
  0
TEXT
  5
7EA
100
AcDbEntity
  8
M1
 62
     2
100
AcDbText
 10
732.142854
 20
232.142856
 40
35.714287
  1
登録名：
 41
1.0
  7
STANDARD
100
AcDbText
  0
TEXT
  5
7EB
100
AcDbEntity
  8
M1
 62
     2
100
AcDbText
 10
903.571425
 20
232.142856
 40
35.714287
  1
ＤＭＨ８００ＣＲＲ００
 41
0.5
  7
STANDARD
100
AcDbText
  0
TEXT
  5
7EC
100
AcDbEntity
  8
M1
 62
     2
100
AcDbText
 10
732.142854
 20
160.714285
 40
35.714287
  1
形　式；
 41
1.0
  7
STANDARD
100
AcDbText
  0
TEXT
  5
7ED
100
AcDbEntity
  8
M1
 62
     2
100
AcDbText
 10
903.571425
 20
160.714285
 40
35.714287
  1
Ｈ８００Ｃ－Ｒ，Ｈ８００Ｃ－ＲＧ
 41
0.5
  7
STANDARD
100
AcDbText
  0
LINE
  5
7EE
100
AcDbEntity
  8
DN0
100
AcDbLine
 10
465.846501
 20
693.486216
 11
596.275077
 21
693.486216
  0
TEXT
  5
7EF
100
AcDbEntity
  8
DN0
100
AcDbText
 10
469.453644
 20
696.700502
 40
32.142857
  1
せん孔図
 41
0.833333
  7
STANDARD
100
AcDbText
  0
ENDSEC
  0
SECTION
  2
OBJECTS
  0
DICTIONARY
  5
C
100
AcDbDictionary
  3
ACAD_GROUP
350
D
  3
ACAD_MLINESTYLE
350
E
  0
DICTIONARY
  5
D
102
{ACAD_REACTORS
330
C
102
}
100
AcDbDictionary
  0
DICTIONARY
  5
E
102
{ACAD_REACTORS
330
C
102
}
100
AcDbDictionary
  3
STANDARD
350
13
  0
MLINESTYLE
  5
13
102
{ACAD_REACTORS
330
E
102
}
100
AcDbMlineStyle
  2
STANDARD
 70
     0
  3

 62
     0
 51
90.0
 52
90.0
 71
     2
 49
0.5
 62
   256
  6
BYLAYER
 49
-0.5
 62
   256
  6
BYLAYER
  0
ENDSEC
  0
EOF
