  0
SECTION
  2
HEADER
  9
$ACADVER
  1
AC1014
  9
$INSBASE
 10
0.000000
 20
0.000000
 30
0.0
  9
$VIEWCTR
 10
7.531722
 20
4.5
  9
$VIEWSIZE
 40
9.0
  9
$SNAPMODE
 70
     0
  9
$SNAPUNIT
 10
1.0
 20
1.0
  9
$SNAPBASE
 10
0.0
 20
0.0
  9
$SNAPANG
 50
0.0
  9
$SNAPSTYLE
 70
     0
  9
$SNAPISOPAIR
 70
     0
  9
$GRIDMODE
 70
     0
  9
$GRIDUNIT
 10
0.0
 20
0.0
  9
$ORTHOMODE
 70
     0
  9
$REGENMODE
 70
     1
  9
$FILLMODE
 70
     1
  9
$QTEXTMODE
 70
     0
  9
$DRAGMODE
 70
     2
  9
$LTSCALE
  40
     1.000000
  9
$OSMODE
 70
     0
  9
$ATTMODE
 70
     1
  9
$TEXTSIZE
 40
0.2
  9
$TRACEWID
 40
0.05
  9
$TEXTSTYLE
  7
STANDARD
  9
$CELTYPE
  6
BYLAYER
  9
$CECOLOR
 62
   256
  9
$DIMSCALE
 40
1.0
  9
$DIMASZ
 40
0.18
  9
$DIMEXO
 40
0.0625
  9
$DIMDLI
 40
0.38
  9
$DIMRND
 40
0.0
  9
$DIMDLE
 40
0.0
  9
$DIMEXE
 40
0.18
  9
$DIMTP
 40
0.0
  9
$DIMTM
 40
0.0
  9
$DIMTXT
 40
0.18
  9
$DIMCEN
 40
0.09
  9
$DIMTSZ
 40
0.0
  9
$DIMTOL
 70
     0
  9
$DIMLIM
 70
     0
  9
$DIMTIH
 70
     1
  9
$DIMTOH
 70
     1
  9
$DIMSE1
 70
     0
  9
$DIMSE2
 70
     0
  9
$DIMTAD
 70
     0
  9
$DIMZIN
 70
     0
  9
$DIMBLK
  1

  9
$LUNITS
 70
     2
  9
$LUPREC
 70
     4
  9
$AXISMODE
 70
     0
  9
$AXISUNIT
 10
0.0
 20
0.0
  9
$SKETCHINC
 40
0.1
  9
$FILLETRAD
 40
0.0
  9
$AUNITS
 70
     0
  9
$AUPREC
 70
     0
  9
$MENU
  1
ACAD
  9
$ELEVATION
 40
0.0
  9
$THICKNESS
 40
0.0
  9
$VIEWDIR
 10
0.0
 20
0.0
 30
1.0
  9
$LIMCHECK
 70
     0
  9
$BLIPMODE
 70
     1
  9
$CHAMFERA
 40
0.0
  9
$CHAMFERB
 40
0.0
  9
$FASTZOOM
 70
     1
  9
$SKPOLY
 70
     0
  9
$TDCREATE
 40
0000000.0000000000
  9
$TDUPDATE
 40
0000000.0000000000
  9
$TDINDWG
 40
0.0000000000
  9
$TDUSRTIMER
 40
0.0000000000
  9
$USRTIMER
 70
     1
  9
$ANGBASE
 50
0.0
  9
$ANGDIR
 70
     0
  9
$PDMODE
 70
     0
  9
$PDSIZE
 40
0.0
  9
$PLINEWID
 40
0.0
  9
$COORDS
 70
     0
  9
$USERI1
 70
     0
  9
$USERI2
 70
     0
  9
$USERI3
 70
     0
  9
$USERI4
 70
     0
  9
$USERI5
 70
     0
  9
$USERR1
 40
0.0
  9
$USERR2
 40
0.0
  9
$USERR3
 40
0.0
  9
$USERR4
 40
0.0
  9
$USERR5
 40
0.0
  9
$CLAYER
  8
M0
  9
$EXTMIN
 10
40.0
 20
40.0
  9
$EXTMAX
 10
800.0
 20
1140.0
  9
$LIMMIN
 10
0.0
 20
0.0
  9
$LIMMAX
 10
210.0
 20
297.0
  9
$HANDSEED
  5
950
  0
ENDSEC
  0
SECTION
  2
CLASSES
  0
ENDSEC
  0
SECTION
  2
TABLES
  0
TABLE
  2
VPORT
  5
8
100
AcDbSymbolTable
 70
     2
  0
VPORT
  5
14
100
AcDbSymbolTableRecord
100
AcDbViewportTableRecord
  2
*ACTIVE
 70
     0
 10
0.0
 20
0.0
 11
1.0
 21
1.0
 12
484.0
 22
297.0
 13
0.0
 23
0.0
 14
1.0
 24
1.0
 15
0.0
 25
0.0
 16
0.0
 26
0.0
 36
1.0
 17
0.0
 27
0.0
 37
0.0
 40
594.0
 41
2.0
 42
50.0
 43
0.0
 44
0.0
 50
0.0
 51
0.0
 71
     0
 72
   100
 73
     1
 74
     1
 75
     0
 76
     0
 77
     0
 78
     0
  0
ENDTAB
  0
TABLE
  2
LTYPE
  5
5
100
AcDbSymbolTable
 70
     5
  0
LTYPE
  5
15
100
AcDbSymbolTableRecord
100
AcDbLinetypeTableRecord
  2
BYBLOCK
 70
     0
  3

 72
    65
 73
     0
 40
0.0
  0
LTYPE
  5
16
100
AcDbSymbolTableRecord
100
AcDbLinetypeTableRecord
  2
BYLAYER
 70
     0
  3

 72
    65
 73
     0
 40
0.0
  0
LTYPE
  5
17
100
AcDbSymbolTableRecord
100
AcDbLinetypeTableRecord
  2
CONTINUOUS
 70
    64
  3
Solid line
 72
    65
 73
     0
 40
0.0
  0
LTYPE
  5
18
100
AcDbSymbolTableRecord
100
AcDbLinetypeTableRecord
  2
DASHED
 70
    64
  3
__ __ __ __ __ __ __ __ __ __ __ __ __ __ __ __
 72
    65
 73
     2
 40
0.75
 49
0.5
 74
     0
 49
-0.25
 74
     0
  0
LTYPE
  5
19
100
AcDbSymbolTableRecord
100
AcDbLinetypeTableRecord
  2
DASHDOT
 70
    64
  3
__ . __ . __ . __ . __ . __ . __ . __ . __ . __
 72
    65
 73
     4
 40
1.0
 49
0.5
 74
     0
 49
-0.25
 74
     0
 49
0.0
 74
     0
 49
-0.25
 74
     0
  0
LTYPE
  5
1A
100
AcDbSymbolTableRecord
100
AcDbLinetypeTableRecord
  2
DIVIDE
 70
    64
  3
____ . . ____ . . ____ . . ____ . . ____ . . __
 72
    65
 73
     6
 40
1.25
 49
0.5
 74
     0
 49
-0.25
 74
     0
 49
0.0
 74
     0
 49
-0.25
 74
     0
 49
0.0
 74
     0
 49
-0.25
 74
     0
  0
LTYPE
  5
1B
100
AcDbSymbolTableRecord
100
AcDbLinetypeTableRecord
  2
DOT
 70
    64
  3
. . . . . . . . . . . . . . . . . . . . . . . .
 72
    65
 73
     2
 40
0.25
 49
0.0
 74
     0
 49
-0.25
 74
     0
  0
ENDTAB
  0
TABLE
  2
LAYER
  5
2
100
AcDbSymbolTable
 70
   102
  0
LAYER
  5
F
100
AcDbSymbolTableRecord
100
AcDbLayerTableRecord
  2
0
 70
     0
 62
     7
  6
CONTINUOUS
  0
LAYER
  5
1C
100
AcDbSymbolTableRecord
100
AcDbLayerTableRecord
  2
DEFPOINTS
 70
     0
 62
     7
  6
CONTINUOUS
  0
LAYER
  5
1D
100
AcDbSymbolTableRecord
100
AcDbLayerTableRecord
  2
M0
 70
     0
 62
     3
  6
CONTINUOUS
  0
LAYER
  5
1E
100
AcDbSymbolTableRecord
100
AcDbLayerTableRecord
  2
M1
 70
     0
 62
     3
  6
CONTINUOUS
  0
LAYER
  5
1F
100
AcDbSymbolTableRecord
100
AcDbLayerTableRecord
  2
DD0
 70
     0
 62
     4
  6
CONTINUOUS
  0
LAYER
  5
20
100
AcDbSymbolTableRecord
100
AcDbLayerTableRecord
  2
DN0
 70
     0
 62
     2
  6
CONTINUOUS
  0
ENDTAB
  0
TABLE
  2
STYLE
  5
3
100
AcDbSymbolTable
 70
     2
  0
STYLE
  5
10
100
AcDbSymbolTableRecord
100
AcDbTextStyleTableRecord
  2
STANDARD
 70
     0
 40
0.0
 41
1.0
 50
0.0
 71
     0
 42
0.2
  3
txt
  4
BIGFONT
  0
ENDTAB
  0
TABLE
  2
VIEW
  5
6
100
AcDbSymbolTable
 70
     0
  0
ENDTAB
  0
TABLE
  2
UCS
  5
7
100
AcDbSymbolTable
 70
     0
  0
ENDTAB
  0
TABLE
  2
APPID
  5
9
100
AcDbSymbolTable
 70
     1
  0
APPID
  5
11
100
AcDbSymbolTableRecord
100
AcDbRegAppTableRecord
  2
ACAD
 70
     0
  0
ENDTAB
  0
TABLE
  2
DIMSTYLE
  5
A
100
AcDbSymbolTable
 70
     2
  0
DIMSTYLE
105
27
100
AcDbSymbolTableRecord
100
AcDbDimStyleTableRecord
  2
STANDARD
 70
     0
  3

  4

  5

  6
_OPEN
  7
_OPEN
 40
1.0
 41
12.0
 42
1.0
 43
8.0
 44
1.0
 45
0.0
 46
0.0
 47
0.0
 48
0.0
140
12.6
141
0.09
142
0.0
143
0.03937
144
1.0
145
0.0
146
1.0
147
0.6
 71
     0
 72
     0
 73
     1
 74
     1
 75
     0
 76
     0
 77
     3
 78
     8
170
     0
171
     2
172
     0
173
     1
174
     0
175
     0
176
     0
177
     0
178
     0
270
     2
271
     2
272
     4
273
     2
274
     2
340
10
275
     0
280
     0
281
     0
282
     0
283
     1
284
     0
285
     0
286
     0
287
     3
288
     0
  0
DIMSTYLE
105
28
100
AcDbSymbolTableRecord
100
AcDbDimStyleTableRecord
  2
LEADSTYL
 70
     0
  3

  4

  5

  6
_OPEN
  7
_OPEN
 40
1.0
 41
12.0
 42
0.0625
 43
0.38
 44
0.18
 45
0.0
 46
0.0
 47
0.0
 48
0.0
140
12.6
141
0.09
142
0.0
143
25.4
144
1.0
145
0.0
146
1.0
147
0.6
 71
     0
 72
     0
 73
     1
 74
     1
 75
     0
 76
     0
 77
     0
 78
     0
170
     0
171
     2
172
     0
173
     1
174
     0
175
     0
176
     0
177
     0
178
     0
270
     2
271
     4
272
     4
273
     2
274
     2
340
10
275
     0
280
     0
281
     0
282
     0
283
     1
284
     0
285
     0
286
     0
287
     3
288
     0
  0
ENDTAB
  0
TABLE
  2
BLOCK_RECORD
  5
1
100
AcDbSymbolTable
 70
    14
  0
BLOCK_RECORD
  5
21
100
AcDbSymbolTableRecord
100
AcDbBlockTableRecord
  2
*MODEL_SPACE
  0
BLOCK_RECORD
  5
24
100
AcDbSymbolTableRecord
100
AcDbBlockTableRecord
  2
*PAPER_SPACE
  0
BLOCK_RECORD
  5
29
100
AcDbSymbolTableRecord
100
AcDbBlockTableRecord
  2
_NONE
  0
BLOCK_RECORD
  5
2D
100
AcDbSymbolTableRecord
100
AcDbBlockTableRecord
  2
_OPEN
  0
BLOCK_RECORD
  5
33
100
AcDbSymbolTableRecord
100
AcDbBlockTableRecord
  2
_CLOSED
  0
BLOCK_RECORD
  5
3A
100
AcDbSymbolTableRecord
100
AcDbBlockTableRecord
  2
_ORIGIN
  0
BLOCK_RECORD
  5
3F
100
AcDbSymbolTableRecord
100
AcDbBlockTableRecord
  2
_DOT
  0
BLOCK_RECORD
  5
47
100
AcDbSymbolTableRecord
100
AcDbBlockTableRecord
  2
_OBLIQUE
  0
BLOCK_RECORD
  5
4B
100
AcDbSymbolTableRecord
100
AcDbBlockTableRecord
  2
DIMS0
  0
BLOCK_RECORD
  5
57
100
AcDbSymbolTableRecord
100
AcDbBlockTableRecord
  2
DIMS1
  0
BLOCK_RECORD
  5
63
100
AcDbSymbolTableRecord
100
AcDbBlockTableRecord
  2
DIMS2
  0
BLOCK_RECORD
  5
6F
100
AcDbSymbolTableRecord
100
AcDbBlockTableRecord
  2
DIMS3
  0
BLOCK_RECORD
  5
7B
100
AcDbSymbolTableRecord
100
AcDbBlockTableRecord
  2
DIMS4
  0
BLOCK_RECORD
  5
87
100
AcDbSymbolTableRecord
100
AcDbBlockTableRecord
  2
DIMS5
  0
BLOCK_RECORD
  5
93
100
AcDbSymbolTableRecord
100
AcDbBlockTableRecord
  2
DIMS6
  0
BLOCK_RECORD
  5
9C
100
AcDbSymbolTableRecord
100
AcDbBlockTableRecord
  2
DIMS7
  0
ENDTAB
  0
ENDSEC
  0
SECTION
  2
BLOCKS
  0
BLOCK
  5
22
100
AcDbEntity
  8
0
100
AcDbBlockBegin
  2
*MODEL_SPACE
 70
     0
 10
0.0
 20
0.0
 30
0.0
  3
*MODEL_SPACE
  1

  0
ENDBLK
  5
23
100
AcDbEntity
  8
0
100
AcDbBlockEnd
  0
BLOCK
  5
25
100
AcDbEntity
 67
     1
  8
0
100
AcDbBlockBegin
  2
*PAPER_SPACE
 70
     0
 10
0.0
 20
0.0
 30
0.0
  3
*PAPER_SPACE
  1

  0
ENDBLK
  5
26
100
AcDbEntity
 67
     1
  8
0
100
AcDbBlockEnd
  0
BLOCK
  5
2A
100
AcDbEntity
  8
0
100
AcDbBlockBegin
  2
_NONE
 70
     0
 10
0.0
 20
0.0
  0
CIRCLE
  5
2B
100
AcDbEntity
  8
0
 62
     0
100
AcDbCircle
 10
0.0
 20
0.0
 40
0.25
  0
ENDBLK
  5
2C
100
AcDbEntity
  8
0
100
AcDbBlockEnd
  0
BLOCK
  5
2E
100
AcDbEntity
  8
0
100
AcDbBlockBegin
  2
_OPEN
 70
     0
 10
0.0
 20
0.0
  0
LINE
  5
2F
100
AcDbEntity
  8
0
 62
     0
100
AcDbLine
 10
-0.965926
 20
0.258819
 11
0.0
 21
0.0
  0
LINE
  5
30
100
AcDbEntity
  8
0
 62
     0
100
AcDbLine
 10
0.0
 20
0.0
 11
-0.965926
 21
-0.258819
  0
LINE
  5
31
100
AcDbEntity
  8
0
 62
     0
100
AcDbLine
 10
0.0
 20
0.0
 11
-1.0
 21
0.0
  0
ENDBLK
  5
32
100
AcDbEntity
  8
0
100
AcDbBlockEnd
  0
BLOCK
  5
34
100
AcDbEntity
  8
0
100
AcDbBlockBegin
  2
_CLOSED
 70
     0
 10
0.0
 20
0.0
  0
LINE
  5
35
100
AcDbEntity
  8
0
 62
     0
100
AcDbLine
 10
-0.965926
 20
0.258819
 11
0.0
 21
0.0
  0
LINE
  5
36
100
AcDbEntity
  8
0
 62
     0
100
AcDbLine
 10
0.0
 20
0.0
 11
-0.965926
 21
-0.258819
  0
LINE
  5
37
100
AcDbEntity
  8
0
 62
     0
100
AcDbLine
 10
-0.965926
 20
0.258819
 11
-0.965926
 21
-0.258819
  0
LINE
  5
38
100
AcDbEntity
  8
0
 62
     0
100
AcDbLine
 10
0.0
 20
0.0
 11
-1.0
 21
0.0
  0
ENDBLK
  5
39
100
AcDbEntity
  8
0
100
AcDbBlockEnd
  0
BLOCK
  5
3B
100
AcDbEntity
  8
0
100
AcDbBlockBegin
  2
_ORIGIN
 70
     0
 10
0.0
 20
0.0
  0
CIRCLE
  5
3C
100
AcDbEntity
  8
0
 62
     0
100
AcDbCircle
 10
0.0
 20
0.0
 40
0.5
  0
LINE
  5
3D
100
AcDbEntity
  8
0
 62
     0
100
AcDbLine
 10
0.0
 20
0.0
 11
-1.0
 21
0.0
  0
ENDBLK
  5
3E
100
AcDbEntity
  8
0
100
AcDbBlockEnd
  0
BLOCK
  5
40
100
AcDbEntity
  8
0
100
AcDbBlockBegin
  2
_DOT
 70
     0
 10
0.0
 20
0.0
  0
POLYLINE
  5
41
100
AcDbEntity
  8
0
 62
     0
100
AcDb2dPolyline
 66
     1
 70
     1
 40
0.5
 41
0.5
  0
VERTEX
  5
42
100
AcDbEntity
  8
0
 62
     0
100
AcDbVertex
100
AcDb2dVertex
 10
-0.25
 20
0.0
 42
1.0
  0
VERTEX
  5
43
100
AcDbEntity
  8
0
 62
     0
100
AcDbVertex
100
AcDb2dVertex
 10
0.25
 20
0.0
 42
1.0
  0
SEQEND
  5
44
100
AcDbEntity
  8
0
 62
     0
  0
LINE
  5
45
100
AcDbEntity
  8
0
 62
     0
100
AcDbLine
 10
-0.5
 20
0.0
 11
-1.0
 21
0.0
  0
ENDBLK
  5
46
100
AcDbEntity
  8
0
100
AcDbBlockEnd
  0
BLOCK
  5
48
100
AcDbEntity
  8
0
100
AcDbBlockBegin
  2
_OBLIQUE
 70
     0
 10
0.0
 20
0.0
  0
LINE
  5
49
100
AcDbEntity
  8
0
 62
     0
100
AcDbLine
 10
-0.353553
 20
-0.353553
 11
0.353553
 21
0.353553
  0
ENDBLK
  5
4A
100
AcDbEntity
  8
0
100
AcDbBlockEnd
  0
BLOCK
  5
4C
100
AcDbEntity
  8
DD0
100
AcDbBlockBegin
  2
DIMS0
 70
     0
 10
0.0
 20
0.0
  0
LINE
  5
4D
100
AcDbEntity
  8
DD0
100
AcDbLine
 10
119.189476
 20
956.607544
 11
76.591393
 21
956.607544
  0
LINE
  5
4E
100
AcDbEntity
  8
DD0
100
AcDbLine
 10
119.189476
 20
666.607544
 11
76.591393
 21
666.607544
  0
LINE
  5
4F
100
AcDbEntity
  8
DD0
100
AcDbLine
 10
83.697221
 20
945.016434
 11
80.591393
 21
956.607544
  0
LINE
  5
50
100
AcDbEntity
  8
DD0
100
AcDbLine
 10
80.591393
 20
956.607544
 11
77.485564
 21
945.016434
  0
LINE
  5
51
100
AcDbEntity
  8
DD0
100
AcDbLine
 10
77.485564
 20
678.198654
 11
80.591393
 21
666.607544
  0
LINE
  5
52
100
AcDbEntity
  8
DD0
100
AcDbLine
 10
80.591393
 20
666.607544
 11
83.697221
 21
678.198654
  0
LINE
  5
53
100
AcDbEntity
  8
DD0
100
AcDbLine
 10
80.591393
 20
956.607544
 11
80.591393
 21
666.607544
  0
TEXT
  5
54
100
AcDbEntity
  8
DD0
100
AcDbText
 10
78.191391
 20
793.737524
 40
12.6
  1
２９０
 50
90.000003
 41
0.833333
  7
STANDARD
100
AcDbText
  0
ENDBLK
  5
55
100
AcDbEntity
  8
DD0
100
AcDbBlockEnd
  0
BLOCK
  5
58
100
AcDbEntity
  8
DD0
100
AcDbBlockBegin
  2
DIMS1
 70
     0
 10
0.0
 20
0.0
  0
LINE
  5
59
100
AcDbEntity
  8
DD0
100
AcDbLine
 10
118.189476
 20
955.607544
 11
118.189476
 21
995.802124
  0
LINE
  5
5A
100
AcDbEntity
  8
DD0
100
AcDbLine
 10
448.189484
 20
955.607544
 11
448.189484
 21
995.802124
  0
LINE
  5
5B
100
AcDbEntity
  8
DD0
100
AcDbLine
 10
129.780586
 20
994.907953
 11
118.189476
 21
991.802124
  0
LINE
  5
5C
100
AcDbEntity
  8
DD0
100
AcDbLine
 10
118.189476
 20
991.802124
 11
129.780586
 21
988.696295
  0
LINE
  5
5D
100
AcDbEntity
  8
DD0
100
AcDbLine
 10
436.598374
 20
988.696295
 11
448.189484
 21
991.802124
  0
LINE
  5
5E
100
AcDbEntity
  8
DD0
100
AcDbLine
 10
448.189484
 20
991.802124
 11
436.598374
 21
994.907953
  0
LINE
  5
5F
100
AcDbEntity
  8
DD0
100
AcDbLine
 10
118.189476
 20
991.802124
 11
448.189484
 21
991.802124
  0
TEXT
  5
60
100
AcDbEntity
  8
DD0
100
AcDbText
 10
265.319495
 20
994.202148
 40
12.6
  1
３３０
 41
0.833333
  7
STANDARD
100
AcDbText
  0
ENDBLK
  5
61
100
AcDbEntity
  8
DD0
100
AcDbBlockEnd
  0
BLOCK
  5
64
100
AcDbEntity
  8
DD0
100
AcDbBlockBegin
  2
DIMS2
 70
     0
 10
0.0
 20
0.0
  0
LINE
  5
65
100
AcDbEntity
  8
DD0
100
AcDbLine
 10
727.879822
 20
662.607544
 11
727.879822
 21
651.091003
  0
LINE
  5
66
100
AcDbEntity
  8
DD0
100
AcDbLine
 10
731.079834
 20
662.607544
 11
731.079834
 21
651.091003
  0
LINE
  5
67
100
AcDbEntity
  8
DD0
100
AcDbLine
 10
716.288712
 20
651.985175
 11
727.879822
 21
655.091003
  0
LINE
  5
68
100
AcDbEntity
  8
DD0
100
AcDbLine
 10
727.879822
 20
655.091003
 11
716.288712
 21
658.196832
  0
LINE
  5
69
100
AcDbEntity
  8
DD0
100
AcDbLine
 10
742.670944
 20
658.196832
 11
731.079834
 21
655.091003
  0
LINE
  5
6A
100
AcDbEntity
  8
DD0
100
AcDbLine
 10
731.079834
 20
655.091003
 11
742.670944
 21
651.985175
  0
LINE
  5
6B
100
AcDbEntity
  8
DD0
100
AcDbLine
 10
680.439823
 20
655.091003
 11
744.279834
 21
655.091003
  0
TEXT
  5
6C
100
AcDbEntity
  8
DD0
100
AcDbText
 10
683.839849
 20
657.890991
 40
12.6
  1
３．２
 41
0.666667
  7
STANDARD
100
AcDbText
  0
ENDBLK
  5
6D
100
AcDbEntity
  8
DD0
100
AcDbBlockEnd
  0
BLOCK
  5
70
100
AcDbEntity
  8
DD0
100
AcDbBlockBegin
  2
DIMS3
 70
     0
 10
0.0
 20
0.0
  0
LINE
  5
71
100
AcDbEntity
  8
DD0
100
AcDbLine
 10
452.189484
 20
537.969727
 11
507.611725
 21
537.969727
  0
LINE
  5
72
100
AcDbEntity
  8
DD0
100
AcDbLine
 10
454.189484
 20
522.969727
 11
507.611725
 21
522.969727
  0
LINE
  5
73
100
AcDbEntity
  8
DD0
100
AcDbLine
 10
500.505896
 20
549.560836
 11
503.611725
 21
537.969727
  0
LINE
  5
74
100
AcDbEntity
  8
DD0
100
AcDbLine
 10
503.611725
 20
537.969727
 11
506.717553
 21
549.560836
  0
LINE
  5
75
100
AcDbEntity
  8
DD0
100
AcDbLine
 10
506.717553
 20
511.378617
 11
503.611725
 21
522.969727
  0
LINE
  5
76
100
AcDbEntity
  8
DD0
100
AcDbLine
 10
503.611725
 20
522.969727
 11
500.505896
 21
511.378617
  0
LINE
  5
77
100
AcDbEntity
  8
DD0
100
AcDbLine
 10
503.611725
 20
575.329727
 11
503.611725
 21
509.769727
  0
TEXT
  5
78
100
AcDbEntity
  8
DD0
100
AcDbText
 10
500.811737
 20
552.00971
 40
12.6
  1
１５
 50
90.000003
 41
0.666667
  7
STANDARD
100
AcDbText
  0
ENDBLK
  5
79
100
AcDbEntity
  8
DD0
100
AcDbBlockEnd
  0
BLOCK
  5
7C
100
AcDbEntity
  8
DD0
100
AcDbBlockBegin
  2
DIMS4
 70
     0
 10
0.0
 20
0.0
  0
LINE
  5
7D
100
AcDbEntity
  8
DD0
 60
     1
100
AcDbLine
 10
454.189484
 20
522.969727
 11
507.611725
 21
522.969727
  0
LINE
  5
7E
100
AcDbEntity
  8
DD0
100
AcDbLine
 10
299.189484
 20
262.969696
 11
507.611725
 21
262.969696
  0
LINE
  5
7F
100
AcDbEntity
  8
DD0
100
AcDbLine
 10
506.717553
 20
511.378617
 11
503.611725
 21
522.969727
  0
LINE
  5
80
100
AcDbEntity
  8
DD0
100
AcDbLine
 10
503.611725
 20
522.969727
 11
500.505896
 21
511.378617
  0
LINE
  5
81
100
AcDbEntity
  8
DD0
100
AcDbLine
 10
500.505896
 20
274.560806
 11
503.611725
 21
262.969696
  0
LINE
  5
82
100
AcDbEntity
  8
DD0
100
AcDbLine
 10
503.611725
 20
262.969696
 11
506.717553
 21
274.560806
  0
LINE
  5
83
100
AcDbEntity
  8
DD0
100
AcDbLine
 10
503.611725
 20
522.969727
 11
503.611725
 21
262.969696
  0
TEXT
  5
84
100
AcDbEntity
  8
DD0
100
AcDbText
 10
500.811737
 20
378.689733
 40
12.6
  1
２６０
 50
90.000003
 41
0.666667
  7
STANDARD
100
AcDbText
  0
ENDBLK
  5
85
100
AcDbEntity
  8
DD0
100
AcDbBlockEnd
  0
BLOCK
  5
88
100
AcDbEntity
  8
DD0
100
AcDbBlockBegin
  2
DIMS5
 70
     0
 10
0.0
 20
0.0
  0
LINE
  5
89
100
AcDbEntity
  8
DD0
100
AcDbLine
 10
133.189468
 20
543.969727
 11
133.189468
 21
573.969727
  0
LINE
  5
8A
100
AcDbEntity
  8
DD0
100
AcDbLine
 10
433.189484
 20
543.969727
 11
433.189484
 21
573.969727
  0
LINE
  5
8B
100
AcDbEntity
  8
DD0
100
AcDbLine
 10
144.780578
 20
573.075555
 11
133.189468
 21
569.969727
  0
LINE
  5
8C
100
AcDbEntity
  8
DD0
100
AcDbLine
 10
133.189468
 20
569.969727
 11
144.780578
 21
566.863898
  0
LINE
  5
8D
100
AcDbEntity
  8
DD0
100
AcDbLine
 10
421.598374
 20
566.863898
 11
433.189484
 21
569.969727
  0
LINE
  5
8E
100
AcDbEntity
  8
DD0
100
AcDbLine
 10
433.189484
 20
569.969727
 11
421.598374
 21
573.075555
  0
LINE
  5
8F
100
AcDbEntity
  8
DD0
100
AcDbLine
 10
133.189468
 20
569.969727
 11
433.189484
 21
569.969727
  0
TEXT
  5
90
100
AcDbEntity
  8
DD0
100
AcDbText
 10
268.90949
 20
572.769714
 40
12.6
  1
３００
 41
0.666667
  7
STANDARD
100
AcDbText
  0
ENDBLK
  5
91
100
AcDbEntity
  8
DD0
100
AcDbBlockEnd
  0
BLOCK
  5
94
100
AcDbEntity
  8
DD0
100
AcDbBlockBegin
  2
DIMS6
 70
     0
 10
0.0
 20
0.0
  0
TEXT
  5
95
100
AcDbEntity
  8
DD0
100
AcDbText
 10
310.918036
 20
216.977646
 40
12.6
  1
３－Ｍ８ねじ穴
 41
0.833333
  7
STANDARD
100
AcDbText
  0
LINE
  5
96
100
AcDbEntity
  8
DD0
100
AcDbLine
 10
291.506036
 20
249.374219
 11
285.773651
 21
259.916504
  0
LINE
  5
97
100
AcDbEntity
  8
DD0
100
AcDbLine
 10
285.773651
 20
259.916504
 11
285.4669
 21
247.920425
  0
LINE
  5
98
100
AcDbEntity
  8
DD0
100
AcDbLine
 10
285.773651
 20
259.916504
 11
296.688019
 21
214.577652
  0
LINE
  5
99
100
AcDbEntity
  8
DD0
100
AcDbLine
 10
296.688019
 20
214.577652
 11
411.288055
 21
214.577652
  0
ENDBLK
  5
9A
100
AcDbEntity
  8
DD0
100
AcDbBlockEnd
  0
BLOCK
  5
9D
100
AcDbEntity
  8
DD0
100
AcDbBlockBegin
  2
DIMS7
 70
     0
 10
0.0
 20
0.0
  0
LINE
  5
9E
100
AcDbEntity
  8
DD0
100
AcDbLine
 10
499.079926
 20
877.608398
 11
499.079926
 21
995.802124
  0
LINE
  5
9F
100
AcDbEntity
  8
DD0
100
AcDbLine
 10
731.079834
 20
960.607544
 11
731.079834
 21
995.802124
  0
LINE
  5
A0
100
AcDbEntity
  8
DD0
100
AcDbLine
 10
510.671035
 20
994.907953
 11
499.079926
 21
991.802124
  0
LINE
  5
A1
100
AcDbEntity
  8
DD0
100
AcDbLine
 10
499.079926
 20
991.802124
 11
510.671035
 21
988.696295
  0
LINE
  5
A2
100
AcDbEntity
  8
DD0
100
AcDbLine
 10
719.488724
 20
988.696295
 11
731.079834
 21
991.802124
  0
LINE
  5
A3
100
AcDbEntity
  8
DD0
100
AcDbLine
 10
731.079834
 20
991.802124
 11
719.488724
 21
994.907953
  0
LINE
  5
A4
100
AcDbEntity
  8
DD0
100
AcDbLine
 10
499.079926
 20
991.802124
 11
731.079834
 21
991.802124
  0
TEXT
  5
A5
100
AcDbEntity
  8
DD0
100
AcDbText
 10
597.209875
 20
994.202148
 40
12.6
  1
２３２
 41
0.833333
  7
STANDARD
100
AcDbText
  0
ENDBLK
  5
A6
100
AcDbEntity
  8
DD0
100
AcDbBlockEnd
  0
ENDSEC
  0
SECTION
  2
ENTITIES
  0
INSERT
  5
56
100
AcDbEntity
  8
DD0
100
AcDbBlockReference
  2
DIMS0
 10
0.0
 20
0.0
  0
INSERT
  5
62
100
AcDbEntity
  8
DD0
100
AcDbBlockReference
  2
DIMS1
 10
0.0
 20
0.0
  0
INSERT
  5
6E
100
AcDbEntity
  8
DD0
100
AcDbBlockReference
  2
DIMS2
 10
0.0
 20
0.0
  0
INSERT
  5
7A
100
AcDbEntity
  8
DD0
100
AcDbBlockReference
  2
DIMS3
 10
0.0
 20
0.0
  0
INSERT
  5
86
100
AcDbEntity
  8
DD0
100
AcDbBlockReference
  2
DIMS4
 10
0.0
 20
0.0
  0
INSERT
  5
92
100
AcDbEntity
  8
DD0
100
AcDbBlockReference
  2
DIMS5
 10
0.0
 20
0.0
  0
INSERT
  5
9B
100
AcDbEntity
  8
DD0
100
AcDbBlockReference
  2
DIMS6
 10
0.0
 20
0.0
  0
INSERT
  5
A7
100
AcDbEntity
  8
DD0
100
AcDbBlockReference
  2
DIMS7
 10
0.0
 20
0.0
  0
LINE
  5
A8
100
AcDbEntity
  8
M0
100
AcDbLine
 10
661.079793
 20
927.408423
 11
639.079793
 21
927.408423
  0
LINE
  5
A9
100
AcDbEntity
  8
M0
100
AcDbLine
 10
635.079793
 20
910.708423
 11
665.079793
 21
910.708423
  0
LINE
  5
AA
100
AcDbEntity
  8
M0
100
AcDbLine
 10
665.079793
 20
910.708423
 11
665.079793
 21
923.408423
  0
LINE
  5
AB
100
AcDbEntity
  8
M0
100
AcDbLine
 10
635.079793
 20
923.408423
 11
635.079793
 21
910.708423
  0
ARC
  5
AC
100
AcDbEntity
  8
M0
100
AcDbCircle
 10
639.079793
 20
923.408423
 40
4.0
100
AcDbArc
 50
90.0
 51
180.0
  0
ARC
  5
AD
100
AcDbEntity
  8
M0
100
AcDbCircle
 10
661.079793
 20
923.408423
 40
4.0
100
AcDbArc
 50
0.0
 51
90.0
  0
LINE
  5
AE
100
AcDbEntity
  8
M0
100
AcDbLine
 10
640.479809
 20
910.708423
 11
640.479809
 21
909.108417
  0
ARC
  5
AF
100
AcDbEntity
  8
M0
100
AcDbCircle
 10
720.979803
 20
908.608417
 40
0.5
100
AcDbArc
 50
0.0
 51
90.0
  0
ARC
  5
B0
100
AcDbEntity
  8
M0
100
AcDbCircle
 10
722.079809
 20
909.708423
 40
1.0
100
AcDbArc
 50
0.0
 51
90.0
  0
LINE
  5
B1
100
AcDbEntity
  8
M0
100
AcDbLine
 10
722.079809
 20
910.708423
 11
640.479809
 21
910.708423
  0
LINE
  5
B2
100
AcDbEntity
  8
M0
100
AcDbLine
 10
687.979809
 20
701.508426
 11
722.079809
 21
701.508426
  0
LINE
  5
B3
100
AcDbEntity
  8
M0
100
AcDbLine
 10
720.979803
 20
703.108432
 11
687.979809
 21
703.108432
  0
LINE
  5
B4
100
AcDbEntity
  8
M0
100
AcDbLine
 10
687.979809
 20
703.108432
 11
687.979809
 21
701.508426
  0
ARC
  5
B5
100
AcDbEntity
  8
M0
100
AcDbCircle
 10
720.979803
 20
703.608432
 40
0.5
100
AcDbArc
 50
270.0
 51
360.0
  0
ARC
  5
B6
100
AcDbEntity
  8
M0
100
AcDbCircle
 10
722.079809
 20
702.508426
 40
1.0
100
AcDbArc
 50
270.0
 51
360.0
  0
LINE
  5
B7
100
AcDbEntity
  8
M0
100
AcDbLine
 10
721.479803
 20
908.608417
 11
721.479803
 21
703.608432
  0
ARC
  5
B8
100
AcDbEntity
  8
M0
100
AcDbCircle
 10
723.579793
 20
708.108432
 40
0.5
100
AcDbArc
 50
-90.0
 51
0.0
  0
LINE
  5
B9
100
AcDbEntity
  8
M0
100
AcDbLine
 10
723.579793
 20
707.608432
 11
723.079809
 21
707.608432
  0
LINE
  5
BA
100
AcDbEntity
  8
M0
100
AcDbLine
 10
724.079793
 20
708.108432
 11
724.079793
 21
719.108432
  0
ARC
  5
BB
100
AcDbEntity
  8
M0
100
AcDbCircle
 10
723.579793
 20
719.108432
 40
0.5
100
AcDbArc
 50
0.0
 51
90.0
  0
LINE
  5
BC
100
AcDbEntity
  8
M0
100
AcDbLine
 10
723.579793
 20
719.608432
 11
723.079809
 21
719.608432
  0
ARC
  5
BD
100
AcDbEntity
  8
M0
100
AcDbCircle
 10
723.579824
 20
891.958438
 40
0.5
100
AcDbArc
 50
-90.0
 51
0.0
  0
LINE
  5
BE
100
AcDbEntity
  8
M0
100
AcDbLine
 10
723.579824
 20
891.458438
 11
723.079824
 21
891.458438
  0
ARC
  5
BF
100
AcDbEntity
  8
M0
100
AcDbCircle
 10
723.579824
 20
905.258432
 40
0.5
100
AcDbArc
 50
0.0
 51
90.0
  0
LINE
  5
C0
100
AcDbEntity
  8
M0
100
AcDbLine
 10
723.579824
 20
905.758432
 11
723.079824
 21
905.758432
  0
LINE
  5
C1
100
AcDbEntity
  8
M0
100
AcDbLine
 10
724.079824
 20
891.958438
 11
724.079824
 21
904.108432
  0
LINE
  5
C2
100
AcDbEntity
  8
M0
100
AcDbLine
 10
724.079793
 20
905.254519
 11
724.079793
 21
893.108432
  0
LINE
  5
C3
100
AcDbEntity
  8
M0
100
AcDbLine
 10
723.079809
 20
702.508426
 11
723.079809
 21
909.708423
  0
LINE
  5
C4
100
AcDbEntity
  8
M0
100
AcDbLine
 10
640.479809
 20
909.108418
 11
720.979803
 21
909.108417
  0
LINE
  5
C5
100
AcDbEntity
  8
M0
100
AcDbLine
 10
721.479803
 20
703.608432
 11
721.479803
 21
908.608432
  0
LINE
  5
C6
100
AcDbEntity
  8
M0
100
AcDbLine
 10
721.479803
 20
908.608432
 11
687.879827
 21
908.608432
  0
LINE
  5
C7
100
AcDbEntity
  8
M0
100
AcDbLine
 10
687.879827
 20
908.608432
 11
687.879827
 21
703.608432
  0
LINE
  5
C8
100
AcDbEntity
  8
M0
100
AcDbLine
 10
687.879827
 20
703.608432
 11
721.479803
 21
703.608432
  0
ARC
  5
C9
100
AcDbEntity
  8
M0
 62
     7
100
AcDbCircle
 10
501.079925
 20
873.608371
 40
2.0
100
AcDbArc
 50
89.999563
 51
180.0
  0
LINE
  5
CA
100
AcDbEntity
  8
M0
 62
     7
100
AcDbLine
 10
499.079925
 20
873.608371
 11
499.079925
 21
727.608383
  0
ARC
  5
CB
100
AcDbEntity
  8
M0
 62
     7
100
AcDbCircle
 10
501.079925
 20
727.608383
 40
2.0
100
AcDbArc
 50
179.999973
 51
270.0
  0
ARC
  5
CC
100
AcDbEntity
  8
M0
 62
     7
100
AcDbCircle
 10
501.079925
 20
863.608371
 40
2.0
100
AcDbArc
 50
89.999563
 51
180.0
  0
ARC
  5
CD
100
AcDbEntity
  8
M0
 62
     7
100
AcDbCircle
 10
501.079925
 20
737.608383
 40
2.0
100
AcDbArc
 50
179.999973
 51
270.0
  0
LINE
  5
CE
100
AcDbEntity
  8
M0
 62
     7
100
AcDbLine
 10
501.079925
 20
875.608371
 11
582.279915
 21
875.608371
  0
LINE
  5
CF
100
AcDbEntity
  8
M0
 62
     7
100
AcDbLine
 10
501.079925
 20
865.608371
 11
582.279915
 21
865.608371
  0
LINE
  5
D0
100
AcDbEntity
  8
M0
 62
     7
100
AcDbLine
 10
501.079925
 20
725.608383
 11
582.279915
 21
725.608383
  0
LINE
  5
D1
100
AcDbEntity
  8
M0
 62
     7
100
AcDbLine
 10
501.079925
 20
735.608383
 11
582.279915
 21
735.608383
  0
LINE
  5
D2
100
AcDbEntity
  8
M0
 62
     7
100
AcDbLine
 10
582.279915
 20
725.608383
 11
582.279915
 21
735.608383
  0
LINE
  5
D3
100
AcDbEntity
  8
M0
 62
     7
100
AcDbLine
 10
582.279915
 20
865.608371
 11
582.279915
 21
875.608371
  0
LINE
  5
D4
100
AcDbEntity
  8
M0
  6
DASHDOT
100
AcDbLine
 10
535.791085
 20
800.608371
 11
638.278216
 21
800.608371
  0
LINE
  5
D5
100
AcDbEntity
  8
M0
100
AcDbLine
 10
554.279923
 20
804.358371
 11
554.279923
 21
796.858371
  0
ARC
  5
D6
100
AcDbEntity
  8
M0
100
AcDbCircle
 10
548.779924
 20
795.858371
 40
1.0
100
AcDbArc
 50
90.0
 51
180.0
  0
LINE
  5
D7
100
AcDbEntity
  8
M0
100
AcDbLine
 10
548.779924
 20
796.858371
 11
554.279923
 21
796.858371
  0
LINE
  5
D8
100
AcDbEntity
  8
M0
100
AcDbLine
 10
548.779924
 20
804.358371
 11
554.279923
 21
804.358371
  0
LINE
  5
D9
100
AcDbEntity
  8
M0
100
AcDbLine
 10
622.279915
 20
887.108371
 11
609.779915
 21
887.108371
  0
ARC
  5
DA
100
AcDbEntity
  8
M0
100
AcDbCircle
 10
609.779915
 20
886.108371
 40
1.0
100
AcDbArc
 50
90.0
 51
180.0
  0
LINE
  5
DB
100
AcDbEntity
  8
M0
100
AcDbLine
 10
608.779915
 20
886.108371
 11
608.779915
 21
837.608371
  0
ARC
  5
DC
100
AcDbEntity
  8
M0
100
AcDbCircle
 10
606.779915
 20
837.608371
 40
2.0
100
AcDbArc
 50
269.999563
 51
360.0
  0
LINE
  5
DD
100
AcDbEntity
  8
M0
100
AcDbLine
 10
598.779915
 20
835.608371
 11
606.779915
 21
835.608371
  0
ARC
  5
DE
100
AcDbEntity
  8
M0
100
AcDbCircle
 10
598.779915
 20
834.608371
 40
1.0
100
AcDbArc
 50
90.0
 51
180.0
  0
ARC
  5
DF
100
AcDbEntity
  8
M0
100
AcDbCircle
 10
549.779924
 20
816.108371
 40
2.0
100
AcDbArc
 50
90.0
 51
180.0
  0
LINE
  5
E0
100
AcDbEntity
  8
M0
100
AcDbLine
 10
567.779923
 20
815.608371
 11
571.779915
 21
815.608371
  0
LINE
  5
E1
100
AcDbEntity
  8
M0
100
AcDbLine
 10
549.779924
 20
818.108371
 11
567.779923
 21
818.108371
  0
LINE
  5
E2
100
AcDbEntity
  8
M0
100
AcDbLine
 10
567.779923
 20
818.108371
 11
567.779923
 21
815.608371
  0
LINE
  5
E3
100
AcDbEntity
  8
M0
100
AcDbLine
 10
571.779915
 20
818.209399
 11
571.779915
 21
815.608371
  0
ARC
  5
E4
100
AcDbEntity
  8
M0
100
AcDbCircle
 10
570.779915
 20
823.108371
 40
5.0
100
AcDbArc
 50
281.536771
 51
360.0
  0
LINE
  5
E5
100
AcDbEntity
  8
M0
100
AcDbLine
 10
575.779915
 20
826.108371
 11
575.779915
 21
823.108371
  0
ARC
  5
E6
100
AcDbEntity
  8
M0
100
AcDbCircle
 10
577.779915
 20
826.108371
 40
2.0
100
AcDbArc
 50
90.0
 51
180.0
  0
LINE
  5
E7
100
AcDbEntity
  8
M0
100
AcDbLine
 10
590.779915
 20
827.108371
 11
597.779915
 21
827.108371
  0
LINE
  5
E8
100
AcDbEntity
  8
M0
100
AcDbLine
 10
589.779915
 20
828.108371
 11
590.779915
 21
827.108371
  0
LINE
  5
E9
100
AcDbEntity
  8
M0
100
AcDbLine
 10
597.779915
 20
834.608371
 11
597.779915
 21
827.108371
  0
LINE
  5
EA
100
AcDbEntity
  8
M0
100
AcDbLine
 10
577.779915
 20
828.108371
 11
589.779915
 21
828.108371
  0
LINE
  5
EB
100
AcDbEntity
  8
M0
100
AcDbLine
 10
622.279915
 20
725.608383
 11
583.279915
 21
725.608383
  0
ARC
  5
EC
100
AcDbEntity
  8
M0
100
AcDbCircle
 10
609.779915
 20
726.608383
 40
1.0
100
AcDbArc
 50
180.0
 51
269.999126
  0
LINE
  5
ED
100
AcDbEntity
  8
M0
100
AcDbLine
 10
608.779915
 20
726.608383
 11
608.779915
 21
763.608371
  0
ARC
  5
EE
100
AcDbEntity
  8
M0
100
AcDbCircle
 10
606.779915
 20
763.608371
 40
2.0
100
AcDbArc
 50
0.0
 51
90.0
  0
LINE
  5
EF
100
AcDbEntity
  8
M0
100
AcDbLine
 10
598.779915
 20
765.608371
 11
606.779915
 21
765.608371
  0
ARC
  5
F0
100
AcDbEntity
  8
M0
100
AcDbCircle
 10
598.779915
 20
766.608371
 40
1.0
100
AcDbArc
 50
180.0
 51
269.999126
  0
ARC
  5
F1
100
AcDbEntity
  8
M0
100
AcDbCircle
 10
549.779924
 20
785.108371
 40
2.0
100
AcDbArc
 50
180.0
 51
270.0
  0
LINE
  5
F2
100
AcDbEntity
  8
M0
100
AcDbLine
 10
567.779923
 20
785.608371
 11
571.779915
 21
785.608371
  0
LINE
  5
F3
100
AcDbEntity
  8
M0
100
AcDbLine
 10
549.779924
 20
783.108371
 11
567.779923
 21
783.108371
  0
LINE
  5
F4
100
AcDbEntity
  8
M0
100
AcDbLine
 10
567.779923
 20
783.108371
 11
567.779923
 21
785.608371
  0
LINE
  5
F5
100
AcDbEntity
  8
M0
100
AcDbLine
 10
571.779915
 20
783.007358
 11
571.779915
 21
785.608371
  0
ARC
  5
F6
100
AcDbEntity
  8
M0
100
AcDbCircle
 10
570.779915
 20
778.108371
 40
5.0
100
AcDbArc
 50
0.0
 51
78.463023
  0
LINE
  5
F7
100
AcDbEntity
  8
M0
100
AcDbLine
 10
575.779915
 20
775.108371
 11
575.779915
 21
778.108371
  0
ARC
  5
F8
100
AcDbEntity
  8
M0
100
AcDbCircle
 10
577.779915
 20
775.108371
 40
2.0
100
AcDbArc
 50
180.0
 51
269.999563
  0
LINE
  5
F9
100
AcDbEntity
  8
M0
100
AcDbLine
 10
590.779915
 20
774.108371
 11
597.779915
 21
774.108371
  0
LINE
  5
FA
100
AcDbEntity
  8
M0
100
AcDbLine
 10
589.779915
 20
773.108371
 11
590.779915
 21
774.108371
  0
LINE
  5
FB
100
AcDbEntity
  8
M0
100
AcDbLine
 10
597.779915
 20
766.608371
 11
597.779915
 21
774.108371
  0
LINE
  5
FC
100
AcDbEntity
  8
M0
100
AcDbLine
 10
577.779915
 20
773.108371
 11
589.779915
 21
773.108371
  0
LINE
  5
FD
100
AcDbEntity
  8
M0
100
AcDbLine
 10
547.779924
 20
816.108371
 11
547.779924
 21
785.108371
  0
LINE
  5
FE
100
AcDbEntity
  8
M0
100
AcDbLine
 10
622.279915
 20
725.608383
 11
622.279915
 21
778.108371
  0
ARC
  5
FF
100
AcDbEntity
  8
M0
100
AcDbCircle
 10
548.779924
 20
805.358371
 40
1.0
100
AcDbArc
 50
180.0
 51
270.0
  0
LINE
  5
100
100
AcDbEntity
  8
M0
100
AcDbLine
 10
622.279915
 20
823.108371
 11
622.279915
 21
887.108371
  0
LINE
  5
101
100
AcDbEntity
  8
M0
 62
     4
100
AcDbLine
 10
622.279915
 20
725.608371
 11
687.879915
 21
725.608371
  0
LINE
  5
102
100
AcDbEntity
  8
M0
  6
DASHDOT
 62
     4
100
AcDbLine
 10
616.279915
 20
800.608371
 11
729.943063
 21
800.608371
  0
LINE
  5
103
100
AcDbEntity
  8
M0
 62
     4
100
AcDbLine
 10
612.779915
 20
822.108371
 11
612.779915
 21
808.608371
  0
LINE
  5
104
100
AcDbEntity
  8
M0
 62
     4
100
AcDbLine
 10
613.779915
 20
823.108371
 11
622.279915
 21
823.108371
  0
LINE
  5
105
100
AcDbEntity
  8
M0
 62
     4
100
AcDbLine
 10
613.779915
 20
778.108371
 11
622.279915
 21
778.108371
  0
LINE
  5
106
100
AcDbEntity
  8
M0
 62
     4
100
AcDbLine
 10
615.779915
 20
806.608371
 11
631.67972
 21
806.608371
  0
LINE
  5
107
100
AcDbEntity
  8
M0
 62
     4
100
AcDbLine
 10
615.779915
 20
794.608371
 11
631.67972
 21
794.608371
  0
LINE
  5
108
100
AcDbEntity
  8
M0
 62
     4
100
AcDbLine
 10
631.67972
 20
806.608371
 11
631.67972
 21
802.608371
  0
LINE
  5
109
100
AcDbEntity
  8
M0
 62
     4
100
AcDbLine
 10
630.67972
 20
801.608371
 11
630.67972
 21
799.608371
  0
LINE
  5
10A
100
AcDbEntity
  8
M0
 62
     4
100
AcDbLine
 10
630.67972
 20
799.608371
 11
631.67972
 21
798.608371
  0
LINE
  5
10B
100
AcDbEntity
  8
M0
 62
     4
100
AcDbLine
 10
630.67972
 20
801.608371
 11
631.67972
 21
802.608371
  0
LINE
  5
10C
100
AcDbEntity
  8
M0
 62
     4
100
AcDbLine
 10
631.67972
 20
798.608371
 11
631.67972
 21
794.608371
  0
LINE
  5
10D
100
AcDbEntity
  8
M0
 62
     4
100
AcDbLine
 10
613.779915
 20
807.608371
 11
614.779915
 21
807.608371
  0
LINE
  5
10E
100
AcDbEntity
  8
M0
 62
     4
100
AcDbLine
 10
613.779915
 20
793.608371
 11
614.779915
 21
793.608371
  0
LINE
  5
10F
100
AcDbEntity
  8
M0
 62
     4
100
AcDbLine
 10
612.779915
 20
792.608371
 11
612.779915
 21
779.108371
  0
LINE
  5
110
100
AcDbEntity
  8
M0
 62
     4
100
AcDbLine
 10
622.279915
 20
778.108371
 11
622.279915
 21
725.608371
  0
ARC
  5
111
100
AcDbEntity
  8
M0
 62
     4
100
AcDbCircle
 10
613.779915
 20
822.108371
 40
1.0
100
AcDbArc
 50
90.0
 51
180.0
  0
ARC
  5
112
100
AcDbEntity
  8
M0
 62
     4
100
AcDbCircle
 10
613.779915
 20
779.108371
 40
1.0
100
AcDbArc
 50
180.0
 51
269.999126
  0
ARC
  5
113
100
AcDbEntity
  8
M0
 62
     4
100
AcDbCircle
 10
613.779915
 20
808.608371
 40
1.0
100
AcDbArc
 50
180.0
 51
269.999126
  0
ARC
  5
114
100
AcDbEntity
  8
M0
 62
     4
100
AcDbCircle
 10
615.779915
 20
807.608371
 40
1.0
100
AcDbArc
 50
180.0
 51
269.999126
  0
ARC
  5
115
100
AcDbEntity
  8
M0
 62
     4
100
AcDbCircle
 10
613.779915
 20
792.608371
 40
1.0
100
AcDbArc
 50
90.0
 51
180.0
  0
ARC
  5
116
100
AcDbEntity
  8
M0
 62
     4
100
AcDbCircle
 10
615.779915
 20
793.608371
 40
1.0
100
AcDbArc
 50
90.0
 51
180.0
  0
ARC
  5
117
100
AcDbEntity
  8
M0
 62
     4
100
AcDbCircle
 10
629.67972
 20
805.608371
 40
2.0
100
AcDbArc
 50
0.0
 51
30.001722
  0
ARC
  5
118
100
AcDbEntity
  8
M0
 62
     4
100
AcDbCircle
 10
629.67972
 20
795.608371
 40
2.0
100
AcDbArc
 50
329.9979
 51
360.0
  0
ARC
  5
119
100
AcDbEntity
  8
M0
 62
     4
100
AcDbCircle
 10
629.67972
 20
795.608371
 40
2.0
100
AcDbArc
 50
269.999563
 51
329.9979
  0
LINE
  5
11A
100
AcDbEntity
  8
M0
 62
     4
100
AcDbLine
 10
614.779915
 20
793.608371
 11
629.67972
 21
793.608371
  0
LINE
  5
11B
100
AcDbEntity
  8
M0
 62
     4
100
AcDbLine
 10
614.779915
 20
807.608371
 11
629.67972
 21
807.608371
  0
ARC
  5
11C
100
AcDbEntity
  8
M0
 62
     4
100
AcDbCircle
 10
629.67972
 20
805.608371
 40
2.0
100
AcDbArc
 50
30.001722
 51
90.0
  0
LINE
  5
11D
100
AcDbEntity
  8
M0
 62
     4
100
AcDbLine
 10
687.879915
 20
725.608371
 11
687.879915
 21
887.107974
  0
LINE
  5
11E
100
AcDbEntity
  8
M0
 62
     4
100
AcDbLine
 10
622.279915
 20
887.107974
 11
622.279915
 21
823.108371
  0
LINE
  5
11F
100
AcDbEntity
  8
M0
 62
     4
100
AcDbLine
 10
687.879915
 20
887.108218
 11
622.279915
 21
887.108218
  0
LINE
  5
120
100
AcDbEntity
  8
M0
100
AcDbLine
 10
582.27987
 20
874.608539
 11
582.27987
 21
828.108539
  0
LINE
  5
121
100
AcDbEntity
  8
M0
100
AcDbLine
 10
583.27987
 20
875.608539
 11
608.77987
 21
875.608539
  0
ARC
  5
122
100
AcDbEntity
  8
M0
100
AcDbCircle
 10
583.27987
 20
874.608539
 40
1.0
100
AcDbArc
 50
90.0
 51
180.0
  0
ARC
  5
123
100
AcDbEntity
  8
M0
100
AcDbCircle
 10
583.27987
 20
726.608539
 40
1.0
100
AcDbArc
 50
180.0
 51
269.986012
  0
LINE
  5
124
100
AcDbEntity
  8
M0
100
AcDbLine
 10
582.27987
 20
773.108539
 11
582.27987
 21
726.608539
  0
LINE
  5
125
100
AcDbEntity
  8
M0
100
AcDbLine
 10
602.27987
 20
805.608539
 11
602.27987
 21
795.608539
  0
LINE
  5
126
100
AcDbEntity
  8
M0
100
AcDbLine
 10
612.77987
 20
818.588763
 11
612.77987
 21
790.925922
  0
LINE
  5
127
100
AcDbEntity
  8
M0
100
AcDbLine
 10
604.27987
 20
793.608539
 11
612.77987
 21
793.608539
  0
LINE
  5
128
100
AcDbEntity
  8
M0
100
AcDbLine
 10
604.27987
 20
807.608539
 11
612.77987
 21
807.608539
  0
ARC
  5
129
100
AcDbEntity
  8
M0
100
AcDbCircle
 10
604.27987
 20
805.608539
 40
2.0
100
AcDbArc
 50
90.0
 51
180.0
  0
ARC
  5
12A
100
AcDbEntity
  8
M0
100
AcDbCircle
 10
604.27987
 20
795.608539
 40
2.0
100
AcDbArc
 50
180.0
 51
269.993006
  0
LINE
  5
12B
100
AcDbEntity
  8
M0
100
AcDbLine
 10
588.079964
 20
902.108417
 11
588.079964
 21
875.608417
  0
LINE
  5
12C
100
AcDbEntity
  8
M0
100
AcDbLine
 10
592.879967
 20
902.108417
 11
592.879967
 21
875.608417
  0
LINE
  5
12D
100
AcDbEntity
  8
M0
100
AcDbLine
 10
588.079964
 20
902.108417
 11
592.879967
 21
902.108417
  0
LINE
  5
12E
100
AcDbEntity
  8
M0
100
AcDbLine
 10
588.079964
 20
902.108417
 11
592.879967
 21
902.108417
  0
LINE
  5
12F
100
AcDbEntity
  8
M0
100
AcDbLine
 10
588.079964
 20
699.108523
 11
592.879967
 21
699.108523
  0
LINE
  5
130
100
AcDbEntity
  8
M0
100
AcDbLine
 10
588.079964
 20
699.108523
 11
592.879967
 21
699.108523
  0
LINE
  5
131
100
AcDbEntity
  8
M0
100
AcDbLine
 10
588.079964
 20
699.108523
 11
588.079964
 21
725.608417
  0
LINE
  5
132
100
AcDbEntity
  8
M0
100
AcDbLine
 10
592.879967
 20
699.108523
 11
592.879967
 21
725.608417
  0
LINE
  5
133
100
AcDbEntity
  8
M0
 62
     6
100
AcDbLine
 10
562.879777
 20
883.608371
 11
562.879777
 21
893.608142
  0
LINE
  5
134
100
AcDbEntity
  8
M0
 62
     6
100
AcDbLine
 10
562.879777
 20
893.608142
 11
575.979775
 21
893.608142
  0
LINE
  5
135
100
AcDbEntity
  8
M0
 62
     6
100
AcDbLine
 10
599.879769
 20
883.608371
 11
592.879769
 21
883.608371
  0
LINE
  5
136
100
AcDbEntity
  8
M0
  6
DASHDOT
 62
     6
100
AcDbLine
 10
602.878304
 20
888.608371
 11
559.939301
 21
888.608371
  0
LINE
  5
137
100
AcDbEntity
  8
M0
 62
     6
100
AcDbLine
 10
592.879769
 20
878.799365
 11
592.879769
 21
898.417224
  0
LINE
  5
138
100
AcDbEntity
  8
M0
 62
     6
100
AcDbLine
 10
592.879769
 20
898.417224
 11
599.879769
 21
898.417224
  0
LINE
  5
139
100
AcDbEntity
  8
M0
 62
     6
100
AcDbLine
 10
599.879769
 20
898.417224
 11
599.879769
 21
878.799365
  0
LINE
  5
13A
100
AcDbEntity
  8
M0
 62
     6
100
AcDbLine
 10
599.879769
 20
878.799365
 11
592.879769
 21
878.799365
  0
LINE
  5
13B
100
AcDbEntity
  8
M0
 62
     6
100
AcDbLine
 10
592.879769
 20
893.608142
 11
599.879769
 21
893.608142
  0
LINE
  5
13C
100
AcDbEntity
  8
M0
 62
     6
100
AcDbLine
 10
575.979775
 20
883.608371
 11
562.879777
 21
883.608371
  0
LINE
  5
13D
100
AcDbEntity
  8
M0
 62
     6
100
AcDbLine
 10
592.879769
 20
722.417392
 11
592.879769
 21
702.799533
  0
LINE
  5
13E
100
AcDbEntity
  8
M0
 62
     6
100
AcDbLine
 10
592.879769
 20
702.799533
 11
599.879769
 21
702.799533
  0
LINE
  5
13F
100
AcDbEntity
  8
M0
 62
     6
100
AcDbLine
 10
599.879769
 20
702.799533
 11
599.879769
 21
722.417392
  0
LINE
  5
140
100
AcDbEntity
  8
M0
 62
     6
100
AcDbLine
 10
599.879769
 20
722.417392
 11
592.879769
 21
722.417392
  0
LINE
  5
141
100
AcDbEntity
  8
M0
 62
     6
100
AcDbLine
 10
562.879777
 20
717.608386
 11
562.879777
 21
707.608615
  0
LINE
  5
142
100
AcDbEntity
  8
M0
  6
DASHDOT
 62
     6
100
AcDbLine
 10
602.878304
 20
712.608386
 11
559.939301
 21
712.608386
  0
LINE
  5
143
100
AcDbEntity
  8
M0
 62
     6
100
AcDbLine
 10
562.879777
 20
707.608615
 11
575.979775
 21
707.608615
  0
LINE
  5
144
100
AcDbEntity
  8
M0
 62
     6
100
AcDbLine
 10
592.879769
 20
707.608615
 11
599.879769
 21
707.608615
  0
LINE
  5
145
100
AcDbEntity
  8
M0
 62
     6
100
AcDbLine
 10
599.879769
 20
717.608386
 11
592.879769
 21
717.608386
  0
LINE
  5
146
100
AcDbEntity
  8
M0
 62
     6
100
AcDbLine
 10
575.979775
 20
717.608386
 11
562.879777
 21
717.608386
  0
LINE
  5
147
100
AcDbEntity
  8
M0
 62
     4
100
AcDbLine
 10
583.979851
 20
898.408435
 11
575.979836
 21
898.408435
  0
LINE
  5
148
100
AcDbEntity
  8
M0
 62
     4
100
AcDbLine
 10
575.979867
 20
898.408389
 11
575.979867
 21
878.808414
  0
LINE
  5
149
100
AcDbEntity
  8
M0
 62
     4
100
AcDbLine
 10
575.979851
 20
878.808429
 11
583.979851
 21
878.808429
  0
LINE
  5
14A
100
AcDbEntity
  8
M0
 62
     4
100
AcDbLine
 10
583.979867
 20
878.808444
 11
583.979867
 21
898.40845
  0
LINE
  5
14B
100
AcDbEntity
  8
M0
  6
DASHDOT
 62
     4
100
AcDbLine
 10
590.979851
 20
888.608386
 11
568.979836
 21
888.608386
  0
LINE
  5
14C
100
AcDbEntity
  8
M0
 62
     4
100
AcDbLine
 10
583.979851
 20
883.708423
 11
575.979851
 21
883.708423
  0
LINE
  5
14D
100
AcDbEntity
  8
M0
 62
     4
100
AcDbLine
 10
583.979851
 20
893.508411
 11
575.979836
 21
893.508411
  0
LINE
  5
14E
100
AcDbEntity
  8
M0
 62
     4
100
AcDbLine
 10
583.979851
 20
702.808353
 11
575.979836
 21
702.808353
  0
LINE
  5
14F
100
AcDbEntity
  8
M0
 62
     4
100
AcDbLine
 10
575.979867
 20
702.808398
 11
575.979867
 21
722.408374
  0
LINE
  5
150
100
AcDbEntity
  8
M0
 62
     4
100
AcDbLine
 10
575.979851
 20
722.408359
 11
583.979851
 21
722.408359
  0
LINE
  5
151
100
AcDbEntity
  8
M0
 62
     4
100
AcDbLine
 10
583.979867
 20
722.408343
 11
583.979867
 21
702.808337
  0
LINE
  5
152
100
AcDbEntity
  8
M0
  6
DASHDOT
 62
     4
100
AcDbLine
 10
590.979851
 20
712.608401
 11
568.979836
 21
712.608401
  0
LINE
  5
153
100
AcDbEntity
  8
M0
 62
     4
100
AcDbLine
 10
583.979851
 20
717.508365
 11
575.979851
 21
717.508365
  0
LINE
  5
154
100
AcDbEntity
  8
M0
 62
     4
100
AcDbLine
 10
583.979851
 20
707.708377
 11
575.979836
 21
707.708377
  0
LINE
  5
155
100
AcDbEntity
  8
M0
 62
     7
100
AcDbLine
 10
586.479973
 20
877.608371
 11
588.079964
 21
877.608371
  0
LINE
  5
156
100
AcDbEntity
  8
M0
 62
     7
100
AcDbLine
 10
588.079964
 20
877.608371
 11
588.079964
 21
899.608371
  0
LINE
  5
157
100
AcDbEntity
  8
M0
 62
     7
100
AcDbLine
 10
588.079964
 20
899.608371
 11
586.479973
 21
899.608371
  0
LINE
  5
158
100
AcDbEntity
  8
M0
 62
     7
100
AcDbLine
 10
586.479973
 20
899.608371
 11
586.479973
 21
877.608371
  0
LINE
  5
159
100
AcDbEntity
  8
M0
  6
DASHDOT
 62
     7
100
AcDbLine
 10
583.479958
 20
888.608356
 11
591.079964
 21
888.608371
  0
LINE
  5
15A
100
AcDbEntity
  8
M0
 62
     7
100
AcDbLine
 10
588.079964
 20
723.608356
 11
588.079964
 21
701.608356
  0
LINE
  5
15B
100
AcDbEntity
  8
M0
 62
     7
100
AcDbLine
 10
588.079964
 20
701.608356
 11
586.479973
 21
701.608356
  0
LINE
  5
15C
100
AcDbEntity
  8
M0
 62
     7
100
AcDbLine
 10
586.479973
 20
701.608356
 11
586.479973
 21
723.608356
  0
LINE
  5
15D
100
AcDbEntity
  8
M0
  6
DASHDOT
 62
     7
100
AcDbLine
 10
583.479958
 20
712.608371
 11
591.079964
 21
712.608356
  0
LINE
  5
15E
100
AcDbEntity
  8
M0
 62
     4
100
AcDbLine
 10
583.979867
 20
879.408374
 11
586.479867
 21
879.408374
  0
LINE
  5
15F
100
AcDbEntity
  8
M0
 62
     4
100
AcDbLine
 10
586.479867
 20
879.408374
 11
586.479867
 21
897.808368
  0
LINE
  5
160
100
AcDbEntity
  8
M0
 62
     4
100
AcDbLine
 10
586.479867
 20
897.808368
 11
583.979867
 21
897.808368
  0
LINE
  5
161
100
AcDbEntity
  8
M0
 62
     4
100
AcDbLine
 10
583.979867
 20
897.808368
 11
583.979867
 21
879.408374
  0
LINE
  5
162
100
AcDbEntity
  8
M0
  6
DASHDOT
 62
     4
100
AcDbLine
 10
564.979867
 20
888.608371
 11
591.479867
 21
888.608371
  0
LINE
  5
163
100
AcDbEntity
  8
M0
 62
     4
100
AcDbLine
 10
583.979867
 20
888.608386
 11
586.479867
 21
887.165012
  0
LINE
  5
164
100
AcDbEntity
  8
M0
 62
     4
100
AcDbLine
 10
583.979867
 20
890.051746
 11
586.479867
 21
888.608371
  0
LINE
  5
165
100
AcDbEntity
  8
M0
 62
     4
100
AcDbLine
 10
583.979867
 20
721.808383
 11
586.479867
 21
721.808383
  0
LINE
  5
166
100
AcDbEntity
  8
M0
 62
     4
100
AcDbLine
 10
586.479867
 20
721.808383
 11
586.479867
 21
703.408389
  0
LINE
  5
167
100
AcDbEntity
  8
M0
 62
     4
100
AcDbLine
 10
586.479867
 20
703.408389
 11
583.979867
 21
703.408389
  0
LINE
  5
168
100
AcDbEntity
  8
M0
 62
     4
100
AcDbLine
 10
583.979867
 20
703.408389
 11
583.979867
 21
721.808383
  0
LINE
  5
169
100
AcDbEntity
  8
M0
 62
     4
100
AcDbLine
 10
583.979867
 20
712.608371
 11
586.479867
 21
714.051746
  0
LINE
  5
16A
100
AcDbEntity
  8
M0
 62
     4
100
AcDbLine
 10
583.979867
 20
711.165012
 11
586.479867
 21
712.608386
  0
LINE
  5
16B
100
AcDbEntity
  8
M0
  6
DASHDOT
 62
     4
100
AcDbLine
 10
564.979867
 20
712.608386
 11
591.479867
 21
712.608386
  0
LINE
  5
16C
100
AcDbEntity
  8
M0
  6
DASHDOT
 62
     2
100
AcDbLine
 10
283.189473
 20
651.607557
 11
283.189473
 21
971.607559
  0
LINE
  5
16D
100
AcDbEntity
  8
M0
 62
     2
100
AcDbLine
 10
448.189473
 20
951.607558
 11
443.189473
 21
956.607558
  0
LINE
  5
16E
100
AcDbEntity
  8
M0
 62
     2
100
AcDbLine
 10
443.189473
 20
956.607558
 11
123.189473
 21
956.607558
  0
LINE
  5
16F
100
AcDbEntity
  8
M0
 62
     2
100
AcDbLine
 10
123.189473
 20
956.607558
 11
118.189473
 21
951.607558
  0
LINE
  5
170
100
AcDbEntity
  8
M0
 62
     2
100
AcDbLine
 10
118.189473
 20
951.607558
 11
118.189473
 21
671.607558
  0
LINE
  5
171
100
AcDbEntity
  8
M0
 62
     2
100
AcDbLine
 10
118.189473
 20
671.607558
 11
123.189473
 21
666.607558
  0
LINE
  5
172
100
AcDbEntity
  8
M0
 62
     2
100
AcDbLine
 10
123.189473
 20
666.607558
 11
443.189473
 21
666.607558
  0
LINE
  5
173
100
AcDbEntity
  8
M0
 62
     2
100
AcDbLine
 10
448.189473
 20
671.607558
 11
448.189473
 21
951.607558
  0
LINE
  5
174
100
AcDbEntity
  8
M0
 62
     2
100
AcDbLine
 10
443.189473
 20
666.607558
 11
448.189473
 21
671.607558
  0
CIRCLE
  5
175
100
AcDbEntity
  8
M0
 62
     2
100
AcDbCircle
 10
133.189473
 20
941.607558
 40
4.5
  0
LINE
  5
176
100
AcDbEntity
  8
M0
  6
DASHDOT
 62
     2
100
AcDbLine
 10
122.689473
 20
941.607558
 11
143.689474
 21
941.607558
  0
LINE
  5
177
100
AcDbEntity
  8
M0
  6
DASHDOT
 62
     2
100
AcDbLine
 10
133.189473
 20
931.107557
 11
133.189473
 21
952.107558
  0
CIRCLE
  5
178
100
AcDbEntity
  8
M0
 62
     2
100
AcDbCircle
 10
433.189473
 20
941.607558
 40
4.5
  0
LINE
  5
179
100
AcDbEntity
  8
M0
  6
DASHDOT
 62
     2
100
AcDbLine
 10
443.689474
 20
941.607558
 11
422.689473
 21
941.607558
  0
LINE
  5
17A
100
AcDbEntity
  8
M0
  6
DASHDOT
 62
     2
100
AcDbLine
 10
433.189473
 20
931.107557
 11
433.189473
 21
952.107558
  0
CIRCLE
  5
17B
100
AcDbEntity
  8
M0
 62
     2
100
AcDbCircle
 10
283.189473
 20
681.607558
 40
4.5
  0
LINE
  5
17C
100
AcDbEntity
  8
M0
  6
DASHDOT
 62
     2
100
AcDbLine
 10
272.689473
 20
681.607558
 11
293.689474
 21
681.607558
  0
LINE
  5
17D
100
AcDbEntity
  8
M0
 62
     2
100
AcDbLine
 10
298.189473
 20
666.607558
 11
298.189473
 21
681.607558
  0
LINE
  5
17E
100
AcDbEntity
  8
M0
 62
     2
100
AcDbLine
 10
268.189473
 20
666.607558
 11
268.189473
 21
681.607558
  0
ARC
  5
17F
100
AcDbEntity
  8
M0
 62
     2
100
AcDbCircle
 10
283.189473
 20
681.607558
 40
15.0
100
AcDbArc
 50
0.0
 51
180.0
  0
LINE
  5
180
100
AcDbEntity
  8
M0
 62
     2
100
AcDbLine
 10
448.189473
 20
696.607558
 11
438.189473
 21
696.607558
  0
LINE
  5
181
100
AcDbEntity
  8
M0
 62
     2
100
AcDbLine
 10
428.189473
 20
666.607558
 11
428.189473
 21
686.607558
  0
ARC
  5
182
100
AcDbEntity
  8
M0
 62
     2
100
AcDbCircle
 10
438.189473
 20
686.607558
 40
10.0
100
AcDbArc
 50
90.0
 51
180.0
  0
LINE
  5
183
100
AcDbEntity
  8
M0
 62
     2
100
AcDbLine
 10
118.189473
 20
696.607558
 11
128.189473
 21
696.607558
  0
ARC
  5
184
100
AcDbEntity
  8
M0
 62
     2
100
AcDbCircle
 10
128.189473
 20
686.607558
 40
10.0
100
AcDbArc
 50
0.0
 51
90.0
  0
LINE
  5
185
100
AcDbEntity
  8
M0
 62
     2
100
AcDbLine
 10
138.189473
 20
666.607558
 11
138.189473
 21
686.607558
  0
LINE
  5
186
100
AcDbEntity
  8
M0
 62
     2
100
AcDbLine
 10
448.189473
 20
928.607558
 11
118.189473
 21
928.607558
  0
LINE
  5
187
100
AcDbEntity
  8
M0
100
AcDbLine
 10
135.689504
 20
725.607695
 11
144.564504
 21
725.607695
  0
LINE
  5
188
100
AcDbEntity
  8
M0
100
AcDbLine
 10
273.689504
 20
703.607695
 11
273.689504
 21
909.107344
  0
LINE
  5
189
100
AcDbEntity
  8
M0
100
AcDbLine
 10
243.786168
 20
875.60742
 11
231.689504
 21
875.607298
  0
LINE
  5
18A
100
AcDbEntity
  8
M0
  6
DASHDOT
100
AcDbLine
 10
130.689504
 20
800.607542
 11
278.689504
 21
800.607542
  0
LINE
  5
18B
100
AcDbEntity
  8
M0
  6
DASHDOT
100
AcDbLine
 10
204.689504
 20
689.056083
 11
204.689504
 21
939.648777
  0
LINE
  5
18C
100
AcDbEntity
  8
M0
100
AcDbLine
 10
190.705129
 20
725.607695
 11
192.189504
 21
725.607695
  0
LINE
  5
18D
100
AcDbEntity
  8
M0
100
AcDbLine
 10
231.689504
 20
725.607695
 11
243.786275
 21
725.607695
  0
LINE
  5
18E
100
AcDbEntity
  8
M0
100
AcDbLine
 10
218.673635
 20
875.607298
 11
217.189504
 21
875.607283
  0
LINE
  5
18F
100
AcDbEntity
  8
M0
100
AcDbLine
 10
177.689504
 20
875.607054
 11
165.593129
 21
875.607054
  0
LINE
  5
190
100
AcDbEntity
  8
M0
100
AcDbLine
 10
147.689504
 20
776.057494
 11
147.689504
 21
794.107542
  0
LINE
  5
191
100
AcDbEntity
  8
M0
100
AcDbLine
 10
139.689504
 20
773.607298
 11
139.689504
 21
794.107542
  0
LINE
  5
192
100
AcDbEntity
  8
M0
100
AcDbLine
 10
269.689504
 20
773.607542
 11
269.689504
 21
794.107054
  0
LINE
  5
193
100
AcDbEntity
  8
M0
100
AcDbLine
 10
261.689504
 20
776.057249
 11
261.689504
 21
794.107054
  0
LINE
  5
194
100
AcDbEntity
  8
M0
100
AcDbLine
 10
136.189504
 20
828.107542
 11
139.189504
 21
828.107542
  0
LINE
  5
195
100
AcDbEntity
  8
M0
100
AcDbLine
 10
136.189504
 20
773.107542
 11
139.189504
 21
773.107542
  0
LINE
  5
196
100
AcDbEntity
  8
M0
100
AcDbLine
 10
270.189504
 20
828.107542
 11
273.189504
 21
828.107542
  0
LINE
  5
197
100
AcDbEntity
  8
M0
100
AcDbLine
 10
270.189504
 20
773.107542
 11
273.189504
 21
773.107542
  0
LINE
  5
198
100
AcDbEntity
  8
M0
100
AcDbLine
 10
139.689504
 20
825.657347
 11
149.689504
 21
825.657347
  0
LINE
  5
199
100
AcDbEntity
  8
M0
100
AcDbLine
 10
139.689504
 20
775.557494
 11
149.689504
 21
775.557494
  0
LINE
  5
19A
100
AcDbEntity
  8
M0
100
AcDbLine
 10
259.689504
 20
825.657347
 11
269.689504
 21
825.657347
  0
LINE
  5
19B
100
AcDbEntity
  8
M0
100
AcDbLine
 10
259.689504
 20
775.557494
 11
269.689504
 21
775.557494
  0
LINE
  5
19C
100
AcDbEntity
  8
M0
100
AcDbLine
 10
136.189504
 20
818.107542
 11
139.189504
 21
818.107542
  0
LINE
  5
19D
100
AcDbEntity
  8
M0
100
AcDbLine
 10
136.189504
 20
783.107542
 11
139.189504
 21
783.107542
  0
LINE
  5
19E
100
AcDbEntity
  8
M0
100
AcDbLine
 10
270.189504
 20
818.107542
 11
273.189504
 21
818.107542
  0
LINE
  5
19F
100
AcDbEntity
  8
M0
100
AcDbLine
 10
270.189504
 20
783.107542
 11
273.189504
 21
783.107542
  0
LINE
  5
1A0
100
AcDbEntity
  8
M0
100
AcDbLine
 10
136.189504
 20
804.357542
 11
142.689504
 21
804.357542
  0
LINE
  5
1A1
100
AcDbEntity
  8
M0
100
AcDbLine
 10
136.189504
 20
796.857542
 11
142.689504
 21
796.857542
  0
LINE
  5
1A2
100
AcDbEntity
  8
M0
100
AcDbLine
 10
273.189504
 20
804.357542
 11
266.689504
 21
804.357542
  0
LINE
  5
1A3
100
AcDbEntity
  8
M0
100
AcDbLine
 10
273.189504
 20
796.857542
 11
266.689504
 21
796.857542
  0
LINE
  5
1A4
100
AcDbEntity
  8
M0
100
AcDbLine
 10
139.689504
 20
807.107542
 11
139.689504
 21
827.607542
  0
LINE
  5
1A5
100
AcDbEntity
  8
M0
100
AcDbLine
 10
269.689504
 20
807.10681
 11
269.689504
 21
827.607542
  0
LINE
  5
1A6
100
AcDbEntity
  8
M0
100
AcDbLine
 10
143.689504
 20
803.357542
 11
143.689504
 21
797.857542
  0
LINE
  5
1A7
100
AcDbEntity
  8
M0
100
AcDbLine
 10
265.689504
 20
803.357298
 11
265.689504
 21
797.857298
  0
LINE
  5
1A8
100
AcDbEntity
  8
M0
100
AcDbLine
 10
148.189504
 20
817.107542
 11
149.689504
 21
817.107542
  0
LINE
  5
1A9
100
AcDbEntity
  8
M0
100
AcDbLine
 10
148.189504
 20
784.107542
 11
149.689504
 21
784.107542
  0
LINE
  5
1AA
100
AcDbEntity
  8
M0
100
AcDbLine
 10
261.189504
 20
817.107542
 11
259.689504
 21
817.107542
  0
LINE
  5
1AB
100
AcDbEntity
  8
M0
100
AcDbLine
 10
261.189504
 20
784.107542
 11
259.689504
 21
784.107542
  0
LINE
  5
1AC
100
AcDbEntity
  8
M0
100
AcDbLine
 10
135.689504
 20
835.607542
 11
138.189504
 21
835.607542
  0
LINE
  5
1AD
100
AcDbEntity
  8
M0
100
AcDbLine
 10
135.689504
 20
765.607542
 11
138.189504
 21
765.607542
  0
LINE
  5
1AE
100
AcDbEntity
  8
M0
100
AcDbLine
 10
138.189504
 20
773.107542
 11
138.189504
 21
765.607542
  0
LINE
  5
1AF
100
AcDbEntity
  8
M0
100
AcDbLine
 10
138.189504
 20
835.607542
 11
138.189504
 21
828.107542
  0
LINE
  5
1B0
100
AcDbEntity
  8
M0
100
AcDbLine
 10
271.189504
 20
835.607542
 11
271.189504
 21
828.107542
  0
LINE
  5
1B1
100
AcDbEntity
  8
M0
100
AcDbLine
 10
271.189504
 20
765.607542
 11
271.189504
 21
773.107542
  0
LINE
  5
1B2
100
AcDbEntity
  8
M0
100
AcDbLine
 10
271.189504
 20
765.607542
 11
273.689504
 21
765.607542
  0
LINE
  5
1B3
100
AcDbEntity
  8
M0
100
AcDbLine
 10
271.189504
 20
835.607542
 11
273.689504
 21
835.607542
  0
LINE
  5
1B4
100
AcDbEntity
  8
M0
100
AcDbLine
 10
139.689504
 20
776.607542
 11
140.539495
 21
776.607542
  0
LINE
  5
1B5
100
AcDbEntity
  8
M0
100
AcDbLine
 10
139.689504
 20
824.607542
 11
140.539495
 21
824.607542
  0
LINE
  5
1B6
100
AcDbEntity
  8
M0
100
AcDbLine
 10
261.689504
 20
824.607542
 11
262.539495
 21
824.607542
  0
LINE
  5
1B7
100
AcDbEntity
  8
M0
100
AcDbLine
 10
261.689504
 20
776.607542
 11
269.689504
 21
776.607542
  0
LINE
  5
1B8
100
AcDbEntity
  8
M0
100
AcDbLine
 10
139.689504
 20
815.107542
 11
140.539495
 21
815.107542
  0
LINE
  5
1B9
100
AcDbEntity
  8
M0
100
AcDbLine
 10
139.689504
 20
786.107542
 11
140.539495
 21
786.107542
  0
LINE
  5
1BA
100
AcDbEntity
  8
M0
100
AcDbLine
 10
261.689504
 20
815.107542
 11
262.539495
 21
815.107542
  0
LINE
  5
1BB
100
AcDbEntity
  8
M0
100
AcDbLine
 10
261.689504
 20
786.107542
 11
269.689504
 21
786.107542
  0
LINE
  5
1BC
100
AcDbEntity
  8
M0
100
AcDbLine
 10
262.489308
 20
815.607542
 11
262.539495
 21
815.607542
  0
LINE
  5
1BD
100
AcDbEntity
  8
M0
100
AcDbLine
 10
262.489308
 20
785.607542
 11
268.889455
 21
785.607542
  0
LINE
  5
1BE
100
AcDbEntity
  8
M0
100
AcDbLine
 10
140.489308
 20
815.607542
 11
140.539495
 21
815.607542
  0
LINE
  5
1BF
100
AcDbEntity
  8
M0
100
AcDbLine
 10
140.489308
 20
785.607542
 11
140.539495
 21
785.607542
  0
LINE
  5
1C0
100
AcDbEntity
  8
M0
100
AcDbLine
 10
146.889455
 20
785.107542
 11
146.889455
 21
786.107542
  0
LINE
  5
1C1
100
AcDbEntity
  8
M0
100
AcDbLine
 10
140.489308
 20
785.107298
 11
140.489308
 21
786.107542
  0
LINE
  5
1C2
100
AcDbEntity
  8
M0
100
AcDbLine
 10
147.505391
 20
784.607542
 11
147.689504
 21
784.607542
  0
LINE
  5
1C3
100
AcDbEntity
  8
M0
100
AcDbLine
 10
139.689504
 20
784.607542
 11
139.873616
 21
784.607542
  0
LINE
  5
1C4
100
AcDbEntity
  8
M0
100
AcDbLine
 10
147.505391
 20
816.607542
 11
147.689504
 21
816.607542
  0
LINE
  5
1C5
100
AcDbEntity
  8
M0
100
AcDbLine
 10
139.689504
 20
816.607542
 11
139.873616
 21
816.607542
  0
LINE
  5
1C6
100
AcDbEntity
  8
M0
100
AcDbLine
 10
140.489308
 20
815.107542
 11
140.489308
 21
816.107298
  0
LINE
  5
1C7
100
AcDbEntity
  8
M0
100
AcDbLine
 10
146.889455
 20
815.107542
 11
146.889455
 21
816.107542
  0
LINE
  5
1C8
100
AcDbEntity
  8
M0
100
AcDbLine
 10
261.989553
 20
784.607298
 11
261.689504
 21
784.607298
  0
LINE
  5
1C9
100
AcDbEntity
  8
M0
100
AcDbLine
 10
262.489553
 20
785.10681
 11
262.489553
 21
786.107298
  0
LINE
  5
1CA
100
AcDbEntity
  8
M0
100
AcDbLine
 10
269.689504
 20
784.607298
 11
269.389699
 21
784.607298
  0
LINE
  5
1CB
100
AcDbEntity
  8
M0
100
AcDbLine
 10
268.889699
 20
785.107054
 11
268.889699
 21
786.107298
  0
LINE
  5
1CC
100
AcDbEntity
  8
M0
100
AcDbLine
 10
269.689504
 20
816.607298
 11
269.505239
 21
816.607298
  0
LINE
  5
1CD
100
AcDbEntity
  8
M0
100
AcDbLine
 10
261.873754
 20
816.607298
 11
261.689504
 21
816.607298
  0
LINE
  5
1CE
100
AcDbEntity
  8
M0
100
AcDbLine
 10
262.489553
 20
815.107298
 11
262.489553
 21
816.10681
  0
LINE
  5
1CF
100
AcDbEntity
  8
M0
100
AcDbLine
 10
139.689504
 20
808.607542
 11
139.739492
 21
808.607542
  0
LINE
  5
1D0
100
AcDbEntity
  8
M0
100
AcDbLine
 10
147.639501
 20
808.607542
 11
147.689504
 21
808.607542
  0
LINE
  5
1D1
100
AcDbEntity
  8
M0
100
AcDbLine
 10
147.639501
 20
792.607542
 11
147.689504
 21
792.607542
  0
LINE
  5
1D2
100
AcDbEntity
  8
M0
100
AcDbLine
 10
139.689504
 20
792.607542
 11
139.739492
 21
792.607542
  0
LINE
  5
1D3
100
AcDbEntity
  8
M0
100
AcDbLine
 10
140.689504
 20
806.107542
 11
146.689504
 21
806.107542
  0
LINE
  5
1D4
100
AcDbEntity
  8
M0
100
AcDbLine
 10
140.689504
 20
795.107542
 11
146.689504
 21
795.107542
  0
LINE
  5
1D5
100
AcDbEntity
  8
M0
100
AcDbLine
 10
147.689504
 20
807.107298
 11
147.689504
 21
825.157347
  0
LINE
  5
1D6
100
AcDbEntity
  8
M0
100
AcDbLine
 10
139.689504
 20
818.107542
 11
139.739492
 21
818.107542
  0
LINE
  5
1D7
100
AcDbEntity
  8
M0
100
AcDbLine
 10
139.739492
 20
783.107542
 11
139.689504
 21
783.107542
  0
LINE
  5
1D8
100
AcDbEntity
  8
M0
100
AcDbLine
 10
147.639501
 20
783.107542
 11
147.689504
 21
783.107542
  0
LINE
  5
1D9
100
AcDbEntity
  8
M0
100
AcDbLine
 10
139.739492
 20
781.757262
 11
139.689504
 21
781.607298
  0
LINE
  5
1DA
100
AcDbEntity
  8
M0
100
AcDbLine
 10
147.639501
 20
781.757552
 11
147.689504
 21
781.607542
  0
LINE
  5
1DB
100
AcDbEntity
  8
M0
100
AcDbLine
 10
147.639501
 20
791.257552
 11
147.689504
 21
791.107542
  0
LINE
  5
1DC
100
AcDbEntity
  8
M0
100
AcDbLine
 10
139.739492
 20
791.257506
 11
139.689504
 21
791.107542
  0
LINE
  5
1DD
100
AcDbEntity
  8
M0
100
AcDbLine
 10
139.739492
 20
809.957579
 11
139.689504
 21
810.107542
  0
LINE
  5
1DE
100
AcDbEntity
  8
M0
100
AcDbLine
 10
147.639501
 20
809.957533
 11
147.689504
 21
810.107542
  0
LINE
  5
1DF
100
AcDbEntity
  8
M0
100
AcDbLine
 10
139.739492
 20
819.457579
 11
139.689504
 21
819.607542
  0
LINE
  5
1E0
100
AcDbEntity
  8
M0
100
AcDbLine
 10
269.189504
 20
792.607298
 11
269.689504
 21
791.107298
  0
LINE
  5
1E1
100
AcDbEntity
  8
M0
100
AcDbLine
 10
269.689504
 20
792.607298
 11
269.189504
 21
792.607298
  0
LINE
  5
1E2
100
AcDbEntity
  8
M0
100
AcDbLine
 10
269.189504
 20
792.607298
 11
269.189504
 21
794.10681
  0
LINE
  5
1E3
100
AcDbEntity
  8
M0
100
AcDbLine
 10
262.189504
 20
792.607298
 11
262.189504
 21
794.107054
  0
LINE
  5
1E4
100
AcDbEntity
  8
M0
100
AcDbLine
 10
262.189504
 20
792.607298
 11
261.689504
 21
792.607298
  0
LINE
  5
1E5
100
AcDbEntity
  8
M0
100
AcDbLine
 10
262.189504
 20
792.607298
 11
261.689504
 21
791.107298
  0
LINE
  5
1E6
100
AcDbEntity
  8
M0
100
AcDbLine
 10
262.189504
 20
783.107298
 11
262.189504
 21
784.648558
  0
LINE
  5
1E7
100
AcDbEntity
  8
M0
100
AcDbLine
 10
262.189504
 20
783.107298
 11
261.689504
 21
783.107298
  0
LINE
  5
1E8
100
AcDbEntity
  8
M0
100
AcDbLine
 10
262.189504
 20
783.107298
 11
261.689504
 21
781.607298
  0
LINE
  5
1E9
100
AcDbEntity
  8
M0
100
AcDbLine
 10
269.189504
 20
783.107054
 11
269.689504
 21
781.607054
  0
LINE
  5
1EA
100
AcDbEntity
  8
M0
100
AcDbLine
 10
269.189504
 20
783.107298
 11
269.689504
 21
783.107298
  0
LINE
  5
1EB
100
AcDbEntity
  8
M0
100
AcDbLine
 10
269.189504
 20
783.107054
 11
269.189504
 21
784.648802
  0
LINE
  5
1EC
100
AcDbEntity
  8
M0
100
AcDbLine
 10
269.639501
 20
809.957289
 11
269.689504
 21
810.107298
  0
LINE
  5
1ED
100
AcDbEntity
  8
M0
100
AcDbLine
 10
269.689504
 20
808.607298
 11
269.639501
 21
808.607298
  0
LINE
  5
1EE
100
AcDbEntity
  8
M0
100
AcDbLine
 10
261.739492
 20
809.957335
 11
261.689504
 21
810.107298
  0
LINE
  5
1EF
100
AcDbEntity
  8
M0
100
AcDbLine
 10
261.739492
 20
808.607298
 11
261.689504
 21
808.607298
  0
LINE
  5
1F0
100
AcDbEntity
  8
M0
100
AcDbLine
 10
261.739492
 20
819.457335
 11
261.689504
 21
819.607298
  0
LINE
  5
1F1
100
AcDbEntity
  8
M0
100
AcDbLine
 10
261.739492
 20
818.107298
 11
261.689504
 21
818.107298
  0
LINE
  5
1F2
100
AcDbEntity
  8
M0
100
AcDbLine
 10
269.689504
 20
818.107298
 11
269.639501
 21
818.107298
  0
LINE
  5
1F3
100
AcDbEntity
  8
M0
100
AcDbLine
 10
269.639501
 20
819.457289
 11
269.689504
 21
819.607298
  0
LINE
  5
1F4
100
AcDbEntity
  8
M0
100
AcDbLine
 10
268.689504
 20
795.107298
 11
262.689504
 21
795.107298
  0
LINE
  5
1F5
100
AcDbEntity
  8
M0
100
AcDbLine
 10
268.689504
 20
806.107298
 11
262.689504
 21
806.107298
  0
LINE
  5
1F6
100
AcDbEntity
  8
M0
100
AcDbLine
 10
261.689504
 20
807.107054
 11
261.689504
 21
825.157347
  0
ARC
  5
1F7
100
AcDbEntity
  8
M0
100
AcDbCircle
 10
270.189504
 20
827.607542
 40
0.5
100
AcDbArc
 50
89.998251
 51
179.998251
  0
ARC
  5
1F8
100
AcDbEntity
  8
M0
100
AcDbCircle
 10
270.189504
 20
773.607542
 40
0.5
100
AcDbArc
 50
179.998251
 51
270.0
  0
ARC
  5
1F9
100
AcDbEntity
  8
M0
100
AcDbCircle
 10
273.189504
 20
827.607542
 40
0.5
100
AcDbArc
 50
0.0
 51
89.998251
  0
ARC
  5
1FA
100
AcDbEntity
  8
M0
100
AcDbCircle
 10
273.189504
 20
817.607542
 40
0.5
100
AcDbArc
 50
0.0
 51
89.998251
  0
ARC
  5
1FB
100
AcDbEntity
  8
M0
100
AcDbCircle
 10
261.189504
 20
816.607298
 40
0.5
100
AcDbArc
 50
359.972024
 51
449.998251
  0
ARC
  5
1FC
100
AcDbEntity
  8
M0
100
AcDbCircle
 10
270.189504
 20
783.607542
 40
0.5
100
AcDbArc
 50
179.998251
 51
270.0
  0
ARC
  5
1FD
100
AcDbEntity
  8
M0
100
AcDbCircle
 10
273.189504
 20
773.607542
 40
0.5
100
AcDbArc
 50
270.0
 51
360.0
  0
ARC
  5
1FE
100
AcDbEntity
  8
M0
100
AcDbCircle
 10
273.189504
 20
783.607542
 40
0.5
100
AcDbArc
 50
270.0
 51
360.0
  0
ARC
  5
1FF
100
AcDbEntity
  8
M0
100
AcDbCircle
 10
270.189504
 20
817.607542
 40
0.5
100
AcDbArc
 50
89.998251
 51
179.998251
  0
ARC
  5
200
100
AcDbEntity
  8
M0
100
AcDbCircle
 10
261.189504
 20
825.157347
 40
0.5
100
AcDbArc
 50
0.0
 51
89.998251
  0
ARC
  5
201
100
AcDbEntity
  8
M0
100
AcDbCircle
 10
261.189504
 20
784.607298
 40
0.5
100
AcDbArc
 50
270.0
 51
359.972024
  0
ARC
  5
202
100
AcDbEntity
  8
M0
100
AcDbCircle
 10
261.189504
 20
776.057494
 40
0.5
100
AcDbArc
 50
270.0
 51
359.972024
  0
ARC
  5
203
100
AcDbEntity
  8
M0
100
AcDbCircle
 10
270.189504
 20
783.607542
 40
0.5
100
AcDbArc
 50
179.998251
 51
270.0
  0
ARC
  5
204
100
AcDbEntity
  8
M0
100
AcDbCircle
 10
261.989553
 20
785.107054
 40
0.5
100
AcDbArc
 50
270.0
 51
359.972024
  0
ARC
  5
205
100
AcDbEntity
  8
M0
100
AcDbCircle
 10
269.389699
 20
785.107054
 40
0.5
100
AcDbArc
 50
179.998251
 51
270.0
  0
ARC
  5
206
100
AcDbEntity
  8
M0
100
AcDbCircle
 10
268.689504
 20
794.107054
 40
1.0
100
AcDbArc
 50
0.0
 51
89.999126
  0
ARC
  5
207
100
AcDbEntity
  8
M0
100
AcDbCircle
 10
262.689504
 20
794.107054
 40
1.0
100
AcDbArc
 50
89.999126
 51
179.999126
  0
ARC
  5
208
100
AcDbEntity
  8
M0
100
AcDbCircle
 10
263.189504
 20
794.107054
 40
1.0
100
AcDbArc
 50
89.999126
 51
179.999126
  0
ARC
  5
209
100
AcDbEntity
  8
M0
100
AcDbCircle
 10
268.189504
 20
794.107054
 40
1.0
100
AcDbArc
 50
359.986012
 51
449.999126
  0
LINE
  5
20A
100
AcDbEntity
  8
M0
100
AcDbLine
 10
267.939504
 20
786.107542
 11
267.939504
 21
785.607542
  0
LINE
  5
20B
100
AcDbEntity
  8
M0
100
AcDbLine
 10
263.439504
 20
786.107542
 11
263.439504
 21
785.607542
  0
ARC
  5
20C
100
AcDbEntity
  8
M0
100
AcDbCircle
 10
266.689504
 20
803.357298
 40
1.0
100
AcDbArc
 50
89.999126
 51
179.999126
  0
ARC
  5
20D
100
AcDbEntity
  8
M0
100
AcDbCircle
 10
266.689504
 20
797.857298
 40
1.0
100
AcDbArc
 50
179.999126
 51
270.0
  0
ARC
  5
20E
100
AcDbEntity
  8
M0
100
AcDbCircle
 10
262.689504
 20
807.107054
 40
1.0
100
AcDbArc
 50
179.999126
 51
270.0
  0
ARC
  5
20F
100
AcDbEntity
  8
M0
100
AcDbCircle
 10
268.689504
 20
807.107054
 40
1.0
100
AcDbArc
 50
270.0
 51
359.986012
  0
ARC
  5
210
100
AcDbEntity
  8
M0
100
AcDbCircle
 10
268.189504
 20
807.107054
 40
1.0
100
AcDbArc
 50
270.0
 51
337.727621
  0
ARC
  5
211
100
AcDbEntity
  8
M0
100
AcDbCircle
 10
263.189504
 20
807.107054
 40
1.0
100
AcDbArc
 50
202.275469
 51
270.0
  0
ARC
  5
212
100
AcDbEntity
  8
M0
100
AcDbCircle
 10
273.189504
 20
796.357298
 40
0.5
100
AcDbArc
 50
0.0
 51
89.998251
  0
ARC
  5
213
100
AcDbEntity
  8
M0
100
AcDbCircle
 10
273.189504
 20
804.857298
 40
0.5
100
AcDbArc
 50
270.0
 51
360.0
  0
LINE
  5
214
100
AcDbEntity
  8
M0
100
AcDbLine
 10
269.689504
 20
803.357542
 11
273.689504
 21
803.357542
  0
LINE
  5
215
100
AcDbEntity
  8
M0
100
AcDbLine
 10
269.689504
 20
797.857542
 11
273.689504
 21
797.857542
  0
LINE
  5
216
100
AcDbEntity
  8
M0
100
AcDbLine
 10
269.689504
 20
797.857542
 11
269.689504
 21
796.857542
  0
LINE
  5
217
100
AcDbEntity
  8
M0
100
AcDbLine
 10
269.689504
 20
803.357542
 11
269.689504
 21
804.357542
  0
LINE
  5
218
100
AcDbEntity
  8
M0
100
AcDbLine
 10
139.689504
 20
797.857542
 11
139.689504
 21
796.857542
  0
LINE
  5
219
100
AcDbEntity
  8
M0
100
AcDbLine
 10
139.689504
 20
797.857542
 11
135.689504
 21
797.857542
  0
LINE
  5
21A
100
AcDbEntity
  8
M0
100
AcDbLine
 10
139.689504
 20
803.357542
 11
139.689504
 21
804.357542
  0
LINE
  5
21B
100
AcDbEntity
  8
M0
100
AcDbLine
 10
139.689504
 20
803.357542
 11
135.689504
 21
803.357542
  0
ARC
  5
21C
100
AcDbEntity
  8
M0
100
AcDbCircle
 10
142.689504
 20
797.857542
 40
1.0
100
AcDbArc
 50
270.0
 51
360.0
  0
ARC
  5
21D
100
AcDbEntity
  8
M0
100
AcDbCircle
 10
142.689504
 20
803.357542
 40
1.0
100
AcDbArc
 50
0.0
 51
89.999126
  0
ARC
  5
21E
100
AcDbEntity
  8
M0
100
AcDbCircle
 10
146.689504
 20
794.107542
 40
1.0
100
AcDbArc
 50
0.0
 51
89.999126
  0
ARC
  5
21F
100
AcDbEntity
  8
M0
100
AcDbCircle
 10
140.689504
 20
794.107542
 40
1.0
100
AcDbArc
 50
89.999126
 51
179.999126
  0
ARC
  5
220
100
AcDbEntity
  8
M0
100
AcDbCircle
 10
140.689504
 20
807.107542
 40
1.0
100
AcDbArc
 50
179.999126
 51
270.0
  0
ARC
  5
221
100
AcDbEntity
  8
M0
100
AcDbCircle
 10
146.689504
 20
807.107542
 40
1.0
100
AcDbArc
 50
270.0
 51
359.986012
  0
ARC
  5
222
100
AcDbEntity
  8
M0
100
AcDbCircle
 10
146.189504
 20
807.107542
 40
1.0
100
AcDbArc
 50
270.0
 51
337.688817
  0
ARC
  5
223
100
AcDbEntity
  8
M0
100
AcDbCircle
 10
141.189504
 20
794.107542
 40
1.0
100
AcDbArc
 50
89.999126
 51
157.682969
  0
ARC
  5
224
100
AcDbEntity
  8
M0
100
AcDbCircle
 10
146.189504
 20
794.107542
 40
1.0
100
AcDbArc
 50
22.313941
 51
89.999126
  0
ARC
  5
225
100
AcDbEntity
  8
M0
100
AcDbCircle
 10
141.189504
 20
807.107542
 40
1.0
100
AcDbArc
 50
202.314273
 51
270.0
  0
ARC
  5
226
100
AcDbEntity
  8
M0
100
AcDbCircle
 10
139.189504
 20
817.607542
 40
0.5
100
AcDbArc
 50
359.972024
 51
449.998251
  0
ARC
  5
227
100
AcDbEntity
  8
M0
100
AcDbCircle
 10
148.189504
 20
825.157347
 40
0.5
100
AcDbArc
 50
89.998251
 51
179.998251
  0
ARC
  5
228
100
AcDbEntity
  8
M0
100
AcDbCircle
 10
148.189504
 20
784.607542
 40
0.5
100
AcDbArc
 50
179.998251
 51
270.0
  0
ARC
  5
229
100
AcDbEntity
  8
M0
100
AcDbCircle
 10
136.189504
 20
783.607542
 40
0.5
100
AcDbArc
 50
179.998251
 51
270.0
  0
ARC
  5
22A
100
AcDbEntity
  8
M0
100
AcDbCircle
 10
136.189504
 20
773.607542
 40
0.5
100
AcDbArc
 50
179.998251
 51
270.0
  0
ARC
  5
22B
100
AcDbEntity
  8
M0
100
AcDbCircle
 10
139.189504
 20
783.607542
 40
0.5
100
AcDbArc
 50
270.0
 51
359.972024
  0
ARC
  5
22C
100
AcDbEntity
  8
M0
100
AcDbCircle
 10
148.189504
 20
776.057494
 40
0.5
100
AcDbArc
 50
179.998251
 51
270.0
  0
ARC
  5
22D
100
AcDbEntity
  8
M0
100
AcDbCircle
 10
136.189504
 20
796.357542
 40
0.5
100
AcDbArc
 50
89.998251
 51
179.998251
  0
ARC
  5
22E
100
AcDbEntity
  8
M0
100
AcDbCircle
 10
148.189504
 20
816.607542
 40
0.5
100
AcDbArc
 50
89.998251
 51
179.998251
  0
ARC
  5
22F
100
AcDbEntity
  8
M0
100
AcDbCircle
 10
136.189504
 20
817.607542
 40
0.5
100
AcDbArc
 50
89.998251
 51
179.998251
  0
ARC
  5
230
100
AcDbEntity
  8
M0
100
AcDbCircle
 10
136.189504
 20
827.607542
 40
0.5
100
AcDbArc
 50
89.998251
 51
179.998251
  0
ARC
  5
231
100
AcDbEntity
  8
M0
100
AcDbCircle
 10
139.189504
 20
773.607542
 40
0.5
100
AcDbArc
 50
270.0
 51
359.972024
  0
ARC
  5
232
100
AcDbEntity
  8
M0
100
AcDbCircle
 10
139.189504
 20
827.607542
 40
0.5
100
AcDbArc
 50
0.0
 51
89.998251
  0
ARC
  5
233
100
AcDbEntity
  8
M0
100
AcDbCircle
 10
136.189504
 20
804.857542
 40
0.5
100
AcDbArc
 50
179.998251
 51
270.0
  0
LINE
  5
234
100
AcDbEntity
  8
M0
100
AcDbLine
 10
149.689504
 20
869.75041
 11
149.689504
 21
863.607542
  0
LINE
  5
235
100
AcDbEntity
  8
M0
100
AcDbLine
 10
259.689504
 20
869.75041
 11
259.689504
 21
863.607542
  0
LINE
  5
236
100
AcDbEntity
  8
M0
100
AcDbLine
 10
149.689504
 20
737.607542
 11
149.689504
 21
731.464873
  0
LINE
  5
237
100
AcDbEntity
  8
M0
100
AcDbLine
 10
259.689504
 20
737.607542
 11
259.689504
 21
731.464873
  0
LINE
  5
238
100
AcDbEntity
  8
M0
100
AcDbLine
 10
271.68926
 20
887.107542
 11
269.189504
 21
887.107542
  0
ARC
  5
239
100
AcDbEntity
  8
M0
100
AcDbCircle
 10
271.689504
 20
885.107298
 40
2.0
100
AcDbArc
 50
0.0
 51
90.005683
  0
ARC
  5
23A
100
AcDbEntity
  8
M0
100
AcDbCircle
 10
137.689504
 20
885.107298
 40
2.0
100
AcDbArc
 50
89.999563
 51
180.005683
  0
LINE
  5
23B
100
AcDbEntity
  8
M0
100
AcDbLine
 10
140.189504
 20
887.107314
 11
137.689504
 21
887.107298
  0
LINE
  5
23C
100
AcDbEntity
  8
M0
100
AcDbLine
 10
244.189504
 20
887.107497
 11
217.189504
 21
887.107451
  0
LINE
  5
23D
100
AcDbEntity
  8
M0
100
AcDbLine
 10
264.814504
 20
725.607695
 11
273.689504
 21
725.607695
  0
LINE
  5
23E
100
AcDbEntity
  8
M0
100
AcDbLine
 10
165.592733
 20
725.607695
 11
177.689504
 21
725.607695
  0
LINE
  5
23F
100
AcDbEntity
  8
M0
100
AcDbLine
 10
147.089482
 20
824.607542
 11
147.689504
 21
824.607542
  0
LINE
  5
240
100
AcDbEntity
  8
M0
100
AcDbLine
 10
146.839498
 20
815.107542
 11
147.689504
 21
815.107542
  0
LINE
  5
241
100
AcDbEntity
  8
M0
100
AcDbLine
 10
146.839498
 20
815.607542
 11
146.889455
 21
815.607542
  0
LINE
  5
242
100
AcDbEntity
  8
M0
100
AcDbLine
 10
146.839498
 20
786.107542
 11
147.689504
 21
786.107542
  0
LINE
  5
243
100
AcDbEntity
  8
M0
100
AcDbLine
 10
146.839498
 20
785.607542
 11
146.889455
 21
785.607542
  0
LINE
  5
244
100
AcDbEntity
  8
M0
100
AcDbLine
 10
147.089482
 20
776.607542
 11
147.689504
 21
776.607542
  0
LINE
  5
245
100
AcDbEntity
  8
M0
100
AcDbLine
 10
269.089482
 20
824.607542
 11
269.689504
 21
824.607542
  0
LINE
  5
246
100
AcDbEntity
  8
M0
100
AcDbLine
 10
269.089482
 20
815.107542
 11
269.689504
 21
815.107542
  0
LINE
  5
247
100
AcDbEntity
  8
M0
100
AcDbLine
 10
192.189504
 20
887.107405
 11
165.189504
 21
887.107359
  0
LINE
  5
248
100
AcDbEntity
  8
M0
100
AcDbLine
 10
192.189504
 20
875.607069
 11
190.705129
 21
875.607054
  0
LINE
  5
249
100
AcDbEntity
  8
M0
100
AcDbLine
 10
217.189504
 20
725.607695
 11
218.673391
 21
725.607695
  0
LINE
  5
24A
100
AcDbEntity
  8
M0
 62
     7
100
AcDbLine
 10
179.689504
 20
725.607695
 11
189.689504
 21
725.607695
  0
LINE
  5
24B
100
AcDbEntity
  8
M0
 62
     7
100
AcDbLine
 10
259.689504
 20
737.607527
 11
259.689504
 21
863.607542
  0
LINE
  5
24C
100
AcDbEntity
  8
M0
 62
     7
100
AcDbLine
 10
229.689504
 20
875.607542
 11
219.689504
 21
875.607542
  0
LINE
  5
24D
100
AcDbEntity
  8
M0
 62
     7
100
AcDbLine
 10
149.689504
 20
863.607542
 11
149.689504
 21
737.607542
  0
LINE
  5
24E
100
AcDbEntity
  8
M0
 62
     7
100
AcDbLine
 10
151.689504
 20
865.607542
 11
176.689504
 21
865.607542
  0
LINE
  5
24F
100
AcDbEntity
  8
M0
 62
     7
100
AcDbLine
 10
151.689504
 20
735.607542
 11
176.689504
 21
735.607542
  0
ARC
  5
250
100
AcDbEntity
  8
M0
 62
     7
100
AcDbCircle
 10
257.689504
 20
863.607542
 40
2.0
100
AcDbArc
 50
0.0
 51
89.999563
  0
ARC
  5
251
100
AcDbEntity
  8
M0
 62
     7
100
AcDbCircle
 10
151.689504
 20
863.607542
 40
2.0
100
AcDbArc
 50
89.999563
 51
179.999563
  0
ARC
  5
252
100
AcDbEntity
  8
M0
 62
     7
100
AcDbCircle
 10
151.689504
 20
737.607542
 40
2.0
100
AcDbArc
 50
179.999563
 51
270.0
  0
ARC
  5
253
100
AcDbEntity
  8
M0
 62
     7
100
AcDbCircle
 10
257.689504
 20
737.607542
 40
2.0
100
AcDbArc
 50
270.0
 51
360.0
  0
LINE
  5
254
100
AcDbEntity
  8
M0
 62
     7
100
AcDbLine
 10
161.689504
 20
739.607542
 11
177.689504
 21
739.607542
  0
LINE
  5
255
100
AcDbEntity
  8
M0
 62
     7
100
AcDbLine
 10
161.689504
 20
861.607542
 11
177.689504
 21
861.607542
  0
LINE
  5
256
100
AcDbEntity
  8
M0
 62
     7
100
AcDbLine
 10
247.689504
 20
739.607542
 11
247.689504
 21
736.607542
  0
LINE
  5
257
100
AcDbEntity
  8
M0
 62
     7
100
AcDbLine
 10
231.689504
 20
739.607542
 11
231.689504
 21
722.107695
  0
LINE
  5
258
100
AcDbEntity
  8
M0
 62
     7
100
AcDbLine
 10
212.689504
 20
739.607542
 11
212.689504
 21
736.607542
  0
LINE
  5
259
100
AcDbEntity
  8
M0
 62
     7
100
AcDbLine
 10
196.689504
 20
739.607542
 11
196.689504
 21
736.607542
  0
LINE
  5
25A
100
AcDbEntity
  8
M0
 62
     7
100
AcDbLine
 10
161.689504
 20
739.607542
 11
161.689504
 21
736.607542
  0
LINE
  5
25B
100
AcDbEntity
  8
M0
 62
     7
100
AcDbLine
 10
177.689504
 20
739.607542
 11
177.689504
 21
722.107695
  0
LINE
  5
25C
100
AcDbEntity
  8
M0
 62
     7
100
AcDbLine
 10
247.689504
 20
864.607542
 11
247.689504
 21
861.607542
  0
LINE
  5
25D
100
AcDbEntity
  8
M0
 62
     7
100
AcDbLine
 10
231.689504
 20
865.607542
 11
231.689504
 21
861.607542
  0
LINE
  5
25E
100
AcDbEntity
  8
M0
 62
     7
100
AcDbLine
 10
212.689504
 20
864.607542
 11
212.689504
 21
861.607542
  0
LINE
  5
25F
100
AcDbEntity
  8
M0
 62
     7
100
AcDbLine
 10
196.689504
 20
864.607542
 11
196.689504
 21
861.607542
  0
LINE
  5
260
100
AcDbEntity
  8
M0
 62
     7
100
AcDbLine
 10
177.689504
 20
865.607542
 11
177.689504
 21
861.607542
  0
LINE
  5
261
100
AcDbEntity
  8
M0
 62
     7
100
AcDbLine
 10
161.689504
 20
864.607542
 11
161.689504
 21
861.607542
  0
LINE
  5
262
100
AcDbEntity
  8
M0
 62
     7
100
AcDbLine
 10
196.689504
 20
739.607542
 11
212.689504
 21
739.607542
  0
LINE
  5
263
100
AcDbEntity
  8
M0
 62
     7
100
AcDbLine
 10
231.689504
 20
739.607542
 11
247.689504
 21
739.607542
  0
LINE
  5
264
100
AcDbEntity
  8
M0
 62
     7
100
AcDbLine
 10
231.689504
 20
861.607542
 11
247.689504
 21
861.607542
  0
LINE
  5
265
100
AcDbEntity
  8
M0
 62
     7
100
AcDbLine
 10
196.689504
 20
861.607542
 11
212.689504
 21
861.607542
  0
ARC
  5
266
100
AcDbEntity
  8
M0
 62
     7
100
AcDbCircle
 10
179.689504
 20
727.607695
 40
2.0
100
AcDbArc
 50
179.979017
 51
270.0
  0
ARC
  5
267
100
AcDbEntity
  8
M0
 62
     7
100
AcDbCircle
 10
229.689504
 20
727.607695
 40
2.0
100
AcDbArc
 50
270.0
 51
360.0
  0
LINE
  5
268
100
AcDbEntity
  8
M0
 62
     7
100
AcDbLine
 10
191.689504
 20
734.607542
 11
191.689504
 21
727.607695
  0
LINE
  5
269
100
AcDbEntity
  8
M0
 62
     7
100
AcDbLine
 10
217.689504
 20
734.607542
 11
217.689504
 21
727.607695
  0
LINE
  5
26A
100
AcDbEntity
  8
M0
 62
     7
100
AcDbLine
 10
219.689504
 20
725.607695
 11
229.689504
 21
725.607695
  0
LINE
  5
26B
100
AcDbEntity
  8
M0
 62
     7
100
AcDbLine
 10
192.689504
 20
735.607542
 11
216.689504
 21
735.607542
  0
LINE
  5
26C
100
AcDbEntity
  8
M0
 62
     7
100
AcDbLine
 10
232.689504
 20
735.607542
 11
257.689504
 21
735.607542
  0
ARC
  5
26D
100
AcDbEntity
  8
M0
 62
     7
100
AcDbCircle
 10
189.689504
 20
727.607695
 40
2.0
100
AcDbArc
 50
270.0
 51
360.0
  0
ARC
  5
26E
100
AcDbEntity
  8
M0
 62
     7
100
AcDbCircle
 10
219.689504
 20
727.607695
 40
2.0
100
AcDbArc
 50
179.979017
 51
270.0
  0
ARC
  5
26F
100
AcDbEntity
  8
M0
 62
     7
100
AcDbCircle
 10
192.689504
 20
734.607542
 40
1.0
100
AcDbArc
 50
89.999126
 51
179.999126
  0
ARC
  5
270
100
AcDbEntity
  8
M0
 62
     7
100
AcDbCircle
 10
216.689504
 20
734.607542
 40
1.0
100
AcDbArc
 50
0.0
 51
89.999126
  0
ARC
  5
271
100
AcDbEntity
  8
M0
 62
     7
100
AcDbCircle
 10
248.689504
 20
736.607542
 40
1.0
100
AcDbArc
 50
179.999126
 51
270.0
  0
ARC
  5
272
100
AcDbEntity
  8
M0
 62
     7
100
AcDbCircle
 10
232.689504
 20
734.607542
 40
1.0
100
AcDbArc
 50
89.999126
 51
179.999126
  0
ARC
  5
273
100
AcDbEntity
  8
M0
 62
     7
100
AcDbCircle
 10
213.689504
 20
736.607542
 40
1.0
100
AcDbArc
 50
179.999126
 51
270.0
  0
ARC
  5
274
100
AcDbEntity
  8
M0
 62
     7
100
AcDbCircle
 10
195.689504
 20
736.607542
 40
1.0
100
AcDbArc
 50
270.0
 51
360.0
  0
ARC
  5
275
100
AcDbEntity
  8
M0
 62
     7
100
AcDbCircle
 10
176.689504
 20
734.607542
 40
1.0
100
AcDbArc
 50
0.0
 51
89.999126
  0
ARC
  5
276
100
AcDbEntity
  8
M0
 62
     7
100
AcDbCircle
 10
160.689504
 20
736.607542
 40
1.0
100
AcDbArc
 50
270.0
 51
360.0
  0
LINE
  5
277
100
AcDbEntity
  8
M0
 62
     7
100
AcDbLine
 10
231.689504
 20
879.107298
 11
231.689504
 21
865.607542
  0
LINE
  5
278
100
AcDbEntity
  8
M0
 62
     7
100
AcDbLine
 10
217.689504
 20
873.607298
 11
217.689504
 21
866.607542
  0
LINE
  5
279
100
AcDbEntity
  8
M0
 62
     7
100
AcDbLine
 10
191.689504
 20
873.607054
 11
191.689504
 21
866.607542
  0
LINE
  5
27A
100
AcDbEntity
  8
M0
 62
     7
100
AcDbLine
 10
177.689504
 20
879.10681
 11
177.689504
 21
865.607542
  0
LINE
  5
27B
100
AcDbEntity
  8
M0
 62
     7
100
AcDbLine
 10
189.689504
 20
875.607298
 11
179.689504
 21
875.607298
  0
ARC
  5
27C
100
AcDbEntity
  8
M0
 62
     7
100
AcDbCircle
 10
229.689504
 20
873.607298
 40
2.0
100
AcDbArc
 50
0.0
 51
89.999563
  0
ARC
  5
27D
100
AcDbEntity
  8
M0
 62
     7
100
AcDbCircle
 10
219.689504
 20
873.607298
 40
2.0
100
AcDbArc
 50
89.999563
 51
179.999563
  0
ARC
  5
27E
100
AcDbEntity
  8
M0
 62
     7
100
AcDbCircle
 10
189.689504
 20
873.607054
 40
2.0
100
AcDbArc
 50
0.0
 51
89.999563
  0
ARC
  5
27F
100
AcDbEntity
  8
M0
 62
     7
100
AcDbCircle
 10
179.689504
 20
873.607054
 40
2.0
100
AcDbArc
 50
89.999563
 51
179.999563
  0
LINE
  5
280
100
AcDbEntity
  8
M0
 62
     7
100
AcDbLine
 10
192.689504
 20
865.607542
 11
216.689504
 21
865.607542
  0
LINE
  5
281
100
AcDbEntity
  8
M0
 62
     7
100
AcDbLine
 10
232.689504
 20
865.607542
 11
257.689504
 21
865.607542
  0
ARC
  5
282
100
AcDbEntity
  8
M0
 62
     7
100
AcDbCircle
 10
192.689504
 20
866.607542
 40
1.0
100
AcDbArc
 50
179.999126
 51
270.0
  0
ARC
  5
283
100
AcDbEntity
  8
M0
 62
     7
100
AcDbCircle
 10
216.689504
 20
866.607542
 40
1.0
100
AcDbArc
 50
270.0
 51
360.0
  0
ARC
  5
284
100
AcDbEntity
  8
M0
 62
     7
100
AcDbCircle
 10
248.689504
 20
864.607542
 40
1.0
100
AcDbArc
 50
89.999126
 51
179.999126
  0
ARC
  5
285
100
AcDbEntity
  8
M0
 62
     7
100
AcDbCircle
 10
232.689504
 20
866.607542
 40
1.0
100
AcDbArc
 50
179.999126
 51
270.0
  0
ARC
  5
286
100
AcDbEntity
  8
M0
 62
     7
100
AcDbCircle
 10
213.689504
 20
864.607542
 40
1.0
100
AcDbArc
 50
89.999126
 51
179.999126
  0
ARC
  5
287
100
AcDbEntity
  8
M0
 62
     7
100
AcDbCircle
 10
160.689504
 20
864.607542
 40
1.0
100
AcDbArc
 50
0.0
 51
89.999126
  0
ARC
  5
288
100
AcDbEntity
  8
M0
 62
     7
100
AcDbCircle
 10
176.689504
 20
866.607542
 40
1.0
100
AcDbArc
 50
270.0
 51
360.0
  0
ARC
  5
289
100
AcDbEntity
  8
M0
 62
     7
100
AcDbCircle
 10
195.689504
 20
864.607542
 40
1.0
100
AcDbArc
 50
0.0
 51
89.999126
  0
LINE
  5
28A
100
AcDbEntity
  8
M0
 62
     7
100
AcDbLine
 10
179.689504
 20
720.107695
 11
186.689489
 21
720.107695
  0
LINE
  5
28B
100
AcDbEntity
  8
M0
 62
     7
100
AcDbLine
 10
222.689489
 20
720.107695
 11
229.689504
 21
720.107695
  0
LINE
  5
28C
100
AcDbEntity
  8
M0
 62
     7
100
AcDbLine
 10
229.689504
 20
881.107542
 11
222.689672
 21
881.107298
  0
LINE
  5
28D
100
AcDbEntity
  8
M0
 62
     7
100
AcDbLine
 10
186.689321
 20
881.10681
 11
179.689504
 21
881.107298
  0
ARC
  5
28E
100
AcDbEntity
  8
M0
 62
     7
100
AcDbCircle
 10
179.689504
 20
879.107054
 40
2.0
100
AcDbArc
 50
89.999563
 51
180.005683
  0
ARC
  5
28F
100
AcDbEntity
  8
M0
 62
     7
100
AcDbCircle
 10
229.689504
 20
879.107298
 40
2.0
100
AcDbArc
 50
0.0
 51
89.999563
  0
ARC
  5
290
100
AcDbEntity
  8
M0
 62
     7
100
AcDbCircle
 10
229.689504
 20
722.107695
 40
2.0
100
AcDbArc
 50
270.0
 51
360.0
  0
ARC
  5
291
100
AcDbEntity
  8
M0
 62
     7
100
AcDbCircle
 10
179.689504
 20
722.107695
 40
2.0
100
AcDbArc
 50
179.979017
 51
270.0
  0
LINE
  5
292
100
AcDbEntity
  8
M0
 62
     7
100
AcDbLine
 10
181.189504
 20
723.107695
 11
182.189504
 21
723.107695
  0
LINE
  5
293
100
AcDbEntity
  8
M0
 62
     7
100
AcDbLine
 10
224.189504
 20
723.107695
 11
225.189504
 21
723.107695
  0
LINE
  5
294
100
AcDbEntity
  8
M0
 62
     7
100
AcDbLine
 10
227.189504
 20
723.107695
 11
227.189504
 21
720.107695
  0
LINE
  5
295
100
AcDbEntity
  8
M0
 62
     7
100
AcDbLine
 10
225.189504
 20
723.107695
 11
225.189504
 21
720.107695
  0
LINE
  5
296
100
AcDbEntity
  8
M0
 62
     7
100
AcDbLine
 10
184.189504
 20
723.107695
 11
184.189504
 21
720.107695
  0
LINE
  5
297
100
AcDbEntity
  8
M0
 62
     7
100
AcDbLine
 10
182.189504
 20
723.107695
 11
182.189504
 21
720.107695
  0
LINE
  5
298
100
AcDbEntity
  8
M0
 62
     7
100
AcDbLine
 10
228.689504
 20
725.107695
 11
228.689504
 21
723.607695
  0
LINE
  5
299
100
AcDbEntity
  8
M0
 62
     7
100
AcDbLine
 10
223.689504
 20
725.107695
 11
223.689504
 21
723.607695
  0
LINE
  5
29A
100
AcDbEntity
  8
M0
 62
     7
100
AcDbLine
 10
185.689504
 20
725.107695
 11
185.689504
 21
723.607695
  0
LINE
  5
29B
100
AcDbEntity
  8
M0
 62
     7
100
AcDbLine
 10
180.689504
 20
725.107695
 11
180.689504
 21
723.607695
  0
LINE
  5
29C
100
AcDbEntity
  8
M0
 62
     7
100
AcDbLine
 10
184.189504
 20
723.107695
 11
185.189504
 21
723.107695
  0
LINE
  5
29D
100
AcDbEntity
  8
M0
 62
     7
100
AcDbLine
 10
227.189504
 20
723.107695
 11
228.189504
 21
723.107695
  0
ARC
  5
29E
100
AcDbEntity
  8
M0
 62
     7
100
AcDbCircle
 10
224.189504
 20
723.607695
 40
0.5
100
AcDbArc
 50
179.916068
 51
270.0
  0
ARC
  5
29F
100
AcDbEntity
  8
M0
 62
     7
100
AcDbCircle
 10
181.189504
 20
723.607695
 40
0.5
100
AcDbArc
 50
179.916068
 51
270.0
  0
ARC
  5
2A0
100
AcDbEntity
  8
M0
 62
     7
100
AcDbCircle
 10
185.189504
 20
723.607695
 40
0.5
100
AcDbArc
 50
270.0
 51
360.0
  0
ARC
  5
2A1
100
AcDbEntity
  8
M0
 62
     7
100
AcDbCircle
 10
228.189504
 20
723.607695
 40
0.5
100
AcDbArc
 50
270.0
 51
360.0
  0
ARC
  5
2A2
100
AcDbEntity
  8
M0
 62
     7
100
AcDbCircle
 10
224.189504
 20
725.107695
 40
0.5
100
AcDbArc
 50
89.998251
 51
179.916068
  0
ARC
  5
2A3
100
AcDbEntity
  8
M0
 62
     7
100
AcDbCircle
 10
181.189504
 20
725.107695
 40
0.5
100
AcDbArc
 50
89.998251
 51
179.916068
  0
ARC
  5
2A4
100
AcDbEntity
  8
M0
 62
     7
100
AcDbCircle
 10
228.189504
 20
725.107695
 40
0.5
100
AcDbArc
 50
0.0
 51
89.998251
  0
ARC
  5
2A5
100
AcDbEntity
  8
M0
 62
     7
100
AcDbCircle
 10
185.189504
 20
725.107695
 40
0.5
100
AcDbArc
 50
0.0
 51
89.998251
  0
LINE
  5
2A6
100
AcDbEntity
  8
M0
 62
     7
100
AcDbLine
 10
186.689504
 20
720.107695
 11
191.304723
 21
726.428252
  0
LINE
  5
2A7
100
AcDbEntity
  8
M0
 62
     7
100
AcDbLine
 10
222.689504
 20
720.107695
 11
218.074269
 21
726.428252
  0
LINE
  5
2A8
100
AcDbEntity
  8
M0
 62
     7
100
AcDbLine
 10
186.689504
 20
881.10681
 11
191.304708
 21
874.786497
  0
LINE
  5
2A9
100
AcDbEntity
  8
M0
 62
     7
100
AcDbLine
 10
222.689504
 20
881.107298
 11
218.074269
 21
874.786497
  0
LINE
  5
2AA
100
AcDbEntity
  8
M0
 62
     7
100
AcDbLine
 10
228.189412
 20
878.107054
 11
227.189504
 21
878.107054
  0
LINE
  5
2AB
100
AcDbEntity
  8
M0
 62
     7
100
AcDbLine
 10
185.189412
 20
878.106322
 11
184.189504
 21
878.106322
  0
LINE
  5
2AC
100
AcDbEntity
  8
M0
 62
     7
100
AcDbLine
 10
227.189504
 20
881.107298
 11
227.189504
 21
878.107542
  0
LINE
  5
2AD
100
AcDbEntity
  8
M0
 62
     7
100
AcDbLine
 10
225.189504
 20
881.107298
 11
225.189504
 21
878.107542
  0
LINE
  5
2AE
100
AcDbEntity
  8
M0
 62
     7
100
AcDbLine
 10
184.189504
 20
881.10681
 11
184.189504
 21
878.10681
  0
LINE
  5
2AF
100
AcDbEntity
  8
M0
 62
     7
100
AcDbLine
 10
182.189504
 20
881.107054
 11
182.189504
 21
878.10681
  0
LINE
  5
2B0
100
AcDbEntity
  8
M0
 62
     7
100
AcDbLine
 10
228.689504
 20
877.607054
 11
228.689504
 21
876.107298
  0
LINE
  5
2B1
100
AcDbEntity
  8
M0
 62
     7
100
AcDbLine
 10
223.689504
 20
877.607054
 11
223.689504
 21
876.107298
  0
LINE
  5
2B2
100
AcDbEntity
  8
M0
 62
     7
100
AcDbLine
 10
185.689504
 20
877.606322
 11
185.689504
 21
876.107054
  0
LINE
  5
2B3
100
AcDbEntity
  8
M0
 62
     7
100
AcDbLine
 10
180.689504
 20
877.606322
 11
180.689504
 21
876.107054
  0
LINE
  5
2B4
100
AcDbEntity
  8
M0
 62
     7
100
AcDbLine
 10
182.189504
 20
878.106322
 11
181.18958
 21
878.106322
  0
LINE
  5
2B5
100
AcDbEntity
  8
M0
 62
     7
100
AcDbLine
 10
225.189504
 20
878.107054
 11
224.18958
 21
878.107054
  0
ARC
  5
2B6
100
AcDbEntity
  8
M0
 62
     7
100
AcDbCircle
 10
228.189504
 20
877.607054
 40
0.5
100
AcDbArc
 50
0.0
 51
90.005246
  0
ARC
  5
2B7
100
AcDbEntity
  8
M0
 62
     7
100
AcDbCircle
 10
224.189504
 20
877.607054
 40
0.5
100
AcDbArc
 50
89.986012
 51
179.998251
  0
ARC
  5
2B8
100
AcDbEntity
  8
M0
 62
     7
100
AcDbCircle
 10
185.189504
 20
877.606322
 40
0.5
100
AcDbArc
 50
0.0
 51
90.005246
  0
ARC
  5
2B9
100
AcDbEntity
  8
M0
 62
     7
100
AcDbCircle
 10
181.189504
 20
877.606322
 40
0.5
100
AcDbArc
 50
89.986012
 51
179.998251
  0
ARC
  5
2BA
100
AcDbEntity
  8
M0
 62
     7
100
AcDbCircle
 10
185.189504
 20
876.107054
 40
0.5
100
AcDbArc
 50
270.0
 51
360.0
  0
ARC
  5
2BB
100
AcDbEntity
  8
M0
 62
     7
100
AcDbCircle
 10
228.189504
 20
876.107298
 40
0.5
100
AcDbArc
 50
270.0
 51
360.0
  0
ARC
  5
2BC
100
AcDbEntity
  8
M0
 62
     7
100
AcDbCircle
 10
181.189504
 20
876.107054
 40
0.5
100
AcDbArc
 50
179.998251
 51
270.0
  0
ARC
  5
2BD
100
AcDbEntity
  8
M0
 62
     7
100
AcDbCircle
 10
224.189504
 20
876.107298
 40
0.5
100
AcDbArc
 50
179.998251
 51
270.0
  0
LINE
  5
2BE
100
AcDbEntity
  8
M0
 62
     7
100
AcDbLine
 10
215.989492
 20
784.607542
 11
215.989492
 21
787.607298
  0
LINE
  5
2BF
100
AcDbEntity
  8
M0
 62
     7
100
AcDbLine
 10
193.389501
 20
784.607542
 11
193.389501
 21
787.607542
  0
LINE
  5
2C0
100
AcDbEntity
  8
M0
 62
     7
100
AcDbLine
 10
196.389501
 20
790.607542
 11
212.989492
 21
790.607542
  0
LINE
  5
2C1
100
AcDbEntity
  8
M0
 62
     7
100
AcDbLine
 10
194.153432
 20
789.607542
 11
215.225545
 21
789.607542
  0
LINE
  5
2C2
100
AcDbEntity
  8
M0
 62
     7
100
AcDbLine
 10
193.389501
 20
784.607542
 11
215.989492
 21
784.607542
  0
LINE
  5
2C3
100
AcDbEntity
  8
M0
 62
     7
100
AcDbLine
 10
196.389501
 20
794.607542
 11
196.689504
 21
794.607542
  0
LINE
  5
2C4
100
AcDbEntity
  8
M0
 62
     7
100
AcDbLine
 10
193.389501
 20
797.607542
 11
193.389501
 21
807.907347
  0
LINE
  5
2C5
100
AcDbEntity
  8
M0
 62
     7
100
AcDbLine
 10
215.989492
 20
797.607298
 11
215.989492
 21
807.907103
  0
LINE
  5
2C6
100
AcDbEntity
  8
M0
 62
     7
100
AcDbLine
 10
196.389501
 20
810.907347
 11
200.689504
 21
810.907347
  0
ARC
  5
2C7
100
AcDbEntity
  8
M0
 62
     7
100
AcDbCircle
 10
196.389501
 20
787.607542
 40
3.0
100
AcDbArc
 50
89.999709
 51
179.999709
  0
ARC
  5
2C8
100
AcDbEntity
  8
M0
 62
     7
100
AcDbCircle
 10
212.989492
 20
787.607542
 40
3.0
100
AcDbArc
 50
0.0
 51
89.999709
  0
ARC
  5
2C9
100
AcDbEntity
  8
M0
 62
     7
100
AcDbCircle
 10
212.989492
 20
807.907347
 40
3.0
100
AcDbArc
 50
0.0
 51
89.999709
  0
ARC
  5
2CA
100
AcDbEntity
  8
M0
 62
     7
100
AcDbCircle
 10
196.389501
 20
807.907347
 40
3.0
100
AcDbArc
 50
89.999709
 51
179.999709
  0
ARC
  5
2CB
100
AcDbEntity
  8
M0
 62
     7
100
AcDbCircle
 10
196.389501
 20
797.607542
 40
3.0
100
AcDbArc
 50
179.999709
 51
270.0
  0
ARC
  5
2CC
100
AcDbEntity
  8
M0
 62
     7
100
AcDbCircle
 10
212.989492
 20
797.607542
 40
3.0
100
AcDbArc
 50
270.0
 51
360.0
  0
LINE
  5
2CD
100
AcDbEntity
  8
M0
 62
     7
100
AcDbLine
 10
212.689504
 20
794.607542
 11
212.689504
 21
790.607542
  0
LINE
  5
2CE
100
AcDbEntity
  8
M0
 62
     7
100
AcDbLine
 10
196.689504
 20
794.607542
 11
196.689504
 21
790.607542
  0
LINE
  5
2CF
100
AcDbEntity
  8
M0
 62
     7
100
AcDbLine
 10
212.689504
 20
794.607542
 11
212.989492
 21
794.607542
  0
LINE
  5
2D0
100
AcDbEntity
  8
M0
 62
     7
100
AcDbLine
 10
197.689504
 20
793.607542
 11
197.689504
 21
791.607542
  0
LINE
  5
2D1
100
AcDbEntity
  8
M0
 62
     7
100
AcDbLine
 10
211.689504
 20
793.607542
 11
211.689504
 21
791.607542
  0
LINE
  5
2D2
100
AcDbEntity
  8
M0
 62
     7
100
AcDbLine
 10
196.689504
 20
791.607542
 11
197.689504
 21
791.607542
  0
LINE
  5
2D3
100
AcDbEntity
  8
M0
 62
     7
100
AcDbLine
 10
211.689504
 20
791.607542
 11
212.689504
 21
791.607542
  0
LINE
  5
2D4
100
AcDbEntity
  8
M0
 62
     7
100
AcDbLine
 10
196.689504
 20
793.607542
 11
197.689504
 21
793.607542
  0
LINE
  5
2D5
100
AcDbEntity
  8
M0
 62
     7
100
AcDbLine
 10
211.689504
 20
793.607542
 11
212.689504
 21
793.607542
  0
LINE
  5
2D6
100
AcDbEntity
  8
M0
 62
     7
100
AcDbLine
 10
213.489492
 20
794.64929
 11
213.489492
 21
797.607542
  0
LINE
  5
2D7
100
AcDbEntity
  8
M0
 62
     7
100
AcDbLine
 10
195.889501
 20
794.64929
 11
195.889501
 21
797.607298
  0
LINE
  5
2D8
100
AcDbEntity
  8
M0
 62
     7
100
AcDbLine
 10
193.389501
 20
798.107542
 11
195.389501
 21
798.107542
  0
LINE
  5
2D9
100
AcDbEntity
  8
M0
 62
     7
100
AcDbLine
 10
213.989492
 20
798.107542
 11
215.989492
 21
798.107542
  0
ARC
  5
2DA
100
AcDbEntity
  8
M0
 62
     7
100
AcDbCircle
 10
213.989492
 20
797.607542
 40
0.5
100
AcDbArc
 50
89.998251
 51
179.998251
  0
ARC
  5
2DB
100
AcDbEntity
  8
M0
 62
     7
100
AcDbCircle
 10
195.389501
 20
797.607542
 40
0.5
100
AcDbArc
 50
359.972024
 51
449.998251
  0
LINE
  5
2DC
100
AcDbEntity
  8
M0
 62
     7
100
AcDbLine
 10
212.689504
 20
809.107542
 11
212.689504
 21
810.907347
  0
LINE
  5
2DD
100
AcDbEntity
  8
M0
 62
     7
100
AcDbLine
 10
196.689504
 20
809.107298
 11
196.689504
 21
810.907347
  0
LINE
  5
2DE
100
AcDbEntity
  8
M0
 62
     7
100
AcDbLine
 10
213.189504
 20
808.607542
 11
215.906621
 21
808.607542
  0
LINE
  5
2DF
100
AcDbEntity
  8
M0
 62
     7
100
AcDbLine
 10
193.472356
 20
808.607542
 11
196.189504
 21
808.607542
  0
ARC
  5
2E0
100
AcDbEntity
  8
M0
 62
     7
100
AcDbCircle
 10
196.189504
 20
809.107542
 40
0.5
100
AcDbArc
 50
270.0
 51
359.972024
  0
ARC
  5
2E1
100
AcDbEntity
  8
M0
 62
     7
100
AcDbCircle
 10
213.189504
 20
809.107542
 40
0.5
100
AcDbArc
 50
179.998251
 51
270.0
  0
LINE
  5
2E2
100
AcDbEntity
  8
M0
 62
     7
100
AcDbLine
 10
201.939504
 20
813.607542
 11
207.439504
 21
813.607542
  0
LINE
  5
2E3
100
AcDbEntity
  8
M0
 62
     7
100
AcDbLine
 10
202.939504
 20
816.607542
 11
206.439504
 21
816.607542
  0
LINE
  5
2E4
100
AcDbEntity
  8
M0
 62
     7
100
AcDbLine
 10
200.689504
 20
812.607542
 11
201.939504
 21
812.607542
  0
LINE
  5
2E5
100
AcDbEntity
  8
M0
 62
     7
100
AcDbLine
 10
200.689504
 20
813.307494
 11
201.939504
 21
813.307494
  0
LINE
  5
2E6
100
AcDbEntity
  8
M0
 62
     7
100
AcDbLine
 10
208.689504
 20
813.307494
 11
208.689504
 21
810.907347
  0
LINE
  5
2E7
100
AcDbEntity
  8
M0
 62
     7
100
AcDbLine
 10
200.689504
 20
813.307494
 11
200.689504
 21
810.907347
  0
LINE
  5
2E8
100
AcDbEntity
  8
M0
 62
     7
100
AcDbLine
 10
207.439504
 20
812.607542
 11
207.439504
 21
815.607298
  0
LINE
  5
2E9
100
AcDbEntity
  8
M0
 62
     7
100
AcDbLine
 10
201.939504
 20
812.607542
 11
201.939504
 21
815.607542
  0
LINE
  5
2EA
100
AcDbEntity
  8
M0
 62
     7
100
AcDbLine
 10
208.689504
 20
810.907347
 11
212.989492
 21
810.907347
  0
LINE
  5
2EB
100
AcDbEntity
  8
M0
 62
     7
100
AcDbLine
 10
207.439504
 20
812.607542
 11
208.689504
 21
812.607542
  0
LINE
  5
2EC
100
AcDbEntity
  8
M0
 62
     7
100
AcDbLine
 10
207.439504
 20
813.307494
 11
208.689504
 21
813.307494
  0
ARC
  5
2ED
100
AcDbEntity
  8
M0
 62
     7
100
AcDbCircle
 10
206.439504
 20
815.607542
 40
1.0
100
AcDbArc
 50
359.986012
 51
449.999126
  0
ARC
  5
2EE
100
AcDbEntity
  8
M0
 62
     7
100
AcDbCircle
 10
202.939504
 20
815.607542
 40
1.0
100
AcDbArc
 50
89.999126
 51
179.999126
  0
CIRCLE
  5
2EF
100
AcDbEntity
  8
M0
 62
     7
100
AcDbCircle
 10
224.689504
 20
733.607542
 40
4.5
  0
CIRCLE
  5
2F0
100
AcDbEntity
  8
M0
 62
     7
100
AcDbCircle
 10
184.689504
 20
867.607542
 40
4.5
  0
CIRCLE
  5
2F1
100
AcDbEntity
  8
M0
 62
     7
100
AcDbCircle
 10
184.689504
 20
733.607542
 40
1.86
  0
CIRCLE
  5
2F2
100
AcDbEntity
  8
M0
 62
     7
100
AcDbCircle
 10
224.689504
 20
867.607542
 40
1.86
  0
CIRCLE
  5
2F3
100
AcDbEntity
  8
M0
 62
     7
100
AcDbCircle
 10
184.689504
 20
733.607542
 40
1.36
  0
CIRCLE
  5
2F4
100
AcDbEntity
  8
M0
 62
     7
100
AcDbCircle
 10
224.689504
 20
867.607542
 40
1.36
  0
CIRCLE
  5
2F5
100
AcDbEntity
  8
M0
100
AcDbCircle
 10
184.689504
 20
867.607542
 40
2.25
  0
CIRCLE
  5
2F6
100
AcDbEntity
  8
M0
100
AcDbCircle
 10
224.689504
 20
733.607542
 40
2.25
  0
LINE
  5
2F7
100
AcDbEntity
  8
M0
 62
     6
100
AcDbLine
 10
244.189504
 20
700.107542
 11
269.189504
 21
700.107542
  0
LINE
  5
2F8
100
AcDbEntity
  8
M0
 62
     6
100
AcDbLine
 10
235.721761
 20
735.607542
 11
244.189504
 21
725.107542
  0
LINE
  5
2F9
100
AcDbEntity
  8
M0
 62
     6
100
AcDbLine
 10
256.064504
 20
735.607542
 11
269.189504
 21
720.607542
  0
LINE
  5
2FA
100
AcDbEntity
  8
M0
 62
     6
100
AcDbLine
 10
269.189504
 20
700.107542
 11
269.189504
 21
720.607542
  0
LINE
  5
2FB
100
AcDbEntity
  8
M0
 62
     6
100
AcDbLine
 10
244.189504
 20
725.107542
 11
244.189504
 21
700.107542
  0
LINE
  5
2FC
100
AcDbEntity
  8
M0
 62
     6
100
AcDbLine
 10
165.189504
 20
700.107542
 11
140.189504
 21
700.107542
  0
LINE
  5
2FD
100
AcDbEntity
  8
M0
 62
     6
100
AcDbLine
 10
173.657247
 20
735.607542
 11
165.189504
 21
725.107542
  0
LINE
  5
2FE
100
AcDbEntity
  8
M0
 62
     6
100
AcDbLine
 10
153.314504
 20
735.607542
 11
140.189504
 21
720.607542
  0
LINE
  5
2FF
100
AcDbEntity
  8
M0
 62
     6
100
AcDbLine
 10
140.189504
 20
700.107542
 11
140.189504
 21
720.607542
  0
LINE
  5
300
100
AcDbEntity
  8
M0
 62
     6
100
AcDbLine
 10
165.189504
 20
725.107542
 11
165.189504
 21
700.107542
  0
LINE
  5
301
100
AcDbEntity
  8
M0
  6
DASHDOT
 62
     6
100
AcDbLine
 10
161.689504
 20
712.607542
 11
143.689504
 21
712.607542
  0
LINE
  5
302
100
AcDbEntity
  8
M0
  6
DASHDOT
 62
     6
100
AcDbLine
 10
152.689504
 20
703.607542
 11
152.689504
 21
721.607542
  0
LINE
  5
303
100
AcDbEntity
  8
M0
 62
     6
100
AcDbLine
 10
244.189622
 20
901.107458
 11
269.189622
 21
901.107473
  0
LINE
  5
304
100
AcDbEntity
  8
M0
 62
     6
100
AcDbLine
 10
235.721901
 20
865.607452
 11
244.189638
 21
876.107458
  0
LINE
  5
305
100
AcDbEntity
  8
M0
 62
     6
100
AcDbLine
 10
256.064644
 20
865.607465
 11
269.189635
 21
880.607473
  0
LINE
  5
306
100
AcDbEntity
  8
M0
 62
     6
100
AcDbLine
 10
269.189622
 20
901.107473
 11
269.189635
 21
880.607473
  0
LINE
  5
307
100
AcDbEntity
  8
M0
 62
     6
100
AcDbLine
 10
244.189638
 20
876.107458
 11
244.189622
 21
901.107458
  0
LINE
  5
308
100
AcDbEntity
  8
M0
  6
DASHDOT
 62
     6
100
AcDbLine
 10
256.689624
 20
897.607466
 11
256.689636
 21
879.607466
  0
LINE
  5
309
100
AcDbEntity
  8
M0
 62
     6
100
AcDbLine
 10
165.189622
 20
901.107458
 11
140.189622
 21
901.107442
  0
LINE
  5
30A
100
AcDbEntity
  8
M0
 62
     6
100
AcDbLine
 10
173.657387
 20
865.607463
 11
165.189638
 21
876.107458
  0
LINE
  5
30B
100
AcDbEntity
  8
M0
 62
     6
100
AcDbLine
 10
153.314644
 20
865.60745
 11
140.189635
 21
880.607442
  0
LINE
  5
30C
100
AcDbEntity
  8
M0
 62
     6
100
AcDbLine
 10
140.189622
 20
901.107442
 11
140.189635
 21
880.607442
  0
LINE
  5
30D
100
AcDbEntity
  8
M0
 62
     6
100
AcDbLine
 10
165.189638
 20
876.107458
 11
165.189622
 21
901.107458
  0
LINE
  5
30E
100
AcDbEntity
  8
M0
  6
DASHDOT
 62
     6
100
AcDbLine
 10
152.689624
 20
897.60745
 11
152.689636
 21
879.60745
  0
LINE
  5
30F
100
AcDbEntity
  8
M0
 62
     7
100
AcDbLine
 10
197.339498
 20
790.307494
 11
212.039495
 21
790.307494
  0
LINE
  5
310
100
AcDbEntity
  8
M0
 62
     7
100
AcDbLine
 10
215.689504
 20
797.907103
 11
215.689504
 21
807.607054
  0
LINE
  5
311
100
AcDbEntity
  8
M0
 62
     7
100
AcDbLine
 10
193.689504
 20
807.607298
 11
193.689504
 21
797.907347
  0
LINE
  5
312
100
AcDbEntity
  8
M0
 62
     7
100
AcDbLine
 10
212.689489
 20
810.607542
 11
208.439504
 21
810.607298
  0
LINE
  5
313
100
AcDbEntity
  8
M0
 62
     7
100
AcDbLine
 10
196.689504
 20
794.907347
 11
196.839498
 21
794.907347
  0
ARC
  5
314
100
AcDbEntity
  8
M0
 62
     7
100
AcDbCircle
 10
212.689504
 20
797.907347
 40
3.0
100
AcDbArc
 50
270.0
 51
360.0
  0
ARC
  5
315
100
AcDbEntity
  8
M0
 62
     7
100
AcDbCircle
 10
212.689504
 20
807.607298
 40
3.0
100
AcDbArc
 50
0.0
 51
89.999709
  0
ARC
  5
316
100
AcDbEntity
  8
M0
 62
     7
100
AcDbCircle
 10
196.689504
 20
807.607298
 40
3.0
100
AcDbArc
 50
89.999709
 51
179.999709
  0
ARC
  5
317
100
AcDbEntity
  8
M0
 62
     7
100
AcDbCircle
 10
196.689504
 20
797.907347
 40
3.0
100
AcDbArc
 50
179.999709
 51
270.0
  0
LINE
  5
318
100
AcDbEntity
  8
M0
 62
     7
100
AcDbLine
 10
212.539495
 20
794.907347
 11
212.539495
 21
790.807494
  0
LINE
  5
319
100
AcDbEntity
  8
M0
 62
     7
100
AcDbLine
 10
196.839498
 20
794.907347
 11
196.839498
 21
790.807494
  0
LINE
  5
31A
100
AcDbEntity
  8
M0
 62
     7
100
AcDbLine
 10
212.539495
 20
794.907347
 11
212.689504
 21
794.907347
  0
ARC
  5
31B
100
AcDbEntity
  8
M0
 62
     7
100
AcDbCircle
 10
197.339498
 20
790.807494
 40
0.5
100
AcDbArc
 50
179.998251
 51
270.0
  0
ARC
  5
31C
100
AcDbEntity
  8
M0
 62
     7
100
AcDbCircle
 10
212.039495
 20
790.807494
 40
0.5
100
AcDbArc
 50
270.0
 51
360.0
  0
LINE
  5
31D
100
AcDbEntity
  8
M0
 62
     7
100
AcDbLine
 10
208.439504
 20
813.307494
 11
208.439504
 21
810.607542
  0
LINE
  5
31E
100
AcDbEntity
  8
M0
 62
     7
100
AcDbLine
 10
200.939504
 20
813.307494
 11
200.939504
 21
810.607542
  0
LINE
  5
31F
100
AcDbEntity
  8
M0
 62
     7
100
AcDbLine
 10
200.939504
 20
810.607298
 11
196.689489
 21
810.607542
  0
LINE
  5
320
100
AcDbEntity
  8
M0
 62
     7
100
AcDbLine
 10
201.689504
 20
800.607542
 11
207.689504
 21
800.607542
  0
LINE
  5
321
100
AcDbEntity
  8
M0
 62
     7
100
AcDbLine
 10
201.689504
 20
805.107542
 11
207.689504
 21
805.107542
  0
LINE
  5
322
100
AcDbEntity
  8
M0
 62
     7
100
AcDbLine
 10
207.689504
 20
805.107542
 11
207.689504
 21
800.607542
  0
LINE
  5
323
100
AcDbEntity
  8
M0
 62
     7
100
AcDbLine
 10
201.689504
 20
805.107542
 11
201.689504
 21
800.607542
  0
LINE
  5
324
100
AcDbEntity
  8
M0
 62
     7
100
AcDbLine
 10
200.939504
 20
813.307539
 11
202.439504
 21
813.307539
  0
LINE
  5
325
100
AcDbEntity
  8
M0
 62
     7
100
AcDbLine
 10
202.439504
 20
813.807539
 11
206.939504
 21
813.807539
  0
LINE
  5
326
100
AcDbEntity
  8
M0
 62
     7
100
AcDbLine
 10
200.939504
 20
812.307539
 11
208.439504
 21
812.307539
  0
LINE
  5
327
100
AcDbEntity
  8
M0
 62
     7
100
AcDbLine
 10
206.939504
 20
813.807539
 11
206.939504
 21
812.307539
  0
LINE
  5
328
100
AcDbEntity
  8
M0
 62
     7
100
AcDbLine
 10
202.439504
 20
813.807539
 11
202.439504
 21
812.307539
  0
LINE
  5
329
100
AcDbEntity
  8
M0
 62
     7
100
AcDbLine
 10
206.939504
 20
813.307539
 11
208.439504
 21
813.307539
  0
LINE
  5
32A
100
AcDbEntity
  8
M0
100
AcDbLine
 10
174.689504
 20
911.507201
 11
234.689305
 21
911.507201
  0
LINE
  5
32B
100
AcDbEntity
  8
M0
100
AcDbLine
 10
234.689305
 20
911.507201
 11
234.689305
 21
927.507201
  0
LINE
  5
32C
100
AcDbEntity
  8
M0
100
AcDbLine
 10
234.689305
 20
927.507201
 11
224.189305
 21
927.506956
  0
LINE
  5
32D
100
AcDbEntity
  8
M0
100
AcDbLine
 10
174.689504
 20
927.507201
 11
174.689504
 21
911.507201
  0
LINE
  5
32E
100
AcDbEntity
  8
M0
100
AcDbLine
 10
180.689504
 20
912.507201
 11
183.689504
 21
912.507201
  0
LINE
  5
32F
100
AcDbEntity
  8
M0
100
AcDbLine
 10
210.689504
 20
927.507201
 11
210.689504
 21
912.507201
  0
LINE
  5
330
100
AcDbEntity
  8
M0
100
AcDbLine
 10
198.689504
 20
927.507201
 11
198.689504
 21
912.507201
  0
LINE
  5
331
100
AcDbEntity
  8
M0
100
AcDbLine
 10
195.689504
 20
927.507201
 11
195.689504
 21
912.507201
  0
LINE
  5
332
100
AcDbEntity
  8
M0
100
AcDbLine
 10
183.689504
 20
927.507201
 11
183.689504
 21
912.507201
  0
LINE
  5
333
100
AcDbEntity
  8
M0
100
AcDbLine
 10
213.689305
 20
927.507201
 11
213.689305
 21
912.507201
  0
LINE
  5
334
100
AcDbEntity
  8
M0
100
AcDbLine
 10
225.689305
 20
927.507201
 11
225.689305
 21
912.507201
  0
LINE
  5
335
100
AcDbEntity
  8
M0
100
AcDbLine
 10
228.689305
 20
927.507201
 11
228.689305
 21
912.507201
  0
LINE
  5
336
100
AcDbEntity
  8
M0
100
AcDbLine
 10
180.689504
 20
927.507201
 11
180.689504
 21
912.507201
  0
LINE
  5
337
100
AcDbEntity
  8
M0
100
AcDbLine
 10
195.689504
 20
912.507201
 11
198.689504
 21
912.507201
  0
LINE
  5
338
100
AcDbEntity
  8
M0
100
AcDbLine
 10
210.689504
 20
912.507201
 11
213.689305
 21
912.507201
  0
LINE
  5
339
100
AcDbEntity
  8
M0
100
AcDbLine
 10
225.689305
 20
912.507201
 11
228.689305
 21
912.507201
  0
LINE
  5
33A
100
AcDbEntity
  8
M0
100
AcDbLine
 10
224.189305
 20
925.506956
 11
223.939305
 21
925.506712
  0
LINE
  5
33B
100
AcDbEntity
  8
M0
100
AcDbLine
 10
194.189504
 20
927.507201
 11
194.189504
 21
925.507201
  0
LINE
  5
33C
100
AcDbEntity
  8
M0
100
AcDbLine
 10
185.189504
 20
927.507201
 11
185.189504
 21
925.507201
  0
LINE
  5
33D
100
AcDbEntity
  8
M0
100
AcDbLine
 10
209.189504
 20
927.507201
 11
209.189504
 21
925.507201
  0
LINE
  5
33E
100
AcDbEntity
  8
M0
100
AcDbLine
 10
200.189504
 20
927.507201
 11
200.189504
 21
925.507201
  0
LINE
  5
33F
100
AcDbEntity
  8
M0
100
AcDbLine
 10
224.189305
 20
927.507201
 11
224.189305
 21
925.507201
  0
LINE
  5
340
100
AcDbEntity
  8
M0
100
AcDbLine
 10
215.189305
 20
927.507201
 11
215.189305
 21
925.507201
  0
LINE
  5
341
100
AcDbEntity
  8
M0
100
AcDbLine
 10
194.189504
 20
925.506712
 11
193.939702
 21
925.506468
  0
LINE
  5
342
100
AcDbEntity
  8
M0
100
AcDbLine
 10
209.189504
 20
925.506712
 11
208.939504
 21
925.506468
  0
LINE
  5
343
100
AcDbEntity
  8
M0
100
AcDbLine
 10
185.189504
 20
927.506956
 11
174.689504
 21
927.507201
  0
LINE
  5
344
100
AcDbEntity
  8
M0
100
AcDbLine
 10
200.189504
 20
927.506956
 11
194.189504
 21
927.506956
  0
LINE
  5
345
100
AcDbEntity
  8
M0
100
AcDbLine
 10
215.189305
 20
927.506956
 11
209.189504
 21
927.506956
  0
LINE
  5
346
100
AcDbEntity
  8
M0
100
AcDbLine
 10
183.689504
 20
915.507201
 11
185.439687
 21
915.507201
  0
LINE
  5
347
100
AcDbEntity
  8
M0
100
AcDbLine
 10
193.939702
 20
915.507201
 11
195.689504
 21
915.507201
  0
LINE
  5
348
100
AcDbEntity
  8
M0
100
AcDbLine
 10
198.689504
 20
915.507201
 11
200.439489
 21
915.507201
  0
LINE
  5
349
100
AcDbEntity
  8
M0
100
AcDbLine
 10
208.939504
 20
915.507201
 11
210.689504
 21
915.507201
  0
LINE
  5
34A
100
AcDbEntity
  8
M0
100
AcDbLine
 10
213.689305
 20
915.507201
 11
215.439305
 21
915.507201
  0
LINE
  5
34B
100
AcDbEntity
  8
M0
100
AcDbLine
 10
223.939305
 20
915.507201
 11
225.689305
 21
915.507201
  0
LINE
  5
34C
100
AcDbEntity
  8
M0
100
AcDbLine
 10
185.439687
 20
925.506468
 11
185.189504
 21
925.506956
  0
LINE
  5
34D
100
AcDbEntity
  8
M0
100
AcDbLine
 10
200.439489
 20
925.506468
 11
200.189504
 21
925.506712
  0
LINE
  5
34E
100
AcDbEntity
  8
M0
100
AcDbLine
 10
215.439305
 20
925.506712
 11
215.189305
 21
925.506712
  0
LINE
  5
34F
100
AcDbEntity
  8
M0
 62
     7
100
AcDbLine
 10
215.439305
 20
912.506956
 11
223.939305
 21
912.506956
  0
LINE
  5
350
100
AcDbEntity
  8
M0
 62
     7
100
AcDbLine
 10
223.939305
 20
912.506956
 11
223.939305
 21
917.974974
  0
LINE
  5
351
100
AcDbEntity
  8
M0
 62
     7
100
AcDbLine
 10
223.939305
 20
926.506956
 11
215.439305
 21
926.506956
  0
LINE
  5
352
100
AcDbEntity
  8
M0
 62
     7
100
AcDbLine
 10
215.439305
 20
926.506956
 11
215.439305
 21
923.006712
  0
LINE
  5
353
100
AcDbEntity
  8
M0
 62
     7
100
AcDbLine
 10
215.439305
 20
913.506956
 11
223.939305
 21
913.506956
  0
LINE
  5
354
100
AcDbEntity
  8
M0
 62
     7
100
AcDbLine
 10
222.189305
 20
913.506956
 11
222.189305
 21
912.506956
  0
LINE
  5
355
100
AcDbEntity
  8
M0
 62
     7
100
AcDbLine
 10
217.189305
 20
913.506956
 11
217.189305
 21
912.506956
  0
LINE
  5
356
100
AcDbEntity
  8
M0
 62
     7
100
AcDbLine
 10
215.439305
 20
917.974974
 11
215.439305
 21
912.506956
  0
LINE
  5
357
100
AcDbEntity
  8
M0
 62
     7
100
AcDbLine
 10
223.939305
 20
923.006468
 11
223.939305
 21
926.506956
  0
LINE
  5
358
100
AcDbEntity
  8
M0
 62
     7
100
AcDbLine
 10
193.939687
 20
912.506956
 11
185.439687
 21
912.506956
  0
LINE
  5
359
100
AcDbEntity
  8
M0
 62
     7
100
AcDbLine
 10
185.439687
 20
912.506956
 11
185.439687
 21
917.97473
  0
LINE
  5
35A
100
AcDbEntity
  8
M0
 62
     7
100
AcDbLine
 10
185.439702
 20
926.506956
 11
193.939702
 21
926.506712
  0
LINE
  5
35B
100
AcDbEntity
  8
M0
 62
     7
100
AcDbLine
 10
193.939702
 20
926.506712
 11
193.939702
 21
923.006224
  0
LINE
  5
35C
100
AcDbEntity
  8
M0
 62
     7
100
AcDbLine
 10
193.939687
 20
913.506956
 11
185.439687
 21
913.506956
  0
LINE
  5
35D
100
AcDbEntity
  8
M0
 62
     7
100
AcDbLine
 10
187.189687
 20
913.506956
 11
187.189687
 21
912.506956
  0
LINE
  5
35E
100
AcDbEntity
  8
M0
 62
     7
100
AcDbLine
 10
192.189687
 20
913.506956
 11
192.189687
 21
912.506956
  0
LINE
  5
35F
100
AcDbEntity
  8
M0
 62
     7
100
AcDbLine
 10
185.439687
 20
923.006468
 11
185.439702
 21
926.506956
  0
LINE
  5
360
100
AcDbEntity
  8
M0
 62
     7
100
AcDbLine
 10
193.939702
 20
917.97473
 11
193.939687
 21
912.506712
  0
LINE
  5
361
100
AcDbEntity
  8
M0
 62
     7
100
AcDbLine
 10
208.939489
 20
912.506956
 11
200.439489
 21
912.506956
  0
LINE
  5
362
100
AcDbEntity
  8
M0
 62
     7
100
AcDbLine
 10
200.439489
 20
912.506956
 11
200.439489
 21
917.97473
  0
LINE
  5
363
100
AcDbEntity
  8
M0
 62
     7
100
AcDbLine
 10
200.439504
 20
926.506956
 11
208.939504
 21
926.506712
  0
LINE
  5
364
100
AcDbEntity
  8
M0
 62
     7
100
AcDbLine
 10
208.939504
 20
926.506712
 11
208.939504
 21
923.006224
  0
LINE
  5
365
100
AcDbEntity
  8
M0
 62
     7
100
AcDbLine
 10
208.939489
 20
913.506956
 11
200.439489
 21
913.506956
  0
LINE
  5
366
100
AcDbEntity
  8
M0
 62
     7
100
AcDbLine
 10
202.189489
 20
913.506956
 11
202.189489
 21
912.506956
  0
LINE
  5
367
100
AcDbEntity
  8
M0
 62
     7
100
AcDbLine
 10
207.189489
 20
913.506956
 11
207.189489
 21
912.506956
  0
LINE
  5
368
100
AcDbEntity
  8
M0
 62
     7
100
AcDbLine
 10
200.439489
 20
923.006468
 11
200.439504
 21
926.506956
  0
LINE
  5
369
100
AcDbEntity
  8
M0
 62
     7
100
AcDbLine
 10
208.939504
 20
917.974486
 11
208.939489
 21
912.506712
  0
LINE
  5
36A
100
AcDbEntity
  8
M0
100
AcDbLine
 10
186.189504
 20
916.007201
 11
193.189504
 21
916.007201
  0
LINE
  5
36B
100
AcDbEntity
  8
M0
100
AcDbLine
 10
195.439504
 20
918.007201
 11
195.439504
 21
923.006956
  0
LINE
  5
36C
100
AcDbEntity
  8
M0
100
AcDbLine
 10
191.189504
 20
925.006956
 11
188.189504
 21
925.006956
  0
LINE
  5
36D
100
AcDbEntity
  8
M0
100
AcDbLine
 10
183.939504
 20
923.006712
 11
183.939504
 21
918.007201
  0
LINE
  5
36E
100
AcDbEntity
  8
M0
100
AcDbLine
 10
195.439504
 20
923.007201
 11
192.689504
 21
923.007201
  0
LINE
  5
36F
100
AcDbEntity
  8
M0
100
AcDbLine
 10
191.189504
 20
925.007201
 11
191.189504
 21
924.506956
  0
LINE
  5
370
100
AcDbEntity
  8
M0
100
AcDbLine
 10
188.189504
 20
925.007201
 11
188.189504
 21
924.506712
  0
LINE
  5
371
100
AcDbEntity
  8
M0
100
AcDbLine
 10
186.689504
 20
923.006956
 11
183.939504
 21
923.007201
  0
LINE
  5
372
100
AcDbEntity
  8
M0
100
AcDbLine
 10
191.189504
 20
923.006956
 11
188.189504
 21
923.006956
  0
LINE
  5
373
100
AcDbEntity
  8
M0
100
AcDbLine
 10
183.939504
 20
918.007201
 11
185.189504
 21
918.007201
  0
LINE
  5
374
100
AcDbEntity
  8
M0
100
AcDbLine
 10
193.189504
 20
917.007201
 11
193.189504
 21
916.007201
  0
LINE
  5
375
100
AcDbEntity
  8
M0
100
AcDbLine
 10
186.189504
 20
917.007201
 11
186.189504
 21
916.007201
  0
LINE
  5
376
100
AcDbEntity
  8
M0
100
AcDbLine
 10
194.189504
 20
918.007201
 11
195.439504
 21
918.007201
  0
ARC
  5
377
100
AcDbEntity
  8
M0
100
AcDbCircle
 10
192.689504
 20
924.506956
 40
1.5
100
AcDbArc
 50
179.999417
 51
270.0
  0
ARC
  5
378
100
AcDbEntity
  8
M0
100
AcDbCircle
 10
186.689504
 20
924.506712
 40
1.5
100
AcDbArc
 50
270.0
 51
360.0
  0
ARC
  5
379
100
AcDbEntity
  8
M0
100
AcDbCircle
 10
194.189504
 20
917.007201
 40
1.0
100
AcDbArc
 50
89.999126
 51
179.999126
  0
ARC
  5
37A
100
AcDbEntity
  8
M0
100
AcDbCircle
 10
185.189504
 20
917.007201
 40
1.0
100
AcDbArc
 50
0.0
 51
89.999126
  0
LINE
  5
37B
100
AcDbEntity
  8
M0
100
AcDbLine
 10
223.189061
 20
916.006712
 11
216.189305
 21
916.006712
  0
LINE
  5
37C
100
AcDbEntity
  8
M0
100
AcDbLine
 10
213.939305
 20
918.006712
 11
213.939305
 21
923.006468
  0
LINE
  5
37D
100
AcDbEntity
  8
M0
100
AcDbLine
 10
218.189305
 20
925.006468
 11
221.189305
 21
925.006224
  0
LINE
  5
37E
100
AcDbEntity
  8
M0
100
AcDbLine
 10
225.439305
 20
923.00598
 11
225.439061
 21
918.006712
  0
LINE
  5
37F
100
AcDbEntity
  8
M0
100
AcDbLine
 10
213.939305
 20
923.006712
 11
216.689305
 21
923.006712
  0
LINE
  5
380
100
AcDbEntity
  8
M0
100
AcDbLine
 10
218.189305
 20
925.006712
 11
218.189305
 21
924.506468
  0
LINE
  5
381
100
AcDbEntity
  8
M0
100
AcDbLine
 10
221.189305
 20
925.006468
 11
221.189305
 21
924.50598
  0
LINE
  5
382
100
AcDbEntity
  8
M0
100
AcDbLine
 10
222.689305
 20
923.006224
 11
225.439305
 21
923.006468
  0
LINE
  5
383
100
AcDbEntity
  8
M0
100
AcDbLine
 10
218.189305
 20
923.006468
 11
221.189305
 21
923.006224
  0
LINE
  5
384
100
AcDbEntity
  8
M0
100
AcDbLine
 10
225.439061
 20
918.006712
 11
224.189061
 21
918.006712
  0
LINE
  5
385
100
AcDbEntity
  8
M0
100
AcDbLine
 10
216.189305
 20
917.006712
 11
216.189305
 21
916.006712
  0
LINE
  5
386
100
AcDbEntity
  8
M0
100
AcDbLine
 10
223.189061
 20
917.006712
 11
223.189061
 21
916.006712
  0
LINE
  5
387
100
AcDbEntity
  8
M0
100
AcDbLine
 10
215.189305
 20
918.006712
 11
213.939305
 21
918.006712
  0
ARC
  5
388
100
AcDbEntity
  8
M0
100
AcDbCircle
 10
216.689305
 20
924.506468
 40
1.5
100
AcDbArc
 50
-90.0
 51
0.0
  0
ARC
  5
389
100
AcDbEntity
  8
M0
100
AcDbCircle
 10
222.689305
 20
924.50598
 40
1.5
100
AcDbArc
 50
179.999417
 51
270.0
  0
ARC
  5
38A
100
AcDbEntity
  8
M0
100
AcDbCircle
 10
215.189305
 20
917.006712
 40
1.0
100
AcDbArc
 50
0.0
 51
89.999126
  0
ARC
  5
38B
100
AcDbEntity
  8
M0
100
AcDbCircle
 10
224.189061
 20
917.006712
 40
1.0
100
AcDbArc
 50
89.999126
 51
179.999126
  0
LINE
  5
38C
100
AcDbEntity
  8
M0
100
AcDbLine
 10
201.189504
 20
916.007201
 11
208.189504
 21
916.007201
  0
LINE
  5
38D
100
AcDbEntity
  8
M0
100
AcDbLine
 10
210.439504
 20
918.007201
 11
210.439504
 21
923.006956
  0
LINE
  5
38E
100
AcDbEntity
  8
M0
100
AcDbLine
 10
206.189504
 20
925.006956
 11
203.189504
 21
925.006956
  0
LINE
  5
38F
100
AcDbEntity
  8
M0
100
AcDbLine
 10
198.939504
 20
923.006712
 11
198.939504
 21
918.007201
  0
LINE
  5
390
100
AcDbEntity
  8
M0
100
AcDbLine
 10
210.439504
 20
923.007201
 11
207.689504
 21
923.007201
  0
LINE
  5
391
100
AcDbEntity
  8
M0
100
AcDbLine
 10
206.189504
 20
925.007201
 11
206.189504
 21
924.506956
  0
LINE
  5
392
100
AcDbEntity
  8
M0
100
AcDbLine
 10
203.189504
 20
925.007201
 11
203.189504
 21
924.506712
  0
LINE
  5
393
100
AcDbEntity
  8
M0
100
AcDbLine
 10
201.689504
 20
923.006956
 11
198.939504
 21
923.007201
  0
LINE
  5
394
100
AcDbEntity
  8
M0
100
AcDbLine
 10
206.189504
 20
923.006956
 11
203.189504
 21
923.006956
  0
LINE
  5
395
100
AcDbEntity
  8
M0
100
AcDbLine
 10
198.939504
 20
918.007201
 11
200.189504
 21
918.007201
  0
LINE
  5
396
100
AcDbEntity
  8
M0
100
AcDbLine
 10
208.189504
 20
917.007201
 11
208.189504
 21
916.007201
  0
LINE
  5
397
100
AcDbEntity
  8
M0
100
AcDbLine
 10
201.189504
 20
917.007201
 11
201.189504
 21
916.007201
  0
LINE
  5
398
100
AcDbEntity
  8
M0
100
AcDbLine
 10
209.189504
 20
918.007201
 11
210.439504
 21
918.007201
  0
ARC
  5
399
100
AcDbEntity
  8
M0
100
AcDbCircle
 10
207.689504
 20
924.506956
 40
1.5
100
AcDbArc
 50
179.999417
 51
270.0
  0
ARC
  5
39A
100
AcDbEntity
  8
M0
100
AcDbCircle
 10
201.689504
 20
924.506712
 40
1.5
100
AcDbArc
 50
270.0
 51
360.0
  0
ARC
  5
39B
100
AcDbEntity
  8
M0
100
AcDbCircle
 10
209.189504
 20
917.007201
 40
1.0
100
AcDbArc
 50
89.999126
 51
179.999126
  0
ARC
  5
39C
100
AcDbEntity
  8
M0
100
AcDbCircle
 10
200.189504
 20
917.007201
 40
1.0
100
AcDbArc
 50
0.0
 51
89.999126
  0
CIRCLE
  5
39D
100
AcDbEntity
  8
M0
 62
     5
100
AcDbCircle
 10
189.689504
 20
919.506712
 40
3.299995
  0
CIRCLE
  5
39E
100
AcDbEntity
  8
M0
 62
     5
100
AcDbCircle
 10
204.689504
 20
919.506712
 40
3.299995
  0
CIRCLE
  5
39F
100
AcDbEntity
  8
M0
 62
     5
100
AcDbCircle
 10
219.689305
 20
919.50598
 40
3.299995
  0
CIRCLE
  5
3A0
100
AcDbEntity
  8
M0
100
AcDbCircle
 10
189.689519
 20
919.506712
 40
3.0
  0
LINE
  5
3A1
100
AcDbEntity
  8
M0
100
AcDbLine
 10
190.679464
 20
917.809447
 11
191.386571
 21
918.516722
  0
LINE
  5
3A2
100
AcDbEntity
  8
M0
100
AcDbLine
 10
191.386571
 20
918.516722
 11
190.396611
 21
919.506468
  0
LINE
  5
3A3
100
AcDbEntity
  8
M0
100
AcDbLine
 10
188.699559
 20
921.203734
 11
187.992467
 21
920.496458
  0
LINE
  5
3A4
100
AcDbEntity
  8
M0
100
AcDbLine
 10
187.992467
 20
920.496458
 11
188.982412
 21
919.506712
  0
LINE
  5
3A5
100
AcDbEntity
  8
M0
100
AcDbLine
 10
187.244298
 20
917.768431
 11
188.982412
 21
919.506712
  0
LINE
  5
3A6
100
AcDbEntity
  8
M0
100
AcDbLine
 10
187.951406
 20
917.0614
 11
189.689504
 21
918.799437
  0
LINE
  5
3A7
100
AcDbEntity
  8
M0
100
AcDbLine
 10
192.134709
 20
921.244749
 11
190.396611
 21
919.506468
  0
LINE
  5
3A8
100
AcDbEntity
  8
M0
100
AcDbLine
 10
191.427602
 20
921.951781
 11
189.689519
 21
920.213744
  0
LINE
  5
3A9
100
AcDbEntity
  8
M0
100
AcDbLine
 10
190.679464
 20
917.809447
 11
189.689504
 21
918.799437
  0
LINE
  5
3AA
100
AcDbEntity
  8
M0
100
AcDbLine
 10
188.699559
 20
921.203734
 11
189.689519
 21
920.213744
  0
LINE
  5
3AB
100
AcDbEntity
  8
M0
100
AcDbLine
 10
184.48937
 20
919.506712
 11
194.889653
 21
919.506468
  0
LINE
  5
3AC
100
AcDbEntity
  8
M0
100
AcDbLine
 10
189.689504
 20
914.306517
 11
189.689519
 21
924.706663
  0
CIRCLE
  5
3AD
100
AcDbEntity
  8
M0
100
AcDbCircle
 10
204.689519
 20
919.506712
 40
3.0
  0
LINE
  5
3AE
100
AcDbEntity
  8
M0
100
AcDbLine
 10
205.679464
 20
917.809447
 11
206.386571
 21
918.516722
  0
LINE
  5
3AF
100
AcDbEntity
  8
M0
100
AcDbLine
 10
206.386571
 20
918.516722
 11
205.396611
 21
919.506468
  0
LINE
  5
3B0
100
AcDbEntity
  8
M0
100
AcDbLine
 10
203.699559
 20
921.203734
 11
202.992467
 21
920.496458
  0
LINE
  5
3B1
100
AcDbEntity
  8
M0
100
AcDbLine
 10
202.992467
 20
920.496458
 11
203.982412
 21
919.506712
  0
LINE
  5
3B2
100
AcDbEntity
  8
M0
100
AcDbLine
 10
202.244298
 20
917.768431
 11
203.982412
 21
919.506712
  0
LINE
  5
3B3
100
AcDbEntity
  8
M0
100
AcDbLine
 10
202.951406
 20
917.0614
 11
204.689504
 21
918.799437
  0
LINE
  5
3B4
100
AcDbEntity
  8
M0
100
AcDbLine
 10
207.134709
 20
921.244749
 11
205.396611
 21
919.506468
  0
LINE
  5
3B5
100
AcDbEntity
  8
M0
100
AcDbLine
 10
206.427602
 20
921.951781
 11
204.689519
 21
920.213744
  0
LINE
  5
3B6
100
AcDbEntity
  8
M0
100
AcDbLine
 10
205.679464
 20
917.809447
 11
204.689504
 21
918.799437
  0
LINE
  5
3B7
100
AcDbEntity
  8
M0
100
AcDbLine
 10
203.699559
 20
921.203734
 11
204.689519
 21
920.213744
  0
LINE
  5
3B8
100
AcDbEntity
  8
M0
100
AcDbLine
 10
199.48937
 20
919.506712
 11
209.889653
 21
919.506468
  0
CIRCLE
  5
3B9
100
AcDbEntity
  8
M0
100
AcDbCircle
 10
219.689305
 20
919.50598
 40
3.0
  0
LINE
  5
3BA
100
AcDbEntity
  8
M0
100
AcDbLine
 10
220.679052
 20
917.808714
 11
221.386327
 21
918.51599
  0
LINE
  5
3BB
100
AcDbEntity
  8
M0
100
AcDbLine
 10
221.386327
 20
918.51599
 11
220.396337
 21
919.505736
  0
LINE
  5
3BC
100
AcDbEntity
  8
M0
100
AcDbLine
 10
218.699315
 20
921.203001
 11
217.99204
 21
920.495726
  0
LINE
  5
3BD
100
AcDbEntity
  8
M0
100
AcDbLine
 10
217.99204
 20
920.495726
 11
218.98203
 21
919.50598
  0
LINE
  5
3BE
100
AcDbEntity
  8
M0
100
AcDbLine
 10
217.243993
 20
917.767699
 11
218.98203
 21
919.50598
  0
LINE
  5
3BF
100
AcDbEntity
  8
M0
100
AcDbLine
 10
217.951024
 20
917.060667
 11
219.689305
 21
918.798705
  0
LINE
  5
3C0
100
AcDbEntity
  8
M0
100
AcDbLine
 10
222.134374
 20
921.244017
 11
220.396337
 21
919.505736
  0
LINE
  5
3C1
100
AcDbEntity
  8
M0
100
AcDbLine
 10
221.427343
 20
921.951048
 11
219.689305
 21
920.213011
  0
LINE
  5
3C2
100
AcDbEntity
  8
M0
100
AcDbLine
 10
220.679052
 20
917.808714
 11
219.689305
 21
918.798705
  0
LINE
  5
3C3
100
AcDbEntity
  8
M0
100
AcDbLine
 10
218.699315
 20
921.203001
 11
219.689305
 21
920.213011
  0
LINE
  5
3C4
100
AcDbEntity
  8
M0
100
AcDbLine
 10
214.48911
 20
919.50598
 11
224.889257
 21
919.505736
  0
LINE
  5
3C5
100
AcDbEntity
  8
M0
100
AcDbLine
 10
219.689305
 20
914.305785
 11
219.689305
 21
924.705931
  0
LINE
  5
3C6
100
AcDbEntity
  8
M0
 62
     2
100
AcDbLine
 10
262.539495
 20
825.607542
 11
269.089482
 21
825.607542
  0
LINE
  5
3C7
100
AcDbEntity
  8
M0
 62
     2
100
AcDbLine
 10
269.639501
 20
823.70764
 11
269.639501
 21
817.108031
  0
LINE
  5
3C8
100
AcDbEntity
  8
M0
 62
     2
100
AcDbLine
 10
268.639501
 20
816.107542
 11
262.739492
 21
816.107542
  0
LINE
  5
3C9
100
AcDbEntity
  8
M0
 62
     2
100
AcDbLine
 10
261.739492
 20
817.107787
 11
261.739492
 21
823.70764
  0
ARC
  5
3CA
100
AcDbEntity
  8
M0
 62
     2
100
AcDbCircle
 10
268.639501
 20
817.107787
 40
1.0
100
AcDbArc
 50
-90.0
 51
0.013988
  0
ARC
  5
3CB
100
AcDbEntity
  8
M0
 62
     2
100
AcDbCircle
 10
262.739492
 20
817.107787
 40
1.0
100
AcDbArc
 50
179.999126
 51
270.0
  0
LINE
  5
3CC
100
AcDbEntity
  8
M0
 62
     2
100
AcDbLine
 10
268.839498
 20
824.607542
 11
269.089482
 21
824.607542
  0
LINE
  5
3CD
100
AcDbEntity
  8
M0
 62
     2
100
AcDbLine
 10
261.939489
 20
823.907591
 11
262.039495
 21
823.907591
  0
LINE
  5
3CE
100
AcDbEntity
  8
M0
 62
     2
100
AcDbLine
 10
268.839498
 20
824.407591
 11
268.839498
 21
825.607542
  0
LINE
  5
3CF
100
AcDbEntity
  8
M0
 62
     2
100
AcDbLine
 10
262.539495
 20
824.407591
 11
262.539495
 21
825.607542
  0
LINE
  5
3D0
100
AcDbEntity
  8
M0
 62
     2
100
AcDbLine
 10
269.339498
 20
823.907591
 11
269.439489
 21
823.907591
  0
ARC
  5
3D1
100
AcDbEntity
  8
M0
 62
     2
100
AcDbCircle
 10
261.939489
 20
823.70764
 40
0.2
100
AcDbArc
 50
89.995629
 51
179.995629
  0
ARC
  5
3D2
100
AcDbEntity
  8
M0
 62
     2
100
AcDbCircle
 10
269.439489
 20
823.70764
 40
0.2
100
AcDbArc
 50
0.0
 51
89.995629
  0
ARC
  5
3D3
100
AcDbEntity
  8
M0
 62
     2
100
AcDbCircle
 10
269.339498
 20
824.407591
 40
0.5
100
AcDbArc
 50
179.998251
 51
270.0
  0
ARC
  5
3D4
100
AcDbEntity
  8
M0
 62
     2
100
AcDbCircle
 10
262.039495
 20
824.407591
 40
0.5
100
AcDbArc
 50
-90.0
 51
0.0
  0
LINE
  5
3D5
100
AcDbEntity
  8
M0
 62
     2
100
AcDbLine
 10
269.089482
 20
824.607542
 11
269.089482
 21
825.607542
  0
LINE
  5
3D6
100
AcDbEntity
  8
M0
 62
     2
100
AcDbLine
 10
262.539495
 20
816.107542
 11
269.089482
 21
816.107542
  0
LINE
  5
3D7
100
AcDbEntity
  8
M0
 62
     2
100
AcDbLine
 10
269.639501
 20
814.20764
 11
269.639501
 21
807.608031
  0
LINE
  5
3D8
100
AcDbEntity
  8
M0
 62
     2
100
AcDbLine
 10
268.639501
 20
806.607542
 11
262.739492
 21
806.607542
  0
LINE
  5
3D9
100
AcDbEntity
  8
M0
 62
     2
100
AcDbLine
 10
261.739492
 20
807.607787
 11
261.739492
 21
814.20764
  0
ARC
  5
3DA
100
AcDbEntity
  8
M0
 62
     2
100
AcDbCircle
 10
268.639501
 20
807.607787
 40
1.0
100
AcDbArc
 50
-90.0
 51
0.013988
  0
ARC
  5
3DB
100
AcDbEntity
  8
M0
 62
     2
100
AcDbCircle
 10
262.739492
 20
807.607787
 40
1.0
100
AcDbArc
 50
179.999126
 51
270.0
  0
LINE
  5
3DC
100
AcDbEntity
  8
M0
 62
     2
100
AcDbLine
 10
268.839498
 20
815.107542
 11
269.089482
 21
815.107542
  0
LINE
  5
3DD
100
AcDbEntity
  8
M0
 62
     2
100
AcDbLine
 10
261.939489
 20
814.407591
 11
262.039495
 21
814.407591
  0
LINE
  5
3DE
100
AcDbEntity
  8
M0
 62
     2
100
AcDbLine
 10
268.839498
 20
814.907591
 11
268.839498
 21
816.107542
  0
LINE
  5
3DF
100
AcDbEntity
  8
M0
 62
     2
100
AcDbLine
 10
262.539495
 20
814.907591
 11
262.539495
 21
816.107542
  0
LINE
  5
3E0
100
AcDbEntity
  8
M0
 62
     2
100
AcDbLine
 10
269.339498
 20
814.407591
 11
269.439489
 21
814.407591
  0
ARC
  5
3E1
100
AcDbEntity
  8
M0
 62
     2
100
AcDbCircle
 10
261.939489
 20
814.20764
 40
0.2
100
AcDbArc
 50
89.995629
 51
179.995629
  0
ARC
  5
3E2
100
AcDbEntity
  8
M0
 62
     2
100
AcDbCircle
 10
269.439489
 20
814.20764
 40
0.2
100
AcDbArc
 50
0.0
 51
89.995629
  0
ARC
  5
3E3
100
AcDbEntity
  8
M0
 62
     2
100
AcDbCircle
 10
269.339498
 20
814.907591
 40
0.5
100
AcDbArc
 50
179.998251
 51
270.0
  0
ARC
  5
3E4
100
AcDbEntity
  8
M0
 62
     2
100
AcDbCircle
 10
262.039495
 20
814.907591
 40
0.5
100
AcDbArc
 50
-90.0
 51
0.0
  0
LINE
  5
3E5
100
AcDbEntity
  8
M0
 62
     2
100
AcDbLine
 10
269.089482
 20
815.107542
 11
269.089482
 21
816.107542
  0
LINE
  5
3E6
100
AcDbEntity
  8
M0
 62
     2
100
AcDbLine
 10
140.539495
 20
816.107542
 11
147.089482
 21
816.107542
  0
LINE
  5
3E7
100
AcDbEntity
  8
M0
 62
     2
100
AcDbLine
 10
147.639501
 20
814.20764
 11
147.639501
 21
807.608031
  0
LINE
  5
3E8
100
AcDbEntity
  8
M0
 62
     2
100
AcDbLine
 10
146.639501
 20
806.607542
 11
140.739492
 21
806.607542
  0
LINE
  5
3E9
100
AcDbEntity
  8
M0
 62
     2
100
AcDbLine
 10
139.739492
 20
807.607787
 11
139.739492
 21
814.20764
  0
ARC
  5
3EA
100
AcDbEntity
  8
M0
 62
     2
100
AcDbCircle
 10
146.639501
 20
807.607787
 40
1.0
100
AcDbArc
 50
-90.0
 51
0.013988
  0
ARC
  5
3EB
100
AcDbEntity
  8
M0
 62
     2
100
AcDbCircle
 10
140.739492
 20
807.607787
 40
1.0
100
AcDbArc
 50
179.999126
 51
270.0
  0
LINE
  5
3EC
100
AcDbEntity
  8
M0
 62
     2
100
AcDbLine
 10
146.839498
 20
815.107542
 11
147.089482
 21
815.107542
  0
LINE
  5
3ED
100
AcDbEntity
  8
M0
 62
     2
100
AcDbLine
 10
139.939489
 20
814.407591
 11
140.039495
 21
814.407591
  0
LINE
  5
3EE
100
AcDbEntity
  8
M0
 62
     2
100
AcDbLine
 10
146.839498
 20
814.907591
 11
146.839498
 21
816.107542
  0
LINE
  5
3EF
100
AcDbEntity
  8
M0
 62
     2
100
AcDbLine
 10
140.539495
 20
814.907591
 11
140.539495
 21
816.107542
  0
LINE
  5
3F0
100
AcDbEntity
  8
M0
 62
     2
100
AcDbLine
 10
147.339498
 20
814.407591
 11
147.439489
 21
814.407591
  0
ARC
  5
3F1
100
AcDbEntity
  8
M0
 62
     2
100
AcDbCircle
 10
139.939489
 20
814.20764
 40
0.2
100
AcDbArc
 50
89.995629
 51
179.995629
  0
ARC
  5
3F2
100
AcDbEntity
  8
M0
 62
     2
100
AcDbCircle
 10
147.439489
 20
814.20764
 40
0.2
100
AcDbArc
 50
0.0
 51
89.995629
  0
ARC
  5
3F3
100
AcDbEntity
  8
M0
 62
     2
100
AcDbCircle
 10
147.339498
 20
814.907591
 40
0.5
100
AcDbArc
 50
179.998251
 51
270.0
  0
ARC
  5
3F4
100
AcDbEntity
  8
M0
 62
     2
100
AcDbCircle
 10
140.039495
 20
814.907591
 40
0.5
100
AcDbArc
 50
-90.0
 51
0.0
  0
LINE
  5
3F5
100
AcDbEntity
  8
M0
 62
     2
100
AcDbLine
 10
147.089482
 20
815.107542
 11
147.089482
 21
816.107542
  0
LINE
  5
3F6
100
AcDbEntity
  8
M0
 62
     2
100
AcDbLine
 10
140.539495
 20
825.607542
 11
147.089482
 21
825.607542
  0
LINE
  5
3F7
100
AcDbEntity
  8
M0
 62
     2
100
AcDbLine
 10
147.639501
 20
823.70764
 11
147.639501
 21
817.108031
  0
LINE
  5
3F8
100
AcDbEntity
  8
M0
 62
     2
100
AcDbLine
 10
146.639501
 20
816.107542
 11
140.739492
 21
816.107542
  0
LINE
  5
3F9
100
AcDbEntity
  8
M0
 62
     2
100
AcDbLine
 10
139.739492
 20
817.107787
 11
139.739492
 21
823.70764
  0
ARC
  5
3FA
100
AcDbEntity
  8
M0
 62
     2
100
AcDbCircle
 10
146.639501
 20
817.107787
 40
1.0
100
AcDbArc
 50
-90.0
 51
0.013988
  0
ARC
  5
3FB
100
AcDbEntity
  8
M0
 62
     2
100
AcDbCircle
 10
140.739492
 20
817.107787
 40
1.0
100
AcDbArc
 50
179.999126
 51
270.0
  0
LINE
  5
3FC
100
AcDbEntity
  8
M0
 62
     2
100
AcDbLine
 10
146.839498
 20
824.607542
 11
147.089482
 21
824.607542
  0
LINE
  5
3FD
100
AcDbEntity
  8
M0
 62
     2
100
AcDbLine
 10
139.939489
 20
823.907591
 11
140.039495
 21
823.907591
  0
LINE
  5
3FE
100
AcDbEntity
  8
M0
 62
     2
100
AcDbLine
 10
146.839498
 20
824.407591
 11
146.839498
 21
825.607542
  0
LINE
  5
3FF
100
AcDbEntity
  8
M0
 62
     2
100
AcDbLine
 10
140.539495
 20
824.407591
 11
140.539495
 21
825.607542
  0
LINE
  5
400
100
AcDbEntity
  8
M0
 62
     2
100
AcDbLine
 10
147.339498
 20
823.907591
 11
147.439489
 21
823.907591
  0
ARC
  5
401
100
AcDbEntity
  8
M0
 62
     2
100
AcDbCircle
 10
139.939489
 20
823.70764
 40
0.2
100
AcDbArc
 50
89.995629
 51
179.995629
  0
ARC
  5
402
100
AcDbEntity
  8
M0
 62
     2
100
AcDbCircle
 10
147.439489
 20
823.70764
 40
0.2
100
AcDbArc
 50
0.0
 51
89.995629
  0
ARC
  5
403
100
AcDbEntity
  8
M0
 62
     2
100
AcDbCircle
 10
147.339498
 20
824.407591
 40
0.5
100
AcDbArc
 50
179.998251
 51
270.0
  0
ARC
  5
404
100
AcDbEntity
  8
M0
 62
     2
100
AcDbCircle
 10
140.039495
 20
824.407591
 40
0.5
100
AcDbArc
 50
-90.0
 51
0.0
  0
LINE
  5
405
100
AcDbEntity
  8
M0
 62
     2
100
AcDbLine
 10
147.089482
 20
824.607542
 11
147.089482
 21
825.607542
  0
LINE
  5
406
100
AcDbEntity
  8
M0
 62
     2
100
AcDbLine
 10
262.539495
 20
785.107542
 11
269.089482
 21
785.107542
  0
LINE
  5
407
100
AcDbEntity
  8
M0
 62
     2
100
AcDbLine
 10
269.639501
 20
787.007445
 11
269.639501
 21
793.607054
  0
LINE
  5
408
100
AcDbEntity
  8
M0
 62
     2
100
AcDbLine
 10
268.639501
 20
794.607542
 11
262.739492
 21
794.607542
  0
LINE
  5
409
100
AcDbEntity
  8
M0
 62
     2
100
AcDbLine
 10
261.739492
 20
793.607298
 11
261.739492
 21
787.007445
  0
ARC
  5
40A
100
AcDbEntity
  8
M0
 62
     2
100
AcDbCircle
 10
268.639501
 20
793.607298
 40
1.0
100
AcDbArc
 50
359.986012
 51
449.999126
  0
ARC
  5
40B
100
AcDbEntity
  8
M0
 62
     2
100
AcDbCircle
 10
262.739492
 20
793.607298
 40
1.0
100
AcDbArc
 50
89.999126
 51
179.999126
  0
LINE
  5
40C
100
AcDbEntity
  8
M0
 62
     2
100
AcDbLine
 10
268.839498
 20
786.107542
 11
269.089482
 21
786.107542
  0
LINE
  5
40D
100
AcDbEntity
  8
M0
 62
     2
100
AcDbLine
 10
261.939489
 20
786.807494
 11
262.039495
 21
786.807494
  0
LINE
  5
40E
100
AcDbEntity
  8
M0
 62
     2
100
AcDbLine
 10
268.839498
 20
786.307494
 11
268.839498
 21
785.107542
  0
LINE
  5
40F
100
AcDbEntity
  8
M0
 62
     2
100
AcDbLine
 10
262.539495
 20
786.307494
 11
262.539495
 21
785.107542
  0
LINE
  5
410
100
AcDbEntity
  8
M0
 62
     2
100
AcDbLine
 10
269.339498
 20
786.807494
 11
269.439489
 21
786.807494
  0
ARC
  5
411
100
AcDbEntity
  8
M0
 62
     2
100
AcDbCircle
 10
261.939489
 20
787.007445
 40
0.2
100
AcDbArc
 50
179.995629
 51
270.0
  0
ARC
  5
412
100
AcDbEntity
  8
M0
 62
     2
100
AcDbCircle
 10
269.439489
 20
787.007445
 40
0.2
100
AcDbArc
 50
270.0
 51
360.0
  0
ARC
  5
413
100
AcDbEntity
  8
M0
 62
     2
100
AcDbCircle
 10
269.339498
 20
786.307494
 40
0.5
100
AcDbArc
 50
89.998251
 51
179.998251
  0
ARC
  5
414
100
AcDbEntity
  8
M0
 62
     2
100
AcDbCircle
 10
262.039495
 20
786.307494
 40
0.5
100
AcDbArc
 50
0.0
 51
89.998251
  0
LINE
  5
415
100
AcDbEntity
  8
M0
 62
     2
100
AcDbLine
 10
269.089482
 20
786.107542
 11
269.089482
 21
785.107542
  0
LINE
  5
416
100
AcDbEntity
  8
M0
 62
     2
100
AcDbLine
 10
262.539495
 20
775.607542
 11
269.089482
 21
775.607542
  0
LINE
  5
417
100
AcDbEntity
  8
M0
 62
     2
100
AcDbLine
 10
269.639501
 20
777.507445
 11
269.639501
 21
784.107054
  0
LINE
  5
418
100
AcDbEntity
  8
M0
 62
     2
100
AcDbLine
 10
268.639501
 20
785.107542
 11
262.739492
 21
785.107542
  0
LINE
  5
419
100
AcDbEntity
  8
M0
 62
     2
100
AcDbLine
 10
261.739492
 20
784.107298
 11
261.739492
 21
777.507445
  0
ARC
  5
41A
100
AcDbEntity
  8
M0
 62
     2
100
AcDbCircle
 10
268.639501
 20
784.107298
 40
1.0
100
AcDbArc
 50
359.986012
 51
449.999126
  0
ARC
  5
41B
100
AcDbEntity
  8
M0
 62
     2
100
AcDbCircle
 10
262.739492
 20
784.107298
 40
1.0
100
AcDbArc
 50
89.999126
 51
179.999126
  0
LINE
  5
41C
100
AcDbEntity
  8
M0
 62
     2
100
AcDbLine
 10
268.839498
 20
776.607542
 11
269.089482
 21
776.607542
  0
LINE
  5
41D
100
AcDbEntity
  8
M0
 62
     2
100
AcDbLine
 10
261.939489
 20
777.307494
 11
262.039495
 21
777.307494
  0
LINE
  5
41E
100
AcDbEntity
  8
M0
 62
     2
100
AcDbLine
 10
268.839498
 20
776.807494
 11
268.839498
 21
775.607542
  0
LINE
  5
41F
100
AcDbEntity
  8
M0
 62
     2
100
AcDbLine
 10
262.539495
 20
776.807494
 11
262.539495
 21
775.607542
  0
LINE
  5
420
100
AcDbEntity
  8
M0
 62
     2
100
AcDbLine
 10
269.339498
 20
777.307494
 11
269.439489
 21
777.307494
  0
ARC
  5
421
100
AcDbEntity
  8
M0
 62
     2
100
AcDbCircle
 10
261.939489
 20
777.507445
 40
0.2
100
AcDbArc
 50
179.995629
 51
270.0
  0
ARC
  5
422
100
AcDbEntity
  8
M0
 62
     2
100
AcDbCircle
 10
269.439489
 20
777.507445
 40
0.2
100
AcDbArc
 50
270.0
 51
360.0
  0
ARC
  5
423
100
AcDbEntity
  8
M0
 62
     2
100
AcDbCircle
 10
269.339498
 20
776.807494
 40
0.5
100
AcDbArc
 50
89.998251
 51
179.998251
  0
ARC
  5
424
100
AcDbEntity
  8
M0
 62
     2
100
AcDbCircle
 10
262.039495
 20
776.807494
 40
0.5
100
AcDbArc
 50
0.0
 51
89.998251
  0
LINE
  5
425
100
AcDbEntity
  8
M0
 62
     2
100
AcDbLine
 10
269.089482
 20
776.607542
 11
269.089482
 21
775.607542
  0
LINE
  5
426
100
AcDbEntity
  8
M0
 62
     2
100
AcDbLine
 10
140.539495
 20
775.607542
 11
147.089482
 21
775.607542
  0
LINE
  5
427
100
AcDbEntity
  8
M0
 62
     2
100
AcDbLine
 10
147.639501
 20
777.507445
 11
147.639501
 21
784.107054
  0
LINE
  5
428
100
AcDbEntity
  8
M0
 62
     2
100
AcDbLine
 10
146.639501
 20
785.107542
 11
140.739492
 21
785.107542
  0
LINE
  5
429
100
AcDbEntity
  8
M0
 62
     2
100
AcDbLine
 10
139.739492
 20
784.107298
 11
139.739492
 21
777.507445
  0
ARC
  5
42A
100
AcDbEntity
  8
M0
 62
     2
100
AcDbCircle
 10
146.639501
 20
784.107298
 40
1.0
100
AcDbArc
 50
359.986012
 51
449.999126
  0
ARC
  5
42B
100
AcDbEntity
  8
M0
 62
     2
100
AcDbCircle
 10
140.739492
 20
784.107298
 40
1.0
100
AcDbArc
 50
89.999126
 51
179.999126
  0
LINE
  5
42C
100
AcDbEntity
  8
M0
 62
     2
100
AcDbLine
 10
146.839498
 20
776.607542
 11
147.089482
 21
776.607542
  0
LINE
  5
42D
100
AcDbEntity
  8
M0
 62
     2
100
AcDbLine
 10
139.939489
 20
777.307494
 11
140.039495
 21
777.307494
  0
LINE
  5
42E
100
AcDbEntity
  8
M0
 62
     2
100
AcDbLine
 10
146.839498
 20
776.807494
 11
146.839498
 21
775.607542
  0
LINE
  5
42F
100
AcDbEntity
  8
M0
 62
     2
100
AcDbLine
 10
140.539495
 20
776.807494
 11
140.539495
 21
775.607542
  0
LINE
  5
430
100
AcDbEntity
  8
M0
 62
     2
100
AcDbLine
 10
147.339498
 20
777.307494
 11
147.439489
 21
777.307494
  0
ARC
  5
431
100
AcDbEntity
  8
M0
 62
     2
100
AcDbCircle
 10
139.939489
 20
777.507445
 40
0.2
100
AcDbArc
 50
179.995629
 51
270.0
  0
ARC
  5
432
100
AcDbEntity
  8
M0
 62
     2
100
AcDbCircle
 10
147.439489
 20
777.507445
 40
0.2
100
AcDbArc
 50
270.0
 51
360.0
  0
ARC
  5
433
100
AcDbEntity
  8
M0
 62
     2
100
AcDbCircle
 10
147.339498
 20
776.807494
 40
0.5
100
AcDbArc
 50
89.998251
 51
179.998251
  0
ARC
  5
434
100
AcDbEntity
  8
M0
 62
     2
100
AcDbCircle
 10
140.039495
 20
776.807494
 40
0.5
100
AcDbArc
 50
0.0
 51
89.998251
  0
LINE
  5
435
100
AcDbEntity
  8
M0
 62
     2
100
AcDbLine
 10
147.089482
 20
776.607542
 11
147.089482
 21
775.607542
  0
LINE
  5
436
100
AcDbEntity
  8
M0
 62
     2
100
AcDbLine
 10
140.539495
 20
785.107542
 11
147.089482
 21
785.107542
  0
LINE
  5
437
100
AcDbEntity
  8
M0
 62
     2
100
AcDbLine
 10
147.639501
 20
787.007445
 11
147.639501
 21
793.607054
  0
LINE
  5
438
100
AcDbEntity
  8
M0
 62
     2
100
AcDbLine
 10
146.639501
 20
794.607542
 11
140.739492
 21
794.607542
  0
LINE
  5
439
100
AcDbEntity
  8
M0
 62
     2
100
AcDbLine
 10
139.739492
 20
793.607298
 11
139.739492
 21
787.007445
  0
ARC
  5
43A
100
AcDbEntity
  8
M0
 62
     2
100
AcDbCircle
 10
146.639501
 20
793.607298
 40
1.0
100
AcDbArc
 50
359.986012
 51
449.999126
  0
ARC
  5
43B
100
AcDbEntity
  8
M0
 62
     2
100
AcDbCircle
 10
140.739492
 20
793.607298
 40
1.0
100
AcDbArc
 50
89.999126
 51
179.999126
  0
LINE
  5
43C
100
AcDbEntity
  8
M0
 62
     2
100
AcDbLine
 10
146.839498
 20
786.107542
 11
147.089482
 21
786.107542
  0
LINE
  5
43D
100
AcDbEntity
  8
M0
 62
     2
100
AcDbLine
 10
139.939489
 20
786.807494
 11
140.039495
 21
786.807494
  0
LINE
  5
43E
100
AcDbEntity
  8
M0
 62
     2
100
AcDbLine
 10
146.839498
 20
786.307494
 11
146.839498
 21
785.107542
  0
LINE
  5
43F
100
AcDbEntity
  8
M0
 62
     2
100
AcDbLine
 10
140.539495
 20
786.307494
 11
140.539495
 21
785.107542
  0
LINE
  5
440
100
AcDbEntity
  8
M0
 62
     2
100
AcDbLine
 10
147.339498
 20
786.807494
 11
147.439489
 21
786.807494
  0
ARC
  5
441
100
AcDbEntity
  8
M0
 62
     2
100
AcDbCircle
 10
139.939489
 20
787.007445
 40
0.2
100
AcDbArc
 50
179.995629
 51
270.0
  0
ARC
  5
442
100
AcDbEntity
  8
M0
 62
     2
100
AcDbCircle
 10
147.439489
 20
787.007445
 40
0.2
100
AcDbArc
 50
270.0
 51
360.0
  0
ARC
  5
443
100
AcDbEntity
  8
M0
 62
     2
100
AcDbCircle
 10
147.339498
 20
786.307494
 40
0.5
100
AcDbArc
 50
89.998251
 51
179.998251
  0
ARC
  5
444
100
AcDbEntity
  8
M0
 62
     2
100
AcDbCircle
 10
140.039495
 20
786.307494
 40
0.5
100
AcDbArc
 50
0.0
 51
89.998251
  0
LINE
  5
445
100
AcDbEntity
  8
M0
 62
     2
100
AcDbLine
 10
147.089482
 20
786.107542
 11
147.089482
 21
785.107542
  0
LINE
  5
446
100
AcDbEntity
  8
M0
 62
     6
100
AcDbLine
 10
192.189504
 20
700.107542
 11
217.189504
 21
700.107542
  0
LINE
  5
447
100
AcDbEntity
  8
M0
 62
     6
100
AcDbLine
 10
194.689504
 20
731.107542
 11
192.189504
 21
726.607542
  0
LINE
  5
448
100
AcDbEntity
  8
M0
 62
     6
100
AcDbLine
 10
214.689504
 20
731.107542
 11
217.189504
 21
726.607542
  0
LINE
  5
449
100
AcDbEntity
  8
M0
 62
     6
100
AcDbLine
 10
194.689504
 20
735.607542
 11
194.689504
 21
731.107542
  0
LINE
  5
44A
100
AcDbEntity
  8
M0
 62
     6
100
AcDbLine
 10
214.689504
 20
735.607542
 11
214.689504
 21
731.107542
  0
LINE
  5
44B
100
AcDbEntity
  8
M0
 62
     6
100
AcDbLine
 10
217.189504
 20
700.107542
 11
217.189504
 21
726.607542
  0
LINE
  5
44C
100
AcDbEntity
  8
M0
 62
     6
100
AcDbLine
 10
192.189504
 20
726.607542
 11
192.189504
 21
700.107542
  0
LINE
  5
44D
100
AcDbEntity
  8
M0
 62
     6
100
AcDbLine
 10
192.189622
 20
901.107458
 11
217.189622
 21
901.107473
  0
LINE
  5
44E
100
AcDbEntity
  8
M0
 62
     6
100
AcDbLine
 10
194.689641
 20
870.107459
 11
192.189639
 21
874.607458
  0
LINE
  5
44F
100
AcDbEntity
  8
M0
 62
     6
100
AcDbLine
 10
214.689641
 20
870.107472
 11
217.189639
 21
874.607473
  0
LINE
  5
450
100
AcDbEntity
  8
M0
 62
     6
100
AcDbLine
 10
194.689644
 20
865.607459
 11
194.689641
 21
870.107459
  0
LINE
  5
451
100
AcDbEntity
  8
M0
 62
     6
100
AcDbLine
 10
214.689644
 20
865.607472
 11
214.689641
 21
870.107472
  0
LINE
  5
452
100
AcDbEntity
  8
M0
 62
     6
100
AcDbLine
 10
217.189622
 20
901.107473
 11
217.189639
 21
874.607473
  0
LINE
  5
453
100
AcDbEntity
  8
M0
 62
     6
100
AcDbLine
 10
192.189639
 20
874.607458
 11
192.189622
 21
901.107458
  0
LINE
  5
454
100
AcDbEntity
  8
M0
 62
     5
100
AcDbLine
 10
152.689504
 20
720.112898
 11
159.190969
 21
716.360304
  0
LINE
  5
455
100
AcDbEntity
  8
M0
 62
     5
100
AcDbLine
 10
159.190969
 20
716.360304
 11
159.190969
 21
708.854658
  0
LINE
  5
456
100
AcDbEntity
  8
M0
 62
     5
100
AcDbLine
 10
159.190969
 20
708.854658
 11
152.689504
 21
705.101912
  0
LINE
  5
457
100
AcDbEntity
  8
M0
 62
     5
100
AcDbLine
 10
152.689504
 20
705.101912
 11
146.19048
 21
708.854658
  0
LINE
  5
458
100
AcDbEntity
  8
M0
 62
     5
100
AcDbLine
 10
146.19048
 20
708.854658
 11
146.19048
 21
716.360304
  0
LINE
  5
459
100
AcDbEntity
  8
M0
 62
     5
100
AcDbLine
 10
146.19048
 20
716.360304
 11
152.689504
 21
720.112898
  0
CIRCLE
  5
45A
100
AcDbEntity
  8
M0
 62
     5
100
AcDbCircle
 10
152.689504
 20
712.607558
 40
4.0
  0
LINE
  5
45B
100
AcDbEntity
  8
M0
 62
     5
100
AcDbLine
 10
204.689504
 20
720.112898
 11
211.190969
 21
716.360304
  0
LINE
  5
45C
100
AcDbEntity
  8
M0
 62
     5
100
AcDbLine
 10
211.190969
 20
716.360304
 11
211.190969
 21
708.854658
  0
LINE
  5
45D
100
AcDbEntity
  8
M0
 62
     5
100
AcDbLine
 10
211.190969
 20
708.854658
 11
204.689504
 21
705.101912
  0
LINE
  5
45E
100
AcDbEntity
  8
M0
 62
     5
100
AcDbLine
 10
204.689504
 20
705.101912
 11
198.19048
 21
708.854658
  0
LINE
  5
45F
100
AcDbEntity
  8
M0
 62
     5
100
AcDbLine
 10
198.19048
 20
708.854658
 11
198.19048
 21
716.360304
  0
LINE
  5
460
100
AcDbEntity
  8
M0
 62
     5
100
AcDbLine
 10
198.19048
 20
716.360304
 11
204.689504
 21
720.112898
  0
CIRCLE
  5
461
100
AcDbEntity
  8
M0
 62
     5
100
AcDbCircle
 10
204.689504
 20
712.607558
 40
4.0
  0
LINE
  5
462
100
AcDbEntity
  8
M0
  6
DASHDOT
 62
     5
100
AcDbLine
 10
214.841848
 20
712.607558
 11
194.53716
 21
712.607558
  0
LINE
  5
463
100
AcDbEntity
  8
M0
  6
DASHDOT
 62
     5
100
AcDbLine
 10
204.689504
 20
722.759886
 11
204.689504
 21
702.455229
  0
LINE
  5
464
100
AcDbEntity
  8
M0
100
AcDbLine
 10
186.575307
 20
694.750868
 11
186.684117
 21
701.007567
  0
ARC
  5
465
100
AcDbEntity
  8
M0
100
AcDbCircle
 10
188.575856
 20
694.76544
 40
2.0
100
AcDbArc
 50
179.002413
 51
269.003724
  0
LINE
  5
466
100
AcDbEntity
  8
M0
100
AcDbLine
 10
195.540029
 20
692.644026
 11
188.541082
 21
692.765746
  0
ARC
  5
467
100
AcDbEntity
  8
M0
100
AcDbCircle
 10
195.574803
 20
694.643721
 40
2.0
100
AcDbArc
 50
269.003724
 51
359.003732
  0
LINE
  5
468
100
AcDbEntity
  8
M0
100
AcDbLine
 10
197.67014
 20
700.108687
 11
197.573644
 21
694.559599
  0
LINE
  5
469
100
AcDbEntity
  8
M0
 62
     5
100
AcDbLine
 10
256.689504
 20
720.112898
 11
263.190969
 21
716.360304
  0
LINE
  5
46A
100
AcDbEntity
  8
M0
 62
     5
100
AcDbLine
 10
263.190969
 20
716.360304
 11
263.190969
 21
708.854658
  0
LINE
  5
46B
100
AcDbEntity
  8
M0
 62
     5
100
AcDbLine
 10
263.190969
 20
708.854658
 11
256.689504
 21
705.101912
  0
LINE
  5
46C
100
AcDbEntity
  8
M0
 62
     5
100
AcDbLine
 10
256.689504
 20
705.101912
 11
250.19048
 21
708.854658
  0
LINE
  5
46D
100
AcDbEntity
  8
M0
 62
     5
100
AcDbLine
 10
250.19048
 20
708.854658
 11
250.19048
 21
716.360304
  0
LINE
  5
46E
100
AcDbEntity
  8
M0
 62
     5
100
AcDbLine
 10
250.19048
 20
716.360304
 11
256.689504
 21
720.112898
  0
CIRCLE
  5
46F
100
AcDbEntity
  8
M0
 62
     5
100
AcDbCircle
 10
256.689504
 20
712.607558
 40
4.0
  0
LINE
  5
470
100
AcDbEntity
  8
M0
  6
DASHDOT
 62
     5
100
AcDbLine
 10
266.841848
 20
712.607558
 11
246.53716
 21
712.607558
  0
LINE
  5
471
100
AcDbEntity
  8
M0
  6
DASHDOT
 62
     5
100
AcDbLine
 10
256.689504
 20
722.759886
 11
256.689504
 21
702.455229
  0
LINE
  5
472
100
AcDbEntity
  8
M0
 62
     5
100
AcDbLine
 10
256.689504
 20
896.112898
 11
263.190969
 21
892.360304
  0
LINE
  5
473
100
AcDbEntity
  8
M0
 62
     5
100
AcDbLine
 10
263.190969
 20
892.360304
 11
263.190969
 21
884.854658
  0
LINE
  5
474
100
AcDbEntity
  8
M0
 62
     5
100
AcDbLine
 10
263.190969
 20
884.854658
 11
256.689504
 21
881.101912
  0
LINE
  5
475
100
AcDbEntity
  8
M0
 62
     5
100
AcDbLine
 10
256.689504
 20
881.101912
 11
250.19048
 21
884.854658
  0
LINE
  5
476
100
AcDbEntity
  8
M0
 62
     5
100
AcDbLine
 10
250.19048
 20
884.854658
 11
250.19048
 21
892.360304
  0
LINE
  5
477
100
AcDbEntity
  8
M0
 62
     5
100
AcDbLine
 10
250.19048
 20
892.360304
 11
256.689504
 21
896.112898
  0
CIRCLE
  5
478
100
AcDbEntity
  8
M0
 62
     5
100
AcDbCircle
 10
256.689504
 20
888.607558
 40
4.0
  0
LINE
  5
479
100
AcDbEntity
  8
M0
  6
DASHDOT
 62
     5
100
AcDbLine
 10
266.841848
 20
888.607558
 11
246.53716
 21
888.607558
  0
LINE
  5
47A
100
AcDbEntity
  8
M0
 62
     5
100
AcDbLine
 10
204.689504
 20
896.112898
 11
211.190969
 21
892.360304
  0
LINE
  5
47B
100
AcDbEntity
  8
M0
 62
     5
100
AcDbLine
 10
211.190969
 20
892.360304
 11
211.190969
 21
884.854658
  0
LINE
  5
47C
100
AcDbEntity
  8
M0
 62
     5
100
AcDbLine
 10
211.190969
 20
884.854658
 11
204.689504
 21
881.101912
  0
LINE
  5
47D
100
AcDbEntity
  8
M0
 62
     5
100
AcDbLine
 10
204.689504
 20
881.101912
 11
198.19048
 21
884.854658
  0
LINE
  5
47E
100
AcDbEntity
  8
M0
 62
     5
100
AcDbLine
 10
198.19048
 20
884.854658
 11
198.19048
 21
892.360304
  0
LINE
  5
47F
100
AcDbEntity
  8
M0
 62
     5
100
AcDbLine
 10
198.19048
 20
892.360304
 11
204.689504
 21
896.112898
  0
CIRCLE
  5
480
100
AcDbEntity
  8
M0
 62
     5
100
AcDbCircle
 10
204.689504
 20
888.607558
 40
4.0
  0
LINE
  5
481
100
AcDbEntity
  8
M0
  6
DASHDOT
 62
     5
100
AcDbLine
 10
214.841848
 20
888.607558
 11
194.53716
 21
888.607558
  0
LINE
  5
482
100
AcDbEntity
  8
M0
  6
DASHDOT
 62
     5
100
AcDbLine
 10
204.689504
 20
898.759886
 11
204.689504
 21
878.455229
  0
LINE
  5
483
100
AcDbEntity
  8
M0
 62
     5
100
AcDbLine
 10
152.689504
 20
896.112898
 11
159.190969
 21
892.360304
  0
LINE
  5
484
100
AcDbEntity
  8
M0
 62
     5
100
AcDbLine
 10
159.190969
 20
892.360304
 11
159.190969
 21
884.854658
  0
LINE
  5
485
100
AcDbEntity
  8
M0
 62
     5
100
AcDbLine
 10
159.190969
 20
884.854658
 11
152.689504
 21
881.101912
  0
LINE
  5
486
100
AcDbEntity
  8
M0
 62
     5
100
AcDbLine
 10
152.689504
 20
881.101912
 11
146.19048
 21
884.854658
  0
LINE
  5
487
100
AcDbEntity
  8
M0
 62
     5
100
AcDbLine
 10
146.19048
 20
884.854658
 11
146.19048
 21
892.360304
  0
LINE
  5
488
100
AcDbEntity
  8
M0
 62
     5
100
AcDbLine
 10
146.19048
 20
892.360304
 11
152.689504
 21
896.112898
  0
CIRCLE
  5
489
100
AcDbEntity
  8
M0
 62
     5
100
AcDbCircle
 10
152.689504
 20
888.607558
 40
4.0
  0
LINE
  5
48A
100
AcDbEntity
  8
M0
  6
DASHDOT
 62
     5
100
AcDbLine
 10
162.841848
 20
888.607558
 11
142.53716
 21
888.607558
  0
CIRCLE
  5
48B
100
AcDbEntity
  8
M0
  6
DASHED
100
AcDbCircle
 10
147.189489
 20
713.607634
 40
4.5
  0
CIRCLE
  5
48C
100
AcDbEntity
  8
M0
  6
DASHED
100
AcDbCircle
 10
262.189473
 20
713.607634
 40
4.5
  0
LINE
  5
48D
100
AcDbEntity
  8
M0
  6
DASHDOT
100
AcDbLine
 10
255.022817
 20
898.607558
 11
269.356145
 21
898.607558
  0
LINE
  5
48E
100
AcDbEntity
  8
M0
  6
DASHDOT
100
AcDbLine
 10
262.189473
 20
891.44081
 11
262.189473
 21
905.774306
  0
LINE
  5
48F
100
AcDbEntity
  8
M0
  6
DASHDOT
100
AcDbLine
 10
140.022832
 20
898.607558
 11
154.35616
 21
898.607558
  0
LINE
  5
490
100
AcDbEntity
  8
M0
  6
DASHDOT
100
AcDbLine
 10
147.189489
 20
891.44081
 11
147.189489
 21
905.774306
  0
LINE
  5
491
100
AcDbEntity
  8
M0
  6
DASHDOT
100
AcDbLine
 10
140.022832
 20
713.607634
 11
154.35616
 21
713.607634
  0
LINE
  5
492
100
AcDbEntity
  8
M0
  6
DASHDOT
100
AcDbLine
 10
147.189489
 20
706.440962
 11
147.189489
 21
720.774306
  0
LINE
  5
493
100
AcDbEntity
  8
M0
  6
DASHDOT
100
AcDbLine
 10
255.022817
 20
713.607634
 11
269.356145
 21
713.607634
  0
LINE
  5
494
100
AcDbEntity
  8
M0
  6
DASHDOT
100
AcDbLine
 10
262.189473
 20
706.440962
 11
262.189473
 21
720.774306
  0
ARC
  5
495
100
AcDbEntity
  8
M0
  6
DASHED
100
AcDbCircle
 10
147.189489
 20
898.607558
 40
4.5
100
AcDbArc
 50
146.250984
 51
393.745245
  0
ARC
  5
496
100
AcDbEntity
  8
M0
100
AcDbCircle
 10
147.189489
 20
898.607558
 40
4.5
100
AcDbArc
 50
33.745245
 51
146.250984
  0
ARC
  5
497
100
AcDbEntity
  8
M0
  6
DASHED
100
AcDbCircle
 10
262.189473
 20
898.607558
 40
4.5
100
AcDbArc
 50
146.254432
 51
393.74546
  0
ARC
  5
498
100
AcDbEntity
  8
M0
100
AcDbCircle
 10
262.189473
 20
898.607558
 40
4.5
100
AcDbArc
 50
33.74546
 51
146.254432
  0
LINE
  5
499
100
AcDbEntity
  8
M0
100
AcDbLine
 10
135.689489
 20
703.607451
 11
140.189489
 21
703.607451
  0
LINE
  5
49A
100
AcDbEntity
  8
M0
100
AcDbLine
 10
165.189489
 20
703.607451
 11
192.189489
 21
703.607451
  0
LINE
  5
49B
100
AcDbEntity
  8
M0
100
AcDbLine
 10
217.189489
 20
703.607451
 11
244.189489
 21
703.607451
  0
LINE
  5
49C
100
AcDbEntity
  8
M0
100
AcDbLine
 10
269.189489
 20
703.607451
 11
273.689489
 21
703.607451
  0
LINE
  5
49D
100
AcDbEntity
  8
M0
100
AcDbLine
 10
135.689473
 20
908.607451
 11
273.689489
 21
908.607451
  0
LINE
  5
49E
100
AcDbEntity
  8
M0
100
AcDbLine
 10
135.68929
 20
701.007597
 11
140.18929
 21
701.007597
  0
LINE
  5
49F
100
AcDbEntity
  8
M0
100
AcDbLine
 10
135.68929
 20
703.107695
 11
140.18929
 21
703.107695
  0
LINE
  5
4A0
100
AcDbEntity
  8
M0
100
AcDbLine
 10
135.689489
 20
911.207518
 11
135.689504
 21
701.007597
  0
LINE
  5
4A1
100
AcDbEntity
  8
M0
100
AcDbLine
 10
165.18929
 20
701.007597
 11
192.18929
 21
701.007597
  0
LINE
  5
4A2
100
AcDbEntity
  8
M0
100
AcDbLine
 10
165.18929
 20
703.107695
 11
192.18929
 21
703.107695
  0
LINE
  5
4A3
100
AcDbEntity
  8
M0
100
AcDbLine
 10
217.18929
 20
701.007597
 11
244.18929
 21
701.007597
  0
LINE
  5
4A4
100
AcDbEntity
  8
M0
100
AcDbLine
 10
217.18929
 20
703.107695
 11
244.18929
 21
703.107695
  0
LINE
  5
4A5
100
AcDbEntity
  8
M0
100
AcDbLine
 10
269.18929
 20
701.007597
 11
289.68929
 21
701.007597
  0
LINE
  5
4A6
100
AcDbEntity
  8
M0
100
AcDbLine
 10
269.18929
 20
703.107695
 11
289.68929
 21
703.107695
  0
LINE
  5
4A7
100
AcDbEntity
  8
M0
100
AcDbLine
 10
289.689473
 20
911.207548
 11
289.689479
 21
827.857542
  0
LINE
  5
4A8
100
AcDbEntity
  8
M0
100
AcDbLine
 10
289.68929
 20
909.107344
 11
135.68929
 21
909.107344
  0
LINE
  5
4A9
100
AcDbEntity
  8
M0
100
AcDbLine
 10
289.68929
 20
911.207518
 11
135.68929
 21
911.207518
  0
LINE
  5
4AA
100
AcDbEntity
  8
M0
100
AcDbLine
 10
289.689483
 20
773.357542
 11
289.689489
 21
701.007597
  0
LINE
  5
4AB
100
AcDbEntity
  8
M0
100
AcDbLine
 10
292.689489
 20
725.607695
 11
301.564489
 21
725.607695
  0
LINE
  5
4AC
100
AcDbEntity
  8
M0
100
AcDbLine
 10
430.689489
 20
703.607695
 11
430.689489
 21
909.107344
  0
LINE
  5
4AD
100
AcDbEntity
  8
M0
100
AcDbLine
 10
400.786153
 20
875.60742
 11
388.689489
 21
875.607298
  0
LINE
  5
4AE
100
AcDbEntity
  8
M0
  6
DASHDOT
100
AcDbLine
 10
287.689489
 20
800.607542
 11
435.689489
 21
800.607542
  0
LINE
  5
4AF
100
AcDbEntity
  8
M0
  6
DASHDOT
100
AcDbLine
 10
361.689489
 20
689.056083
 11
361.689489
 21
939.648777
  0
LINE
  5
4B0
100
AcDbEntity
  8
M0
100
AcDbLine
 10
347.705114
 20
725.607695
 11
349.189489
 21
725.607695
  0
LINE
  5
4B1
100
AcDbEntity
  8
M0
100
AcDbLine
 10
388.689489
 20
725.607695
 11
400.78626
 21
725.607695
  0
LINE
  5
4B2
100
AcDbEntity
  8
M0
100
AcDbLine
 10
375.673619
 20
875.607298
 11
374.189489
 21
875.607283
  0
LINE
  5
4B3
100
AcDbEntity
  8
M0
100
AcDbLine
 10
334.689489
 20
875.607054
 11
322.593114
 21
875.607054
  0
LINE
  5
4B4
100
AcDbEntity
  8
M0
100
AcDbLine
 10
304.689489
 20
776.057494
 11
304.689489
 21
794.107542
  0
LINE
  5
4B5
100
AcDbEntity
  8
M0
100
AcDbLine
 10
296.689489
 20
773.607298
 11
296.689489
 21
794.107542
  0
LINE
  5
4B6
100
AcDbEntity
  8
M0
100
AcDbLine
 10
426.689489
 20
773.607542
 11
426.689489
 21
794.107054
  0
LINE
  5
4B7
100
AcDbEntity
  8
M0
100
AcDbLine
 10
418.689489
 20
776.057249
 11
418.689489
 21
794.107054
  0
LINE
  5
4B8
100
AcDbEntity
  8
M0
100
AcDbLine
 10
293.189489
 20
828.107542
 11
296.189489
 21
828.107542
  0
LINE
  5
4B9
100
AcDbEntity
  8
M0
100
AcDbLine
 10
293.189489
 20
773.107542
 11
296.189489
 21
773.107542
  0
LINE
  5
4BA
100
AcDbEntity
  8
M0
100
AcDbLine
 10
427.189489
 20
828.107542
 11
430.189489
 21
828.107542
  0
LINE
  5
4BB
100
AcDbEntity
  8
M0
100
AcDbLine
 10
427.189489
 20
773.107542
 11
430.189489
 21
773.107542
  0
LINE
  5
4BC
100
AcDbEntity
  8
M0
100
AcDbLine
 10
296.689489
 20
825.657347
 11
306.689489
 21
825.657347
  0
LINE
  5
4BD
100
AcDbEntity
  8
M0
100
AcDbLine
 10
296.689489
 20
775.557494
 11
306.689489
 21
775.557494
  0
LINE
  5
4BE
100
AcDbEntity
  8
M0
100
AcDbLine
 10
416.689489
 20
825.657347
 11
426.689489
 21
825.657347
  0
LINE
  5
4BF
100
AcDbEntity
  8
M0
100
AcDbLine
 10
416.689489
 20
775.557494
 11
426.689489
 21
775.557494
  0
LINE
  5
4C0
100
AcDbEntity
  8
M0
100
AcDbLine
 10
293.189489
 20
818.107542
 11
296.189489
 21
818.107542
  0
LINE
  5
4C1
100
AcDbEntity
  8
M0
100
AcDbLine
 10
293.189489
 20
783.107542
 11
296.189489
 21
783.107542
  0
LINE
  5
4C2
100
AcDbEntity
  8
M0
100
AcDbLine
 10
427.189489
 20
818.107542
 11
430.189489
 21
818.107542
  0
LINE
  5
4C3
100
AcDbEntity
  8
M0
100
AcDbLine
 10
427.189489
 20
783.107542
 11
430.189489
 21
783.107542
  0
LINE
  5
4C4
100
AcDbEntity
  8
M0
100
AcDbLine
 10
293.189489
 20
804.357542
 11
299.689489
 21
804.357542
  0
LINE
  5
4C5
100
AcDbEntity
  8
M0
100
AcDbLine
 10
293.189489
 20
796.857542
 11
299.689489
 21
796.857542
  0
LINE
  5
4C6
100
AcDbEntity
  8
M0
100
AcDbLine
 10
430.189489
 20
804.357542
 11
423.689489
 21
804.357542
  0
LINE
  5
4C7
100
AcDbEntity
  8
M0
100
AcDbLine
 10
430.189489
 20
796.857542
 11
423.689489
 21
796.857542
  0
LINE
  5
4C8
100
AcDbEntity
  8
M0
100
AcDbLine
 10
296.689489
 20
807.107542
 11
296.689489
 21
827.607542
  0
LINE
  5
4C9
100
AcDbEntity
  8
M0
100
AcDbLine
 10
426.689489
 20
807.10681
 11
426.689489
 21
827.607542
  0
LINE
  5
4CA
100
AcDbEntity
  8
M0
100
AcDbLine
 10
300.689489
 20
803.357542
 11
300.689489
 21
797.857542
  0
LINE
  5
4CB
100
AcDbEntity
  8
M0
100
AcDbLine
 10
422.689489
 20
803.357298
 11
422.689489
 21
797.857298
  0
LINE
  5
4CC
100
AcDbEntity
  8
M0
100
AcDbLine
 10
305.189489
 20
817.107542
 11
306.689489
 21
817.107542
  0
LINE
  5
4CD
100
AcDbEntity
  8
M0
100
AcDbLine
 10
305.189489
 20
784.107542
 11
306.689489
 21
784.107542
  0
LINE
  5
4CE
100
AcDbEntity
  8
M0
100
AcDbLine
 10
418.189489
 20
817.107542
 11
416.689489
 21
817.107542
  0
LINE
  5
4CF
100
AcDbEntity
  8
M0
100
AcDbLine
 10
418.189489
 20
784.107542
 11
416.689489
 21
784.107542
  0
LINE
  5
4D0
100
AcDbEntity
  8
M0
100
AcDbLine
 10
292.689489
 20
835.607542
 11
295.189489
 21
835.607542
  0
LINE
  5
4D1
100
AcDbEntity
  8
M0
100
AcDbLine
 10
292.689489
 20
765.607542
 11
295.189489
 21
765.607542
  0
LINE
  5
4D2
100
AcDbEntity
  8
M0
100
AcDbLine
 10
295.189489
 20
773.107542
 11
295.189489
 21
765.607542
  0
LINE
  5
4D3
100
AcDbEntity
  8
M0
100
AcDbLine
 10
295.189489
 20
835.607542
 11
295.189489
 21
828.107542
  0
LINE
  5
4D4
100
AcDbEntity
  8
M0
100
AcDbLine
 10
428.189489
 20
835.607542
 11
428.189489
 21
828.107542
  0
LINE
  5
4D5
100
AcDbEntity
  8
M0
100
AcDbLine
 10
428.189489
 20
765.607542
 11
428.189489
 21
773.107542
  0
LINE
  5
4D6
100
AcDbEntity
  8
M0
100
AcDbLine
 10
428.189489
 20
765.607542
 11
430.689489
 21
765.607542
  0
LINE
  5
4D7
100
AcDbEntity
  8
M0
100
AcDbLine
 10
428.189489
 20
835.607542
 11
430.689489
 21
835.607542
  0
LINE
  5
4D8
100
AcDbEntity
  8
M0
100
AcDbLine
 10
296.689489
 20
776.607542
 11
297.539479
 21
776.607542
  0
LINE
  5
4D9
100
AcDbEntity
  8
M0
100
AcDbLine
 10
296.689489
 20
824.607542
 11
297.539479
 21
824.607542
  0
LINE
  5
4DA
100
AcDbEntity
  8
M0
100
AcDbLine
 10
418.689489
 20
824.607542
 11
419.539479
 21
824.607542
  0
LINE
  5
4DB
100
AcDbEntity
  8
M0
100
AcDbLine
 10
418.689489
 20
776.607542
 11
426.689489
 21
776.607542
  0
LINE
  5
4DC
100
AcDbEntity
  8
M0
100
AcDbLine
 10
296.689489
 20
815.107542
 11
297.539479
 21
815.107542
  0
LINE
  5
4DD
100
AcDbEntity
  8
M0
100
AcDbLine
 10
296.689489
 20
786.107542
 11
297.539479
 21
786.107542
  0
LINE
  5
4DE
100
AcDbEntity
  8
M0
100
AcDbLine
 10
418.689489
 20
815.107542
 11
419.539479
 21
815.107542
  0
LINE
  5
4DF
100
AcDbEntity
  8
M0
100
AcDbLine
 10
418.689489
 20
786.107542
 11
426.689489
 21
786.107542
  0
LINE
  5
4E0
100
AcDbEntity
  8
M0
100
AcDbLine
 10
419.489293
 20
815.607542
 11
419.539479
 21
815.607542
  0
LINE
  5
4E1
100
AcDbEntity
  8
M0
100
AcDbLine
 10
419.489293
 20
785.607542
 11
425.88944
 21
785.607542
  0
LINE
  5
4E2
100
AcDbEntity
  8
M0
100
AcDbLine
 10
297.489293
 20
815.607542
 11
297.539479
 21
815.607542
  0
LINE
  5
4E3
100
AcDbEntity
  8
M0
100
AcDbLine
 10
297.489293
 20
785.607542
 11
297.539479
 21
785.607542
  0
LINE
  5
4E4
100
AcDbEntity
  8
M0
100
AcDbLine
 10
303.88944
 20
785.107542
 11
303.88944
 21
786.107542
  0
LINE
  5
4E5
100
AcDbEntity
  8
M0
100
AcDbLine
 10
297.489293
 20
785.107298
 11
297.489293
 21
786.107542
  0
LINE
  5
4E6
100
AcDbEntity
  8
M0
100
AcDbLine
 10
304.505376
 20
784.607542
 11
304.689489
 21
784.607542
  0
LINE
  5
4E7
100
AcDbEntity
  8
M0
100
AcDbLine
 10
296.689489
 20
784.607542
 11
296.873601
 21
784.607542
  0
LINE
  5
4E8
100
AcDbEntity
  8
M0
100
AcDbLine
 10
304.505376
 20
816.607542
 11
304.689489
 21
816.607542
  0
LINE
  5
4E9
100
AcDbEntity
  8
M0
100
AcDbLine
 10
296.689489
 20
816.607542
 11
296.873601
 21
816.607542
  0
LINE
  5
4EA
100
AcDbEntity
  8
M0
100
AcDbLine
 10
297.489293
 20
815.107542
 11
297.489293
 21
816.107298
  0
LINE
  5
4EB
100
AcDbEntity
  8
M0
100
AcDbLine
 10
303.88944
 20
815.107542
 11
303.88944
 21
816.107542
  0
LINE
  5
4EC
100
AcDbEntity
  8
M0
100
AcDbLine
 10
418.989537
 20
784.607298
 11
418.689489
 21
784.607298
  0
LINE
  5
4ED
100
AcDbEntity
  8
M0
100
AcDbLine
 10
419.489537
 20
785.10681
 11
419.489537
 21
786.107298
  0
LINE
  5
4EE
100
AcDbEntity
  8
M0
100
AcDbLine
 10
426.689489
 20
784.607298
 11
426.389684
 21
784.607298
  0
LINE
  5
4EF
100
AcDbEntity
  8
M0
100
AcDbLine
 10
425.889684
 20
785.107054
 11
425.889684
 21
786.107298
  0
LINE
  5
4F0
100
AcDbEntity
  8
M0
100
AcDbLine
 10
426.689489
 20
816.607298
 11
426.505223
 21
816.607298
  0
LINE
  5
4F1
100
AcDbEntity
  8
M0
100
AcDbLine
 10
418.873738
 20
816.607298
 11
418.689489
 21
816.607298
  0
LINE
  5
4F2
100
AcDbEntity
  8
M0
100
AcDbLine
 10
419.489537
 20
815.107298
 11
419.489537
 21
816.10681
  0
LINE
  5
4F3
100
AcDbEntity
  8
M0
100
AcDbLine
 10
296.689489
 20
808.607542
 11
296.739476
 21
808.607542
  0
LINE
  5
4F4
100
AcDbEntity
  8
M0
100
AcDbLine
 10
304.639485
 20
808.607542
 11
304.689489
 21
808.607542
  0
LINE
  5
4F5
100
AcDbEntity
  8
M0
100
AcDbLine
 10
304.639485
 20
792.607542
 11
304.689489
 21
792.607542
  0
LINE
  5
4F6
100
AcDbEntity
  8
M0
100
AcDbLine
 10
296.689489
 20
792.607542
 11
296.739476
 21
792.607542
  0
LINE
  5
4F7
100
AcDbEntity
  8
M0
100
AcDbLine
 10
297.689489
 20
806.107542
 11
303.689489
 21
806.107542
  0
LINE
  5
4F8
100
AcDbEntity
  8
M0
100
AcDbLine
 10
297.689489
 20
795.107542
 11
303.689489
 21
795.107542
  0
LINE
  5
4F9
100
AcDbEntity
  8
M0
100
AcDbLine
 10
304.689489
 20
807.107298
 11
304.689489
 21
825.157347
  0
LINE
  5
4FA
100
AcDbEntity
  8
M0
100
AcDbLine
 10
296.689489
 20
818.107542
 11
296.739476
 21
818.107542
  0
LINE
  5
4FB
100
AcDbEntity
  8
M0
100
AcDbLine
 10
296.739476
 20
783.107542
 11
296.689489
 21
783.107542
  0
LINE
  5
4FC
100
AcDbEntity
  8
M0
100
AcDbLine
 10
304.639485
 20
783.107542
 11
304.689489
 21
783.107542
  0
LINE
  5
4FD
100
AcDbEntity
  8
M0
100
AcDbLine
 10
296.739476
 20
781.757262
 11
296.689489
 21
781.607298
  0
LINE
  5
4FE
100
AcDbEntity
  8
M0
100
AcDbLine
 10
304.639485
 20
781.757552
 11
304.689489
 21
781.607542
  0
LINE
  5
4FF
100
AcDbEntity
  8
M0
100
AcDbLine
 10
304.639485
 20
791.257552
 11
304.689489
 21
791.107542
  0
LINE
  5
500
100
AcDbEntity
  8
M0
100
AcDbLine
 10
296.739476
 20
791.257506
 11
296.689489
 21
791.107542
  0
LINE
  5
501
100
AcDbEntity
  8
M0
100
AcDbLine
 10
296.739476
 20
809.957579
 11
296.689489
 21
810.107542
  0
LINE
  5
502
100
AcDbEntity
  8
M0
100
AcDbLine
 10
304.639485
 20
809.957533
 11
304.689489
 21
810.107542
  0
LINE
  5
503
100
AcDbEntity
  8
M0
100
AcDbLine
 10
296.739476
 20
819.457579
 11
296.689489
 21
819.607542
  0
LINE
  5
504
100
AcDbEntity
  8
M0
100
AcDbLine
 10
426.189489
 20
792.607298
 11
426.689489
 21
791.107298
  0
LINE
  5
505
100
AcDbEntity
  8
M0
100
AcDbLine
 10
426.689489
 20
792.607298
 11
426.189489
 21
792.607298
  0
LINE
  5
506
100
AcDbEntity
  8
M0
100
AcDbLine
 10
426.189489
 20
792.607298
 11
426.189489
 21
794.10681
  0
LINE
  5
507
100
AcDbEntity
  8
M0
100
AcDbLine
 10
419.189489
 20
792.607298
 11
419.189489
 21
794.107054
  0
LINE
  5
508
100
AcDbEntity
  8
M0
100
AcDbLine
 10
419.189489
 20
792.607298
 11
418.689489
 21
792.607298
  0
LINE
  5
509
100
AcDbEntity
  8
M0
100
AcDbLine
 10
419.189489
 20
792.607298
 11
418.689489
 21
791.107298
  0
LINE
  5
50A
100
AcDbEntity
  8
M0
100
AcDbLine
 10
419.189489
 20
783.107298
 11
419.189489
 21
784.648558
  0
LINE
  5
50B
100
AcDbEntity
  8
M0
100
AcDbLine
 10
419.189489
 20
783.107298
 11
418.689489
 21
783.107298
  0
LINE
  5
50C
100
AcDbEntity
  8
M0
100
AcDbLine
 10
419.189489
 20
783.107298
 11
418.689489
 21
781.607298
  0
LINE
  5
50D
100
AcDbEntity
  8
M0
100
AcDbLine
 10
426.189489
 20
783.107054
 11
426.689489
 21
781.607054
  0
LINE
  5
50E
100
AcDbEntity
  8
M0
100
AcDbLine
 10
426.189489
 20
783.107298
 11
426.689489
 21
783.107298
  0
LINE
  5
50F
100
AcDbEntity
  8
M0
100
AcDbLine
 10
426.189489
 20
783.107054
 11
426.189489
 21
784.648802
  0
LINE
  5
510
100
AcDbEntity
  8
M0
100
AcDbLine
 10
426.639485
 20
809.957289
 11
426.689489
 21
810.107298
  0
LINE
  5
511
100
AcDbEntity
  8
M0
100
AcDbLine
 10
426.689489
 20
808.607298
 11
426.639485
 21
808.607298
  0
LINE
  5
512
100
AcDbEntity
  8
M0
100
AcDbLine
 10
418.739476
 20
809.957335
 11
418.689489
 21
810.107298
  0
LINE
  5
513
100
AcDbEntity
  8
M0
100
AcDbLine
 10
418.739476
 20
808.607298
 11
418.689489
 21
808.607298
  0
LINE
  5
514
100
AcDbEntity
  8
M0
100
AcDbLine
 10
418.739476
 20
819.457335
 11
418.689489
 21
819.607298
  0
LINE
  5
515
100
AcDbEntity
  8
M0
100
AcDbLine
 10
418.739476
 20
818.107298
 11
418.689489
 21
818.107298
  0
LINE
  5
516
100
AcDbEntity
  8
M0
100
AcDbLine
 10
426.689489
 20
818.107298
 11
426.639485
 21
818.107298
  0
LINE
  5
517
100
AcDbEntity
  8
M0
100
AcDbLine
 10
426.639485
 20
819.457289
 11
426.689489
 21
819.607298
  0
LINE
  5
518
100
AcDbEntity
  8
M0
100
AcDbLine
 10
425.689489
 20
795.107298
 11
419.689489
 21
795.107298
  0
LINE
  5
519
100
AcDbEntity
  8
M0
100
AcDbLine
 10
425.689489
 20
806.107298
 11
419.689489
 21
806.107298
  0
LINE
  5
51A
100
AcDbEntity
  8
M0
100
AcDbLine
 10
418.689489
 20
807.107054
 11
418.689489
 21
825.157347
  0
ARC
  5
51B
100
AcDbEntity
  8
M0
100
AcDbCircle
 10
427.189489
 20
827.607542
 40
0.5
100
AcDbArc
 50
89.998251
 51
179.998251
  0
ARC
  5
51C
100
AcDbEntity
  8
M0
100
AcDbCircle
 10
427.189489
 20
773.607542
 40
0.5
100
AcDbArc
 50
179.998251
 51
270.0
  0
ARC
  5
51D
100
AcDbEntity
  8
M0
100
AcDbCircle
 10
430.189489
 20
827.607542
 40
0.5
100
AcDbArc
 50
0.0
 51
89.998251
  0
ARC
  5
51E
100
AcDbEntity
  8
M0
100
AcDbCircle
 10
430.189489
 20
817.607542
 40
0.5
100
AcDbArc
 50
0.0
 51
89.998251
  0
ARC
  5
51F
100
AcDbEntity
  8
M0
100
AcDbCircle
 10
418.189489
 20
816.607298
 40
0.5
100
AcDbArc
 50
359.972024
 51
449.998251
  0
ARC
  5
520
100
AcDbEntity
  8
M0
100
AcDbCircle
 10
427.189489
 20
783.607542
 40
0.5
100
AcDbArc
 50
179.998251
 51
270.0
  0
ARC
  5
521
100
AcDbEntity
  8
M0
100
AcDbCircle
 10
430.189489
 20
773.607542
 40
0.5
100
AcDbArc
 50
270.0
 51
360.0
  0
ARC
  5
522
100
AcDbEntity
  8
M0
100
AcDbCircle
 10
430.189489
 20
783.607542
 40
0.5
100
AcDbArc
 50
270.0
 51
360.0
  0
ARC
  5
523
100
AcDbEntity
  8
M0
100
AcDbCircle
 10
427.189489
 20
817.607542
 40
0.5
100
AcDbArc
 50
89.998251
 51
179.998251
  0
ARC
  5
524
100
AcDbEntity
  8
M0
100
AcDbCircle
 10
418.189489
 20
825.157347
 40
0.5
100
AcDbArc
 50
0.0
 51
89.998251
  0
ARC
  5
525
100
AcDbEntity
  8
M0
100
AcDbCircle
 10
418.189489
 20
784.607298
 40
0.5
100
AcDbArc
 50
270.0
 51
359.972024
  0
ARC
  5
526
100
AcDbEntity
  8
M0
100
AcDbCircle
 10
418.189489
 20
776.057494
 40
0.5
100
AcDbArc
 50
270.0
 51
359.972024
  0
ARC
  5
527
100
AcDbEntity
  8
M0
100
AcDbCircle
 10
427.189489
 20
783.607542
 40
0.5
100
AcDbArc
 50
179.998251
 51
270.0
  0
ARC
  5
528
100
AcDbEntity
  8
M0
100
AcDbCircle
 10
418.989537
 20
785.107054
 40
0.5
100
AcDbArc
 50
270.0
 51
359.972024
  0
ARC
  5
529
100
AcDbEntity
  8
M0
100
AcDbCircle
 10
426.389684
 20
785.107054
 40
0.5
100
AcDbArc
 50
179.998251
 51
270.0
  0
ARC
  5
52A
100
AcDbEntity
  8
M0
100
AcDbCircle
 10
425.689489
 20
794.107054
 40
1.0
100
AcDbArc
 50
0.0
 51
89.999126
  0
ARC
  5
52B
100
AcDbEntity
  8
M0
100
AcDbCircle
 10
419.689489
 20
794.107054
 40
1.0
100
AcDbArc
 50
89.999126
 51
179.999126
  0
ARC
  5
52C
100
AcDbEntity
  8
M0
100
AcDbCircle
 10
420.189489
 20
794.107054
 40
1.0
100
AcDbArc
 50
89.999126
 51
179.999126
  0
ARC
  5
52D
100
AcDbEntity
  8
M0
100
AcDbCircle
 10
425.189489
 20
794.107054
 40
1.0
100
AcDbArc
 50
359.986012
 51
449.999126
  0
LINE
  5
52E
100
AcDbEntity
  8
M0
100
AcDbLine
 10
424.939489
 20
786.107542
 11
424.939489
 21
785.607542
  0
LINE
  5
52F
100
AcDbEntity
  8
M0
100
AcDbLine
 10
420.439489
 20
786.107542
 11
420.439489
 21
785.607542
  0
ARC
  5
530
100
AcDbEntity
  8
M0
100
AcDbCircle
 10
423.689489
 20
803.357298
 40
1.0
100
AcDbArc
 50
89.999126
 51
179.999126
  0
ARC
  5
531
100
AcDbEntity
  8
M0
100
AcDbCircle
 10
423.689489
 20
797.857298
 40
1.0
100
AcDbArc
 50
179.999126
 51
270.0
  0
ARC
  5
532
100
AcDbEntity
  8
M0
100
AcDbCircle
 10
419.689489
 20
807.107054
 40
1.0
100
AcDbArc
 50
179.999126
 51
270.0
  0
ARC
  5
533
100
AcDbEntity
  8
M0
100
AcDbCircle
 10
425.689489
 20
807.107054
 40
1.0
100
AcDbArc
 50
270.0
 51
359.986012
  0
ARC
  5
534
100
AcDbEntity
  8
M0
100
AcDbCircle
 10
425.189489
 20
807.107054
 40
1.0
100
AcDbArc
 50
270.0
 51
337.727621
  0
ARC
  5
535
100
AcDbEntity
  8
M0
100
AcDbCircle
 10
420.189489
 20
807.107054
 40
1.0
100
AcDbArc
 50
202.275469
 51
270.0
  0
ARC
  5
536
100
AcDbEntity
  8
M0
100
AcDbCircle
 10
430.189489
 20
796.357298
 40
0.5
100
AcDbArc
 50
0.0
 51
89.998251
  0
ARC
  5
537
100
AcDbEntity
  8
M0
100
AcDbCircle
 10
430.189489
 20
804.857298
 40
0.5
100
AcDbArc
 50
270.0
 51
360.0
  0
LINE
  5
538
100
AcDbEntity
  8
M0
100
AcDbLine
 10
426.689489
 20
803.357542
 11
430.689489
 21
803.357542
  0
LINE
  5
539
100
AcDbEntity
  8
M0
100
AcDbLine
 10
426.689489
 20
797.857542
 11
430.689489
 21
797.857542
  0
LINE
  5
53A
100
AcDbEntity
  8
M0
100
AcDbLine
 10
426.689489
 20
797.857542
 11
426.689489
 21
796.857542
  0
LINE
  5
53B
100
AcDbEntity
  8
M0
100
AcDbLine
 10
426.689489
 20
803.357542
 11
426.689489
 21
804.357542
  0
LINE
  5
53C
100
AcDbEntity
  8
M0
100
AcDbLine
 10
296.689489
 20
797.857542
 11
296.689489
 21
796.857542
  0
LINE
  5
53D
100
AcDbEntity
  8
M0
100
AcDbLine
 10
296.689489
 20
797.857542
 11
292.689489
 21
797.857542
  0
LINE
  5
53E
100
AcDbEntity
  8
M0
100
AcDbLine
 10
296.689489
 20
803.357542
 11
296.689489
 21
804.357542
  0
LINE
  5
53F
100
AcDbEntity
  8
M0
100
AcDbLine
 10
296.689489
 20
803.357542
 11
292.689489
 21
803.357542
  0
ARC
  5
540
100
AcDbEntity
  8
M0
100
AcDbCircle
 10
299.689489
 20
797.857542
 40
1.0
100
AcDbArc
 50
270.0
 51
360.0
  0
ARC
  5
541
100
AcDbEntity
  8
M0
100
AcDbCircle
 10
299.689489
 20
803.357542
 40
1.0
100
AcDbArc
 50
0.0
 51
89.999126
  0
ARC
  5
542
100
AcDbEntity
  8
M0
100
AcDbCircle
 10
303.689489
 20
794.107542
 40
1.0
100
AcDbArc
 50
0.0
 51
89.999126
  0
ARC
  5
543
100
AcDbEntity
  8
M0
100
AcDbCircle
 10
297.689489
 20
794.107542
 40
1.0
100
AcDbArc
 50
89.999126
 51
179.999126
  0
ARC
  5
544
100
AcDbEntity
  8
M0
100
AcDbCircle
 10
297.689489
 20
807.107542
 40
1.0
100
AcDbArc
 50
179.999126
 51
270.0
  0
ARC
  5
545
100
AcDbEntity
  8
M0
100
AcDbCircle
 10
303.689489
 20
807.107542
 40
1.0
100
AcDbArc
 50
270.0
 51
359.986012
  0
ARC
  5
546
100
AcDbEntity
  8
M0
100
AcDbCircle
 10
303.189489
 20
807.107542
 40
1.0
100
AcDbArc
 50
270.0
 51
337.688817
  0
ARC
  5
547
100
AcDbEntity
  8
M0
100
AcDbCircle
 10
298.189489
 20
794.107542
 40
1.0
100
AcDbArc
 50
89.999126
 51
157.682969
  0
ARC
  5
548
100
AcDbEntity
  8
M0
100
AcDbCircle
 10
303.189489
 20
794.107542
 40
1.0
100
AcDbArc
 50
22.313941
 51
89.999126
  0
ARC
  5
549
100
AcDbEntity
  8
M0
100
AcDbCircle
 10
298.189489
 20
807.107542
 40
1.0
100
AcDbArc
 50
202.314273
 51
270.0
  0
ARC
  5
54A
100
AcDbEntity
  8
M0
100
AcDbCircle
 10
296.189489
 20
817.607542
 40
0.5
100
AcDbArc
 50
359.972024
 51
449.998251
  0
ARC
  5
54B
100
AcDbEntity
  8
M0
100
AcDbCircle
 10
305.189489
 20
825.157347
 40
0.5
100
AcDbArc
 50
89.998251
 51
179.998251
  0
ARC
  5
54C
100
AcDbEntity
  8
M0
100
AcDbCircle
 10
305.189489
 20
784.607542
 40
0.5
100
AcDbArc
 50
179.998251
 51
270.0
  0
ARC
  5
54D
100
AcDbEntity
  8
M0
100
AcDbCircle
 10
293.189489
 20
783.607542
 40
0.5
100
AcDbArc
 50
179.998251
 51
270.0
  0
ARC
  5
54E
100
AcDbEntity
  8
M0
100
AcDbCircle
 10
293.189489
 20
773.607542
 40
0.5
100
AcDbArc
 50
179.998251
 51
270.0
  0
ARC
  5
54F
100
AcDbEntity
  8
M0
100
AcDbCircle
 10
296.189489
 20
783.607542
 40
0.5
100
AcDbArc
 50
270.0
 51
359.972024
  0
ARC
  5
550
100
AcDbEntity
  8
M0
100
AcDbCircle
 10
305.189489
 20
776.057494
 40
0.5
100
AcDbArc
 50
179.998251
 51
270.0
  0
ARC
  5
551
100
AcDbEntity
  8
M0
100
AcDbCircle
 10
293.189489
 20
796.357542
 40
0.5
100
AcDbArc
 50
89.998251
 51
179.998251
  0
ARC
  5
552
100
AcDbEntity
  8
M0
100
AcDbCircle
 10
305.189489
 20
816.607542
 40
0.5
100
AcDbArc
 50
89.998251
 51
179.998251
  0
ARC
  5
553
100
AcDbEntity
  8
M0
100
AcDbCircle
 10
293.189489
 20
817.607542
 40
0.5
100
AcDbArc
 50
89.998251
 51
179.998251
  0
ARC
  5
554
100
AcDbEntity
  8
M0
100
AcDbCircle
 10
293.189489
 20
827.607542
 40
0.5
100
AcDbArc
 50
89.998251
 51
179.998251
  0
ARC
  5
555
100
AcDbEntity
  8
M0
100
AcDbCircle
 10
296.189489
 20
773.607542
 40
0.5
100
AcDbArc
 50
270.0
 51
359.972024
  0
ARC
  5
556
100
AcDbEntity
  8
M0
100
AcDbCircle
 10
296.189489
 20
827.607542
 40
0.5
100
AcDbArc
 50
0.0
 51
89.998251
  0
ARC
  5
557
100
AcDbEntity
  8
M0
100
AcDbCircle
 10
293.189489
 20
804.857542
 40
0.5
100
AcDbArc
 50
179.998251
 51
270.0
  0
LINE
  5
558
100
AcDbEntity
  8
M0
100
AcDbLine
 10
306.689489
 20
869.75041
 11
306.689489
 21
863.607542
  0
LINE
  5
559
100
AcDbEntity
  8
M0
100
AcDbLine
 10
416.689489
 20
869.75041
 11
416.689489
 21
863.607542
  0
LINE
  5
55A
100
AcDbEntity
  8
M0
100
AcDbLine
 10
306.689489
 20
737.607542
 11
306.689489
 21
731.464873
  0
LINE
  5
55B
100
AcDbEntity
  8
M0
100
AcDbLine
 10
416.689489
 20
737.607542
 11
416.689489
 21
731.464873
  0
LINE
  5
55C
100
AcDbEntity
  8
M0
100
AcDbLine
 10
428.689244
 20
887.107542
 11
426.189489
 21
887.107542
  0
ARC
  5
55D
100
AcDbEntity
  8
M0
100
AcDbCircle
 10
428.689489
 20
885.107298
 40
2.0
100
AcDbArc
 50
0.0
 51
90.005683
  0
ARC
  5
55E
100
AcDbEntity
  8
M0
100
AcDbCircle
 10
294.689489
 20
885.107298
 40
2.0
100
AcDbArc
 50
89.999563
 51
180.005683
  0
LINE
  5
55F
100
AcDbEntity
  8
M0
100
AcDbLine
 10
297.189489
 20
887.107314
 11
294.689489
 21
887.107298
  0
LINE
  5
560
100
AcDbEntity
  8
M0
100
AcDbLine
 10
401.189489
 20
887.107497
 11
374.189489
 21
887.107451
  0
LINE
  5
561
100
AcDbEntity
  8
M0
100
AcDbLine
 10
421.814489
 20
725.607695
 11
430.689489
 21
725.607695
  0
LINE
  5
562
100
AcDbEntity
  8
M0
100
AcDbLine
 10
322.592717
 20
725.607695
 11
334.689489
 21
725.607695
  0
LINE
  5
563
100
AcDbEntity
  8
M0
100
AcDbLine
 10
304.089467
 20
824.607542
 11
304.689489
 21
824.607542
  0
LINE
  5
564
100
AcDbEntity
  8
M0
100
AcDbLine
 10
303.839482
 20
815.107542
 11
304.689489
 21
815.107542
  0
LINE
  5
565
100
AcDbEntity
  8
M0
100
AcDbLine
 10
303.839482
 20
815.607542
 11
303.88944
 21
815.607542
  0
LINE
  5
566
100
AcDbEntity
  8
M0
100
AcDbLine
 10
303.839482
 20
786.107542
 11
304.689489
 21
786.107542
  0
LINE
  5
567
100
AcDbEntity
  8
M0
100
AcDbLine
 10
303.839482
 20
785.607542
 11
303.88944
 21
785.607542
  0
LINE
  5
568
100
AcDbEntity
  8
M0
100
AcDbLine
 10
304.089467
 20
776.607542
 11
304.689489
 21
776.607542
  0
LINE
  5
569
100
AcDbEntity
  8
M0
100
AcDbLine
 10
426.089467
 20
824.607542
 11
426.689489
 21
824.607542
  0
LINE
  5
56A
100
AcDbEntity
  8
M0
100
AcDbLine
 10
426.089467
 20
815.107542
 11
426.689489
 21
815.107542
  0
LINE
  5
56B
100
AcDbEntity
  8
M0
100
AcDbLine
 10
349.189489
 20
887.107405
 11
322.189489
 21
887.107359
  0
LINE
  5
56C
100
AcDbEntity
  8
M0
100
AcDbLine
 10
349.189489
 20
875.607069
 11
347.705114
 21
875.607054
  0
LINE
  5
56D
100
AcDbEntity
  8
M0
100
AcDbLine
 10
374.189489
 20
725.607695
 11
375.673375
 21
725.607695
  0
LINE
  5
56E
100
AcDbEntity
  8
M0
 62
     7
100
AcDbLine
 10
336.689489
 20
725.607695
 11
346.689489
 21
725.607695
  0
LINE
  5
56F
100
AcDbEntity
  8
M0
 62
     7
100
AcDbLine
 10
416.689489
 20
737.607527
 11
416.689489
 21
863.607542
  0
LINE
  5
570
100
AcDbEntity
  8
M0
 62
     7
100
AcDbLine
 10
386.689489
 20
875.607542
 11
376.689489
 21
875.607542
  0
LINE
  5
571
100
AcDbEntity
  8
M0
 62
     7
100
AcDbLine
 10
306.689489
 20
863.607542
 11
306.689489
 21
737.607542
  0
LINE
  5
572
100
AcDbEntity
  8
M0
 62
     7
100
AcDbLine
 10
308.689489
 20
865.607542
 11
333.689489
 21
865.607542
  0
LINE
  5
573
100
AcDbEntity
  8
M0
 62
     7
100
AcDbLine
 10
308.689489
 20
735.607542
 11
333.689489
 21
735.607542
  0
ARC
  5
574
100
AcDbEntity
  8
M0
 62
     7
100
AcDbCircle
 10
414.689489
 20
863.607542
 40
2.0
100
AcDbArc
 50
0.0
 51
89.999563
  0
ARC
  5
575
100
AcDbEntity
  8
M0
 62
     7
100
AcDbCircle
 10
308.689489
 20
863.607542
 40
2.0
100
AcDbArc
 50
89.999563
 51
179.999563
  0
ARC
  5
576
100
AcDbEntity
  8
M0
 62
     7
100
AcDbCircle
 10
308.689489
 20
737.607542
 40
2.0
100
AcDbArc
 50
179.999563
 51
270.0
  0
ARC
  5
577
100
AcDbEntity
  8
M0
 62
     7
100
AcDbCircle
 10
414.689489
 20
737.607542
 40
2.0
100
AcDbArc
 50
270.0
 51
360.0
  0
LINE
  5
578
100
AcDbEntity
  8
M0
 62
     7
100
AcDbLine
 10
318.689489
 20
739.607542
 11
334.689489
 21
739.607542
  0
LINE
  5
579
100
AcDbEntity
  8
M0
 62
     7
100
AcDbLine
 10
318.689489
 20
861.607542
 11
334.689489
 21
861.607542
  0
LINE
  5
57A
100
AcDbEntity
  8
M0
 62
     7
100
AcDbLine
 10
404.689489
 20
739.607542
 11
404.689489
 21
736.607542
  0
LINE
  5
57B
100
AcDbEntity
  8
M0
 62
     7
100
AcDbLine
 10
388.689489
 20
739.607542
 11
388.689489
 21
722.107695
  0
LINE
  5
57C
100
AcDbEntity
  8
M0
 62
     7
100
AcDbLine
 10
369.689489
 20
739.607542
 11
369.689489
 21
736.607542
  0
LINE
  5
57D
100
AcDbEntity
  8
M0
 62
     7
100
AcDbLine
 10
353.689489
 20
739.607542
 11
353.689489
 21
736.607542
  0
LINE
  5
57E
100
AcDbEntity
  8
M0
 62
     7
100
AcDbLine
 10
318.689489
 20
739.607542
 11
318.689489
 21
736.607542
  0
LINE
  5
57F
100
AcDbEntity
  8
M0
 62
     7
100
AcDbLine
 10
334.689489
 20
739.607542
 11
334.689489
 21
722.107695
  0
LINE
  5
580
100
AcDbEntity
  8
M0
 62
     7
100
AcDbLine
 10
404.689489
 20
864.607542
 11
404.689489
 21
861.607542
  0
LINE
  5
581
100
AcDbEntity
  8
M0
 62
     7
100
AcDbLine
 10
388.689489
 20
865.607542
 11
388.689489
 21
861.607542
  0
LINE
  5
582
100
AcDbEntity
  8
M0
 62
     7
100
AcDbLine
 10
369.689489
 20
864.607542
 11
369.689489
 21
861.607542
  0
LINE
  5
583
100
AcDbEntity
  8
M0
 62
     7
100
AcDbLine
 10
353.689489
 20
864.607542
 11
353.689489
 21
861.607542
  0
LINE
  5
584
100
AcDbEntity
  8
M0
 62
     7
100
AcDbLine
 10
334.689489
 20
865.607542
 11
334.689489
 21
861.607542
  0
LINE
  5
585
100
AcDbEntity
  8
M0
 62
     7
100
AcDbLine
 10
318.689489
 20
864.607542
 11
318.689489
 21
861.607542
  0
LINE
  5
586
100
AcDbEntity
  8
M0
 62
     7
100
AcDbLine
 10
353.689489
 20
739.607542
 11
369.689489
 21
739.607542
  0
LINE
  5
587
100
AcDbEntity
  8
M0
 62
     7
100
AcDbLine
 10
388.689489
 20
739.607542
 11
404.689489
 21
739.607542
  0
LINE
  5
588
100
AcDbEntity
  8
M0
 62
     7
100
AcDbLine
 10
388.689489
 20
861.607542
 11
404.689489
 21
861.607542
  0
LINE
  5
589
100
AcDbEntity
  8
M0
 62
     7
100
AcDbLine
 10
353.689489
 20
861.607542
 11
369.689489
 21
861.607542
  0
ARC
  5
58A
100
AcDbEntity
  8
M0
 62
     7
100
AcDbCircle
 10
336.689489
 20
727.607695
 40
2.0
100
AcDbArc
 50
179.979017
 51
270.0
  0
ARC
  5
58B
100
AcDbEntity
  8
M0
 62
     7
100
AcDbCircle
 10
386.689489
 20
727.607695
 40
2.0
100
AcDbArc
 50
270.0
 51
360.0
  0
LINE
  5
58C
100
AcDbEntity
  8
M0
 62
     7
100
AcDbLine
 10
348.689489
 20
734.607542
 11
348.689489
 21
727.607695
  0
LINE
  5
58D
100
AcDbEntity
  8
M0
 62
     7
100
AcDbLine
 10
374.689489
 20
734.607542
 11
374.689489
 21
727.607695
  0
LINE
  5
58E
100
AcDbEntity
  8
M0
 62
     7
100
AcDbLine
 10
376.689489
 20
725.607695
 11
386.689489
 21
725.607695
  0
LINE
  5
58F
100
AcDbEntity
  8
M0
 62
     7
100
AcDbLine
 10
349.689489
 20
735.607542
 11
373.689489
 21
735.607542
  0
LINE
  5
590
100
AcDbEntity
  8
M0
 62
     7
100
AcDbLine
 10
389.689489
 20
735.607542
 11
414.689489
 21
735.607542
  0
ARC
  5
591
100
AcDbEntity
  8
M0
 62
     7
100
AcDbCircle
 10
346.689489
 20
727.607695
 40
2.0
100
AcDbArc
 50
270.0
 51
360.0
  0
ARC
  5
592
100
AcDbEntity
  8
M0
 62
     7
100
AcDbCircle
 10
376.689489
 20
727.607695
 40
2.0
100
AcDbArc
 50
179.979017
 51
270.0
  0
ARC
  5
593
100
AcDbEntity
  8
M0
 62
     7
100
AcDbCircle
 10
349.689489
 20
734.607542
 40
1.0
100
AcDbArc
 50
89.999126
 51
179.999126
  0
ARC
  5
594
100
AcDbEntity
  8
M0
 62
     7
100
AcDbCircle
 10
373.689489
 20
734.607542
 40
1.0
100
AcDbArc
 50
0.0
 51
89.999126
  0
ARC
  5
595
100
AcDbEntity
  8
M0
 62
     7
100
AcDbCircle
 10
405.689489
 20
736.607542
 40
1.0
100
AcDbArc
 50
179.999126
 51
270.0
  0
ARC
  5
596
100
AcDbEntity
  8
M0
 62
     7
100
AcDbCircle
 10
389.689489
 20
734.607542
 40
1.0
100
AcDbArc
 50
89.999126
 51
179.999126
  0
ARC
  5
597
100
AcDbEntity
  8
M0
 62
     7
100
AcDbCircle
 10
370.689489
 20
736.607542
 40
1.0
100
AcDbArc
 50
179.999126
 51
270.0
  0
ARC
  5
598
100
AcDbEntity
  8
M0
 62
     7
100
AcDbCircle
 10
352.689489
 20
736.607542
 40
1.0
100
AcDbArc
 50
270.0
 51
360.0
  0
ARC
  5
599
100
AcDbEntity
  8
M0
 62
     7
100
AcDbCircle
 10
333.689489
 20
734.607542
 40
1.0
100
AcDbArc
 50
0.0
 51
89.999126
  0
ARC
  5
59A
100
AcDbEntity
  8
M0
 62
     7
100
AcDbCircle
 10
317.689489
 20
736.607542
 40
1.0
100
AcDbArc
 50
270.0
 51
360.0
  0
LINE
  5
59B
100
AcDbEntity
  8
M0
 62
     7
100
AcDbLine
 10
388.689489
 20
879.107298
 11
388.689489
 21
865.607542
  0
LINE
  5
59C
100
AcDbEntity
  8
M0
 62
     7
100
AcDbLine
 10
374.689489
 20
873.607298
 11
374.689489
 21
866.607542
  0
LINE
  5
59D
100
AcDbEntity
  8
M0
 62
     7
100
AcDbLine
 10
348.689489
 20
873.607054
 11
348.689489
 21
866.607542
  0
LINE
  5
59E
100
AcDbEntity
  8
M0
 62
     7
100
AcDbLine
 10
334.689489
 20
879.10681
 11
334.689489
 21
865.607542
  0
LINE
  5
59F
100
AcDbEntity
  8
M0
 62
     7
100
AcDbLine
 10
346.689489
 20
875.607298
 11
336.689489
 21
875.607298
  0
ARC
  5
5A0
100
AcDbEntity
  8
M0
 62
     7
100
AcDbCircle
 10
386.689489
 20
873.607298
 40
2.0
100
AcDbArc
 50
0.0
 51
89.999563
  0
ARC
  5
5A1
100
AcDbEntity
  8
M0
 62
     7
100
AcDbCircle
 10
376.689489
 20
873.607298
 40
2.0
100
AcDbArc
 50
89.999563
 51
179.999563
  0
ARC
  5
5A2
100
AcDbEntity
  8
M0
 62
     7
100
AcDbCircle
 10
346.689489
 20
873.607054
 40
2.0
100
AcDbArc
 50
0.0
 51
89.999563
  0
ARC
  5
5A3
100
AcDbEntity
  8
M0
 62
     7
100
AcDbCircle
 10
336.689489
 20
873.607054
 40
2.0
100
AcDbArc
 50
89.999563
 51
179.999563
  0
LINE
  5
5A4
100
AcDbEntity
  8
M0
 62
     7
100
AcDbLine
 10
349.689489
 20
865.607542
 11
373.689489
 21
865.607542
  0
LINE
  5
5A5
100
AcDbEntity
  8
M0
 62
     7
100
AcDbLine
 10
389.689489
 20
865.607542
 11
414.689489
 21
865.607542
  0
ARC
  5
5A6
100
AcDbEntity
  8
M0
 62
     7
100
AcDbCircle
 10
349.689489
 20
866.607542
 40
1.0
100
AcDbArc
 50
179.999126
 51
270.0
  0
ARC
  5
5A7
100
AcDbEntity
  8
M0
 62
     7
100
AcDbCircle
 10
373.689489
 20
866.607542
 40
1.0
100
AcDbArc
 50
270.0
 51
360.0
  0
ARC
  5
5A8
100
AcDbEntity
  8
M0
 62
     7
100
AcDbCircle
 10
405.689489
 20
864.607542
 40
1.0
100
AcDbArc
 50
89.999126
 51
179.999126
  0
ARC
  5
5A9
100
AcDbEntity
  8
M0
 62
     7
100
AcDbCircle
 10
389.689489
 20
866.607542
 40
1.0
100
AcDbArc
 50
179.999126
 51
270.0
  0
ARC
  5
5AA
100
AcDbEntity
  8
M0
 62
     7
100
AcDbCircle
 10
370.689489
 20
864.607542
 40
1.0
100
AcDbArc
 50
89.999126
 51
179.999126
  0
ARC
  5
5AB
100
AcDbEntity
  8
M0
 62
     7
100
AcDbCircle
 10
317.689489
 20
864.607542
 40
1.0
100
AcDbArc
 50
0.0
 51
89.999126
  0
ARC
  5
5AC
100
AcDbEntity
  8
M0
 62
     7
100
AcDbCircle
 10
333.689489
 20
866.607542
 40
1.0
100
AcDbArc
 50
270.0
 51
360.0
  0
ARC
  5
5AD
100
AcDbEntity
  8
M0
 62
     7
100
AcDbCircle
 10
352.689489
 20
864.607542
 40
1.0
100
AcDbArc
 50
0.0
 51
89.999126
  0
LINE
  5
5AE
100
AcDbEntity
  8
M0
 62
     7
100
AcDbLine
 10
336.689489
 20
720.107695
 11
343.689473
 21
720.107695
  0
LINE
  5
5AF
100
AcDbEntity
  8
M0
 62
     7
100
AcDbLine
 10
379.689473
 20
720.107695
 11
386.689489
 21
720.107695
  0
LINE
  5
5B0
100
AcDbEntity
  8
M0
 62
     7
100
AcDbLine
 10
386.689489
 20
881.107542
 11
379.689656
 21
881.107298
  0
LINE
  5
5B1
100
AcDbEntity
  8
M0
 62
     7
100
AcDbLine
 10
343.689305
 20
881.10681
 11
336.689489
 21
881.107298
  0
ARC
  5
5B2
100
AcDbEntity
  8
M0
 62
     7
100
AcDbCircle
 10
336.689489
 20
879.107054
 40
2.0
100
AcDbArc
 50
89.999563
 51
180.005683
  0
ARC
  5
5B3
100
AcDbEntity
  8
M0
 62
     7
100
AcDbCircle
 10
386.689489
 20
879.107298
 40
2.0
100
AcDbArc
 50
0.0
 51
89.999563
  0
ARC
  5
5B4
100
AcDbEntity
  8
M0
 62
     7
100
AcDbCircle
 10
386.689489
 20
722.107695
 40
2.0
100
AcDbArc
 50
270.0
 51
360.0
  0
ARC
  5
5B5
100
AcDbEntity
  8
M0
 62
     7
100
AcDbCircle
 10
336.689489
 20
722.107695
 40
2.0
100
AcDbArc
 50
179.979017
 51
270.0
  0
LINE
  5
5B6
100
AcDbEntity
  8
M0
 62
     7
100
AcDbLine
 10
338.189489
 20
723.107695
 11
339.189489
 21
723.107695
  0
LINE
  5
5B7
100
AcDbEntity
  8
M0
 62
     7
100
AcDbLine
 10
381.189489
 20
723.107695
 11
382.189489
 21
723.107695
  0
LINE
  5
5B8
100
AcDbEntity
  8
M0
 62
     7
100
AcDbLine
 10
384.189489
 20
723.107695
 11
384.189489
 21
720.107695
  0
LINE
  5
5B9
100
AcDbEntity
  8
M0
 62
     7
100
AcDbLine
 10
382.189489
 20
723.107695
 11
382.189489
 21
720.107695
  0
LINE
  5
5BA
100
AcDbEntity
  8
M0
 62
     7
100
AcDbLine
 10
341.189489
 20
723.107695
 11
341.189489
 21
720.107695
  0
LINE
  5
5BB
100
AcDbEntity
  8
M0
 62
     7
100
AcDbLine
 10
339.189489
 20
723.107695
 11
339.189489
 21
720.107695
  0
LINE
  5
5BC
100
AcDbEntity
  8
M0
 62
     7
100
AcDbLine
 10
385.689489
 20
725.107695
 11
385.689489
 21
723.607695
  0
LINE
  5
5BD
100
AcDbEntity
  8
M0
 62
     7
100
AcDbLine
 10
380.689489
 20
725.107695
 11
380.689489
 21
723.607695
  0
LINE
  5
5BE
100
AcDbEntity
  8
M0
 62
     7
100
AcDbLine
 10
342.689489
 20
725.107695
 11
342.689489
 21
723.607695
  0
LINE
  5
5BF
100
AcDbEntity
  8
M0
 62
     7
100
AcDbLine
 10
337.689489
 20
725.107695
 11
337.689489
 21
723.607695
  0
LINE
  5
5C0
100
AcDbEntity
  8
M0
 62
     7
100
AcDbLine
 10
341.189489
 20
723.107695
 11
342.189489
 21
723.107695
  0
LINE
  5
5C1
100
AcDbEntity
  8
M0
 62
     7
100
AcDbLine
 10
384.189489
 20
723.107695
 11
385.189489
 21
723.107695
  0
ARC
  5
5C2
100
AcDbEntity
  8
M0
 62
     7
100
AcDbCircle
 10
381.189489
 20
723.607695
 40
0.5
100
AcDbArc
 50
179.916068
 51
270.0
  0
ARC
  5
5C3
100
AcDbEntity
  8
M0
 62
     7
100
AcDbCircle
 10
338.189489
 20
723.607695
 40
0.5
100
AcDbArc
 50
179.916068
 51
270.0
  0
ARC
  5
5C4
100
AcDbEntity
  8
M0
 62
     7
100
AcDbCircle
 10
342.189489
 20
723.607695
 40
0.5
100
AcDbArc
 50
270.0
 51
360.0
  0
ARC
  5
5C5
100
AcDbEntity
  8
M0
 62
     7
100
AcDbCircle
 10
385.189489
 20
723.607695
 40
0.5
100
AcDbArc
 50
270.0
 51
360.0
  0
ARC
  5
5C6
100
AcDbEntity
  8
M0
 62
     7
100
AcDbCircle
 10
381.189489
 20
725.107695
 40
0.5
100
AcDbArc
 50
89.998251
 51
179.916068
  0
ARC
  5
5C7
100
AcDbEntity
  8
M0
 62
     7
100
AcDbCircle
 10
338.189489
 20
725.107695
 40
0.5
100
AcDbArc
 50
89.998251
 51
179.916068
  0
ARC
  5
5C8
100
AcDbEntity
  8
M0
 62
     7
100
AcDbCircle
 10
385.189489
 20
725.107695
 40
0.5
100
AcDbArc
 50
0.0
 51
89.998251
  0
ARC
  5
5C9
100
AcDbEntity
  8
M0
 62
     7
100
AcDbCircle
 10
342.189489
 20
725.107695
 40
0.5
100
AcDbArc
 50
0.0
 51
89.998251
  0
LINE
  5
5CA
100
AcDbEntity
  8
M0
 62
     7
100
AcDbLine
 10
343.689489
 20
720.107695
 11
348.304708
 21
726.428252
  0
LINE
  5
5CB
100
AcDbEntity
  8
M0
 62
     7
100
AcDbLine
 10
379.689489
 20
720.107695
 11
375.074254
 21
726.428252
  0
LINE
  5
5CC
100
AcDbEntity
  8
M0
 62
     7
100
AcDbLine
 10
343.689489
 20
881.10681
 11
348.304692
 21
874.786497
  0
LINE
  5
5CD
100
AcDbEntity
  8
M0
 62
     7
100
AcDbLine
 10
379.689489
 20
881.107298
 11
375.074254
 21
874.786497
  0
LINE
  5
5CE
100
AcDbEntity
  8
M0
 62
     7
100
AcDbLine
 10
385.189397
 20
878.107054
 11
384.189489
 21
878.107054
  0
LINE
  5
5CF
100
AcDbEntity
  8
M0
 62
     7
100
AcDbLine
 10
342.189397
 20
878.106322
 11
341.189489
 21
878.106322
  0
LINE
  5
5D0
100
AcDbEntity
  8
M0
 62
     7
100
AcDbLine
 10
384.189489
 20
881.107298
 11
384.189489
 21
878.107542
  0
LINE
  5
5D1
100
AcDbEntity
  8
M0
 62
     7
100
AcDbLine
 10
382.189489
 20
881.107298
 11
382.189489
 21
878.107542
  0
LINE
  5
5D2
100
AcDbEntity
  8
M0
 62
     7
100
AcDbLine
 10
341.189489
 20
881.10681
 11
341.189489
 21
878.10681
  0
LINE
  5
5D3
100
AcDbEntity
  8
M0
 62
     7
100
AcDbLine
 10
339.189489
 20
881.107054
 11
339.189489
 21
878.10681
  0
LINE
  5
5D4
100
AcDbEntity
  8
M0
 62
     7
100
AcDbLine
 10
385.689489
 20
877.607054
 11
385.689489
 21
876.107298
  0
LINE
  5
5D5
100
AcDbEntity
  8
M0
 62
     7
100
AcDbLine
 10
380.689489
 20
877.607054
 11
380.689489
 21
876.107298
  0
LINE
  5
5D6
100
AcDbEntity
  8
M0
 62
     7
100
AcDbLine
 10
342.689489
 20
877.606322
 11
342.689489
 21
876.107054
  0
LINE
  5
5D7
100
AcDbEntity
  8
M0
 62
     7
100
AcDbLine
 10
337.689489
 20
877.606322
 11
337.689489
 21
876.107054
  0
LINE
  5
5D8
100
AcDbEntity
  8
M0
 62
     7
100
AcDbLine
 10
339.189489
 20
878.106322
 11
338.189565
 21
878.106322
  0
LINE
  5
5D9
100
AcDbEntity
  8
M0
 62
     7
100
AcDbLine
 10
382.189489
 20
878.107054
 11
381.189565
 21
878.107054
  0
ARC
  5
5DA
100
AcDbEntity
  8
M0
 62
     7
100
AcDbCircle
 10
385.189489
 20
877.607054
 40
0.5
100
AcDbArc
 50
0.0
 51
90.005246
  0
ARC
  5
5DB
100
AcDbEntity
  8
M0
 62
     7
100
AcDbCircle
 10
381.189489
 20
877.607054
 40
0.5
100
AcDbArc
 50
89.986012
 51
179.998251
  0
ARC
  5
5DC
100
AcDbEntity
  8
M0
 62
     7
100
AcDbCircle
 10
342.189489
 20
877.606322
 40
0.5
100
AcDbArc
 50
0.0
 51
90.005246
  0
ARC
  5
5DD
100
AcDbEntity
  8
M0
 62
     7
100
AcDbCircle
 10
338.189489
 20
877.606322
 40
0.5
100
AcDbArc
 50
89.986012
 51
179.998251
  0
ARC
  5
5DE
100
AcDbEntity
  8
M0
 62
     7
100
AcDbCircle
 10
342.189489
 20
876.107054
 40
0.5
100
AcDbArc
 50
270.0
 51
360.0
  0
ARC
  5
5DF
100
AcDbEntity
  8
M0
 62
     7
100
AcDbCircle
 10
385.189489
 20
876.107298
 40
0.5
100
AcDbArc
 50
270.0
 51
360.0
  0
ARC
  5
5E0
100
AcDbEntity
  8
M0
 62
     7
100
AcDbCircle
 10
338.189489
 20
876.107054
 40
0.5
100
AcDbArc
 50
179.998251
 51
270.0
  0
ARC
  5
5E1
100
AcDbEntity
  8
M0
 62
     7
100
AcDbCircle
 10
381.189489
 20
876.107298
 40
0.5
100
AcDbArc
 50
179.998251
 51
270.0
  0
LINE
  5
5E2
100
AcDbEntity
  8
M0
 62
     7
100
AcDbLine
 10
372.989476
 20
784.607542
 11
372.989476
 21
787.607298
  0
LINE
  5
5E3
100
AcDbEntity
  8
M0
 62
     7
100
AcDbLine
 10
350.389485
 20
784.607542
 11
350.389485
 21
787.607542
  0
LINE
  5
5E4
100
AcDbEntity
  8
M0
 62
     7
100
AcDbLine
 10
353.389485
 20
790.607542
 11
369.989476
 21
790.607542
  0
LINE
  5
5E5
100
AcDbEntity
  8
M0
 62
     7
100
AcDbLine
 10
351.153417
 20
789.607542
 11
372.22553
 21
789.607542
  0
LINE
  5
5E6
100
AcDbEntity
  8
M0
 62
     7
100
AcDbLine
 10
350.389485
 20
784.607542
 11
372.989476
 21
784.607542
  0
LINE
  5
5E7
100
AcDbEntity
  8
M0
 62
     7
100
AcDbLine
 10
353.389485
 20
794.607542
 11
353.689489
 21
794.607542
  0
LINE
  5
5E8
100
AcDbEntity
  8
M0
 62
     7
100
AcDbLine
 10
350.389485
 20
797.607542
 11
350.389485
 21
807.907347
  0
LINE
  5
5E9
100
AcDbEntity
  8
M0
 62
     7
100
AcDbLine
 10
372.989476
 20
797.607298
 11
372.989476
 21
807.907103
  0
LINE
  5
5EA
100
AcDbEntity
  8
M0
 62
     7
100
AcDbLine
 10
353.389485
 20
810.907347
 11
357.689489
 21
810.907347
  0
ARC
  5
5EB
100
AcDbEntity
  8
M0
 62
     7
100
AcDbCircle
 10
353.389485
 20
787.607542
 40
3.0
100
AcDbArc
 50
89.999709
 51
179.999709
  0
ARC
  5
5EC
100
AcDbEntity
  8
M0
 62
     7
100
AcDbCircle
 10
369.989476
 20
787.607542
 40
3.0
100
AcDbArc
 50
0.0
 51
89.999709
  0
ARC
  5
5ED
100
AcDbEntity
  8
M0
 62
     7
100
AcDbCircle
 10
369.989476
 20
807.907347
 40
3.0
100
AcDbArc
 50
0.0
 51
89.999709
  0
ARC
  5
5EE
100
AcDbEntity
  8
M0
 62
     7
100
AcDbCircle
 10
353.389485
 20
807.907347
 40
3.0
100
AcDbArc
 50
89.999709
 51
179.999709
  0
ARC
  5
5EF
100
AcDbEntity
  8
M0
 62
     7
100
AcDbCircle
 10
353.389485
 20
797.607542
 40
3.0
100
AcDbArc
 50
179.999709
 51
270.0
  0
ARC
  5
5F0
100
AcDbEntity
  8
M0
 62
     7
100
AcDbCircle
 10
369.989476
 20
797.607542
 40
3.0
100
AcDbArc
 50
270.0
 51
360.0
  0
LINE
  5
5F1
100
AcDbEntity
  8
M0
 62
     7
100
AcDbLine
 10
369.689489
 20
794.607542
 11
369.689489
 21
790.607542
  0
LINE
  5
5F2
100
AcDbEntity
  8
M0
 62
     7
100
AcDbLine
 10
353.689489
 20
794.607542
 11
353.689489
 21
790.607542
  0
LINE
  5
5F3
100
AcDbEntity
  8
M0
 62
     7
100
AcDbLine
 10
369.689489
 20
794.607542
 11
369.989476
 21
794.607542
  0
LINE
  5
5F4
100
AcDbEntity
  8
M0
 62
     7
100
AcDbLine
 10
354.689489
 20
793.607542
 11
354.689489
 21
791.607542
  0
LINE
  5
5F5
100
AcDbEntity
  8
M0
 62
     7
100
AcDbLine
 10
368.689489
 20
793.607542
 11
368.689489
 21
791.607542
  0
LINE
  5
5F6
100
AcDbEntity
  8
M0
 62
     7
100
AcDbLine
 10
353.689489
 20
791.607542
 11
354.689489
 21
791.607542
  0
LINE
  5
5F7
100
AcDbEntity
  8
M0
 62
     7
100
AcDbLine
 10
368.689489
 20
791.607542
 11
369.689489
 21
791.607542
  0
LINE
  5
5F8
100
AcDbEntity
  8
M0
 62
     7
100
AcDbLine
 10
353.689489
 20
793.607542
 11
354.689489
 21
793.607542
  0
LINE
  5
5F9
100
AcDbEntity
  8
M0
 62
     7
100
AcDbLine
 10
368.689489
 20
793.607542
 11
369.689489
 21
793.607542
  0
LINE
  5
5FA
100
AcDbEntity
  8
M0
 62
     7
100
AcDbLine
 10
370.489476
 20
794.64929
 11
370.489476
 21
797.607542
  0
LINE
  5
5FB
100
AcDbEntity
  8
M0
 62
     7
100
AcDbLine
 10
352.889485
 20
794.64929
 11
352.889485
 21
797.607298
  0
LINE
  5
5FC
100
AcDbEntity
  8
M0
 62
     7
100
AcDbLine
 10
350.389485
 20
798.107542
 11
352.389485
 21
798.107542
  0
LINE
  5
5FD
100
AcDbEntity
  8
M0
 62
     7
100
AcDbLine
 10
370.989476
 20
798.107542
 11
372.989476
 21
798.107542
  0
ARC
  5
5FE
100
AcDbEntity
  8
M0
 62
     7
100
AcDbCircle
 10
370.989476
 20
797.607542
 40
0.5
100
AcDbArc
 50
89.998251
 51
179.998251
  0
ARC
  5
5FF
100
AcDbEntity
  8
M0
 62
     7
100
AcDbCircle
 10
352.389485
 20
797.607542
 40
0.5
100
AcDbArc
 50
359.972024
 51
449.998251
  0
LINE
  5
600
100
AcDbEntity
  8
M0
 62
     7
100
AcDbLine
 10
369.689489
 20
809.107542
 11
369.689489
 21
810.907347
  0
LINE
  5
601
100
AcDbEntity
  8
M0
 62
     7
100
AcDbLine
 10
353.689489
 20
809.107298
 11
353.689489
 21
810.907347
  0
LINE
  5
602
100
AcDbEntity
  8
M0
 62
     7
100
AcDbLine
 10
370.189489
 20
808.607542
 11
372.906606
 21
808.607542
  0
LINE
  5
603
100
AcDbEntity
  8
M0
 62
     7
100
AcDbLine
 10
350.472341
 20
808.607542
 11
353.189489
 21
808.607542
  0
ARC
  5
604
100
AcDbEntity
  8
M0
 62
     7
100
AcDbCircle
 10
353.189489
 20
809.107542
 40
0.5
100
AcDbArc
 50
270.0
 51
359.972024
  0
ARC
  5
605
100
AcDbEntity
  8
M0
 62
     7
100
AcDbCircle
 10
370.189489
 20
809.107542
 40
0.5
100
AcDbArc
 50
179.998251
 51
270.0
  0
LINE
  5
606
100
AcDbEntity
  8
M0
 62
     7
100
AcDbLine
 10
358.939489
 20
813.607542
 11
364.439489
 21
813.607542
  0
LINE
  5
607
100
AcDbEntity
  8
M0
 62
     7
100
AcDbLine
 10
359.939489
 20
816.607542
 11
363.439489
 21
816.607542
  0
LINE
  5
608
100
AcDbEntity
  8
M0
 62
     7
100
AcDbLine
 10
357.689489
 20
812.607542
 11
358.939489
 21
812.607542
  0
LINE
  5
609
100
AcDbEntity
  8
M0
 62
     7
100
AcDbLine
 10
357.689489
 20
813.307494
 11
358.939489
 21
813.307494
  0
LINE
  5
60A
100
AcDbEntity
  8
M0
 62
     7
100
AcDbLine
 10
365.689489
 20
813.307494
 11
365.689489
 21
810.907347
  0
LINE
  5
60B
100
AcDbEntity
  8
M0
 62
     7
100
AcDbLine
 10
357.689489
 20
813.307494
 11
357.689489
 21
810.907347
  0
LINE
  5
60C
100
AcDbEntity
  8
M0
 62
     7
100
AcDbLine
 10
364.439489
 20
812.607542
 11
364.439489
 21
815.607298
  0
LINE
  5
60D
100
AcDbEntity
  8
M0
 62
     7
100
AcDbLine
 10
358.939489
 20
812.607542
 11
358.939489
 21
815.607542
  0
LINE
  5
60E
100
AcDbEntity
  8
M0
 62
     7
100
AcDbLine
 10
365.689489
 20
810.907347
 11
369.989476
 21
810.907347
  0
LINE
  5
60F
100
AcDbEntity
  8
M0
 62
     7
100
AcDbLine
 10
364.439489
 20
812.607542
 11
365.689489
 21
812.607542
  0
LINE
  5
610
100
AcDbEntity
  8
M0
 62
     7
100
AcDbLine
 10
364.439489
 20
813.307494
 11
365.689489
 21
813.307494
  0
ARC
  5
611
100
AcDbEntity
  8
M0
 62
     7
100
AcDbCircle
 10
363.439489
 20
815.607542
 40
1.0
100
AcDbArc
 50
359.986012
 51
449.999126
  0
ARC
  5
612
100
AcDbEntity
  8
M0
 62
     7
100
AcDbCircle
 10
359.939489
 20
815.607542
 40
1.0
100
AcDbArc
 50
89.999126
 51
179.999126
  0
CIRCLE
  5
613
100
AcDbEntity
  8
M0
 62
     7
100
AcDbCircle
 10
381.689489
 20
733.607542
 40
4.5
  0
CIRCLE
  5
614
100
AcDbEntity
  8
M0
 62
     7
100
AcDbCircle
 10
341.689489
 20
867.607542
 40
4.5
  0
CIRCLE
  5
615
100
AcDbEntity
  8
M0
 62
     7
100
AcDbCircle
 10
341.689489
 20
733.607542
 40
1.86
  0
CIRCLE
  5
616
100
AcDbEntity
  8
M0
 62
     7
100
AcDbCircle
 10
381.689489
 20
867.607542
 40
1.86
  0
CIRCLE
  5
617
100
AcDbEntity
  8
M0
 62
     7
100
AcDbCircle
 10
341.689489
 20
733.607542
 40
1.36
  0
CIRCLE
  5
618
100
AcDbEntity
  8
M0
 62
     7
100
AcDbCircle
 10
381.689489
 20
867.607542
 40
1.36
  0
CIRCLE
  5
619
100
AcDbEntity
  8
M0
100
AcDbCircle
 10
341.689489
 20
867.607542
 40
2.25
  0
CIRCLE
  5
61A
100
AcDbEntity
  8
M0
100
AcDbCircle
 10
381.689489
 20
733.607542
 40
2.25
  0
LINE
  5
61B
100
AcDbEntity
  8
M0
 62
     6
100
AcDbLine
 10
401.189489
 20
700.107542
 11
426.189489
 21
700.107542
  0
LINE
  5
61C
100
AcDbEntity
  8
M0
 62
     6
100
AcDbLine
 10
392.721746
 20
735.607542
 11
401.189489
 21
725.107542
  0
LINE
  5
61D
100
AcDbEntity
  8
M0
 62
     6
100
AcDbLine
 10
413.064489
 20
735.607542
 11
426.189489
 21
720.607542
  0
LINE
  5
61E
100
AcDbEntity
  8
M0
 62
     6
100
AcDbLine
 10
426.189489
 20
700.107542
 11
426.189489
 21
720.607542
  0
LINE
  5
61F
100
AcDbEntity
  8
M0
 62
     6
100
AcDbLine
 10
401.189489
 20
725.107542
 11
401.189489
 21
700.107542
  0
LINE
  5
620
100
AcDbEntity
  8
M0
 62
     6
100
AcDbLine
 10
322.189489
 20
700.107542
 11
297.189489
 21
700.107542
  0
LINE
  5
621
100
AcDbEntity
  8
M0
 62
     6
100
AcDbLine
 10
330.657231
 20
735.607542
 11
322.189489
 21
725.107542
  0
LINE
  5
622
100
AcDbEntity
  8
M0
 62
     6
100
AcDbLine
 10
310.314489
 20
735.607542
 11
297.189489
 21
720.607542
  0
LINE
  5
623
100
AcDbEntity
  8
M0
 62
     6
100
AcDbLine
 10
297.189489
 20
700.107542
 11
297.189489
 21
720.607542
  0
LINE
  5
624
100
AcDbEntity
  8
M0
 62
     6
100
AcDbLine
 10
322.189489
 20
725.107542
 11
322.189489
 21
700.107542
  0
LINE
  5
625
100
AcDbEntity
  8
M0
  6
DASHDOT
 62
     6
100
AcDbLine
 10
318.689489
 20
712.607542
 11
300.689489
 21
712.607542
  0
LINE
  5
626
100
AcDbEntity
  8
M0
  6
DASHDOT
 62
     6
100
AcDbLine
 10
309.689489
 20
703.607542
 11
309.689489
 21
721.607542
  0
LINE
  5
627
100
AcDbEntity
  8
M0
 62
     6
100
AcDbLine
 10
401.189607
 20
901.107458
 11
426.189607
 21
901.107473
  0
LINE
  5
628
100
AcDbEntity
  8
M0
 62
     6
100
AcDbLine
 10
392.721886
 20
865.607452
 11
401.189622
 21
876.107458
  0
LINE
  5
629
100
AcDbEntity
  8
M0
 62
     6
100
AcDbLine
 10
413.064629
 20
865.607465
 11
426.18962
 21
880.607473
  0
LINE
  5
62A
100
AcDbEntity
  8
M0
 62
     6
100
AcDbLine
 10
426.189607
 20
901.107473
 11
426.18962
 21
880.607473
  0
LINE
  5
62B
100
AcDbEntity
  8
M0
 62
     6
100
AcDbLine
 10
401.189622
 20
876.107458
 11
401.189607
 21
901.107458
  0
LINE
  5
62C
100
AcDbEntity
  8
M0
  6
DASHDOT
 62
     6
100
AcDbLine
 10
413.689609
 20
897.607466
 11
413.68962
 21
879.607466
  0
LINE
  5
62D
100
AcDbEntity
  8
M0
 62
     6
100
AcDbLine
 10
322.189607
 20
901.107458
 11
297.189607
 21
901.107442
  0
LINE
  5
62E
100
AcDbEntity
  8
M0
 62
     6
100
AcDbLine
 10
330.657372
 20
865.607463
 11
322.189622
 21
876.107458
  0
LINE
  5
62F
100
AcDbEntity
  8
M0
 62
     6
100
AcDbLine
 10
310.314629
 20
865.60745
 11
297.18962
 21
880.607442
  0
LINE
  5
630
100
AcDbEntity
  8
M0
 62
     6
100
AcDbLine
 10
297.189607
 20
901.107442
 11
297.18962
 21
880.607442
  0
LINE
  5
631
100
AcDbEntity
  8
M0
 62
     6
100
AcDbLine
 10
322.189622
 20
876.107458
 11
322.189607
 21
901.107458
  0
LINE
  5
632
100
AcDbEntity
  8
M0
  6
DASHDOT
 62
     6
100
AcDbLine
 10
309.689609
 20
897.60745
 11
309.68962
 21
879.60745
  0
LINE
  5
633
100
AcDbEntity
  8
M0
 62
     7
100
AcDbLine
 10
354.339482
 20
790.307494
 11
369.039479
 21
790.307494
  0
LINE
  5
634
100
AcDbEntity
  8
M0
 62
     7
100
AcDbLine
 10
372.689489
 20
797.907103
 11
372.689489
 21
807.607054
  0
LINE
  5
635
100
AcDbEntity
  8
M0
 62
     7
100
AcDbLine
 10
350.689489
 20
807.607298
 11
350.689489
 21
797.907347
  0
LINE
  5
636
100
AcDbEntity
  8
M0
 62
     7
100
AcDbLine
 10
369.689473
 20
810.607542
 11
365.439489
 21
810.607298
  0
LINE
  5
637
100
AcDbEntity
  8
M0
 62
     7
100
AcDbLine
 10
353.689489
 20
794.907347
 11
353.839482
 21
794.907347
  0
ARC
  5
638
100
AcDbEntity
  8
M0
 62
     7
100
AcDbCircle
 10
369.689489
 20
797.907347
 40
3.0
100
AcDbArc
 50
270.0
 51
360.0
  0
ARC
  5
639
100
AcDbEntity
  8
M0
 62
     7
100
AcDbCircle
 10
369.689489
 20
807.607298
 40
3.0
100
AcDbArc
 50
0.0
 51
89.999709
  0
ARC
  5
63A
100
AcDbEntity
  8
M0
 62
     7
100
AcDbCircle
 10
353.689489
 20
807.607298
 40
3.0
100
AcDbArc
 50
89.999709
 51
179.999709
  0
ARC
  5
63B
100
AcDbEntity
  8
M0
 62
     7
100
AcDbCircle
 10
353.689489
 20
797.907347
 40
3.0
100
AcDbArc
 50
179.999709
 51
270.0
  0
LINE
  5
63C
100
AcDbEntity
  8
M0
 62
     7
100
AcDbLine
 10
369.539479
 20
794.907347
 11
369.539479
 21
790.807494
  0
LINE
  5
63D
100
AcDbEntity
  8
M0
 62
     7
100
AcDbLine
 10
353.839482
 20
794.907347
 11
353.839482
 21
790.807494
  0
LINE
  5
63E
100
AcDbEntity
  8
M0
 62
     7
100
AcDbLine
 10
369.539479
 20
794.907347
 11
369.689489
 21
794.907347
  0
ARC
  5
63F
100
AcDbEntity
  8
M0
 62
     7
100
AcDbCircle
 10
354.339482
 20
790.807494
 40
0.5
100
AcDbArc
 50
179.998251
 51
270.0
  0
ARC
  5
640
100
AcDbEntity
  8
M0
 62
     7
100
AcDbCircle
 10
369.039479
 20
790.807494
 40
0.5
100
AcDbArc
 50
270.0
 51
360.0
  0
LINE
  5
641
100
AcDbEntity
  8
M0
 62
     7
100
AcDbLine
 10
365.439489
 20
813.307494
 11
365.439489
 21
810.607542
  0
LINE
  5
642
100
AcDbEntity
  8
M0
 62
     7
100
AcDbLine
 10
357.939489
 20
813.307494
 11
357.939489
 21
810.607542
  0
LINE
  5
643
100
AcDbEntity
  8
M0
 62
     7
100
AcDbLine
 10
357.939489
 20
810.607298
 11
353.689473
 21
810.607542
  0
LINE
  5
644
100
AcDbEntity
  8
M0
 62
     7
100
AcDbLine
 10
358.689489
 20
800.607542
 11
364.689489
 21
800.607542
  0
LINE
  5
645
100
AcDbEntity
  8
M0
 62
     7
100
AcDbLine
 10
358.689489
 20
805.107542
 11
364.689489
 21
805.107542
  0
LINE
  5
646
100
AcDbEntity
  8
M0
 62
     7
100
AcDbLine
 10
364.689489
 20
805.107542
 11
364.689489
 21
800.607542
  0
LINE
  5
647
100
AcDbEntity
  8
M0
 62
     7
100
AcDbLine
 10
358.689489
 20
805.107542
 11
358.689489
 21
800.607542
  0
LINE
  5
648
100
AcDbEntity
  8
M0
 62
     7
100
AcDbLine
 10
357.939489
 20
813.307539
 11
359.439489
 21
813.307539
  0
LINE
  5
649
100
AcDbEntity
  8
M0
 62
     7
100
AcDbLine
 10
359.439489
 20
813.807539
 11
363.939489
 21
813.807539
  0
LINE
  5
64A
100
AcDbEntity
  8
M0
 62
     7
100
AcDbLine
 10
357.939489
 20
812.307539
 11
365.439489
 21
812.307539
  0
LINE
  5
64B
100
AcDbEntity
  8
M0
 62
     7
100
AcDbLine
 10
363.939489
 20
813.807539
 11
363.939489
 21
812.307539
  0
LINE
  5
64C
100
AcDbEntity
  8
M0
 62
     7
100
AcDbLine
 10
359.439489
 20
813.807539
 11
359.439489
 21
812.307539
  0
LINE
  5
64D
100
AcDbEntity
  8
M0
 62
     7
100
AcDbLine
 10
363.939489
 20
813.307539
 11
365.439489
 21
813.307539
  0
LINE
  5
64E
100
AcDbEntity
  8
M0
100
AcDbLine
 10
331.689489
 20
911.507201
 11
391.68929
 21
911.507201
  0
LINE
  5
64F
100
AcDbEntity
  8
M0
100
AcDbLine
 10
391.68929
 20
911.507201
 11
391.68929
 21
927.507201
  0
LINE
  5
650
100
AcDbEntity
  8
M0
100
AcDbLine
 10
391.68929
 20
927.507201
 11
381.18929
 21
927.506956
  0
LINE
  5
651
100
AcDbEntity
  8
M0
100
AcDbLine
 10
331.689489
 20
927.507201
 11
331.689489
 21
911.507201
  0
LINE
  5
652
100
AcDbEntity
  8
M0
100
AcDbLine
 10
337.689489
 20
912.507201
 11
340.689489
 21
912.507201
  0
LINE
  5
653
100
AcDbEntity
  8
M0
100
AcDbLine
 10
367.689489
 20
927.507201
 11
367.689489
 21
912.507201
  0
LINE
  5
654
100
AcDbEntity
  8
M0
100
AcDbLine
 10
355.689489
 20
927.507201
 11
355.689489
 21
912.507201
  0
LINE
  5
655
100
AcDbEntity
  8
M0
100
AcDbLine
 10
352.689489
 20
927.507201
 11
352.689489
 21
912.507201
  0
LINE
  5
656
100
AcDbEntity
  8
M0
100
AcDbLine
 10
340.689489
 20
927.507201
 11
340.689489
 21
912.507201
  0
LINE
  5
657
100
AcDbEntity
  8
M0
100
AcDbLine
 10
370.68929
 20
927.507201
 11
370.68929
 21
912.507201
  0
LINE
  5
658
100
AcDbEntity
  8
M0
100
AcDbLine
 10
382.68929
 20
927.507201
 11
382.68929
 21
912.507201
  0
LINE
  5
659
100
AcDbEntity
  8
M0
100
AcDbLine
 10
385.68929
 20
927.507201
 11
385.68929
 21
912.507201
  0
LINE
  5
65A
100
AcDbEntity
  8
M0
100
AcDbLine
 10
337.689489
 20
927.507201
 11
337.689489
 21
912.507201
  0
LINE
  5
65B
100
AcDbEntity
  8
M0
100
AcDbLine
 10
352.689489
 20
912.507201
 11
355.689489
 21
912.507201
  0
LINE
  5
65C
100
AcDbEntity
  8
M0
100
AcDbLine
 10
367.689489
 20
912.507201
 11
370.68929
 21
912.507201
  0
LINE
  5
65D
100
AcDbEntity
  8
M0
100
AcDbLine
 10
382.68929
 20
912.507201
 11
385.68929
 21
912.507201
  0
LINE
  5
65E
100
AcDbEntity
  8
M0
100
AcDbLine
 10
381.18929
 20
925.506956
 11
380.93929
 21
925.506712
  0
LINE
  5
65F
100
AcDbEntity
  8
M0
100
AcDbLine
 10
351.189489
 20
927.507201
 11
351.189489
 21
925.507201
  0
LINE
  5
660
100
AcDbEntity
  8
M0
100
AcDbLine
 10
342.189489
 20
927.507201
 11
342.189489
 21
925.507201
  0
LINE
  5
661
100
AcDbEntity
  8
M0
100
AcDbLine
 10
366.189489
 20
927.507201
 11
366.189489
 21
925.507201
  0
LINE
  5
662
100
AcDbEntity
  8
M0
100
AcDbLine
 10
357.189489
 20
927.507201
 11
357.189489
 21
925.507201
  0
LINE
  5
663
100
AcDbEntity
  8
M0
100
AcDbLine
 10
381.18929
 20
927.507201
 11
381.18929
 21
925.507201
  0
LINE
  5
664
100
AcDbEntity
  8
M0
100
AcDbLine
 10
372.18929
 20
927.507201
 11
372.18929
 21
925.507201
  0
LINE
  5
665
100
AcDbEntity
  8
M0
100
AcDbLine
 10
351.189489
 20
925.506712
 11
350.939687
 21
925.506468
  0
LINE
  5
666
100
AcDbEntity
  8
M0
100
AcDbLine
 10
366.189489
 20
925.506712
 11
365.939489
 21
925.506468
  0
LINE
  5
667
100
AcDbEntity
  8
M0
100
AcDbLine
 10
342.189489
 20
927.506956
 11
331.689489
 21
927.507201
  0
LINE
  5
668
100
AcDbEntity
  8
M0
100
AcDbLine
 10
357.189489
 20
927.506956
 11
351.189489
 21
927.506956
  0
LINE
  5
669
100
AcDbEntity
  8
M0
100
AcDbLine
 10
372.18929
 20
927.506956
 11
366.189489
 21
927.506956
  0
LINE
  5
66A
100
AcDbEntity
  8
M0
100
AcDbLine
 10
340.689489
 20
915.507201
 11
342.439672
 21
915.507201
  0
LINE
  5
66B
100
AcDbEntity
  8
M0
100
AcDbLine
 10
350.939687
 20
915.507201
 11
352.689489
 21
915.507201
  0
LINE
  5
66C
100
AcDbEntity
  8
M0
100
AcDbLine
 10
355.689489
 20
915.507201
 11
357.439473
 21
915.507201
  0
LINE
  5
66D
100
AcDbEntity
  8
M0
100
AcDbLine
 10
365.939489
 20
915.507201
 11
367.689489
 21
915.507201
  0
LINE
  5
66E
100
AcDbEntity
  8
M0
100
AcDbLine
 10
370.68929
 20
915.507201
 11
372.43929
 21
915.507201
  0
LINE
  5
66F
100
AcDbEntity
  8
M0
100
AcDbLine
 10
380.93929
 20
915.507201
 11
382.68929
 21
915.507201
  0
LINE
  5
670
100
AcDbEntity
  8
M0
100
AcDbLine
 10
342.439672
 20
925.506468
 11
342.189489
 21
925.506956
  0
LINE
  5
671
100
AcDbEntity
  8
M0
100
AcDbLine
 10
357.439473
 20
925.506468
 11
357.189489
 21
925.506712
  0
LINE
  5
672
100
AcDbEntity
  8
M0
100
AcDbLine
 10
372.43929
 20
925.506712
 11
372.18929
 21
925.506712
  0
LINE
  5
673
100
AcDbEntity
  8
M0
 62
     7
100
AcDbLine
 10
372.43929
 20
912.506956
 11
380.93929
 21
912.506956
  0
LINE
  5
674
100
AcDbEntity
  8
M0
 62
     7
100
AcDbLine
 10
380.93929
 20
912.506956
 11
380.93929
 21
917.974974
  0
LINE
  5
675
100
AcDbEntity
  8
M0
 62
     7
100
AcDbLine
 10
380.93929
 20
926.506956
 11
372.43929
 21
926.506956
  0
LINE
  5
676
100
AcDbEntity
  8
M0
 62
     7
100
AcDbLine
 10
372.43929
 20
926.506956
 11
372.43929
 21
923.006712
  0
LINE
  5
677
100
AcDbEntity
  8
M0
 62
     7
100
AcDbLine
 10
372.43929
 20
913.506956
 11
380.93929
 21
913.506956
  0
LINE
  5
678
100
AcDbEntity
  8
M0
 62
     7
100
AcDbLine
 10
379.18929
 20
913.506956
 11
379.18929
 21
912.506956
  0
LINE
  5
679
100
AcDbEntity
  8
M0
 62
     7
100
AcDbLine
 10
374.18929
 20
913.506956
 11
374.18929
 21
912.506956
  0
LINE
  5
67A
100
AcDbEntity
  8
M0
 62
     7
100
AcDbLine
 10
372.43929
 20
917.974974
 11
372.43929
 21
912.506956
  0
LINE
  5
67B
100
AcDbEntity
  8
M0
 62
     7
100
AcDbLine
 10
380.93929
 20
923.006468
 11
380.93929
 21
926.506956
  0
LINE
  5
67C
100
AcDbEntity
  8
M0
 62
     7
100
AcDbLine
 10
350.939672
 20
912.506956
 11
342.439672
 21
912.506956
  0
LINE
  5
67D
100
AcDbEntity
  8
M0
 62
     7
100
AcDbLine
 10
342.439672
 20
912.506956
 11
342.439672
 21
917.97473
  0
LINE
  5
67E
100
AcDbEntity
  8
M0
 62
     7
100
AcDbLine
 10
342.439687
 20
926.506956
 11
350.939687
 21
926.506712
  0
LINE
  5
67F
100
AcDbEntity
  8
M0
 62
     7
100
AcDbLine
 10
350.939687
 20
926.506712
 11
350.939687
 21
923.006224
  0
LINE
  5
680
100
AcDbEntity
  8
M0
 62
     7
100
AcDbLine
 10
350.939672
 20
913.506956
 11
342.439672
 21
913.506956
  0
LINE
  5
681
100
AcDbEntity
  8
M0
 62
     7
100
AcDbLine
 10
344.189672
 20
913.506956
 11
344.189672
 21
912.506956
  0
LINE
  5
682
100
AcDbEntity
  8
M0
 62
     7
100
AcDbLine
 10
349.189672
 20
913.506956
 11
349.189672
 21
912.506956
  0
LINE
  5
683
100
AcDbEntity
  8
M0
 62
     7
100
AcDbLine
 10
342.439672
 20
923.006468
 11
342.439687
 21
926.506956
  0
LINE
  5
684
100
AcDbEntity
  8
M0
 62
     7
100
AcDbLine
 10
350.939687
 20
917.97473
 11
350.939672
 21
912.506712
  0
LINE
  5
685
100
AcDbEntity
  8
M0
 62
     7
100
AcDbLine
 10
365.939473
 20
912.506956
 11
357.439473
 21
912.506956
  0
LINE
  5
686
100
AcDbEntity
  8
M0
 62
     7
100
AcDbLine
 10
357.439473
 20
912.506956
 11
357.439473
 21
917.97473
  0
LINE
  5
687
100
AcDbEntity
  8
M0
 62
     7
100
AcDbLine
 10
357.439489
 20
926.506956
 11
365.939489
 21
926.506712
  0
LINE
  5
688
100
AcDbEntity
  8
M0
 62
     7
100
AcDbLine
 10
365.939489
 20
926.506712
 11
365.939489
 21
923.006224
  0
LINE
  5
689
100
AcDbEntity
  8
M0
 62
     7
100
AcDbLine
 10
365.939473
 20
913.506956
 11
357.439473
 21
913.506956
  0
LINE
  5
68A
100
AcDbEntity
  8
M0
 62
     7
100
AcDbLine
 10
359.189473
 20
913.506956
 11
359.189473
 21
912.506956
  0
LINE
  5
68B
100
AcDbEntity
  8
M0
 62
     7
100
AcDbLine
 10
364.189473
 20
913.506956
 11
364.189473
 21
912.506956
  0
LINE
  5
68C
100
AcDbEntity
  8
M0
 62
     7
100
AcDbLine
 10
357.439473
 20
923.006468
 11
357.439489
 21
926.506956
  0
LINE
  5
68D
100
AcDbEntity
  8
M0
 62
     7
100
AcDbLine
 10
365.939489
 20
917.974486
 11
365.939473
 21
912.506712
  0
LINE
  5
68E
100
AcDbEntity
  8
M0
100
AcDbLine
 10
343.189489
 20
916.007201
 11
350.189489
 21
916.007201
  0
LINE
  5
68F
100
AcDbEntity
  8
M0
100
AcDbLine
 10
352.439489
 20
918.007201
 11
352.439489
 21
923.006956
  0
LINE
  5
690
100
AcDbEntity
  8
M0
100
AcDbLine
 10
348.189489
 20
925.006956
 11
345.189489
 21
925.006956
  0
LINE
  5
691
100
AcDbEntity
  8
M0
100
AcDbLine
 10
340.939489
 20
923.006712
 11
340.939489
 21
918.007201
  0
LINE
  5
692
100
AcDbEntity
  8
M0
100
AcDbLine
 10
352.439489
 20
923.007201
 11
349.689489
 21
923.007201
  0
LINE
  5
693
100
AcDbEntity
  8
M0
100
AcDbLine
 10
348.189489
 20
925.007201
 11
348.189489
 21
924.506956
  0
LINE
  5
694
100
AcDbEntity
  8
M0
100
AcDbLine
 10
345.189489
 20
925.007201
 11
345.189489
 21
924.506712
  0
LINE
  5
695
100
AcDbEntity
  8
M0
100
AcDbLine
 10
343.689489
 20
923.006956
 11
340.939489
 21
923.007201
  0
LINE
  5
696
100
AcDbEntity
  8
M0
100
AcDbLine
 10
348.189489
 20
923.006956
 11
345.189489
 21
923.006956
  0
LINE
  5
697
100
AcDbEntity
  8
M0
100
AcDbLine
 10
340.939489
 20
918.007201
 11
342.189489
 21
918.007201
  0
LINE
  5
698
100
AcDbEntity
  8
M0
100
AcDbLine
 10
350.189489
 20
917.007201
 11
350.189489
 21
916.007201
  0
LINE
  5
699
100
AcDbEntity
  8
M0
100
AcDbLine
 10
343.189489
 20
917.007201
 11
343.189489
 21
916.007201
  0
LINE
  5
69A
100
AcDbEntity
  8
M0
100
AcDbLine
 10
351.189489
 20
918.007201
 11
352.439489
 21
918.007201
  0
ARC
  5
69B
100
AcDbEntity
  8
M0
100
AcDbCircle
 10
349.689489
 20
924.506956
 40
1.5
100
AcDbArc
 50
179.999417
 51
270.0
  0
ARC
  5
69C
100
AcDbEntity
  8
M0
100
AcDbCircle
 10
343.689489
 20
924.506712
 40
1.5
100
AcDbArc
 50
270.0
 51
360.0
  0
ARC
  5
69D
100
AcDbEntity
  8
M0
100
AcDbCircle
 10
351.189489
 20
917.007201
 40
1.0
100
AcDbArc
 50
89.999126
 51
179.999126
  0
ARC
  5
69E
100
AcDbEntity
  8
M0
100
AcDbCircle
 10
342.189489
 20
917.007201
 40
1.0
100
AcDbArc
 50
0.0
 51
89.999126
  0
LINE
  5
69F
100
AcDbEntity
  8
M0
100
AcDbLine
 10
380.189046
 20
916.006712
 11
373.18929
 21
916.006712
  0
LINE
  5
6A0
100
AcDbEntity
  8
M0
100
AcDbLine
 10
370.93929
 20
918.006712
 11
370.93929
 21
923.006468
  0
LINE
  5
6A1
100
AcDbEntity
  8
M0
100
AcDbLine
 10
375.18929
 20
925.006468
 11
378.18929
 21
925.006224
  0
LINE
  5
6A2
100
AcDbEntity
  8
M0
100
AcDbLine
 10
382.43929
 20
923.00598
 11
382.439046
 21
918.006712
  0
LINE
  5
6A3
100
AcDbEntity
  8
M0
100
AcDbLine
 10
370.93929
 20
923.006712
 11
373.68929
 21
923.006712
  0
LINE
  5
6A4
100
AcDbEntity
  8
M0
100
AcDbLine
 10
375.18929
 20
925.006712
 11
375.18929
 21
924.506468
  0
LINE
  5
6A5
100
AcDbEntity
  8
M0
100
AcDbLine
 10
378.18929
 20
925.006468
 11
378.18929
 21
924.50598
  0
LINE
  5
6A6
100
AcDbEntity
  8
M0
100
AcDbLine
 10
379.68929
 20
923.006224
 11
382.43929
 21
923.006468
  0
LINE
  5
6A7
100
AcDbEntity
  8
M0
100
AcDbLine
 10
375.18929
 20
923.006468
 11
378.18929
 21
923.006224
  0
LINE
  5
6A8
100
AcDbEntity
  8
M0
100
AcDbLine
 10
382.439046
 20
918.006712
 11
381.189046
 21
918.006712
  0
LINE
  5
6A9
100
AcDbEntity
  8
M0
100
AcDbLine
 10
373.18929
 20
917.006712
 11
373.18929
 21
916.006712
  0
LINE
  5
6AA
100
AcDbEntity
  8
M0
100
AcDbLine
 10
380.189046
 20
917.006712
 11
380.189046
 21
916.006712
  0
LINE
  5
6AB
100
AcDbEntity
  8
M0
100
AcDbLine
 10
372.18929
 20
918.006712
 11
370.93929
 21
918.006712
  0
ARC
  5
6AC
100
AcDbEntity
  8
M0
100
AcDbCircle
 10
373.68929
 20
924.506468
 40
1.5
100
AcDbArc
 50
-90.0
 51
0.0
  0
ARC
  5
6AD
100
AcDbEntity
  8
M0
100
AcDbCircle
 10
379.68929
 20
924.50598
 40
1.5
100
AcDbArc
 50
179.999417
 51
270.0
  0
ARC
  5
6AE
100
AcDbEntity
  8
M0
100
AcDbCircle
 10
372.18929
 20
917.006712
 40
1.0
100
AcDbArc
 50
0.0
 51
89.999126
  0
ARC
  5
6AF
100
AcDbEntity
  8
M0
100
AcDbCircle
 10
381.189046
 20
917.006712
 40
1.0
100
AcDbArc
 50
89.999126
 51
179.999126
  0
LINE
  5
6B0
100
AcDbEntity
  8
M0
100
AcDbLine
 10
358.189489
 20
916.007201
 11
365.189489
 21
916.007201
  0
LINE
  5
6B1
100
AcDbEntity
  8
M0
100
AcDbLine
 10
367.439489
 20
918.007201
 11
367.439489
 21
923.006956
  0
LINE
  5
6B2
100
AcDbEntity
  8
M0
100
AcDbLine
 10
363.189489
 20
925.006956
 11
360.189489
 21
925.006956
  0
LINE
  5
6B3
100
AcDbEntity
  8
M0
100
AcDbLine
 10
355.939489
 20
923.006712
 11
355.939489
 21
918.007201
  0
LINE
  5
6B4
100
AcDbEntity
  8
M0
100
AcDbLine
 10
367.439489
 20
923.007201
 11
364.689489
 21
923.007201
  0
LINE
  5
6B5
100
AcDbEntity
  8
M0
100
AcDbLine
 10
363.189489
 20
925.007201
 11
363.189489
 21
924.506956
  0
LINE
  5
6B6
100
AcDbEntity
  8
M0
100
AcDbLine
 10
360.189489
 20
925.007201
 11
360.189489
 21
924.506712
  0
LINE
  5
6B7
100
AcDbEntity
  8
M0
100
AcDbLine
 10
358.689489
 20
923.006956
 11
355.939489
 21
923.007201
  0
LINE
  5
6B8
100
AcDbEntity
  8
M0
100
AcDbLine
 10
363.189489
 20
923.006956
 11
360.189489
 21
923.006956
  0
LINE
  5
6B9
100
AcDbEntity
  8
M0
100
AcDbLine
 10
355.939489
 20
918.007201
 11
357.189489
 21
918.007201
  0
LINE
  5
6BA
100
AcDbEntity
  8
M0
100
AcDbLine
 10
365.189489
 20
917.007201
 11
365.189489
 21
916.007201
  0
LINE
  5
6BB
100
AcDbEntity
  8
M0
100
AcDbLine
 10
358.189489
 20
917.007201
 11
358.189489
 21
916.007201
  0
LINE
  5
6BC
100
AcDbEntity
  8
M0
100
AcDbLine
 10
366.189489
 20
918.007201
 11
367.439489
 21
918.007201
  0
ARC
  5
6BD
100
AcDbEntity
  8
M0
100
AcDbCircle
 10
364.689489
 20
924.506956
 40
1.5
100
AcDbArc
 50
179.999417
 51
270.0
  0
ARC
  5
6BE
100
AcDbEntity
  8
M0
100
AcDbCircle
 10
358.689489
 20
924.506712
 40
1.5
100
AcDbArc
 50
270.0
 51
360.0
  0
ARC
  5
6BF
100
AcDbEntity
  8
M0
100
AcDbCircle
 10
366.189489
 20
917.007201
 40
1.0
100
AcDbArc
 50
89.999126
 51
179.999126
  0
ARC
  5
6C0
100
AcDbEntity
  8
M0
100
AcDbCircle
 10
357.189489
 20
917.007201
 40
1.0
100
AcDbArc
 50
0.0
 51
89.999126
  0
CIRCLE
  5
6C1
100
AcDbEntity
  8
M0
 62
     5
100
AcDbCircle
 10
346.689489
 20
919.506712
 40
3.299995
  0
CIRCLE
  5
6C2
100
AcDbEntity
  8
M0
 62
     5
100
AcDbCircle
 10
361.689489
 20
919.506712
 40
3.299995
  0
CIRCLE
  5
6C3
100
AcDbEntity
  8
M0
 62
     5
100
AcDbCircle
 10
376.68929
 20
919.50598
 40
3.299995
  0
CIRCLE
  5
6C4
100
AcDbEntity
  8
M0
100
AcDbCircle
 10
346.689504
 20
919.506712
 40
3.0
  0
LINE
  5
6C5
100
AcDbEntity
  8
M0
100
AcDbLine
 10
347.679448
 20
917.809447
 11
348.386556
 21
918.516722
  0
LINE
  5
6C6
100
AcDbEntity
  8
M0
100
AcDbLine
 10
348.386556
 20
918.516722
 11
347.396596
 21
919.506468
  0
LINE
  5
6C7
100
AcDbEntity
  8
M0
100
AcDbLine
 10
345.699544
 20
921.203734
 11
344.992452
 21
920.496458
  0
LINE
  5
6C8
100
AcDbEntity
  8
M0
100
AcDbLine
 10
344.992452
 20
920.496458
 11
345.982396
 21
919.506712
  0
LINE
  5
6C9
100
AcDbEntity
  8
M0
100
AcDbLine
 10
344.244283
 20
917.768431
 11
345.982396
 21
919.506712
  0
LINE
  5
6CA
100
AcDbEntity
  8
M0
100
AcDbLine
 10
344.95139
 20
917.0614
 11
346.689489
 21
918.799437
  0
LINE
  5
6CB
100
AcDbEntity
  8
M0
100
AcDbLine
 10
349.134694
 20
921.244749
 11
347.396596
 21
919.506468
  0
LINE
  5
6CC
100
AcDbEntity
  8
M0
100
AcDbLine
 10
348.427587
 20
921.951781
 11
346.689504
 21
920.213744
  0
LINE
  5
6CD
100
AcDbEntity
  8
M0
100
AcDbLine
 10
347.679448
 20
917.809447
 11
346.689489
 21
918.799437
  0
LINE
  5
6CE
100
AcDbEntity
  8
M0
100
AcDbLine
 10
345.699544
 20
921.203734
 11
346.689504
 21
920.213744
  0
LINE
  5
6CF
100
AcDbEntity
  8
M0
100
AcDbLine
 10
341.489354
 20
919.506712
 11
351.889638
 21
919.506468
  0
LINE
  5
6D0
100
AcDbEntity
  8
M0
100
AcDbLine
 10
346.689489
 20
914.306517
 11
346.689504
 21
924.706663
  0
CIRCLE
  5
6D1
100
AcDbEntity
  8
M0
100
AcDbCircle
 10
361.689504
 20
919.506712
 40
3.0
  0
LINE
  5
6D2
100
AcDbEntity
  8
M0
100
AcDbLine
 10
362.679448
 20
917.809447
 11
363.386556
 21
918.516722
  0
LINE
  5
6D3
100
AcDbEntity
  8
M0
100
AcDbLine
 10
363.386556
 20
918.516722
 11
362.396596
 21
919.506468
  0
LINE
  5
6D4
100
AcDbEntity
  8
M0
100
AcDbLine
 10
360.699544
 20
921.203734
 11
359.992452
 21
920.496458
  0
LINE
  5
6D5
100
AcDbEntity
  8
M0
100
AcDbLine
 10
359.992452
 20
920.496458
 11
360.982396
 21
919.506712
  0
LINE
  5
6D6
100
AcDbEntity
  8
M0
100
AcDbLine
 10
359.244283
 20
917.768431
 11
360.982396
 21
919.506712
  0
LINE
  5
6D7
100
AcDbEntity
  8
M0
100
AcDbLine
 10
359.95139
 20
917.0614
 11
361.689489
 21
918.799437
  0
LINE
  5
6D8
100
AcDbEntity
  8
M0
100
AcDbLine
 10
364.134694
 20
921.244749
 11
362.396596
 21
919.506468
  0
LINE
  5
6D9
100
AcDbEntity
  8
M0
100
AcDbLine
 10
363.427587
 20
921.951781
 11
361.689504
 21
920.213744
  0
LINE
  5
6DA
100
AcDbEntity
  8
M0
100
AcDbLine
 10
362.679448
 20
917.809447
 11
361.689489
 21
918.799437
  0
LINE
  5
6DB
100
AcDbEntity
  8
M0
100
AcDbLine
 10
360.699544
 20
921.203734
 11
361.689504
 21
920.213744
  0
LINE
  5
6DC
100
AcDbEntity
  8
M0
100
AcDbLine
 10
356.489354
 20
919.506712
 11
366.889638
 21
919.506468
  0
CIRCLE
  5
6DD
100
AcDbEntity
  8
M0
100
AcDbCircle
 10
376.68929
 20
919.50598
 40
3.0
  0
LINE
  5
6DE
100
AcDbEntity
  8
M0
100
AcDbLine
 10
377.679036
 20
917.808714
 11
378.386312
 21
918.51599
  0
LINE
  5
6DF
100
AcDbEntity
  8
M0
100
AcDbLine
 10
378.386312
 20
918.51599
 11
377.396321
 21
919.505736
  0
LINE
  5
6E0
100
AcDbEntity
  8
M0
100
AcDbLine
 10
375.6993
 20
921.203001
 11
374.992025
 21
920.495726
  0
LINE
  5
6E1
100
AcDbEntity
  8
M0
100
AcDbLine
 10
374.992025
 20
920.495726
 11
375.982015
 21
919.50598
  0
LINE
  5
6E2
100
AcDbEntity
  8
M0
100
AcDbLine
 10
374.243978
 20
917.767699
 11
375.982015
 21
919.50598
  0
LINE
  5
6E3
100
AcDbEntity
  8
M0
100
AcDbLine
 10
374.951009
 20
917.060667
 11
376.68929
 21
918.798705
  0
LINE
  5
6E4
100
AcDbEntity
  8
M0
100
AcDbLine
 10
379.134359
 20
921.244017
 11
377.396321
 21
919.505736
  0
LINE
  5
6E5
100
AcDbEntity
  8
M0
100
AcDbLine
 10
378.427327
 20
921.951048
 11
376.68929
 21
920.213011
  0
LINE
  5
6E6
100
AcDbEntity
  8
M0
100
AcDbLine
 10
377.679036
 20
917.808714
 11
376.68929
 21
918.798705
  0
LINE
  5
6E7
100
AcDbEntity
  8
M0
100
AcDbLine
 10
375.6993
 20
921.203001
 11
376.68929
 21
920.213011
  0
LINE
  5
6E8
100
AcDbEntity
  8
M0
100
AcDbLine
 10
371.489095
 20
919.50598
 11
381.889241
 21
919.505736
  0
LINE
  5
6E9
100
AcDbEntity
  8
M0
100
AcDbLine
 10
376.68929
 20
914.305785
 11
376.68929
 21
924.705931
  0
LINE
  5
6EA
100
AcDbEntity
  8
M0
 62
     2
100
AcDbLine
 10
419.539479
 20
825.607542
 11
426.089467
 21
825.607542
  0
LINE
  5
6EB
100
AcDbEntity
  8
M0
 62
     2
100
AcDbLine
 10
426.639485
 20
823.70764
 11
426.639485
 21
817.108031
  0
LINE
  5
6EC
100
AcDbEntity
  8
M0
 62
     2
100
AcDbLine
 10
425.639485
 20
816.107542
 11
419.739476
 21
816.107542
  0
LINE
  5
6ED
100
AcDbEntity
  8
M0
 62
     2
100
AcDbLine
 10
418.739476
 20
817.107787
 11
418.739476
 21
823.70764
  0
ARC
  5
6EE
100
AcDbEntity
  8
M0
 62
     2
100
AcDbCircle
 10
425.639485
 20
817.107787
 40
1.0
100
AcDbArc
 50
-90.0
 51
0.013988
  0
ARC
  5
6EF
100
AcDbEntity
  8
M0
 62
     2
100
AcDbCircle
 10
419.739476
 20
817.107787
 40
1.0
100
AcDbArc
 50
179.999126
 51
270.0
  0
LINE
  5
6F0
100
AcDbEntity
  8
M0
 62
     2
100
AcDbLine
 10
425.839482
 20
824.607542
 11
426.089467
 21
824.607542
  0
LINE
  5
6F1
100
AcDbEntity
  8
M0
 62
     2
100
AcDbLine
 10
418.939473
 20
823.907591
 11
419.039479
 21
823.907591
  0
LINE
  5
6F2
100
AcDbEntity
  8
M0
 62
     2
100
AcDbLine
 10
425.839482
 20
824.407591
 11
425.839482
 21
825.607542
  0
LINE
  5
6F3
100
AcDbEntity
  8
M0
 62
     2
100
AcDbLine
 10
419.539479
 20
824.407591
 11
419.539479
 21
825.607542
  0
LINE
  5
6F4
100
AcDbEntity
  8
M0
 62
     2
100
AcDbLine
 10
426.339482
 20
823.907591
 11
426.439473
 21
823.907591
  0
ARC
  5
6F5
100
AcDbEntity
  8
M0
 62
     2
100
AcDbCircle
 10
418.939473
 20
823.70764
 40
0.2
100
AcDbArc
 50
89.995629
 51
179.995629
  0
ARC
  5
6F6
100
AcDbEntity
  8
M0
 62
     2
100
AcDbCircle
 10
426.439473
 20
823.70764
 40
0.2
100
AcDbArc
 50
0.0
 51
89.995629
  0
ARC
  5
6F7
100
AcDbEntity
  8
M0
 62
     2
100
AcDbCircle
 10
426.339482
 20
824.407591
 40
0.5
100
AcDbArc
 50
179.998251
 51
270.0
  0
ARC
  5
6F8
100
AcDbEntity
  8
M0
 62
     2
100
AcDbCircle
 10
419.039479
 20
824.407591
 40
0.5
100
AcDbArc
 50
-90.0
 51
0.0
  0
LINE
  5
6F9
100
AcDbEntity
  8
M0
 62
     2
100
AcDbLine
 10
426.089467
 20
824.607542
 11
426.089467
 21
825.607542
  0
LINE
  5
6FA
100
AcDbEntity
  8
M0
 62
     2
100
AcDbLine
 10
419.539479
 20
816.107542
 11
426.089467
 21
816.107542
  0
LINE
  5
6FB
100
AcDbEntity
  8
M0
 62
     2
100
AcDbLine
 10
426.639485
 20
814.20764
 11
426.639485
 21
807.608031
  0
LINE
  5
6FC
100
AcDbEntity
  8
M0
 62
     2
100
AcDbLine
 10
425.639485
 20
806.607542
 11
419.739476
 21
806.607542
  0
LINE
  5
6FD
100
AcDbEntity
  8
M0
 62
     2
100
AcDbLine
 10
418.739476
 20
807.607787
 11
418.739476
 21
814.20764
  0
ARC
  5
6FE
100
AcDbEntity
  8
M0
 62
     2
100
AcDbCircle
 10
425.639485
 20
807.607787
 40
1.0
100
AcDbArc
 50
-90.0
 51
0.013988
  0
ARC
  5
6FF
100
AcDbEntity
  8
M0
 62
     2
100
AcDbCircle
 10
419.739476
 20
807.607787
 40
1.0
100
AcDbArc
 50
179.999126
 51
270.0
  0
LINE
  5
700
100
AcDbEntity
  8
M0
 62
     2
100
AcDbLine
 10
425.839482
 20
815.107542
 11
426.089467
 21
815.107542
  0
LINE
  5
701
100
AcDbEntity
  8
M0
 62
     2
100
AcDbLine
 10
418.939473
 20
814.407591
 11
419.039479
 21
814.407591
  0
LINE
  5
702
100
AcDbEntity
  8
M0
 62
     2
100
AcDbLine
 10
425.839482
 20
814.907591
 11
425.839482
 21
816.107542
  0
LINE
  5
703
100
AcDbEntity
  8
M0
 62
     2
100
AcDbLine
 10
419.539479
 20
814.907591
 11
419.539479
 21
816.107542
  0
LINE
  5
704
100
AcDbEntity
  8
M0
 62
     2
100
AcDbLine
 10
426.339482
 20
814.407591
 11
426.439473
 21
814.407591
  0
ARC
  5
705
100
AcDbEntity
  8
M0
 62
     2
100
AcDbCircle
 10
418.939473
 20
814.20764
 40
0.2
100
AcDbArc
 50
89.995629
 51
179.995629
  0
ARC
  5
706
100
AcDbEntity
  8
M0
 62
     2
100
AcDbCircle
 10
426.439473
 20
814.20764
 40
0.2
100
AcDbArc
 50
0.0
 51
89.995629
  0
ARC
  5
707
100
AcDbEntity
  8
M0
 62
     2
100
AcDbCircle
 10
426.339482
 20
814.907591
 40
0.5
100
AcDbArc
 50
179.998251
 51
270.0
  0
ARC
  5
708
100
AcDbEntity
  8
M0
 62
     2
100
AcDbCircle
 10
419.039479
 20
814.907591
 40
0.5
100
AcDbArc
 50
-90.0
 51
0.0
  0
LINE
  5
709
100
AcDbEntity
  8
M0
 62
     2
100
AcDbLine
 10
426.089467
 20
815.107542
 11
426.089467
 21
816.107542
  0
LINE
  5
70A
100
AcDbEntity
  8
M0
 62
     2
100
AcDbLine
 10
297.539479
 20
816.107542
 11
304.089467
 21
816.107542
  0
LINE
  5
70B
100
AcDbEntity
  8
M0
 62
     2
100
AcDbLine
 10
304.639485
 20
814.20764
 11
304.639485
 21
807.608031
  0
LINE
  5
70C
100
AcDbEntity
  8
M0
 62
     2
100
AcDbLine
 10
303.639485
 20
806.607542
 11
297.739476
 21
806.607542
  0
LINE
  5
70D
100
AcDbEntity
  8
M0
 62
     2
100
AcDbLine
 10
296.739476
 20
807.607787
 11
296.739476
 21
814.20764
  0
ARC
  5
70E
100
AcDbEntity
  8
M0
 62
     2
100
AcDbCircle
 10
303.639485
 20
807.607787
 40
1.0
100
AcDbArc
 50
-90.0
 51
0.013988
  0
ARC
  5
70F
100
AcDbEntity
  8
M0
 62
     2
100
AcDbCircle
 10
297.739476
 20
807.607787
 40
1.0
100
AcDbArc
 50
179.999126
 51
270.0
  0
LINE
  5
710
100
AcDbEntity
  8
M0
 62
     2
100
AcDbLine
 10
303.839482
 20
815.107542
 11
304.089467
 21
815.107542
  0
LINE
  5
711
100
AcDbEntity
  8
M0
 62
     2
100
AcDbLine
 10
296.939473
 20
814.407591
 11
297.039479
 21
814.407591
  0
LINE
  5
712
100
AcDbEntity
  8
M0
 62
     2
100
AcDbLine
 10
303.839482
 20
814.907591
 11
303.839482
 21
816.107542
  0
LINE
  5
713
100
AcDbEntity
  8
M0
 62
     2
100
AcDbLine
 10
297.539479
 20
814.907591
 11
297.539479
 21
816.107542
  0
LINE
  5
714
100
AcDbEntity
  8
M0
 62
     2
100
AcDbLine
 10
304.339482
 20
814.407591
 11
304.439473
 21
814.407591
  0
ARC
  5
715
100
AcDbEntity
  8
M0
 62
     2
100
AcDbCircle
 10
296.939473
 20
814.20764
 40
0.2
100
AcDbArc
 50
89.995629
 51
179.995629
  0
ARC
  5
716
100
AcDbEntity
  8
M0
 62
     2
100
AcDbCircle
 10
304.439473
 20
814.20764
 40
0.2
100
AcDbArc
 50
0.0
 51
89.995629
  0
ARC
  5
717
100
AcDbEntity
  8
M0
 62
     2
100
AcDbCircle
 10
304.339482
 20
814.907591
 40
0.5
100
AcDbArc
 50
179.998251
 51
270.0
  0
ARC
  5
718
100
AcDbEntity
  8
M0
 62
     2
100
AcDbCircle
 10
297.039479
 20
814.907591
 40
0.5
100
AcDbArc
 50
-90.0
 51
0.0
  0
LINE
  5
719
100
AcDbEntity
  8
M0
 62
     2
100
AcDbLine
 10
304.089467
 20
815.107542
 11
304.089467
 21
816.107542
  0
LINE
  5
71A
100
AcDbEntity
  8
M0
 62
     2
100
AcDbLine
 10
297.539479
 20
825.607542
 11
304.089467
 21
825.607542
  0
LINE
  5
71B
100
AcDbEntity
  8
M0
 62
     2
100
AcDbLine
 10
304.639485
 20
823.70764
 11
304.639485
 21
817.108031
  0
LINE
  5
71C
100
AcDbEntity
  8
M0
 62
     2
100
AcDbLine
 10
303.639485
 20
816.107542
 11
297.739476
 21
816.107542
  0
LINE
  5
71D
100
AcDbEntity
  8
M0
 62
     2
100
AcDbLine
 10
296.739476
 20
817.107787
 11
296.739476
 21
823.70764
  0
ARC
  5
71E
100
AcDbEntity
  8
M0
 62
     2
100
AcDbCircle
 10
303.639485
 20
817.107787
 40
1.0
100
AcDbArc
 50
-90.0
 51
0.013988
  0
ARC
  5
71F
100
AcDbEntity
  8
M0
 62
     2
100
AcDbCircle
 10
297.739476
 20
817.107787
 40
1.0
100
AcDbArc
 50
179.999126
 51
270.0
  0
LINE
  5
720
100
AcDbEntity
  8
M0
 62
     2
100
AcDbLine
 10
303.839482
 20
824.607542
 11
304.089467
 21
824.607542
  0
LINE
  5
721
100
AcDbEntity
  8
M0
 62
     2
100
AcDbLine
 10
296.939473
 20
823.907591
 11
297.039479
 21
823.907591
  0
LINE
  5
722
100
AcDbEntity
  8
M0
 62
     2
100
AcDbLine
 10
303.839482
 20
824.407591
 11
303.839482
 21
825.607542
  0
LINE
  5
723
100
AcDbEntity
  8
M0
 62
     2
100
AcDbLine
 10
297.539479
 20
824.407591
 11
297.539479
 21
825.607542
  0
LINE
  5
724
100
AcDbEntity
  8
M0
 62
     2
100
AcDbLine
 10
304.339482
 20
823.907591
 11
304.439473
 21
823.907591
  0
ARC
  5
725
100
AcDbEntity
  8
M0
 62
     2
100
AcDbCircle
 10
296.939473
 20
823.70764
 40
0.2
100
AcDbArc
 50
89.995629
 51
179.995629
  0
ARC
  5
726
100
AcDbEntity
  8
M0
 62
     2
100
AcDbCircle
 10
304.439473
 20
823.70764
 40
0.2
100
AcDbArc
 50
0.0
 51
89.995629
  0
ARC
  5
727
100
AcDbEntity
  8
M0
 62
     2
100
AcDbCircle
 10
304.339482
 20
824.407591
 40
0.5
100
AcDbArc
 50
179.998251
 51
270.0
  0
ARC
  5
728
100
AcDbEntity
  8
M0
 62
     2
100
AcDbCircle
 10
297.039479
 20
824.407591
 40
0.5
100
AcDbArc
 50
-90.0
 51
0.0
  0
LINE
  5
729
100
AcDbEntity
  8
M0
 62
     2
100
AcDbLine
 10
304.089467
 20
824.607542
 11
304.089467
 21
825.607542
  0
LINE
  5
72A
100
AcDbEntity
  8
M0
 62
     2
100
AcDbLine
 10
419.539479
 20
785.107542
 11
426.089467
 21
785.107542
  0
LINE
  5
72B
100
AcDbEntity
  8
M0
 62
     2
100
AcDbLine
 10
426.639485
 20
787.007445
 11
426.639485
 21
793.607054
  0
LINE
  5
72C
100
AcDbEntity
  8
M0
 62
     2
100
AcDbLine
 10
425.639485
 20
794.607542
 11
419.739476
 21
794.607542
  0
LINE
  5
72D
100
AcDbEntity
  8
M0
 62
     2
100
AcDbLine
 10
418.739476
 20
793.607298
 11
418.739476
 21
787.007445
  0
ARC
  5
72E
100
AcDbEntity
  8
M0
 62
     2
100
AcDbCircle
 10
425.639485
 20
793.607298
 40
1.0
100
AcDbArc
 50
359.986012
 51
449.999126
  0
ARC
  5
72F
100
AcDbEntity
  8
M0
 62
     2
100
AcDbCircle
 10
419.739476
 20
793.607298
 40
1.0
100
AcDbArc
 50
89.999126
 51
179.999126
  0
LINE
  5
730
100
AcDbEntity
  8
M0
 62
     2
100
AcDbLine
 10
425.839482
 20
786.107542
 11
426.089467
 21
786.107542
  0
LINE
  5
731
100
AcDbEntity
  8
M0
 62
     2
100
AcDbLine
 10
418.939473
 20
786.807494
 11
419.039479
 21
786.807494
  0
LINE
  5
732
100
AcDbEntity
  8
M0
 62
     2
100
AcDbLine
 10
425.839482
 20
786.307494
 11
425.839482
 21
785.107542
  0
LINE
  5
733
100
AcDbEntity
  8
M0
 62
     2
100
AcDbLine
 10
419.539479
 20
786.307494
 11
419.539479
 21
785.107542
  0
LINE
  5
734
100
AcDbEntity
  8
M0
 62
     2
100
AcDbLine
 10
426.339482
 20
786.807494
 11
426.439473
 21
786.807494
  0
ARC
  5
735
100
AcDbEntity
  8
M0
 62
     2
100
AcDbCircle
 10
418.939473
 20
787.007445
 40
0.2
100
AcDbArc
 50
179.995629
 51
270.0
  0
ARC
  5
736
100
AcDbEntity
  8
M0
 62
     2
100
AcDbCircle
 10
426.439473
 20
787.007445
 40
0.2
100
AcDbArc
 50
270.0
 51
360.0
  0
ARC
  5
737
100
AcDbEntity
  8
M0
 62
     2
100
AcDbCircle
 10
426.339482
 20
786.307494
 40
0.5
100
AcDbArc
 50
89.998251
 51
179.998251
  0
ARC
  5
738
100
AcDbEntity
  8
M0
 62
     2
100
AcDbCircle
 10
419.039479
 20
786.307494
 40
0.5
100
AcDbArc
 50
0.0
 51
89.998251
  0
LINE
  5
739
100
AcDbEntity
  8
M0
 62
     2
100
AcDbLine
 10
426.089467
 20
786.107542
 11
426.089467
 21
785.107542
  0
LINE
  5
73A
100
AcDbEntity
  8
M0
 62
     2
100
AcDbLine
 10
419.539479
 20
775.607542
 11
426.089467
 21
775.607542
  0
LINE
  5
73B
100
AcDbEntity
  8
M0
 62
     2
100
AcDbLine
 10
426.639485
 20
777.507445
 11
426.639485
 21
784.107054
  0
LINE
  5
73C
100
AcDbEntity
  8
M0
 62
     2
100
AcDbLine
 10
425.639485
 20
785.107542
 11
419.739476
 21
785.107542
  0
LINE
  5
73D
100
AcDbEntity
  8
M0
 62
     2
100
AcDbLine
 10
418.739476
 20
784.107298
 11
418.739476
 21
777.507445
  0
ARC
  5
73E
100
AcDbEntity
  8
M0
 62
     2
100
AcDbCircle
 10
425.639485
 20
784.107298
 40
1.0
100
AcDbArc
 50
359.986012
 51
449.999126
  0
ARC
  5
73F
100
AcDbEntity
  8
M0
 62
     2
100
AcDbCircle
 10
419.739476
 20
784.107298
 40
1.0
100
AcDbArc
 50
89.999126
 51
179.999126
  0
LINE
  5
740
100
AcDbEntity
  8
M0
 62
     2
100
AcDbLine
 10
425.839482
 20
776.607542
 11
426.089467
 21
776.607542
  0
LINE
  5
741
100
AcDbEntity
  8
M0
 62
     2
100
AcDbLine
 10
418.939473
 20
777.307494
 11
419.039479
 21
777.307494
  0
LINE
  5
742
100
AcDbEntity
  8
M0
 62
     2
100
AcDbLine
 10
425.839482
 20
776.807494
 11
425.839482
 21
775.607542
  0
LINE
  5
743
100
AcDbEntity
  8
M0
 62
     2
100
AcDbLine
 10
419.539479
 20
776.807494
 11
419.539479
 21
775.607542
  0
LINE
  5
744
100
AcDbEntity
  8
M0
 62
     2
100
AcDbLine
 10
426.339482
 20
777.307494
 11
426.439473
 21
777.307494
  0
ARC
  5
745
100
AcDbEntity
  8
M0
 62
     2
100
AcDbCircle
 10
418.939473
 20
777.507445
 40
0.2
100
AcDbArc
 50
179.995629
 51
270.0
  0
ARC
  5
746
100
AcDbEntity
  8
M0
 62
     2
100
AcDbCircle
 10
426.439473
 20
777.507445
 40
0.2
100
AcDbArc
 50
270.0
 51
360.0
  0
ARC
  5
747
100
AcDbEntity
  8
M0
 62
     2
100
AcDbCircle
 10
426.339482
 20
776.807494
 40
0.5
100
AcDbArc
 50
89.998251
 51
179.998251
  0
ARC
  5
748
100
AcDbEntity
  8
M0
 62
     2
100
AcDbCircle
 10
419.039479
 20
776.807494
 40
0.5
100
AcDbArc
 50
0.0
 51
89.998251
  0
LINE
  5
749
100
AcDbEntity
  8
M0
 62
     2
100
AcDbLine
 10
426.089467
 20
776.607542
 11
426.089467
 21
775.607542
  0
LINE
  5
74A
100
AcDbEntity
  8
M0
 62
     2
100
AcDbLine
 10
297.539479
 20
775.607542
 11
304.089467
 21
775.607542
  0
LINE
  5
74B
100
AcDbEntity
  8
M0
 62
     2
100
AcDbLine
 10
304.639485
 20
777.507445
 11
304.639485
 21
784.107054
  0
LINE
  5
74C
100
AcDbEntity
  8
M0
 62
     2
100
AcDbLine
 10
303.639485
 20
785.107542
 11
297.739476
 21
785.107542
  0
LINE
  5
74D
100
AcDbEntity
  8
M0
 62
     2
100
AcDbLine
 10
296.739476
 20
784.107298
 11
296.739476
 21
777.507445
  0
ARC
  5
74E
100
AcDbEntity
  8
M0
 62
     2
100
AcDbCircle
 10
303.639485
 20
784.107298
 40
1.0
100
AcDbArc
 50
359.986012
 51
449.999126
  0
ARC
  5
74F
100
AcDbEntity
  8
M0
 62
     2
100
AcDbCircle
 10
297.739476
 20
784.107298
 40
1.0
100
AcDbArc
 50
89.999126
 51
179.999126
  0
LINE
  5
750
100
AcDbEntity
  8
M0
 62
     2
100
AcDbLine
 10
303.839482
 20
776.607542
 11
304.089467
 21
776.607542
  0
LINE
  5
751
100
AcDbEntity
  8
M0
 62
     2
100
AcDbLine
 10
296.939473
 20
777.307494
 11
297.039479
 21
777.307494
  0
LINE
  5
752
100
AcDbEntity
  8
M0
 62
     2
100
AcDbLine
 10
303.839482
 20
776.807494
 11
303.839482
 21
775.607542
  0
LINE
  5
753
100
AcDbEntity
  8
M0
 62
     2
100
AcDbLine
 10
297.539479
 20
776.807494
 11
297.539479
 21
775.607542
  0
LINE
  5
754
100
AcDbEntity
  8
M0
 62
     2
100
AcDbLine
 10
304.339482
 20
777.307494
 11
304.439473
 21
777.307494
  0
ARC
  5
755
100
AcDbEntity
  8
M0
 62
     2
100
AcDbCircle
 10
296.939473
 20
777.507445
 40
0.2
100
AcDbArc
 50
179.995629
 51
270.0
  0
ARC
  5
756
100
AcDbEntity
  8
M0
 62
     2
100
AcDbCircle
 10
304.439473
 20
777.507445
 40
0.2
100
AcDbArc
 50
270.0
 51
360.0
  0
ARC
  5
757
100
AcDbEntity
  8
M0
 62
     2
100
AcDbCircle
 10
304.339482
 20
776.807494
 40
0.5
100
AcDbArc
 50
89.998251
 51
179.998251
  0
ARC
  5
758
100
AcDbEntity
  8
M0
 62
     2
100
AcDbCircle
 10
297.039479
 20
776.807494
 40
0.5
100
AcDbArc
 50
0.0
 51
89.998251
  0
LINE
  5
759
100
AcDbEntity
  8
M0
 62
     2
100
AcDbLine
 10
304.089467
 20
776.607542
 11
304.089467
 21
775.607542
  0
LINE
  5
75A
100
AcDbEntity
  8
M0
 62
     2
100
AcDbLine
 10
297.539479
 20
785.107542
 11
304.089467
 21
785.107542
  0
LINE
  5
75B
100
AcDbEntity
  8
M0
 62
     2
100
AcDbLine
 10
304.639485
 20
787.007445
 11
304.639485
 21
793.607054
  0
LINE
  5
75C
100
AcDbEntity
  8
M0
 62
     2
100
AcDbLine
 10
303.639485
 20
794.607542
 11
297.739476
 21
794.607542
  0
LINE
  5
75D
100
AcDbEntity
  8
M0
 62
     2
100
AcDbLine
 10
296.739476
 20
793.607298
 11
296.739476
 21
787.007445
  0
ARC
  5
75E
100
AcDbEntity
  8
M0
 62
     2
100
AcDbCircle
 10
303.639485
 20
793.607298
 40
1.0
100
AcDbArc
 50
359.986012
 51
449.999126
  0
ARC
  5
75F
100
AcDbEntity
  8
M0
 62
     2
100
AcDbCircle
 10
297.739476
 20
793.607298
 40
1.0
100
AcDbArc
 50
89.999126
 51
179.999126
  0
LINE
  5
760
100
AcDbEntity
  8
M0
 62
     2
100
AcDbLine
 10
303.839482
 20
786.107542
 11
304.089467
 21
786.107542
  0
LINE
  5
761
100
AcDbEntity
  8
M0
 62
     2
100
AcDbLine
 10
296.939473
 20
786.807494
 11
297.039479
 21
786.807494
  0
LINE
  5
762
100
AcDbEntity
  8
M0
 62
     2
100
AcDbLine
 10
303.839482
 20
786.307494
 11
303.839482
 21
785.107542
  0
LINE
  5
763
100
AcDbEntity
  8
M0
 62
     2
100
AcDbLine
 10
297.539479
 20
786.307494
 11
297.539479
 21
785.107542
  0
LINE
  5
764
100
AcDbEntity
  8
M0
 62
     2
100
AcDbLine
 10
304.339482
 20
786.807494
 11
304.439473
 21
786.807494
  0
ARC
  5
765
100
AcDbEntity
  8
M0
 62
     2
100
AcDbCircle
 10
296.939473
 20
787.007445
 40
0.2
100
AcDbArc
 50
179.995629
 51
270.0
  0
ARC
  5
766
100
AcDbEntity
  8
M0
 62
     2
100
AcDbCircle
 10
304.439473
 20
787.007445
 40
0.2
100
AcDbArc
 50
270.0
 51
360.0
  0
ARC
  5
767
100
AcDbEntity
  8
M0
 62
     2
100
AcDbCircle
 10
304.339482
 20
786.307494
 40
0.5
100
AcDbArc
 50
89.998251
 51
179.998251
  0
ARC
  5
768
100
AcDbEntity
  8
M0
 62
     2
100
AcDbCircle
 10
297.039479
 20
786.307494
 40
0.5
100
AcDbArc
 50
0.0
 51
89.998251
  0
LINE
  5
769
100
AcDbEntity
  8
M0
 62
     2
100
AcDbLine
 10
304.089467
 20
786.107542
 11
304.089467
 21
785.107542
  0
LINE
  5
76A
100
AcDbEntity
  8
M0
 62
     6
100
AcDbLine
 10
349.189489
 20
700.107542
 11
374.189489
 21
700.107542
  0
LINE
  5
76B
100
AcDbEntity
  8
M0
 62
     6
100
AcDbLine
 10
351.689489
 20
731.107542
 11
349.189489
 21
726.607542
  0
LINE
  5
76C
100
AcDbEntity
  8
M0
 62
     6
100
AcDbLine
 10
371.689489
 20
731.107542
 11
374.189489
 21
726.607542
  0
LINE
  5
76D
100
AcDbEntity
  8
M0
 62
     6
100
AcDbLine
 10
351.689489
 20
735.607542
 11
351.689489
 21
731.107542
  0
LINE
  5
76E
100
AcDbEntity
  8
M0
 62
     6
100
AcDbLine
 10
371.689489
 20
735.607542
 11
371.689489
 21
731.107542
  0
LINE
  5
76F
100
AcDbEntity
  8
M0
 62
     6
100
AcDbLine
 10
374.189489
 20
700.107542
 11
374.189489
 21
726.607542
  0
LINE
  5
770
100
AcDbEntity
  8
M0
 62
     6
100
AcDbLine
 10
349.189489
 20
726.607542
 11
349.189489
 21
700.107542
  0
LINE
  5
771
100
AcDbEntity
  8
M0
 62
     6
100
AcDbLine
 10
349.189607
 20
901.107458
 11
374.189607
 21
901.107473
  0
LINE
  5
772
100
AcDbEntity
  8
M0
 62
     6
100
AcDbLine
 10
351.689626
 20
870.107459
 11
349.189623
 21
874.607458
  0
LINE
  5
773
100
AcDbEntity
  8
M0
 62
     6
100
AcDbLine
 10
371.689626
 20
870.107472
 11
374.189623
 21
874.607473
  0
LINE
  5
774
100
AcDbEntity
  8
M0
 62
     6
100
AcDbLine
 10
351.689629
 20
865.607459
 11
351.689626
 21
870.107459
  0
LINE
  5
775
100
AcDbEntity
  8
M0
 62
     6
100
AcDbLine
 10
371.689629
 20
865.607472
 11
371.689626
 21
870.107472
  0
LINE
  5
776
100
AcDbEntity
  8
M0
 62
     6
100
AcDbLine
 10
374.189607
 20
901.107473
 11
374.189623
 21
874.607473
  0
LINE
  5
777
100
AcDbEntity
  8
M0
 62
     6
100
AcDbLine
 10
349.189623
 20
874.607458
 11
349.189607
 21
901.107458
  0
LINE
  5
778
100
AcDbEntity
  8
M0
 62
     5
100
AcDbLine
 10
309.689489
 20
720.112898
 11
316.190953
 21
716.360304
  0
LINE
  5
779
100
AcDbEntity
  8
M0
 62
     5
100
AcDbLine
 10
316.190953
 20
716.360304
 11
316.190953
 21
708.854658
  0
LINE
  5
77A
100
AcDbEntity
  8
M0
 62
     5
100
AcDbLine
 10
316.190953
 20
708.854658
 11
309.689489
 21
705.101912
  0
LINE
  5
77B
100
AcDbEntity
  8
M0
 62
     5
100
AcDbLine
 10
309.689489
 20
705.101912
 11
303.190465
 21
708.854658
  0
LINE
  5
77C
100
AcDbEntity
  8
M0
 62
     5
100
AcDbLine
 10
303.190465
 20
708.854658
 11
303.190465
 21
716.360304
  0
LINE
  5
77D
100
AcDbEntity
  8
M0
 62
     5
100
AcDbLine
 10
303.190465
 20
716.360304
 11
309.689489
 21
720.112898
  0
CIRCLE
  5
77E
100
AcDbEntity
  8
M0
 62
     5
100
AcDbCircle
 10
309.689489
 20
712.607558
 40
4.0
  0
LINE
  5
77F
100
AcDbEntity
  8
M0
 62
     5
100
AcDbLine
 10
361.689489
 20
720.112898
 11
368.190953
 21
716.360304
  0
LINE
  5
780
100
AcDbEntity
  8
M0
 62
     5
100
AcDbLine
 10
368.190953
 20
716.360304
 11
368.190953
 21
708.854658
  0
LINE
  5
781
100
AcDbEntity
  8
M0
 62
     5
100
AcDbLine
 10
368.190953
 20
708.854658
 11
361.689489
 21
705.101912
  0
LINE
  5
782
100
AcDbEntity
  8
M0
 62
     5
100
AcDbLine
 10
361.689489
 20
705.101912
 11
355.190465
 21
708.854658
  0
LINE
  5
783
100
AcDbEntity
  8
M0
 62
     5
100
AcDbLine
 10
355.190465
 20
708.854658
 11
355.190465
 21
716.360304
  0
LINE
  5
784
100
AcDbEntity
  8
M0
 62
     5
100
AcDbLine
 10
355.190465
 20
716.360304
 11
361.689489
 21
720.112898
  0
CIRCLE
  5
785
100
AcDbEntity
  8
M0
 62
     5
100
AcDbCircle
 10
361.689489
 20
712.607558
 40
4.0
  0
LINE
  5
786
100
AcDbEntity
  8
M0
  6
DASHDOT
 62
     5
100
AcDbLine
 10
371.841832
 20
712.607558
 11
351.537145
 21
712.607558
  0
LINE
  5
787
100
AcDbEntity
  8
M0
  6
DASHDOT
 62
     5
100
AcDbLine
 10
361.689489
 20
722.759886
 11
361.689489
 21
702.455229
  0
LINE
  5
788
100
AcDbEntity
  8
M0
100
AcDbLine
 10
343.575292
 20
694.750868
 11
343.684102
 21
701.007567
  0
ARC
  5
789
100
AcDbEntity
  8
M0
100
AcDbCircle
 10
345.575841
 20
694.76544
 40
2.0
100
AcDbArc
 50
179.002413
 51
269.003724
  0
LINE
  5
78A
100
AcDbEntity
  8
M0
100
AcDbLine
 10
352.540013
 20
692.644026
 11
345.541066
 21
692.765746
  0
ARC
  5
78B
100
AcDbEntity
  8
M0
100
AcDbCircle
 10
352.574788
 20
694.643721
 40
2.0
100
AcDbArc
 50
269.003724
 51
359.003732
  0
LINE
  5
78C
100
AcDbEntity
  8
M0
100
AcDbLine
 10
354.670125
 20
700.108687
 11
354.573629
 21
694.559599
  0
LINE
  5
78D
100
AcDbEntity
  8
M0
 62
     5
100
AcDbLine
 10
413.689489
 20
720.112898
 11
420.190953
 21
716.360304
  0
LINE
  5
78E
100
AcDbEntity
  8
M0
 62
     5
100
AcDbLine
 10
420.190953
 20
716.360304
 11
420.190953
 21
708.854658
  0
LINE
  5
78F
100
AcDbEntity
  8
M0
 62
     5
100
AcDbLine
 10
420.190953
 20
708.854658
 11
413.689489
 21
705.101912
  0
LINE
  5
790
100
AcDbEntity
  8
M0
 62
     5
100
AcDbLine
 10
413.689489
 20
705.101912
 11
407.190465
 21
708.854658
  0
LINE
  5
791
100
AcDbEntity
  8
M0
 62
     5
100
AcDbLine
 10
407.190465
 20
708.854658
 11
407.190465
 21
716.360304
  0
LINE
  5
792
100
AcDbEntity
  8
M0
 62
     5
100
AcDbLine
 10
407.190465
 20
716.360304
 11
413.689489
 21
720.112898
  0
CIRCLE
  5
793
100
AcDbEntity
  8
M0
 62
     5
100
AcDbCircle
 10
413.689489
 20
712.607558
 40
4.0
  0
LINE
  5
794
100
AcDbEntity
  8
M0
  6
DASHDOT
 62
     5
100
AcDbLine
 10
423.841832
 20
712.607558
 11
403.537145
 21
712.607558
  0
LINE
  5
795
100
AcDbEntity
  8
M0
  6
DASHDOT
 62
     5
100
AcDbLine
 10
413.689489
 20
722.759886
 11
413.689489
 21
702.455229
  0
LINE
  5
796
100
AcDbEntity
  8
M0
 62
     5
100
AcDbLine
 10
413.689489
 20
896.112898
 11
420.190953
 21
892.360304
  0
LINE
  5
797
100
AcDbEntity
  8
M0
 62
     5
100
AcDbLine
 10
420.190953
 20
892.360304
 11
420.190953
 21
884.854658
  0
LINE
  5
798
100
AcDbEntity
  8
M0
 62
     5
100
AcDbLine
 10
420.190953
 20
884.854658
 11
413.689489
 21
881.101912
  0
LINE
  5
799
100
AcDbEntity
  8
M0
 62
     5
100
AcDbLine
 10
413.689489
 20
881.101912
 11
407.190465
 21
884.854658
  0
LINE
  5
79A
100
AcDbEntity
  8
M0
 62
     5
100
AcDbLine
 10
407.190465
 20
884.854658
 11
407.190465
 21
892.360304
  0
LINE
  5
79B
100
AcDbEntity
  8
M0
 62
     5
100
AcDbLine
 10
407.190465
 20
892.360304
 11
413.689489
 21
896.112898
  0
CIRCLE
  5
79C
100
AcDbEntity
  8
M0
 62
     5
100
AcDbCircle
 10
413.689489
 20
888.607558
 40
4.0
  0
LINE
  5
79D
100
AcDbEntity
  8
M0
  6
DASHDOT
 62
     5
100
AcDbLine
 10
423.841832
 20
888.607558
 11
403.537145
 21
888.607558
  0
LINE
  5
79E
100
AcDbEntity
  8
M0
 62
     5
100
AcDbLine
 10
361.689489
 20
896.112898
 11
368.190953
 21
892.360304
  0
LINE
  5
79F
100
AcDbEntity
  8
M0
 62
     5
100
AcDbLine
 10
368.190953
 20
892.360304
 11
368.190953
 21
884.854658
  0
LINE
  5
7A0
100
AcDbEntity
  8
M0
 62
     5
100
AcDbLine
 10
368.190953
 20
884.854658
 11
361.689489
 21
881.101912
  0
LINE
  5
7A1
100
AcDbEntity
  8
M0
 62
     5
100
AcDbLine
 10
361.689489
 20
881.101912
 11
355.190465
 21
884.854658
  0
LINE
  5
7A2
100
AcDbEntity
  8
M0
 62
     5
100
AcDbLine
 10
355.190465
 20
884.854658
 11
355.190465
 21
892.360304
  0
LINE
  5
7A3
100
AcDbEntity
  8
M0
 62
     5
100
AcDbLine
 10
355.190465
 20
892.360304
 11
361.689489
 21
896.112898
  0
CIRCLE
  5
7A4
100
AcDbEntity
  8
M0
 62
     5
100
AcDbCircle
 10
361.689489
 20
888.607558
 40
4.0
  0
LINE
  5
7A5
100
AcDbEntity
  8
M0
  6
DASHDOT
 62
     5
100
AcDbLine
 10
371.841832
 20
888.607558
 11
351.537145
 21
888.607558
  0
LINE
  5
7A6
100
AcDbEntity
  8
M0
  6
DASHDOT
 62
     5
100
AcDbLine
 10
361.689489
 20
898.759886
 11
361.689489
 21
878.455229
  0
LINE
  5
7A7
100
AcDbEntity
  8
M0
 62
     5
100
AcDbLine
 10
309.689489
 20
896.112898
 11
316.190953
 21
892.360304
  0
LINE
  5
7A8
100
AcDbEntity
  8
M0
 62
     5
100
AcDbLine
 10
316.190953
 20
892.360304
 11
316.190953
 21
884.854658
  0
LINE
  5
7A9
100
AcDbEntity
  8
M0
 62
     5
100
AcDbLine
 10
316.190953
 20
884.854658
 11
309.689489
 21
881.101912
  0
LINE
  5
7AA
100
AcDbEntity
  8
M0
 62
     5
100
AcDbLine
 10
309.689489
 20
881.101912
 11
303.190465
 21
884.854658
  0
LINE
  5
7AB
100
AcDbEntity
  8
M0
 62
     5
100
AcDbLine
 10
303.190465
 20
884.854658
 11
303.190465
 21
892.360304
  0
LINE
  5
7AC
100
AcDbEntity
  8
M0
 62
     5
100
AcDbLine
 10
303.190465
 20
892.360304
 11
309.689489
 21
896.112898
  0
CIRCLE
  5
7AD
100
AcDbEntity
  8
M0
 62
     5
100
AcDbCircle
 10
309.689489
 20
888.607558
 40
4.0
  0
LINE
  5
7AE
100
AcDbEntity
  8
M0
  6
DASHDOT
 62
     5
100
AcDbLine
 10
319.841832
 20
888.607558
 11
299.537145
 21
888.607558
  0
CIRCLE
  5
7AF
100
AcDbEntity
  8
M0
  6
DASHED
100
AcDbCircle
 10
304.189473
 20
713.607634
 40
4.5
  0
CIRCLE
  5
7B0
100
AcDbEntity
  8
M0
  6
DASHED
100
AcDbCircle
 10
419.189458
 20
713.607634
 40
4.5
  0
LINE
  5
7B1
100
AcDbEntity
  8
M0
  6
DASHDOT
100
AcDbLine
 10
412.022802
 20
898.607558
 11
426.35613
 21
898.607558
  0
LINE
  5
7B2
100
AcDbEntity
  8
M0
  6
DASHDOT
100
AcDbLine
 10
419.189458
 20
891.44081
 11
419.189458
 21
905.774306
  0
LINE
  5
7B3
100
AcDbEntity
  8
M0
  6
DASHDOT
100
AcDbLine
 10
297.022817
 20
898.607558
 11
311.356145
 21
898.607558
  0
LINE
  5
7B4
100
AcDbEntity
  8
M0
  6
DASHDOT
100
AcDbLine
 10
304.189473
 20
891.44081
 11
304.189473
 21
905.774306
  0
LINE
  5
7B5
100
AcDbEntity
  8
M0
  6
DASHDOT
100
AcDbLine
 10
297.022817
 20
713.607634
 11
311.356145
 21
713.607634
  0
LINE
  5
7B6
100
AcDbEntity
  8
M0
  6
DASHDOT
100
AcDbLine
 10
304.189473
 20
706.440962
 11
304.189473
 21
720.774306
  0
LINE
  5
7B7
100
AcDbEntity
  8
M0
  6
DASHDOT
100
AcDbLine
 10
412.022802
 20
713.607634
 11
426.35613
 21
713.607634
  0
LINE
  5
7B8
100
AcDbEntity
  8
M0
  6
DASHDOT
100
AcDbLine
 10
419.189458
 20
706.440962
 11
419.189458
 21
720.774306
  0
ARC
  5
7B9
100
AcDbEntity
  8
M0
  6
DASHED
100
AcDbCircle
 10
304.189473
 20
898.607558
 40
4.5
100
AcDbArc
 50
146.250984
 51
393.745245
  0
ARC
  5
7BA
100
AcDbEntity
  8
M0
100
AcDbCircle
 10
304.189473
 20
898.607558
 40
4.5
100
AcDbArc
 50
33.745245
 51
146.250984
  0
ARC
  5
7BB
100
AcDbEntity
  8
M0
  6
DASHED
100
AcDbCircle
 10
419.189458
 20
898.607558
 40
4.5
100
AcDbArc
 50
146.254432
 51
393.74546
  0
ARC
  5
7BC
100
AcDbEntity
  8
M0
100
AcDbCircle
 10
419.189458
 20
898.607558
 40
4.5
100
AcDbArc
 50
33.74546
 51
146.254432
  0
LINE
  5
7BD
100
AcDbEntity
  8
M0
100
AcDbLine
 10
292.689473
 20
703.607451
 11
297.189473
 21
703.607451
  0
LINE
  5
7BE
100
AcDbEntity
  8
M0
100
AcDbLine
 10
322.189473
 20
703.607451
 11
349.189473
 21
703.607451
  0
LINE
  5
7BF
100
AcDbEntity
  8
M0
100
AcDbLine
 10
374.189473
 20
703.607451
 11
401.189473
 21
703.607451
  0
LINE
  5
7C0
100
AcDbEntity
  8
M0
100
AcDbLine
 10
426.189473
 20
703.607451
 11
430.689473
 21
703.607451
  0
LINE
  5
7C1
100
AcDbEntity
  8
M0
100
AcDbLine
 10
292.689458
 20
908.607451
 11
430.689473
 21
908.607451
  0
LINE
  5
7C2
100
AcDbEntity
  8
M0
100
AcDbLine
 10
292.689275
 20
701.007597
 11
297.189275
 21
701.007597
  0
LINE
  5
7C3
100
AcDbEntity
  8
M0
100
AcDbLine
 10
292.689275
 20
703.107695
 11
297.189275
 21
703.107695
  0
LINE
  5
7C4
100
AcDbEntity
  8
M0
100
AcDbLine
 10
292.689473
 20
911.207518
 11
292.689489
 21
701.007597
  0
LINE
  5
7C5
100
AcDbEntity
  8
M0
100
AcDbLine
 10
322.189275
 20
701.007597
 11
349.189275
 21
701.007597
  0
LINE
  5
7C6
100
AcDbEntity
  8
M0
100
AcDbLine
 10
322.189275
 20
703.107695
 11
349.189275
 21
703.107695
  0
LINE
  5
7C7
100
AcDbEntity
  8
M0
100
AcDbLine
 10
374.189275
 20
701.007597
 11
401.189275
 21
701.007597
  0
LINE
  5
7C8
100
AcDbEntity
  8
M0
100
AcDbLine
 10
374.189275
 20
703.107695
 11
401.189275
 21
703.107695
  0
LINE
  5
7C9
100
AcDbEntity
  8
M0
100
AcDbLine
 10
426.189275
 20
701.007597
 11
446.689275
 21
701.007597
  0
LINE
  5
7CA
100
AcDbEntity
  8
M0
100
AcDbLine
 10
426.189275
 20
703.107695
 11
446.689275
 21
703.107695
  0
LINE
  5
7CB
100
AcDbEntity
  8
M0
100
AcDbLine
 10
446.689458
 20
911.207548
 11
446.689473
 21
701.007597
  0
LINE
  5
7CC
100
AcDbEntity
  8
M0
100
AcDbLine
 10
446.689275
 20
909.107344
 11
292.689275
 21
909.107344
  0
LINE
  5
7CD
100
AcDbEntity
  8
M0
100
AcDbLine
 10
446.689275
 20
911.207518
 11
292.689275
 21
911.207518
  0
LINE
  5
7CE
100
AcDbEntity
  8
M0
 62
     2
100
AcDbLine
 10
731.079809
 20
956.607558
 11
727.879809
 21
956.607558
  0
ARC
  5
7CF
100
AcDbEntity
  8
M0
 62
     2
100
AcDbCircle
 10
727.279809
 20
925.407558
 40
3.2
100
AcDbArc
 50
90.0
 51
180.0
  0
LINE
  5
7D0
100
AcDbEntity
  8
M0
 62
     2
100
AcDbLine
 10
731.079809
 20
928.607558
 11
731.079809
 21
956.607558
  0
ARC
  5
7D1
100
AcDbEntity
  8
M0
 62
     2
100
AcDbCircle
 10
727.879809
 20
928.607558
 40
3.2
100
AcDbArc
 50
270.0
 51
360.0
  0
LINE
  5
7D2
100
AcDbEntity
  8
M0
 62
     2
100
AcDbLine
 10
727.879809
 20
925.407558
 11
727.279809
 21
925.407558
  0
LINE
  5
7D3
100
AcDbEntity
  8
M0
 62
     2
100
AcDbLine
 10
727.879809
 20
928.607558
 11
727.279809
 21
928.607558
  0
LINE
  5
7D4
100
AcDbEntity
  8
M0
 62
     2
100
AcDbLine
 10
727.879809
 20
956.607558
 11
727.879809
 21
928.607558
  0
LINE
  5
7D5
100
AcDbEntity
  8
M0
 62
     2
100
AcDbLine
 10
724.079809
 20
925.407558
 11
724.079809
 21
811.607558
  0
LINE
  5
7D6
100
AcDbEntity
  8
M0
 62
     2
100
AcDbLine
 10
727.279809
 20
925.407558
 11
727.279809
 21
811.607558
  0
LINE
  5
7D7
100
AcDbEntity
  8
M0
  6
DASHDOT
 62
     2
100
AcDbLine
 10
714.951818
 20
811.607558
 11
734.458996
 21
811.607558
  0
ARC
  5
7D8
100
AcDbEntity
  8
M0
 62
     2
100
AcDbCircle
 10
727.279809
 20
697.807558
 40
3.2
100
AcDbArc
 50
180.0
 51
270.0
  0
LINE
  5
7D9
100
AcDbEntity
  8
M0
 62
     2
100
AcDbLine
 10
731.079809
 20
694.607558
 11
731.079809
 21
666.607558
  0
ARC
  5
7DA
100
AcDbEntity
  8
M0
 62
     2
100
AcDbCircle
 10
727.879809
 20
694.607558
 40
3.2
100
AcDbArc
 50
0.0
 51
90.0
  0
LINE
  5
7DB
100
AcDbEntity
  8
M0
 62
     2
100
AcDbLine
 10
727.879809
 20
697.807558
 11
727.279809
 21
697.807558
  0
LINE
  5
7DC
100
AcDbEntity
  8
M0
 62
     2
100
AcDbLine
 10
727.879809
 20
694.607558
 11
727.279809
 21
694.607558
  0
LINE
  5
7DD
100
AcDbEntity
  8
M0
 62
     2
100
AcDbLine
 10
727.879809
 20
666.607558
 11
727.879809
 21
694.607558
  0
LINE
  5
7DE
100
AcDbEntity
  8
M0
 62
     2
100
AcDbLine
 10
727.279809
 20
697.807558
 11
727.279809
 21
811.607558
  0
LINE
  5
7DF
100
AcDbEntity
  8
M0
 62
     2
100
AcDbLine
 10
724.079809
 20
666.607558
 11
724.079809
 21
811.607558
  0
LINE
  5
7E0
100
AcDbEntity
  8
M0
 62
     2
100
AcDbLine
 10
731.079809
 20
666.607558
 11
724.079809
 21
666.607558
  0
LINE
  5
7E1
100
AcDbEntity
  8
M0
100
AcDbLine
 10
705.679582
 20
701.508533
 11
705.679582
 21
692.644026
  0
LINE
  5
7E2
100
AcDbEntity
  8
M0
100
AcDbLine
 10
703.379582
 20
701.508533
 11
703.379582
 21
692.644026
  0
LINE
  5
7E3
100
AcDbEntity
  8
M0
100
AcDbLine
 10
703.379582
 20
692.644026
 11
705.679582
 21
692.644026
  0
LINE
  5
7E4
100
AcDbEntity
  8
M0
100
AcDbLine
 10
429.689489
 20
911.207518
 11
429.689489
 21
928.207518
  0
LINE
  5
7E5
100
AcDbEntity
  8
M0
100
AcDbLine
 10
424.032634
 20
911.207518
 11
429.689489
 21
916.864372
  0
LINE
  5
7E6
100
AcDbEntity
  8
M0
100
AcDbLine
 10
418.37578
 20
911.207518
 11
429.689489
 21
922.521226
  0
LINE
  5
7E7
100
AcDbEntity
  8
M0
100
AcDbLine
 10
412.718926
 20
911.207518
 11
429.689489
 21
928.178081
  0
LINE
  5
7E8
100
AcDbEntity
  8
M0
100
AcDbLine
 10
407.062072
 20
911.207518
 11
424.062072
 21
928.207518
  0
LINE
  5
7E9
100
AcDbEntity
  8
M0
100
AcDbLine
 10
401.405217
 20
911.207518
 11
418.405217
 21
928.207518
  0
LINE
  5
7EA
100
AcDbEntity
  8
M0
100
AcDbLine
 10
395.748363
 20
911.207518
 11
412.748363
 21
928.207518
  0
LINE
  5
7EB
100
AcDbEntity
  8
M0
100
AcDbLine
 10
391.68929
 20
912.805299
 11
407.091509
 21
928.207518
  0
LINE
  5
7EC
100
AcDbEntity
  8
M0
100
AcDbLine
 10
391.68929
 20
918.462154
 11
401.434655
 21
928.207518
  0
LINE
  5
7ED
100
AcDbEntity
  8
M0
100
AcDbLine
 10
391.68929
 20
924.119008
 11
395.7778
 21
928.207518
  0
LINE
  5
7EE
100
AcDbEntity
  8
M0
100
AcDbLine
 10
429.689489
 20
928.207518
 11
383.689489
 21
928.207518
  0
LINE
  5
7EF
100
AcDbEntity
  8
M0
100
AcDbLine
 10
389.420576
 20
927.507148
 11
390.120946
 21
928.207518
  0
LINE
  5
7F0
100
AcDbEntity
  8
M0
100
AcDbLine
 10
383.763817
 20
927.507243
 11
384.464092
 21
928.207518
  0
LINE
  5
7F1
100
AcDbEntity
  8
M0
100
AcDbLine
 10
383.689489
 20
928.207518
 11
383.689489
 21
927.507241
  0
LINE
  5
7F2
100
AcDbEntity
  8
M0
100
AcDbLine
 10
719.479696
 20
910.708423
 11
719.479696
 21
927.708423
  0
LINE
  5
7F3
100
AcDbEntity
  8
M0
100
AcDbLine
 10
719.479696
 20
927.708423
 11
675.479696
 21
927.708423
  0
LINE
  5
7F4
100
AcDbEntity
  8
M0
100
AcDbLine
 10
675.479696
 20
927.708423
 11
675.479696
 21
910.708423
  0
LINE
  5
7F5
100
AcDbEntity
  8
M0
100
AcDbLine
 10
713.822841
 20
910.708423
 11
719.479696
 21
916.365277
  0
LINE
  5
7F6
100
AcDbEntity
  8
M0
100
AcDbLine
 10
708.165987
 20
910.708423
 11
719.479696
 21
922.022131
  0
LINE
  5
7F7
100
AcDbEntity
  8
M0
100
AcDbLine
 10
702.509133
 20
910.708423
 11
719.479696
 21
927.678986
  0
LINE
  5
7F8
100
AcDbEntity
  8
M0
100
AcDbLine
 10
696.852279
 20
910.708423
 11
713.852279
 21
927.708423
  0
LINE
  5
7F9
100
AcDbEntity
  8
M0
100
AcDbLine
 10
691.195424
 20
910.708423
 11
708.195424
 21
927.708423
  0
LINE
  5
7FA
100
AcDbEntity
  8
M0
100
AcDbLine
 10
685.53857
 20
910.708423
 11
702.53857
 21
927.708423
  0
LINE
  5
7FB
100
AcDbEntity
  8
M0
100
AcDbLine
 10
679.881716
 20
910.708423
 11
696.881716
 21
927.708423
  0
LINE
  5
7FC
100
AcDbEntity
  8
M0
100
AcDbLine
 10
675.479696
 20
911.963257
 11
691.224862
 21
927.708423
  0
LINE
  5
7FD
100
AcDbEntity
  8
M0
100
AcDbLine
 10
675.479696
 20
917.620111
 11
685.568007
 21
927.708423
  0
LINE
  5
7FE
100
AcDbEntity
  8
M0
100
AcDbLine
 10
675.479696
 20
923.276965
 11
679.911153
 21
927.708423
  0
LINE
  5
7FF
100
AcDbEntity
  8
M0
100
AcDbLine
 10
315.689489
 20
911.207518
 11
293.689519
 21
911.207518
  0
LINE
  5
800
100
AcDbEntity
  8
M0
100
AcDbLine
 10
329.046813
 20
911.207518
 11
331.689489
 21
913.850194
  0
LINE
  5
801
100
AcDbEntity
  8
M0
100
AcDbLine
 10
323.389959
 20
911.207518
 11
331.689489
 21
919.507048
  0
LINE
  5
802
100
AcDbEntity
  8
M0
100
AcDbLine
 10
317.733104
 20
911.207518
 11
331.689489
 21
925.163902
  0
LINE
  5
803
100
AcDbEntity
  8
M0
100
AcDbLine
 10
312.07625
 20
911.207518
 11
329.07625
 21
928.207518
  0
LINE
  5
804
100
AcDbEntity
  8
M0
100
AcDbLine
 10
306.419396
 20
911.207518
 11
322.689458
 21
927.47758
  0
LINE
  5
805
100
AcDbEntity
  8
M0
100
AcDbLine
 10
300.762542
 20
911.207518
 11
317.762542
 21
928.207518
  0
LINE
  5
806
100
AcDbEntity
  8
M0
100
AcDbLine
 10
295.105687
 20
911.207518
 11
312.105687
 21
928.207518
  0
LINE
  5
807
100
AcDbEntity
  8
M0
100
AcDbLine
 10
293.689519
 20
915.448204
 11
306.448833
 21
928.207518
  0
LINE
  5
808
100
AcDbEntity
  8
M0
100
AcDbLine
 10
293.689519
 20
921.105058
 11
300.791979
 21
928.207518
  0
LINE
  5
809
100
AcDbEntity
  8
M0
100
AcDbLine
 10
293.689519
 20
926.761913
 11
295.135125
 21
928.207518
  0
LINE
  5
80A
100
AcDbEntity
  8
M0
100
AcDbLine
 10
293.689519
 20
911.207518
 11
293.689519
 21
928.207518
  0
LINE
  5
80B
100
AcDbEntity
  8
M0
100
AcDbLine
 10
293.689519
 20
928.207518
 11
339.689519
 21
928.207518
  0
LINE
  5
80C
100
AcDbEntity
  8
M0
100
AcDbLine
 10
339.689519
 20
928.207518
 11
339.689519
 21
927.506701
  0
LINE
  5
80D
100
AcDbEntity
  8
M0
100
AcDbLine
 10
158.689504
 20
911.207518
 11
136.689534
 21
911.207518
  0
LINE
  5
80E
100
AcDbEntity
  8
M0
100
AcDbLine
 10
172.046828
 20
911.207518
 11
174.689504
 21
913.850194
  0
LINE
  5
80F
100
AcDbEntity
  8
M0
100
AcDbLine
 10
166.389974
 20
911.207518
 11
174.689504
 21
919.507048
  0
LINE
  5
810
100
AcDbEntity
  8
M0
100
AcDbLine
 10
160.73312
 20
911.207518
 11
174.689504
 21
925.163902
  0
LINE
  5
811
100
AcDbEntity
  8
M0
100
AcDbLine
 10
155.076265
 20
911.207518
 11
172.076265
 21
928.207518
  0
LINE
  5
812
100
AcDbEntity
  8
M0
100
AcDbLine
 10
149.419411
 20
911.207518
 11
165.689473
 21
927.47758
  0
LINE
  5
813
100
AcDbEntity
  8
M0
100
AcDbLine
 10
143.762557
 20
911.207518
 11
160.762557
 21
928.207518
  0
LINE
  5
814
100
AcDbEntity
  8
M0
100
AcDbLine
 10
138.105703
 20
911.207518
 11
155.105703
 21
928.207518
  0
LINE
  5
815
100
AcDbEntity
  8
M0
100
AcDbLine
 10
136.689534
 20
915.448204
 11
149.448848
 21
928.207518
  0
LINE
  5
816
100
AcDbEntity
  8
M0
100
AcDbLine
 10
136.689534
 20
921.105058
 11
143.791994
 21
928.207518
  0
LINE
  5
817
100
AcDbEntity
  8
M0
100
AcDbLine
 10
136.689534
 20
926.761913
 11
138.13514
 21
928.207518
  0
LINE
  5
818
100
AcDbEntity
  8
M0
100
AcDbLine
 10
136.689534
 20
911.207518
 11
136.689534
 21
928.207518
  0
LINE
  5
819
100
AcDbEntity
  8
M0
100
AcDbLine
 10
136.689534
 20
928.207518
 11
182.689534
 21
928.207518
  0
LINE
  5
81A
100
AcDbEntity
  8
M0
100
AcDbLine
 10
182.689534
 20
928.207518
 11
182.689534
 21
927.506701
  0
LINE
  5
81B
100
AcDbEntity
  8
M0
  6
DIVIDE
100
AcDbLine
 10
123.689494
 20
835.607542
 11
123.689499
 21
765.607542
  0
LINE
  5
81C
100
AcDbEntity
  8
M0
  6
DIVIDE
100
AcDbLine
 10
442.689489
 20
835.607542
 11
442.689489
 21
765.607542
  0
LINE
  5
81D
100
AcDbEntity
  8
M0
  6
DIVIDE
100
AcDbLine
 10
123.689494
 20
835.607542
 11
135.689494
 21
835.607542
  0
LINE
  5
81E
100
AcDbEntity
  8
M0
  6
DIVIDE
100
AcDbLine
 10
123.689499
 20
765.607542
 11
135.689499
 21
765.607542
  0
LINE
  5
81F
100
AcDbEntity
  8
M0
  6
DIVIDE
100
AcDbLine
 10
430.689489
 20
765.607542
 11
442.689489
 21
765.607542
  0
LINE
  5
820
100
AcDbEntity
  8
M0
  6
DIVIDE
100
AcDbLine
 10
430.689489
 20
835.607542
 11
442.689489
 21
835.607542
  0
LINE
  5
821
100
AcDbEntity
  8
M0
 62
     6
100
AcDbLine
 10
425.170354
 20
824.907103
 11
420.208486
 21
824.907103
  0
CIRCLE
  5
822
100
AcDbEntity
  8
M0
 62
     6
100
AcDbCircle
 10
422.689489
 20
820.607542
 40
3.0
  0
LINE
  5
823
100
AcDbEntity
  8
M0
 62
     6
100
AcDbLine
 10
421.275275
 20
819.193329
 11
424.103702
 21
822.021756
  0
ARC
  5
824
100
AcDbEntity
  8
M0
 62
     6
100
AcDbCircle
 10
420.208486
 20
824.406859
 40
0.5
100
AcDbArc
 50
89.998251
 51
162.874517
  0
LINE
  5
825
100
AcDbEntity
  8
M0
 62
     6
100
AcDbLine
 10
418.914464
 20
821.907347
 11
419.73058
 21
824.554076
  0
ARC
  5
826
100
AcDbEntity
  8
M0
 62
     6
100
AcDbCircle
 10
425.170354
 20
824.406859
 40
0.5
100
AcDbArc
 50
17.121626
 51
89.998251
  0
LINE
  5
827
100
AcDbEntity
  8
M0
 62
     6
100
AcDbLine
 10
426.464482
 20
821.907103
 11
425.648275
 21
824.554076
  0
LINE
  5
828
100
AcDbEntity
  8
M0
 62
     6
100
AcDbLine
 10
426.464467
 20
819.307005
 11
426.464467
 21
821.907103
  0
LINE
  5
829
100
AcDbEntity
  8
M0
 62
     6
100
AcDbLine
 10
426.464482
 20
819.307249
 11
425.64829
 21
816.660033
  0
LINE
  5
82A
100
AcDbEntity
  8
M0
 62
     6
100
AcDbLine
 10
418.914464
 20
821.907347
 11
418.914464
 21
819.307494
  0
LINE
  5
82B
100
AcDbEntity
  8
M0
 62
     6
100
AcDbLine
 10
418.914464
 20
819.307494
 11
419.730718
 21
816.660033
  0
LINE
  5
82C
100
AcDbEntity
  8
M0
 62
     6
100
AcDbLine
 10
420.208486
 20
816.307494
 11
425.170507
 21
816.307494
  0
ARC
  5
82D
100
AcDbEntity
  8
M0
 62
     6
100
AcDbCircle
 10
420.208486
 20
816.807494
 40
0.5
100
AcDbArc
 50
197.151452
 51
270.0
  0
ARC
  5
82E
100
AcDbEntity
  8
M0
 62
     6
100
AcDbCircle
 10
425.170507
 20
816.807494
 40
0.5
100
AcDbArc
 50
270.0
 51
342.85125
  0
LINE
  5
82F
100
AcDbEntity
  8
M0
 62
     6
100
AcDbLine
 10
424.103702
 20
819.193329
 11
421.275275
 21
822.021756
  0
LINE
  5
830
100
AcDbEntity
  8
M0
 62
     6
100
AcDbLine
 10
425.170354
 20
815.407103
 11
420.208486
 21
815.407103
  0
CIRCLE
  5
831
100
AcDbEntity
  8
M0
 62
     6
100
AcDbCircle
 10
422.689489
 20
811.107542
 40
3.0
  0
LINE
  5
832
100
AcDbEntity
  8
M0
 62
     6
100
AcDbLine
 10
421.275275
 20
809.693329
 11
424.103702
 21
812.521756
  0
ARC
  5
833
100
AcDbEntity
  8
M0
 62
     6
100
AcDbCircle
 10
420.208486
 20
814.906859
 40
0.5
100
AcDbArc
 50
89.998251
 51
162.874517
  0
LINE
  5
834
100
AcDbEntity
  8
M0
 62
     6
100
AcDbLine
 10
418.914464
 20
812.407347
 11
419.73058
 21
815.054076
  0
ARC
  5
835
100
AcDbEntity
  8
M0
 62
     6
100
AcDbCircle
 10
425.170354
 20
814.906859
 40
0.5
100
AcDbArc
 50
17.121626
 51
89.998251
  0
LINE
  5
836
100
AcDbEntity
  8
M0
 62
     6
100
AcDbLine
 10
426.464482
 20
812.407103
 11
425.648275
 21
815.054076
  0
LINE
  5
837
100
AcDbEntity
  8
M0
 62
     6
100
AcDbLine
 10
426.464467
 20
809.807005
 11
426.464467
 21
812.407103
  0
LINE
  5
838
100
AcDbEntity
  8
M0
 62
     6
100
AcDbLine
 10
426.464482
 20
809.807249
 11
425.64829
 21
807.160033
  0
LINE
  5
839
100
AcDbEntity
  8
M0
 62
     6
100
AcDbLine
 10
418.914464
 20
812.407347
 11
418.914464
 21
809.807494
  0
LINE
  5
83A
100
AcDbEntity
  8
M0
 62
     6
100
AcDbLine
 10
418.914464
 20
809.807494
 11
419.730718
 21
807.160033
  0
LINE
  5
83B
100
AcDbEntity
  8
M0
 62
     6
100
AcDbLine
 10
420.208486
 20
806.807494
 11
425.170507
 21
806.807494
  0
ARC
  5
83C
100
AcDbEntity
  8
M0
 62
     6
100
AcDbCircle
 10
420.208486
 20
807.307494
 40
0.5
100
AcDbArc
 50
197.151452
 51
270.0
  0
ARC
  5
83D
100
AcDbEntity
  8
M0
 62
     6
100
AcDbCircle
 10
425.170507
 20
807.307494
 40
0.5
100
AcDbArc
 50
270.0
 51
342.85125
  0
LINE
  5
83E
100
AcDbEntity
  8
M0
 62
     6
100
AcDbLine
 10
424.103702
 20
809.693329
 11
421.275275
 21
812.521756
  0
LINE
  5
83F
100
AcDbEntity
  8
M0
 62
     6
100
AcDbLine
 10
425.170354
 20
794.407103
 11
420.208486
 21
794.407103
  0
CIRCLE
  5
840
100
AcDbEntity
  8
M0
 62
     6
100
AcDbCircle
 10
422.689489
 20
790.107542
 40
3.0
  0
LINE
  5
841
100
AcDbEntity
  8
M0
 62
     6
100
AcDbLine
 10
421.275275
 20
788.693329
 11
424.103702
 21
791.521756
  0
ARC
  5
842
100
AcDbEntity
  8
M0
 62
     6
100
AcDbCircle
 10
420.208486
 20
793.906859
 40
0.5
100
AcDbArc
 50
89.998251
 51
162.874517
  0
LINE
  5
843
100
AcDbEntity
  8
M0
 62
     6
100
AcDbLine
 10
418.914464
 20
791.407347
 11
419.73058
 21
794.054076
  0
ARC
  5
844
100
AcDbEntity
  8
M0
 62
     6
100
AcDbCircle
 10
425.170354
 20
793.906859
 40
0.5
100
AcDbArc
 50
17.121626
 51
89.998251
  0
LINE
  5
845
100
AcDbEntity
  8
M0
 62
     6
100
AcDbLine
 10
426.464482
 20
791.407103
 11
425.648275
 21
794.054076
  0
LINE
  5
846
100
AcDbEntity
  8
M0
 62
     6
100
AcDbLine
 10
426.464467
 20
788.807005
 11
426.464467
 21
791.407103
  0
LINE
  5
847
100
AcDbEntity
  8
M0
 62
     6
100
AcDbLine
 10
426.464482
 20
788.807249
 11
425.64829
 21
786.160033
  0
LINE
  5
848
100
AcDbEntity
  8
M0
 62
     6
100
AcDbLine
 10
418.914464
 20
791.407347
 11
418.914464
 21
788.807494
  0
LINE
  5
849
100
AcDbEntity
  8
M0
 62
     6
100
AcDbLine
 10
418.914464
 20
788.807494
 11
419.730718
 21
786.160033
  0
LINE
  5
84A
100
AcDbEntity
  8
M0
 62
     6
100
AcDbLine
 10
420.208486
 20
785.807494
 11
425.170507
 21
785.807494
  0
ARC
  5
84B
100
AcDbEntity
  8
M0
 62
     6
100
AcDbCircle
 10
420.208486
 20
786.307494
 40
0.5
100
AcDbArc
 50
197.151452
 51
270.0
  0
ARC
  5
84C
100
AcDbEntity
  8
M0
 62
     6
100
AcDbCircle
 10
425.170507
 20
786.307494
 40
0.5
100
AcDbArc
 50
270.0
 51
342.85125
  0
LINE
  5
84D
100
AcDbEntity
  8
M0
 62
     6
100
AcDbLine
 10
424.103702
 20
788.693329
 11
421.275275
 21
791.521756
  0
LINE
  5
84E
100
AcDbEntity
  8
M0
 62
     6
100
AcDbLine
 10
425.170354
 20
784.907103
 11
420.208486
 21
784.907103
  0
CIRCLE
  5
84F
100
AcDbEntity
  8
M0
 62
     6
100
AcDbCircle
 10
422.689489
 20
780.607542
 40
3.0
  0
LINE
  5
850
100
AcDbEntity
  8
M0
 62
     6
100
AcDbLine
 10
421.275275
 20
779.193329
 11
424.103702
 21
782.021756
  0
ARC
  5
851
100
AcDbEntity
  8
M0
 62
     6
100
AcDbCircle
 10
420.208486
 20
784.406859
 40
0.5
100
AcDbArc
 50
89.998251
 51
162.874517
  0
LINE
  5
852
100
AcDbEntity
  8
M0
 62
     6
100
AcDbLine
 10
418.914464
 20
781.907347
 11
419.73058
 21
784.554076
  0
ARC
  5
853
100
AcDbEntity
  8
M0
 62
     6
100
AcDbCircle
 10
425.170354
 20
784.406859
 40
0.5
100
AcDbArc
 50
17.121626
 51
89.998251
  0
LINE
  5
854
100
AcDbEntity
  8
M0
 62
     6
100
AcDbLine
 10
426.464482
 20
781.907103
 11
425.648275
 21
784.554076
  0
LINE
  5
855
100
AcDbEntity
  8
M0
 62
     6
100
AcDbLine
 10
426.464467
 20
779.307005
 11
426.464467
 21
781.907103
  0
LINE
  5
856
100
AcDbEntity
  8
M0
 62
     6
100
AcDbLine
 10
426.464482
 20
779.307249
 11
425.64829
 21
776.660033
  0
LINE
  5
857
100
AcDbEntity
  8
M0
 62
     6
100
AcDbLine
 10
418.914464
 20
781.907347
 11
418.914464
 21
779.307494
  0
LINE
  5
858
100
AcDbEntity
  8
M0
 62
     6
100
AcDbLine
 10
418.914464
 20
779.307494
 11
419.730718
 21
776.660033
  0
LINE
  5
859
100
AcDbEntity
  8
M0
 62
     6
100
AcDbLine
 10
420.208486
 20
776.307494
 11
425.170507
 21
776.307494
  0
ARC
  5
85A
100
AcDbEntity
  8
M0
 62
     6
100
AcDbCircle
 10
420.208486
 20
776.807494
 40
0.5
100
AcDbArc
 50
197.151452
 51
270.0
  0
ARC
  5
85B
100
AcDbEntity
  8
M0
 62
     6
100
AcDbCircle
 10
425.170507
 20
776.807494
 40
0.5
100
AcDbArc
 50
270.0
 51
342.85125
  0
LINE
  5
85C
100
AcDbEntity
  8
M0
 62
     6
100
AcDbLine
 10
424.103702
 20
779.193329
 11
421.275275
 21
782.021756
  0
LINE
  5
85D
100
AcDbEntity
  8
M0
 62
     6
100
AcDbLine
 10
303.170354
 20
824.907103
 11
298.208486
 21
824.907103
  0
CIRCLE
  5
85E
100
AcDbEntity
  8
M0
 62
     6
100
AcDbCircle
 10
300.689489
 20
820.607542
 40
3.0
  0
LINE
  5
85F
100
AcDbEntity
  8
M0
 62
     6
100
AcDbLine
 10
299.275275
 20
819.193329
 11
302.103702
 21
822.021756
  0
ARC
  5
860
100
AcDbEntity
  8
M0
 62
     6
100
AcDbCircle
 10
298.208486
 20
824.406859
 40
0.5
100
AcDbArc
 50
89.998251
 51
162.874517
  0
LINE
  5
861
100
AcDbEntity
  8
M0
 62
     6
100
AcDbLine
 10
296.914464
 20
821.907347
 11
297.73058
 21
824.554076
  0
ARC
  5
862
100
AcDbEntity
  8
M0
 62
     6
100
AcDbCircle
 10
303.170354
 20
824.406859
 40
0.5
100
AcDbArc
 50
17.121626
 51
89.998251
  0
LINE
  5
863
100
AcDbEntity
  8
M0
 62
     6
100
AcDbLine
 10
304.464482
 20
821.907103
 11
303.648275
 21
824.554076
  0
LINE
  5
864
100
AcDbEntity
  8
M0
 62
     6
100
AcDbLine
 10
304.464467
 20
819.307005
 11
304.464467
 21
821.907103
  0
LINE
  5
865
100
AcDbEntity
  8
M0
 62
     6
100
AcDbLine
 10
304.464482
 20
819.307249
 11
303.64829
 21
816.660033
  0
LINE
  5
866
100
AcDbEntity
  8
M0
 62
     6
100
AcDbLine
 10
296.914464
 20
821.907347
 11
296.914464
 21
819.307494
  0
LINE
  5
867
100
AcDbEntity
  8
M0
 62
     6
100
AcDbLine
 10
296.914464
 20
819.307494
 11
297.730718
 21
816.660033
  0
LINE
  5
868
100
AcDbEntity
  8
M0
 62
     6
100
AcDbLine
 10
298.208486
 20
816.307494
 11
303.170507
 21
816.307494
  0
ARC
  5
869
100
AcDbEntity
  8
M0
 62
     6
100
AcDbCircle
 10
298.208486
 20
816.807494
 40
0.5
100
AcDbArc
 50
197.151452
 51
270.0
  0
ARC
  5
86A
100
AcDbEntity
  8
M0
 62
     6
100
AcDbCircle
 10
303.170507
 20
816.807494
 40
0.5
100
AcDbArc
 50
270.0
 51
342.85125
  0
LINE
  5
86B
100
AcDbEntity
  8
M0
 62
     6
100
AcDbLine
 10
302.103702
 20
819.193329
 11
299.275275
 21
822.021756
  0
LINE
  5
86C
100
AcDbEntity
  8
M0
 62
     6
100
AcDbLine
 10
303.170354
 20
815.407103
 11
298.208486
 21
815.407103
  0
CIRCLE
  5
86D
100
AcDbEntity
  8
M0
 62
     6
100
AcDbCircle
 10
300.689489
 20
811.107542
 40
3.0
  0
LINE
  5
86E
100
AcDbEntity
  8
M0
 62
     6
100
AcDbLine
 10
299.275275
 20
809.693329
 11
302.103702
 21
812.521756
  0
ARC
  5
86F
100
AcDbEntity
  8
M0
 62
     6
100
AcDbCircle
 10
298.208486
 20
814.906859
 40
0.5
100
AcDbArc
 50
89.998251
 51
162.874517
  0
LINE
  5
870
100
AcDbEntity
  8
M0
 62
     6
100
AcDbLine
 10
296.914464
 20
812.407347
 11
297.73058
 21
815.054076
  0
ARC
  5
871
100
AcDbEntity
  8
M0
 62
     6
100
AcDbCircle
 10
303.170354
 20
814.906859
 40
0.5
100
AcDbArc
 50
17.121626
 51
89.998251
  0
LINE
  5
872
100
AcDbEntity
  8
M0
 62
     6
100
AcDbLine
 10
304.464482
 20
812.407103
 11
303.648275
 21
815.054076
  0
LINE
  5
873
100
AcDbEntity
  8
M0
 62
     6
100
AcDbLine
 10
304.464467
 20
809.807005
 11
304.464467
 21
812.407103
  0
LINE
  5
874
100
AcDbEntity
  8
M0
 62
     6
100
AcDbLine
 10
304.464482
 20
809.807249
 11
303.64829
 21
807.160033
  0
LINE
  5
875
100
AcDbEntity
  8
M0
 62
     6
100
AcDbLine
 10
296.914464
 20
812.407347
 11
296.914464
 21
809.807494
  0
LINE
  5
876
100
AcDbEntity
  8
M0
 62
     6
100
AcDbLine
 10
296.914464
 20
809.807494
 11
297.730718
 21
807.160033
  0
LINE
  5
877
100
AcDbEntity
  8
M0
 62
     6
100
AcDbLine
 10
298.208486
 20
806.807494
 11
303.170507
 21
806.807494
  0
ARC
  5
878
100
AcDbEntity
  8
M0
 62
     6
100
AcDbCircle
 10
298.208486
 20
807.307494
 40
0.5
100
AcDbArc
 50
197.151452
 51
270.0
  0
ARC
  5
879
100
AcDbEntity
  8
M0
 62
     6
100
AcDbCircle
 10
303.170507
 20
807.307494
 40
0.5
100
AcDbArc
 50
270.0
 51
342.85125
  0
LINE
  5
87A
100
AcDbEntity
  8
M0
 62
     6
100
AcDbLine
 10
302.103702
 20
809.693329
 11
299.275275
 21
812.521756
  0
LINE
  5
87B
100
AcDbEntity
  8
M0
 62
     6
100
AcDbLine
 10
303.170354
 20
794.407103
 11
298.208486
 21
794.407103
  0
CIRCLE
  5
87C
100
AcDbEntity
  8
M0
 62
     6
100
AcDbCircle
 10
300.689489
 20
790.107542
 40
3.0
  0
LINE
  5
87D
100
AcDbEntity
  8
M0
 62
     6
100
AcDbLine
 10
299.275275
 20
788.693329
 11
302.103702
 21
791.521756
  0
ARC
  5
87E
100
AcDbEntity
  8
M0
 62
     6
100
AcDbCircle
 10
298.208486
 20
793.906859
 40
0.5
100
AcDbArc
 50
89.998251
 51
162.874517
  0
LINE
  5
87F
100
AcDbEntity
  8
M0
 62
     6
100
AcDbLine
 10
296.914464
 20
791.407347
 11
297.73058
 21
794.054076
  0
ARC
  5
880
100
AcDbEntity
  8
M0
 62
     6
100
AcDbCircle
 10
303.170354
 20
793.906859
 40
0.5
100
AcDbArc
 50
17.121626
 51
89.998251
  0
LINE
  5
881
100
AcDbEntity
  8
M0
 62
     6
100
AcDbLine
 10
304.464482
 20
791.407103
 11
303.648275
 21
794.054076
  0
LINE
  5
882
100
AcDbEntity
  8
M0
 62
     6
100
AcDbLine
 10
304.464467
 20
788.807005
 11
304.464467
 21
791.407103
  0
LINE
  5
883
100
AcDbEntity
  8
M0
 62
     6
100
AcDbLine
 10
304.464482
 20
788.807249
 11
303.64829
 21
786.160033
  0
LINE
  5
884
100
AcDbEntity
  8
M0
 62
     6
100
AcDbLine
 10
296.914464
 20
791.407347
 11
296.914464
 21
788.807494
  0
LINE
  5
885
100
AcDbEntity
  8
M0
 62
     6
100
AcDbLine
 10
296.914464
 20
788.807494
 11
297.730718
 21
786.160033
  0
LINE
  5
886
100
AcDbEntity
  8
M0
 62
     6
100
AcDbLine
 10
298.208486
 20
785.807494
 11
303.170507
 21
785.807494
  0
ARC
  5
887
100
AcDbEntity
  8
M0
 62
     6
100
AcDbCircle
 10
298.208486
 20
786.307494
 40
0.5
100
AcDbArc
 50
197.151452
 51
270.0
  0
ARC
  5
888
100
AcDbEntity
  8
M0
 62
     6
100
AcDbCircle
 10
303.170507
 20
786.307494
 40
0.5
100
AcDbArc
 50
270.0
 51
342.85125
  0
LINE
  5
889
100
AcDbEntity
  8
M0
 62
     6
100
AcDbLine
 10
302.103702
 20
788.693329
 11
299.275275
 21
791.521756
  0
LINE
  5
88A
100
AcDbEntity
  8
M0
 62
     6
100
AcDbLine
 10
303.170354
 20
784.907103
 11
298.208486
 21
784.907103
  0
CIRCLE
  5
88B
100
AcDbEntity
  8
M0
 62
     6
100
AcDbCircle
 10
300.689489
 20
780.607542
 40
3.0
  0
LINE
  5
88C
100
AcDbEntity
  8
M0
 62
     6
100
AcDbLine
 10
299.275275
 20
779.193329
 11
302.103702
 21
782.021756
  0
ARC
  5
88D
100
AcDbEntity
  8
M0
 62
     6
100
AcDbCircle
 10
298.208486
 20
784.406859
 40
0.5
100
AcDbArc
 50
89.998251
 51
162.874517
  0
LINE
  5
88E
100
AcDbEntity
  8
M0
 62
     6
100
AcDbLine
 10
296.914464
 20
781.907347
 11
297.73058
 21
784.554076
  0
ARC
  5
88F
100
AcDbEntity
  8
M0
 62
     6
100
AcDbCircle
 10
303.170354
 20
784.406859
 40
0.5
100
AcDbArc
 50
17.121626
 51
89.998251
  0
LINE
  5
890
100
AcDbEntity
  8
M0
 62
     6
100
AcDbLine
 10
304.464482
 20
781.907103
 11
303.648275
 21
784.554076
  0
LINE
  5
891
100
AcDbEntity
  8
M0
 62
     6
100
AcDbLine
 10
304.464467
 20
779.307005
 11
304.464467
 21
781.907103
  0
LINE
  5
892
100
AcDbEntity
  8
M0
 62
     6
100
AcDbLine
 10
304.464482
 20
779.307249
 11
303.64829
 21
776.660033
  0
LINE
  5
893
100
AcDbEntity
  8
M0
 62
     6
100
AcDbLine
 10
296.914464
 20
781.907347
 11
296.914464
 21
779.307494
  0
LINE
  5
894
100
AcDbEntity
  8
M0
 62
     6
100
AcDbLine
 10
296.914464
 20
779.307494
 11
297.730718
 21
776.660033
  0
LINE
  5
895
100
AcDbEntity
  8
M0
 62
     6
100
AcDbLine
 10
298.208486
 20
776.307494
 11
303.170507
 21
776.307494
  0
ARC
  5
896
100
AcDbEntity
  8
M0
 62
     6
100
AcDbCircle
 10
298.208486
 20
776.807494
 40
0.5
100
AcDbArc
 50
197.151452
 51
270.0
  0
ARC
  5
897
100
AcDbEntity
  8
M0
 62
     6
100
AcDbCircle
 10
303.170507
 20
776.807494
 40
0.5
100
AcDbArc
 50
270.0
 51
342.85125
  0
LINE
  5
898
100
AcDbEntity
  8
M0
 62
     6
100
AcDbLine
 10
302.103702
 20
779.193329
 11
299.275275
 21
782.021756
  0
LINE
  5
899
100
AcDbEntity
  8
M0
 62
     6
100
AcDbLine
 10
268.170369
 20
824.907103
 11
263.208501
 21
824.907103
  0
CIRCLE
  5
89A
100
AcDbEntity
  8
M0
 62
     6
100
AcDbCircle
 10
265.689504
 20
820.607542
 40
3.0
  0
LINE
  5
89B
100
AcDbEntity
  8
M0
 62
     6
100
AcDbLine
 10
264.27529
 20
819.193329
 11
267.103717
 21
822.021756
  0
ARC
  5
89C
100
AcDbEntity
  8
M0
 62
     6
100
AcDbCircle
 10
263.208501
 20
824.406859
 40
0.5
100
AcDbArc
 50
89.998251
 51
162.874517
  0
LINE
  5
89D
100
AcDbEntity
  8
M0
 62
     6
100
AcDbLine
 10
261.914479
 20
821.907347
 11
262.730596
 21
824.554076
  0
ARC
  5
89E
100
AcDbEntity
  8
M0
 62
     6
100
AcDbCircle
 10
268.170369
 20
824.406859
 40
0.5
100
AcDbArc
 50
17.121626
 51
89.998251
  0
LINE
  5
89F
100
AcDbEntity
  8
M0
 62
     6
100
AcDbLine
 10
269.464498
 20
821.907103
 11
268.64829
 21
824.554076
  0
LINE
  5
8A0
100
AcDbEntity
  8
M0
 62
     6
100
AcDbLine
 10
269.464482
 20
819.307005
 11
269.464482
 21
821.907103
  0
LINE
  5
8A1
100
AcDbEntity
  8
M0
 62
     6
100
AcDbLine
 10
269.464498
 20
819.307249
 11
268.648305
 21
816.660033
  0
LINE
  5
8A2
100
AcDbEntity
  8
M0
 62
     6
100
AcDbLine
 10
261.914479
 20
821.907347
 11
261.914479
 21
819.307494
  0
LINE
  5
8A3
100
AcDbEntity
  8
M0
 62
     6
100
AcDbLine
 10
261.914479
 20
819.307494
 11
262.730733
 21
816.660033
  0
LINE
  5
8A4
100
AcDbEntity
  8
M0
 62
     6
100
AcDbLine
 10
263.208501
 20
816.307494
 11
268.170522
 21
816.307494
  0
ARC
  5
8A5
100
AcDbEntity
  8
M0
 62
     6
100
AcDbCircle
 10
263.208501
 20
816.807494
 40
0.5
100
AcDbArc
 50
197.151452
 51
270.0
  0
ARC
  5
8A6
100
AcDbEntity
  8
M0
 62
     6
100
AcDbCircle
 10
268.170522
 20
816.807494
 40
0.5
100
AcDbArc
 50
270.0
 51
342.85125
  0
LINE
  5
8A7
100
AcDbEntity
  8
M0
 62
     6
100
AcDbLine
 10
267.103717
 20
819.193329
 11
264.27529
 21
822.021756
  0
LINE
  5
8A8
100
AcDbEntity
  8
M0
 62
     6
100
AcDbLine
 10
268.170369
 20
815.407103
 11
263.208501
 21
815.407103
  0
CIRCLE
  5
8A9
100
AcDbEntity
  8
M0
 62
     6
100
AcDbCircle
 10
265.689504
 20
811.107542
 40
3.0
  0
LINE
  5
8AA
100
AcDbEntity
  8
M0
 62
     6
100
AcDbLine
 10
264.27529
 20
809.693329
 11
267.103717
 21
812.521756
  0
ARC
  5
8AB
100
AcDbEntity
  8
M0
 62
     6
100
AcDbCircle
 10
263.208501
 20
814.906859
 40
0.5
100
AcDbArc
 50
89.998251
 51
162.874517
  0
LINE
  5
8AC
100
AcDbEntity
  8
M0
 62
     6
100
AcDbLine
 10
261.914479
 20
812.407347
 11
262.730596
 21
815.054076
  0
ARC
  5
8AD
100
AcDbEntity
  8
M0
 62
     6
100
AcDbCircle
 10
268.170369
 20
814.906859
 40
0.5
100
AcDbArc
 50
17.121626
 51
89.998251
  0
LINE
  5
8AE
100
AcDbEntity
  8
M0
 62
     6
100
AcDbLine
 10
269.464498
 20
812.407103
 11
268.64829
 21
815.054076
  0
LINE
  5
8AF
100
AcDbEntity
  8
M0
 62
     6
100
AcDbLine
 10
269.464482
 20
809.807005
 11
269.464482
 21
812.407103
  0
LINE
  5
8B0
100
AcDbEntity
  8
M0
 62
     6
100
AcDbLine
 10
269.464498
 20
809.807249
 11
268.648305
 21
807.160033
  0
LINE
  5
8B1
100
AcDbEntity
  8
M0
 62
     6
100
AcDbLine
 10
261.914479
 20
812.407347
 11
261.914479
 21
809.807494
  0
LINE
  5
8B2
100
AcDbEntity
  8
M0
 62
     6
100
AcDbLine
 10
261.914479
 20
809.807494
 11
262.730733
 21
807.160033
  0
LINE
  5
8B3
100
AcDbEntity
  8
M0
 62
     6
100
AcDbLine
 10
263.208501
 20
806.807494
 11
268.170522
 21
806.807494
  0
ARC
  5
8B4
100
AcDbEntity
  8
M0
 62
     6
100
AcDbCircle
 10
263.208501
 20
807.307494
 40
0.5
100
AcDbArc
 50
197.151452
 51
270.0
  0
ARC
  5
8B5
100
AcDbEntity
  8
M0
 62
     6
100
AcDbCircle
 10
268.170522
 20
807.307494
 40
0.5
100
AcDbArc
 50
270.0
 51
342.85125
  0
LINE
  5
8B6
100
AcDbEntity
  8
M0
 62
     6
100
AcDbLine
 10
267.103717
 20
809.693329
 11
264.27529
 21
812.521756
  0
LINE
  5
8B7
100
AcDbEntity
  8
M0
 62
     6
100
AcDbLine
 10
268.170369
 20
784.907103
 11
263.208501
 21
784.907103
  0
CIRCLE
  5
8B8
100
AcDbEntity
  8
M0
 62
     6
100
AcDbCircle
 10
265.689504
 20
780.607542
 40
3.0
  0
LINE
  5
8B9
100
AcDbEntity
  8
M0
 62
     6
100
AcDbLine
 10
264.27529
 20
779.193329
 11
267.103717
 21
782.021756
  0
ARC
  5
8BA
100
AcDbEntity
  8
M0
 62
     6
100
AcDbCircle
 10
263.208501
 20
784.406859
 40
0.5
100
AcDbArc
 50
89.998251
 51
162.874517
  0
LINE
  5
8BB
100
AcDbEntity
  8
M0
 62
     6
100
AcDbLine
 10
261.914479
 20
781.907347
 11
262.730596
 21
784.554076
  0
ARC
  5
8BC
100
AcDbEntity
  8
M0
 62
     6
100
AcDbCircle
 10
268.170369
 20
784.406859
 40
0.5
100
AcDbArc
 50
17.121626
 51
89.998251
  0
LINE
  5
8BD
100
AcDbEntity
  8
M0
 62
     6
100
AcDbLine
 10
269.464498
 20
781.907103
 11
268.64829
 21
784.554076
  0
LINE
  5
8BE
100
AcDbEntity
  8
M0
 62
     6
100
AcDbLine
 10
269.464482
 20
779.307005
 11
269.464482
 21
781.907103
  0
LINE
  5
8BF
100
AcDbEntity
  8
M0
 62
     6
100
AcDbLine
 10
269.464498
 20
779.307249
 11
268.648305
 21
776.660033
  0
LINE
  5
8C0
100
AcDbEntity
  8
M0
 62
     6
100
AcDbLine
 10
261.914479
 20
781.907347
 11
261.914479
 21
779.307494
  0
LINE
  5
8C1
100
AcDbEntity
  8
M0
 62
     6
100
AcDbLine
 10
261.914479
 20
779.307494
 11
262.730733
 21
776.660033
  0
LINE
  5
8C2
100
AcDbEntity
  8
M0
 62
     6
100
AcDbLine
 10
263.208501
 20
776.307494
 11
268.170522
 21
776.307494
  0
ARC
  5
8C3
100
AcDbEntity
  8
M0
 62
     6
100
AcDbCircle
 10
263.208501
 20
776.807494
 40
0.5
100
AcDbArc
 50
197.151452
 51
270.0
  0
ARC
  5
8C4
100
AcDbEntity
  8
M0
 62
     6
100
AcDbCircle
 10
268.170522
 20
776.807494
 40
0.5
100
AcDbArc
 50
270.0
 51
342.85125
  0
LINE
  5
8C5
100
AcDbEntity
  8
M0
 62
     6
100
AcDbLine
 10
267.103717
 20
779.193329
 11
264.27529
 21
782.021756
  0
LINE
  5
8C6
100
AcDbEntity
  8
M0
 62
     6
100
AcDbLine
 10
268.170369
 20
794.407103
 11
263.208501
 21
794.407103
  0
CIRCLE
  5
8C7
100
AcDbEntity
  8
M0
 62
     6
100
AcDbCircle
 10
265.689504
 20
790.107542
 40
3.0
  0
LINE
  5
8C8
100
AcDbEntity
  8
M0
 62
     6
100
AcDbLine
 10
264.27529
 20
788.693329
 11
267.103717
 21
791.521756
  0
ARC
  5
8C9
100
AcDbEntity
  8
M0
 62
     6
100
AcDbCircle
 10
263.208501
 20
793.906859
 40
0.5
100
AcDbArc
 50
89.998251
 51
162.874517
  0
LINE
  5
8CA
100
AcDbEntity
  8
M0
 62
     6
100
AcDbLine
 10
261.914479
 20
791.407347
 11
262.730596
 21
794.054076
  0
ARC
  5
8CB
100
AcDbEntity
  8
M0
 62
     6
100
AcDbCircle
 10
268.170369
 20
793.906859
 40
0.5
100
AcDbArc
 50
17.121626
 51
89.998251
  0
LINE
  5
8CC
100
AcDbEntity
  8
M0
 62
     6
100
AcDbLine
 10
269.464498
 20
791.407103
 11
268.64829
 21
794.054076
  0
LINE
  5
8CD
100
AcDbEntity
  8
M0
 62
     6
100
AcDbLine
 10
269.464482
 20
788.807005
 11
269.464482
 21
791.407103
  0
LINE
  5
8CE
100
AcDbEntity
  8
M0
 62
     6
100
AcDbLine
 10
269.464498
 20
788.807249
 11
268.648305
 21
786.160033
  0
LINE
  5
8CF
100
AcDbEntity
  8
M0
 62
     6
100
AcDbLine
 10
261.914479
 20
791.407347
 11
261.914479
 21
788.807494
  0
LINE
  5
8D0
100
AcDbEntity
  8
M0
 62
     6
100
AcDbLine
 10
261.914479
 20
788.807494
 11
262.730733
 21
786.160033
  0
LINE
  5
8D1
100
AcDbEntity
  8
M0
 62
     6
100
AcDbLine
 10
263.208501
 20
785.807494
 11
268.170522
 21
785.807494
  0
ARC
  5
8D2
100
AcDbEntity
  8
M0
 62
     6
100
AcDbCircle
 10
263.208501
 20
786.307494
 40
0.5
100
AcDbArc
 50
197.151452
 51
270.0
  0
ARC
  5
8D3
100
AcDbEntity
  8
M0
 62
     6
100
AcDbCircle
 10
268.170522
 20
786.307494
 40
0.5
100
AcDbArc
 50
270.0
 51
342.85125
  0
LINE
  5
8D4
100
AcDbEntity
  8
M0
 62
     6
100
AcDbLine
 10
267.103717
 20
788.693329
 11
264.27529
 21
791.521756
  0
LINE
  5
8D5
100
AcDbEntity
  8
M0
 62
     6
100
AcDbLine
 10
146.170369
 20
824.907103
 11
141.208501
 21
824.907103
  0
CIRCLE
  5
8D6
100
AcDbEntity
  8
M0
 62
     6
100
AcDbCircle
 10
143.689504
 20
820.607542
 40
3.0
  0
LINE
  5
8D7
100
AcDbEntity
  8
M0
 62
     6
100
AcDbLine
 10
142.27529
 20
819.193329
 11
145.103717
 21
822.021756
  0
ARC
  5
8D8
100
AcDbEntity
  8
M0
 62
     6
100
AcDbCircle
 10
141.208501
 20
824.406859
 40
0.5
100
AcDbArc
 50
89.998251
 51
162.874517
  0
LINE
  5
8D9
100
AcDbEntity
  8
M0
 62
     6
100
AcDbLine
 10
139.914479
 20
821.907347
 11
140.730596
 21
824.554076
  0
ARC
  5
8DA
100
AcDbEntity
  8
M0
 62
     6
100
AcDbCircle
 10
146.170369
 20
824.406859
 40
0.5
100
AcDbArc
 50
17.121626
 51
89.998251
  0
LINE
  5
8DB
100
AcDbEntity
  8
M0
 62
     6
100
AcDbLine
 10
147.464498
 20
821.907103
 11
146.64829
 21
824.554076
  0
LINE
  5
8DC
100
AcDbEntity
  8
M0
 62
     6
100
AcDbLine
 10
147.464482
 20
819.307005
 11
147.464482
 21
821.907103
  0
LINE
  5
8DD
100
AcDbEntity
  8
M0
 62
     6
100
AcDbLine
 10
147.464498
 20
819.307249
 11
146.648305
 21
816.660033
  0
LINE
  5
8DE
100
AcDbEntity
  8
M0
 62
     6
100
AcDbLine
 10
139.914479
 20
821.907347
 11
139.914479
 21
819.307494
  0
LINE
  5
8DF
100
AcDbEntity
  8
M0
 62
     6
100
AcDbLine
 10
139.914479
 20
819.307494
 11
140.730733
 21
816.660033
  0
LINE
  5
8E0
100
AcDbEntity
  8
M0
 62
     6
100
AcDbLine
 10
141.208501
 20
816.307494
 11
146.170522
 21
816.307494
  0
ARC
  5
8E1
100
AcDbEntity
  8
M0
 62
     6
100
AcDbCircle
 10
141.208501
 20
816.807494
 40
0.5
100
AcDbArc
 50
197.151452
 51
270.0
  0
ARC
  5
8E2
100
AcDbEntity
  8
M0
 62
     6
100
AcDbCircle
 10
146.170522
 20
816.807494
 40
0.5
100
AcDbArc
 50
270.0
 51
342.85125
  0
LINE
  5
8E3
100
AcDbEntity
  8
M0
 62
     6
100
AcDbLine
 10
145.103717
 20
819.193329
 11
142.27529
 21
822.021756
  0
LINE
  5
8E4
100
AcDbEntity
  8
M0
 62
     6
100
AcDbLine
 10
146.170369
 20
815.407103
 11
141.208501
 21
815.407103
  0
CIRCLE
  5
8E5
100
AcDbEntity
  8
M0
 62
     6
100
AcDbCircle
 10
143.689504
 20
811.107542
 40
3.0
  0
LINE
  5
8E6
100
AcDbEntity
  8
M0
 62
     6
100
AcDbLine
 10
142.27529
 20
809.693329
 11
145.103717
 21
812.521756
  0
ARC
  5
8E7
100
AcDbEntity
  8
M0
 62
     6
100
AcDbCircle
 10
141.208501
 20
814.906859
 40
0.5
100
AcDbArc
 50
89.998251
 51
162.874517
  0
LINE
  5
8E8
100
AcDbEntity
  8
M0
 62
     6
100
AcDbLine
 10
139.914479
 20
812.407347
 11
140.730596
 21
815.054076
  0
ARC
  5
8E9
100
AcDbEntity
  8
M0
 62
     6
100
AcDbCircle
 10
146.170369
 20
814.906859
 40
0.5
100
AcDbArc
 50
17.121626
 51
89.998251
  0
LINE
  5
8EA
100
AcDbEntity
  8
M0
 62
     6
100
AcDbLine
 10
147.464498
 20
812.407103
 11
146.64829
 21
815.054076
  0
LINE
  5
8EB
100
AcDbEntity
  8
M0
 62
     6
100
AcDbLine
 10
147.464482
 20
809.807005
 11
147.464482
 21
812.407103
  0
LINE
  5
8EC
100
AcDbEntity
  8
M0
 62
     6
100
AcDbLine
 10
147.464498
 20
809.807249
 11
146.648305
 21
807.160033
  0
LINE
  5
8ED
100
AcDbEntity
  8
M0
 62
     6
100
AcDbLine
 10
139.914479
 20
812.407347
 11
139.914479
 21
809.807494
  0
LINE
  5
8EE
100
AcDbEntity
  8
M0
 62
     6
100
AcDbLine
 10
139.914479
 20
809.807494
 11
140.730733
 21
807.160033
  0
LINE
  5
8EF
100
AcDbEntity
  8
M0
 62
     6
100
AcDbLine
 10
141.208501
 20
806.807494
 11
146.170522
 21
806.807494
  0
ARC
  5
8F0
100
AcDbEntity
  8
M0
 62
     6
100
AcDbCircle
 10
141.208501
 20
807.307494
 40
0.5
100
AcDbArc
 50
197.151452
 51
270.0
  0
ARC
  5
8F1
100
AcDbEntity
  8
M0
 62
     6
100
AcDbCircle
 10
146.170522
 20
807.307494
 40
0.5
100
AcDbArc
 50
270.0
 51
342.85125
  0
LINE
  5
8F2
100
AcDbEntity
  8
M0
 62
     6
100
AcDbLine
 10
145.103717
 20
809.693329
 11
142.27529
 21
812.521756
  0
LINE
  5
8F3
100
AcDbEntity
  8
M0
 62
     6
100
AcDbLine
 10
146.170369
 20
794.407103
 11
141.208501
 21
794.407103
  0
CIRCLE
  5
8F4
100
AcDbEntity
  8
M0
 62
     6
100
AcDbCircle
 10
143.689504
 20
790.107542
 40
3.0
  0
LINE
  5
8F5
100
AcDbEntity
  8
M0
 62
     6
100
AcDbLine
 10
142.27529
 20
788.693329
 11
145.103717
 21
791.521756
  0
ARC
  5
8F6
100
AcDbEntity
  8
M0
 62
     6
100
AcDbCircle
 10
141.208501
 20
793.906859
 40
0.5
100
AcDbArc
 50
89.998251
 51
162.874517
  0
LINE
  5
8F7
100
AcDbEntity
  8
M0
 62
     6
100
AcDbLine
 10
139.914479
 20
791.407347
 11
140.730596
 21
794.054076
  0
ARC
  5
8F8
100
AcDbEntity
  8
M0
 62
     6
100
AcDbCircle
 10
146.170369
 20
793.906859
 40
0.5
100
AcDbArc
 50
17.121626
 51
89.998251
  0
LINE
  5
8F9
100
AcDbEntity
  8
M0
 62
     6
100
AcDbLine
 10
147.464498
 20
791.407103
 11
146.64829
 21
794.054076
  0
LINE
  5
8FA
100
AcDbEntity
  8
M0
 62
     6
100
AcDbLine
 10
147.464482
 20
788.807005
 11
147.464482
 21
791.407103
  0
LINE
  5
8FB
100
AcDbEntity
  8
M0
 62
     6
100
AcDbLine
 10
147.464498
 20
788.807249
 11
146.648305
 21
786.160033
  0
LINE
  5
8FC
100
AcDbEntity
  8
M0
 62
     6
100
AcDbLine
 10
139.914479
 20
791.407347
 11
139.914479
 21
788.807494
  0
LINE
  5
8FD
100
AcDbEntity
  8
M0
 62
     6
100
AcDbLine
 10
139.914479
 20
788.807494
 11
140.730733
 21
786.160033
  0
LINE
  5
8FE
100
AcDbEntity
  8
M0
 62
     6
100
AcDbLine
 10
141.208501
 20
785.807494
 11
146.170522
 21
785.807494
  0
ARC
  5
8FF
100
AcDbEntity
  8
M0
 62
     6
100
AcDbCircle
 10
141.208501
 20
786.307494
 40
0.5
100
AcDbArc
 50
197.151452
 51
270.0
  0
ARC
  5
900
100
AcDbEntity
  8
M0
 62
     6
100
AcDbCircle
 10
146.170522
 20
786.307494
 40
0.5
100
AcDbArc
 50
270.0
 51
342.85125
  0
LINE
  5
901
100
AcDbEntity
  8
M0
 62
     6
100
AcDbLine
 10
145.103717
 20
788.693329
 11
142.27529
 21
791.521756
  0
LINE
  5
902
100
AcDbEntity
  8
M0
 62
     6
100
AcDbLine
 10
146.170369
 20
784.907103
 11
141.208501
 21
784.907103
  0
CIRCLE
  5
903
100
AcDbEntity
  8
M0
 62
     6
100
AcDbCircle
 10
143.689504
 20
780.607542
 40
3.0
  0
LINE
  5
904
100
AcDbEntity
  8
M0
 62
     6
100
AcDbLine
 10
142.27529
 20
779.193329
 11
145.103717
 21
782.021756
  0
ARC
  5
905
100
AcDbEntity
  8
M0
 62
     6
100
AcDbCircle
 10
141.208501
 20
784.406859
 40
0.5
100
AcDbArc
 50
89.998251
 51
162.874517
  0
LINE
  5
906
100
AcDbEntity
  8
M0
 62
     6
100
AcDbLine
 10
139.914479
 20
781.907347
 11
140.730596
 21
784.554076
  0
ARC
  5
907
100
AcDbEntity
  8
M0
 62
     6
100
AcDbCircle
 10
146.170369
 20
784.406859
 40
0.5
100
AcDbArc
 50
17.121626
 51
89.998251
  0
LINE
  5
908
100
AcDbEntity
  8
M0
 62
     6
100
AcDbLine
 10
147.464498
 20
781.907103
 11
146.64829
 21
784.554076
  0
LINE
  5
909
100
AcDbEntity
  8
M0
 62
     6
100
AcDbLine
 10
147.464482
 20
779.307005
 11
147.464482
 21
781.907103
  0
LINE
  5
90A
100
AcDbEntity
  8
M0
 62
     6
100
AcDbLine
 10
147.464498
 20
779.307249
 11
146.648305
 21
776.660033
  0
LINE
  5
90B
100
AcDbEntity
  8
M0
 62
     6
100
AcDbLine
 10
139.914479
 20
781.907347
 11
139.914479
 21
779.307494
  0
LINE
  5
90C
100
AcDbEntity
  8
M0
 62
     6
100
AcDbLine
 10
139.914479
 20
779.307494
 11
140.730733
 21
776.660033
  0
LINE
  5
90D
100
AcDbEntity
  8
M0
 62
     6
100
AcDbLine
 10
141.208501
 20
776.307494
 11
146.170522
 21
776.307494
  0
ARC
  5
90E
100
AcDbEntity
  8
M0
 62
     6
100
AcDbCircle
 10
141.208501
 20
776.807494
 40
0.5
100
AcDbArc
 50
197.151452
 51
270.0
  0
ARC
  5
90F
100
AcDbEntity
  8
M0
 62
     6
100
AcDbCircle
 10
146.170522
 20
776.807494
 40
0.5
100
AcDbArc
 50
270.0
 51
342.85125
  0
LINE
  5
910
100
AcDbEntity
  8
M0
 62
     6
100
AcDbLine
 10
145.103717
 20
779.193329
 11
142.27529
 21
782.021756
  0
LINE
  5
911
100
AcDbEntity
  8
M0
 62
     5
100
AcDbLine
 10
273.939481
 20
773.357542
 11
273.939481
 21
787.357542
  0
LINE
  5
912
100
AcDbEntity
  8
M0
 62
     5
100
AcDbLine
 10
292.439436
 20
773.357542
 11
292.439436
 21
810.357542
  0
LINE
  5
913
100
AcDbEntity
  8
M0
 62
     5
100
AcDbLine
 10
273.939481
 20
820.857787
 11
273.939481
 21
827.857542
  0
LINE
  5
914
100
AcDbEntity
  8
M0
 62
     5
100
AcDbLine
 10
273.939756
 20
827.857542
 11
292.439436
 21
827.857542
  0
LINE
  5
915
100
AcDbEntity
  8
M0
 62
     5
100
AcDbLine
 10
273.939237
 20
773.357542
 11
292.439436
 21
773.357542
  0
LINE
  5
916
100
AcDbEntity
  8
M0
 62
     5
100
AcDbLine
 10
284.939481
 20
813.857542
 11
292.439436
 21
813.857542
  0
LINE
  5
917
100
AcDbEntity
  8
M0
 62
     5
100
AcDbLine
 10
273.939237
 20
787.357542
 11
281.439436
 21
787.357542
  0
LINE
  5
918
100
AcDbEntity
  8
M0
 62
     5
100
AcDbLine
 10
273.939756
 20
801.857542
 11
284.939481
 21
801.857542
  0
LINE
  5
919
100
AcDbEntity
  8
M0
 62
     5
100
AcDbLine
 10
281.439436
 20
799.357542
 11
292.439436
 21
799.357542
  0
LINE
  5
91A
100
AcDbEntity
  8
M0
 62
     5
100
AcDbLine
 10
284.939481
 20
801.857542
 11
284.939481
 21
820.857542
  0
LINE
  5
91B
100
AcDbEntity
  8
M0
 62
     5
100
AcDbLine
 10
281.439436
 20
780.357542
 11
281.439436
 21
799.357542
  0
LINE
  5
91C
100
AcDbEntity
  8
M0
 62
     5
100
AcDbLine
 10
278.939481
 20
790.857542
 11
278.939481
 21
801.857542
  0
LINE
  5
91D
100
AcDbEntity
  8
M0
 62
     5
100
AcDbLine
 10
287.439436
 20
799.357542
 11
287.439436
 21
810.357542
  0
LINE
  5
91E
100
AcDbEntity
  8
M0
 62
     5
100
AcDbLine
 10
273.939756
 20
790.857542
 11
278.939481
 21
790.857542
  0
LINE
  5
91F
100
AcDbEntity
  8
M0
 62
     5
100
AcDbLine
 10
287.439436
 20
810.357542
 11
292.439436
 21
810.357542
  0
LINE
  5
920
100
AcDbEntity
  8
M0
 62
     5
100
AcDbLine
 10
273.939481
 20
790.857542
 11
273.939481
 21
827.857542
  0
LINE
  5
921
100
AcDbEntity
  8
M0
 62
     5
100
AcDbLine
 10
292.439436
 20
813.857542
 11
292.439436
 21
827.857542
  0
LINE
  5
922
100
AcDbEntity
  8
M0
100
AcDbLine
 10
272.689504
 20
911.207518
 11
272.689504
 21
928.207518
  0
LINE
  5
923
100
AcDbEntity
  8
M0
100
AcDbLine
 10
267.03265
 20
911.207518
 11
272.689504
 21
916.864372
  0
LINE
  5
924
100
AcDbEntity
  8
M0
100
AcDbLine
 10
261.375795
 20
911.207518
 11
272.689504
 21
922.521226
  0
LINE
  5
925
100
AcDbEntity
  8
M0
100
AcDbLine
 10
255.718941
 20
911.207518
 11
272.689504
 21
928.178081
  0
LINE
  5
926
100
AcDbEntity
  8
M0
100
AcDbLine
 10
250.062087
 20
911.207518
 11
267.062087
 21
928.207518
  0
LINE
  5
927
100
AcDbEntity
  8
M0
100
AcDbLine
 10
244.405233
 20
911.207518
 11
261.405233
 21
928.207518
  0
LINE
  5
928
100
AcDbEntity
  8
M0
100
AcDbLine
 10
238.748378
 20
911.207518
 11
255.748378
 21
928.207518
  0
LINE
  5
929
100
AcDbEntity
  8
M0
100
AcDbLine
 10
234.689305
 20
912.805299
 11
250.091524
 21
928.207518
  0
LINE
  5
92A
100
AcDbEntity
  8
M0
100
AcDbLine
 10
234.689305
 20
918.462154
 11
244.43467
 21
928.207518
  0
LINE
  5
92B
100
AcDbEntity
  8
M0
100
AcDbLine
 10
234.689305
 20
924.119008
 11
238.777816
 21
928.207518
  0
LINE
  5
92C
100
AcDbEntity
  8
M0
100
AcDbLine
 10
272.689504
 20
928.207518
 11
226.689504
 21
928.207518
  0
LINE
  5
92D
100
AcDbEntity
  8
M0
100
AcDbLine
 10
232.420591
 20
927.507148
 11
233.120961
 21
928.207518
  0
LINE
  5
92E
100
AcDbEntity
  8
M0
100
AcDbLine
 10
226.763832
 20
927.507243
 11
227.464107
 21
928.207518
  0
LINE
  5
92F
100
AcDbEntity
  8
M0
100
AcDbLine
 10
226.689504
 20
928.207518
 11
226.689504
 21
927.507241
  0
LINE
  5
930
100
AcDbEntity
  8
M0
  6
DIVIDE
100
AcDbLine
 10
448.189473
 20
537.969696
 11
118.189473
 21
537.969696
  0
LINE
  5
931
100
AcDbEntity
  8
M0
  6
DIVIDE
100
AcDbLine
 10
448.189473
 20
537.969696
 11
448.189473
 21
247.970429
  0
LINE
  5
932
100
AcDbEntity
  8
M0
  6
DIVIDE
100
AcDbLine
 10
118.189473
 20
247.970429
 11
118.189473
 21
537.969696
  0
LINE
  5
933
100
AcDbEntity
  8
M0
  6
DIVIDE
100
AcDbLine
 10
448.189473
 20
247.970429
 11
118.189473
 21
247.970429
  0
LINE
  5
934
100
AcDbEntity
  8
M0
  6
DASHDOT
100
AcDbLine
 10
271.189473
 20
262.969696
 11
295.189473
 21
262.969696
  0
LINE
  5
935
100
AcDbEntity
  8
M0
  6
DASHDOT
100
AcDbLine
 10
283.189473
 20
245.969696
 11
283.189473
 21
274.969696
  0
CIRCLE
  5
936
100
AcDbEntity
  8
M0
100
AcDbCircle
 10
283.189473
 20
262.969696
 40
4.0
  0
CIRCLE
  5
937
100
AcDbEntity
  8
M0
100
AcDbCircle
 10
283.189473
 20
262.969696
 40
2.799999
  0
CIRCLE
  5
938
100
AcDbEntity
  8
M0
100
AcDbCircle
 10
433.189473
 20
522.969696
 40
4.0
  0
LINE
  5
939
100
AcDbEntity
  8
M0
  6
DASHDOT
100
AcDbLine
 10
450.189473
 20
522.969696
 11
421.189473
 21
522.969696
  0
LINE
  5
93A
100
AcDbEntity
  8
M0
  6
DASHDOT
100
AcDbLine
 10
433.189473
 20
510.969696
 11
433.189473
 21
539.969696
  0
CIRCLE
  5
93B
100
AcDbEntity
  8
M0
100
AcDbCircle
 10
433.189473
 20
522.969696
 40
2.799999
  0
CIRCLE
  5
93C
100
AcDbEntity
  8
M0
100
AcDbCircle
 10
133.189473
 20
522.969696
 40
4.0
  0
LINE
  5
93D
100
AcDbEntity
  8
M0
  6
DASHDOT
100
AcDbLine
 10
116.189473
 20
522.969696
 11
145.189473
 21
522.969696
  0
LINE
  5
93E
100
AcDbEntity
  8
M0
  6
DASHDOT
100
AcDbLine
 10
133.189473
 20
510.969696
 11
133.189473
 21
539.969696
  0
CIRCLE
  5
93F
100
AcDbEntity
  8
M0
100
AcDbCircle
 10
133.189473
 20
522.969696
 40
2.799999
  0
LINE
  5
940
100
AcDbEntity
  8
M1
 62
     2
100
AcDbLine
 10
40.0
 20
40.0
 11
40.0
 21
1140.0
  0
LINE
  5
941
100
AcDbEntity
  8
M1
 62
     2
100
AcDbLine
 10
40.0
 20
1140.0
 11
800.0
 21
1140.0
  0
LINE
  5
942
100
AcDbEntity
  8
M1
 62
     2
100
AcDbLine
 10
800.0
 20
1140.0
 11
800.0
 21
40.0
  0
LINE
  5
943
100
AcDbEntity
  8
M1
 62
     2
100
AcDbLine
 10
800.0
 20
40.0
 11
40.0
 21
40.0
  0
LINE
  5
944
100
AcDbEntity
  8
M1
 62
     2
100
AcDbLine
 10
800.0
 20
80.0
 11
400.0
 21
80.0
  0
LINE
  5
945
100
AcDbEntity
  8
M1
 62
     2
100
AcDbLine
 10
800.0
 20
120.0
 11
400.0
 21
120.0
  0
LINE
  5
946
100
AcDbEntity
  8
M1
 62
     2
100
AcDbLine
 10
800.0
 20
160.0
 11
400.0
 21
160.0
  0
LINE
  5
947
100
AcDbEntity
  8
M1
 62
     2
100
AcDbLine
 10
400.0
 20
40.0
 11
400.0
 21
160.0
  0
TEXT
  5
948
100
AcDbEntity
  8
M1
 62
     2
100
AcDbText
 10
410.0
 20
50.0
 40
20.0
  1
適　用；
  7
STANDARD
100
AcDbText
  0
TEXT
  5
949
100
AcDbEntity
  8
M1
 62
     2
100
AcDbText
 10
410.0
 20
130.0
 40
20.0
  1
登録名：
  7
STANDARD
100
AcDbText
  0
TEXT
  5
94A
100
AcDbEntity
  8
M1
 62
     2
100
AcDbText
 10
506.0
 20
130.0
 40
20.0
  1
ＤＭＨ２００ＣＲＬＧＲ００
 41
0.5
  7
STANDARD
100
AcDbText
  0
TEXT
  5
94B
100
AcDbEntity
  8
M1
 62
     2
100
AcDbText
 10
410.0
 20
90.0
 40
20.0
  1
形　式；
  7
STANDARD
100
AcDbText
  0
TEXT
  5
94C
100
AcDbEntity
  8
M1
 62
     2
100
AcDbText
 10
506.0
 20
90.0
 40
20.0
  1
Ｈ２００Ｃ－ＲＬＧ，Ｈ２５０Ｃ－ＲＬＧ
 41
0.5
  7
STANDARD
100
AcDbText
  0
LINE
  5
94D
100
AcDbEntity
  8
DN0
100
AcDbLine
 10
252.906101
 20
172.196964
 11
325.946118
 21
172.196964
  0
TEXT
  5
94E
100
AcDbEntity
  8
DN0
100
AcDbText
 10
254.9261
 20
173.996964
 40
18.0
  1
せん孔図
 41
0.833333
  7
STANDARD
100
AcDbText
  0
ENDSEC
  0
SECTION
  2
OBJECTS
  0
DICTIONARY
  5
C
100
AcDbDictionary
  3
ACAD_GROUP
350
D
  3
ACAD_MLINESTYLE
350
E
  0
DICTIONARY
  5
D
102
{ACAD_REACTORS
330
C
102
}
100
AcDbDictionary
  0
DICTIONARY
  5
E
102
{ACAD_REACTORS
330
C
102
}
100
AcDbDictionary
  3
STANDARD
350
13
  0
MLINESTYLE
  5
13
102
{ACAD_REACTORS
330
E
102
}
100
AcDbMlineStyle
  2
STANDARD
 70
     0
  3

 62
     0
 51
90.0
 52
90.0
 71
     2
 49
0.5
 62
   256
  6
BYLAYER
 49
-0.5
 62
   256
  6
BYLAYER
  0
ENDSEC
  0
EOF
