  0
SECTION
  2
HEADER
  9
$ACADVER
  1
AC1014
  9
$INSBASE
 10
0.000000
 20
0.000000
 30
0.0
  9
$VIEWCTR
 10
7.531722
 20
4.5
  9
$VIEWSIZE
 40
9.0
  9
$SNAPMODE
 70
     0
  9
$SNAPUNIT
 10
1.0
 20
1.0
  9
$SNAPBASE
 10
0.0
 20
0.0
  9
$SNAPANG
 50
0.0
  9
$SNAPSTYLE
 70
     0
  9
$SNAPISOPAIR
 70
     0
  9
$GRIDMODE
 70
     0
  9
$GRIDUNIT
 10
0.0
 20
0.0
  9
$ORTHOMODE
 70
     0
  9
$REGENMODE
 70
     1
  9
$FILLMODE
 70
     1
  9
$QTEXTMODE
 70
     0
  9
$DRAGMODE
 70
     2
  9
$LTSCALE
  40
     1.000000
  9
$OSMODE
 70
     0
  9
$ATTMODE
 70
     1
  9
$TEXTSIZE
 40
0.2
  9
$TRACEWID
 40
0.05
  9
$TEXTSTYLE
  7
STANDARD
  9
$CELTYPE
  6
BYLAYER
  9
$CECOLOR
 62
   256
  9
$DIMSCALE
 40
1.0
  9
$DIMASZ
 40
0.18
  9
$DIMEXO
 40
0.0625
  9
$DIMDLI
 40
0.38
  9
$DIMRND
 40
0.0
  9
$DIMDLE
 40
0.0
  9
$DIMEXE
 40
0.18
  9
$DIMTP
 40
0.0
  9
$DIMTM
 40
0.0
  9
$DIMTXT
 40
0.18
  9
$DIMCEN
 40
0.09
  9
$DIMTSZ
 40
0.0
  9
$DIMTOL
 70
     0
  9
$DIMLIM
 70
     0
  9
$DIMTIH
 70
     1
  9
$DIMTOH
 70
     1
  9
$DIMSE1
 70
     0
  9
$DIMSE2
 70
     0
  9
$DIMTAD
 70
     0
  9
$DIMZIN
 70
     0
  9
$DIMBLK
  1

  9
$LUNITS
 70
     2
  9
$LUPREC
 70
     4
  9
$AXISMODE
 70
     0
  9
$AXISUNIT
 10
0.0
 20
0.0
  9
$SKETCHINC
 40
0.1
  9
$FILLETRAD
 40
0.0
  9
$AUNITS
 70
     0
  9
$AUPREC
 70
     0
  9
$MENU
  1
ACAD
  9
$ELEVATION
 40
0.0
  9
$THICKNESS
 40
0.0
  9
$VIEWDIR
 10
0.0
 20
0.0
 30
1.0
  9
$LIMCHECK
 70
     0
  9
$BLIPMODE
 70
     1
  9
$CHAMFERA
 40
0.0
  9
$CHAMFERB
 40
0.0
  9
$FASTZOOM
 70
     1
  9
$SKPOLY
 70
     0
  9
$TDCREATE
 40
0000000.0000000000
  9
$TDUPDATE
 40
0000000.0000000000
  9
$TDINDWG
 40
0.0000000000
  9
$TDUSRTIMER
 40
0.0000000000
  9
$USRTIMER
 70
     1
  9
$ANGBASE
 50
0.0
  9
$ANGDIR
 70
     0
  9
$PDMODE
 70
     0
  9
$PDSIZE
 40
0.0
  9
$PLINEWID
 40
0.0
  9
$COORDS
 70
     0
  9
$USERI1
 70
     0
  9
$USERI2
 70
     0
  9
$USERI3
 70
     0
  9
$USERI4
 70
     0
  9
$USERI5
 70
     0
  9
$USERR1
 40
0.0
  9
$USERR2
 40
0.0
  9
$USERR3
 40
0.0
  9
$USERR4
 40
0.0
  9
$USERR5
 40
0.0
  9
$CLAYER
  8
M0
  9
$EXTMIN
 10
22.222223
 20
22.222223
  9
$EXTMAX
 10
444.444456
 20
633.33335
  9
$LIMMIN
 10
0.0
 20
0.0
  9
$LIMMAX
 10
210.0
 20
297.0
  9
$HANDSEED
  5
6AB
  0
ENDSEC
  0
SECTION
  2
CLASSES
  0
ENDSEC
  0
SECTION
  2
TABLES
  0
TABLE
  2
VPORT
  5
8
100
AcDbSymbolTable
 70
     2
  0
VPORT
  5
14
100
AcDbSymbolTableRecord
100
AcDbViewportTableRecord
  2
*ACTIVE
 70
     0
 10
0.0
 20
0.0
 11
1.0
 21
1.0
 12
484.0
 22
297.0
 13
0.0
 23
0.0
 14
1.0
 24
1.0
 15
0.0
 25
0.0
 16
0.0
 26
0.0
 36
1.0
 17
0.0
 27
0.0
 37
0.0
 40
594.0
 41
2.0
 42
50.0
 43
0.0
 44
0.0
 50
0.0
 51
0.0
 71
     0
 72
   100
 73
     1
 74
     1
 75
     0
 76
     0
 77
     0
 78
     0
  0
ENDTAB
  0
TABLE
  2
LTYPE
  5
5
100
AcDbSymbolTable
 70
     5
  0
LTYPE
  5
15
100
AcDbSymbolTableRecord
100
AcDbLinetypeTableRecord
  2
BYBLOCK
 70
     0
  3

 72
    65
 73
     0
 40
0.0
  0
LTYPE
  5
16
100
AcDbSymbolTableRecord
100
AcDbLinetypeTableRecord
  2
BYLAYER
 70
     0
  3

 72
    65
 73
     0
 40
0.0
  0
LTYPE
  5
17
100
AcDbSymbolTableRecord
100
AcDbLinetypeTableRecord
  2
CONTINUOUS
 70
    64
  3
Solid line
 72
    65
 73
     0
 40
0.0
  0
LTYPE
  5
18
100
AcDbSymbolTableRecord
100
AcDbLinetypeTableRecord
  2
DASHED
 70
    64
  3
__ __ __ __ __ __ __ __ __ __ __ __ __ __ __ __
 72
    65
 73
     2
 40
0.75
 49
0.5
 74
     0
 49
-0.25
 74
     0
  0
LTYPE
  5
19
100
AcDbSymbolTableRecord
100
AcDbLinetypeTableRecord
  2
DASHDOT
 70
    64
  3
__ . __ . __ . __ . __ . __ . __ . __ . __ . __
 72
    65
 73
     4
 40
1.0
 49
0.5
 74
     0
 49
-0.25
 74
     0
 49
0.0
 74
     0
 49
-0.25
 74
     0
  0
LTYPE
  5
1A
100
AcDbSymbolTableRecord
100
AcDbLinetypeTableRecord
  2
DIVIDE
 70
    64
  3
____ . . ____ . . ____ . . ____ . . ____ . . __
 72
    65
 73
     6
 40
1.25
 49
0.5
 74
     0
 49
-0.25
 74
     0
 49
0.0
 74
     0
 49
-0.25
 74
     0
 49
0.0
 74
     0
 49
-0.25
 74
     0
  0
LTYPE
  5
1B
100
AcDbSymbolTableRecord
100
AcDbLinetypeTableRecord
  2
DOT
 70
    64
  3
. . . . . . . . . . . . . . . . . . . . . . . .
 72
    65
 73
     2
 40
0.25
 49
0.0
 74
     0
 49
-0.25
 74
     0
  0
ENDTAB
  0
TABLE
  2
LAYER
  5
2
100
AcDbSymbolTable
 70
   102
  0
LAYER
  5
F
100
AcDbSymbolTableRecord
100
AcDbLayerTableRecord
  2
0
 70
     0
 62
     7
  6
CONTINUOUS
  0
LAYER
  5
1C
100
AcDbSymbolTableRecord
100
AcDbLayerTableRecord
  2
DEFPOINTS
 70
     0
 62
     7
  6
CONTINUOUS
  0
LAYER
  5
1D
100
AcDbSymbolTableRecord
100
AcDbLayerTableRecord
  2
M0
 70
     0
 62
     3
  6
CONTINUOUS
  0
LAYER
  5
1E
100
AcDbSymbolTableRecord
100
AcDbLayerTableRecord
  2
M1
 70
     0
 62
     3
  6
CONTINUOUS
  0
LAYER
  5
1F
100
AcDbSymbolTableRecord
100
AcDbLayerTableRecord
  2
DD0
 70
     0
 62
     4
  6
CONTINUOUS
  0
LAYER
  5
20
100
AcDbSymbolTableRecord
100
AcDbLayerTableRecord
  2
DN0
 70
     0
 62
     2
  6
CONTINUOUS
  0
ENDTAB
  0
TABLE
  2
STYLE
  5
3
100
AcDbSymbolTable
 70
     2
  0
STYLE
  5
10
100
AcDbSymbolTableRecord
100
AcDbTextStyleTableRecord
  2
STANDARD
 70
     0
 40
0.0
 41
1.0
 50
0.0
 71
     0
 42
0.2
  3
txt
  4
BIGFONT
  0
ENDTAB
  0
TABLE
  2
VIEW
  5
6
100
AcDbSymbolTable
 70
     0
  0
ENDTAB
  0
TABLE
  2
UCS
  5
7
100
AcDbSymbolTable
 70
     0
  0
ENDTAB
  0
TABLE
  2
APPID
  5
9
100
AcDbSymbolTable
 70
     1
  0
APPID
  5
11
100
AcDbSymbolTableRecord
100
AcDbRegAppTableRecord
  2
ACAD
 70
     0
  0
ENDTAB
  0
TABLE
  2
DIMSTYLE
  5
A
100
AcDbSymbolTable
 70
     2
  0
DIMSTYLE
105
27
100
AcDbSymbolTableRecord
100
AcDbDimStyleTableRecord
  2
STANDARD
 70
     0
  3

  4

  5

  6
_OPEN
  7
_OPEN
 40
1.0
 41
6.666667
 42
1.0
 43
8.0
 44
1.0
 45
0.0
 46
0.0
 47
0.0
 48
0.0
140
7.0
141
0.09
142
0.0
143
0.03937
144
1.0
145
0.0
146
1.0
147
0.6
 71
     0
 72
     0
 73
     1
 74
     1
 75
     0
 76
     0
 77
     3
 78
     8
170
     0
171
     2
172
     0
173
     1
174
     0
175
     0
176
     0
177
     0
178
     0
270
     2
271
     2
272
     4
273
     2
274
     2
340
10
275
     0
280
     0
281
     0
282
     0
283
     1
284
     0
285
     0
286
     0
287
     3
288
     0
  0
DIMSTYLE
105
28
100
AcDbSymbolTableRecord
100
AcDbDimStyleTableRecord
  2
LEADSTYL
 70
     0
  3

  4

  5

  6
_OPEN
  7
_OPEN
 40
1.0
 41
6.666667
 42
0.0625
 43
0.38
 44
0.18
 45
0.0
 46
0.0
 47
0.0
 48
0.0
140
7.0
141
0.09
142
0.0
143
25.4
144
1.0
145
0.0
146
1.0
147
0.6
 71
     0
 72
     0
 73
     1
 74
     1
 75
     0
 76
     0
 77
     0
 78
     0
170
     0
171
     2
172
     0
173
     1
174
     0
175
     0
176
     0
177
     0
178
     0
270
     2
271
     4
272
     4
273
     2
274
     2
340
10
275
     0
280
     0
281
     0
282
     0
283
     1
284
     0
285
     0
286
     0
287
     3
288
     0
  0
ENDTAB
  0
TABLE
  2
BLOCK_RECORD
  5
1
100
AcDbSymbolTable
 70
    16
  0
BLOCK_RECORD
  5
21
100
AcDbSymbolTableRecord
100
AcDbBlockTableRecord
  2
*MODEL_SPACE
  0
BLOCK_RECORD
  5
24
100
AcDbSymbolTableRecord
100
AcDbBlockTableRecord
  2
*PAPER_SPACE
  0
BLOCK_RECORD
  5
29
100
AcDbSymbolTableRecord
100
AcDbBlockTableRecord
  2
_NONE
  0
BLOCK_RECORD
  5
2D
100
AcDbSymbolTableRecord
100
AcDbBlockTableRecord
  2
_OPEN
  0
BLOCK_RECORD
  5
33
100
AcDbSymbolTableRecord
100
AcDbBlockTableRecord
  2
_CLOSED
  0
BLOCK_RECORD
  5
3A
100
AcDbSymbolTableRecord
100
AcDbBlockTableRecord
  2
_ORIGIN
  0
BLOCK_RECORD
  5
3F
100
AcDbSymbolTableRecord
100
AcDbBlockTableRecord
  2
_DOT
  0
BLOCK_RECORD
  5
47
100
AcDbSymbolTableRecord
100
AcDbBlockTableRecord
  2
_OBLIQUE
  0
BLOCK_RECORD
  5
4B
100
AcDbSymbolTableRecord
100
AcDbBlockTableRecord
  2
DIMS0
  0
BLOCK_RECORD
  5
57
100
AcDbSymbolTableRecord
100
AcDbBlockTableRecord
  2
DIMS1
  0
BLOCK_RECORD
  5
63
100
AcDbSymbolTableRecord
100
AcDbBlockTableRecord
  2
DIMS2
  0
BLOCK_RECORD
  5
6F
100
AcDbSymbolTableRecord
100
AcDbBlockTableRecord
  2
DIMS3
  0
BLOCK_RECORD
  5
78
100
AcDbSymbolTableRecord
100
AcDbBlockTableRecord
  2
DIMS4
  0
BLOCK_RECORD
  5
84
100
AcDbSymbolTableRecord
100
AcDbBlockTableRecord
  2
DIMS5
  0
BLOCK_RECORD
  5
90
100
AcDbSymbolTableRecord
100
AcDbBlockTableRecord
  2
DIMS6
  0
BLOCK_RECORD
  5
9C
100
AcDbSymbolTableRecord
100
AcDbBlockTableRecord
  2
DIMS7
  0
BLOCK_RECORD
  5
A8
100
AcDbSymbolTableRecord
100
AcDbBlockTableRecord
  2
DIMS8
  0
BLOCK_RECORD
  5
B1
100
AcDbSymbolTableRecord
100
AcDbBlockTableRecord
  2
DIMS9
  0
ENDTAB
  0
ENDSEC
  0
SECTION
  2
BLOCKS
  0
BLOCK
  5
22
100
AcDbEntity
  8
0
100
AcDbBlockBegin
  2
*MODEL_SPACE
 70
     0
 10
0.0
 20
0.0
 30
0.0
  3
*MODEL_SPACE
  1

  0
ENDBLK
  5
23
100
AcDbEntity
  8
0
100
AcDbBlockEnd
  0
BLOCK
  5
25
100
AcDbEntity
 67
     1
  8
0
100
AcDbBlockBegin
  2
*PAPER_SPACE
 70
     0
 10
0.0
 20
0.0
 30
0.0
  3
*PAPER_SPACE
  1

  0
ENDBLK
  5
26
100
AcDbEntity
 67
     1
  8
0
100
AcDbBlockEnd
  0
BLOCK
  5
2A
100
AcDbEntity
  8
0
100
AcDbBlockBegin
  2
_NONE
 70
     0
 10
0.0
 20
0.0
  0
CIRCLE
  5
2B
100
AcDbEntity
  8
0
 62
     0
100
AcDbCircle
 10
0.0
 20
0.0
 40
0.25
  0
ENDBLK
  5
2C
100
AcDbEntity
  8
0
100
AcDbBlockEnd
  0
BLOCK
  5
2E
100
AcDbEntity
  8
0
100
AcDbBlockBegin
  2
_OPEN
 70
     0
 10
0.0
 20
0.0
  0
LINE
  5
2F
100
AcDbEntity
  8
0
 62
     0
100
AcDbLine
 10
-0.965926
 20
0.258819
 11
0.0
 21
0.0
  0
LINE
  5
30
100
AcDbEntity
  8
0
 62
     0
100
AcDbLine
 10
0.0
 20
0.0
 11
-0.965926
 21
-0.258819
  0
LINE
  5
31
100
AcDbEntity
  8
0
 62
     0
100
AcDbLine
 10
0.0
 20
0.0
 11
-1.0
 21
0.0
  0
ENDBLK
  5
32
100
AcDbEntity
  8
0
100
AcDbBlockEnd
  0
BLOCK
  5
34
100
AcDbEntity
  8
0
100
AcDbBlockBegin
  2
_CLOSED
 70
     0
 10
0.0
 20
0.0
  0
LINE
  5
35
100
AcDbEntity
  8
0
 62
     0
100
AcDbLine
 10
-0.965926
 20
0.258819
 11
0.0
 21
0.0
  0
LINE
  5
36
100
AcDbEntity
  8
0
 62
     0
100
AcDbLine
 10
0.0
 20
0.0
 11
-0.965926
 21
-0.258819
  0
LINE
  5
37
100
AcDbEntity
  8
0
 62
     0
100
AcDbLine
 10
-0.965926
 20
0.258819
 11
-0.965926
 21
-0.258819
  0
LINE
  5
38
100
AcDbEntity
  8
0
 62
     0
100
AcDbLine
 10
0.0
 20
0.0
 11
-1.0
 21
0.0
  0
ENDBLK
  5
39
100
AcDbEntity
  8
0
100
AcDbBlockEnd
  0
BLOCK
  5
3B
100
AcDbEntity
  8
0
100
AcDbBlockBegin
  2
_ORIGIN
 70
     0
 10
0.0
 20
0.0
  0
CIRCLE
  5
3C
100
AcDbEntity
  8
0
 62
     0
100
AcDbCircle
 10
0.0
 20
0.0
 40
0.5
  0
LINE
  5
3D
100
AcDbEntity
  8
0
 62
     0
100
AcDbLine
 10
0.0
 20
0.0
 11
-1.0
 21
0.0
  0
ENDBLK
  5
3E
100
AcDbEntity
  8
0
100
AcDbBlockEnd
  0
BLOCK
  5
40
100
AcDbEntity
  8
0
100
AcDbBlockBegin
  2
_DOT
 70
     0
 10
0.0
 20
0.0
  0
POLYLINE
  5
41
100
AcDbEntity
  8
0
 62
     0
100
AcDb2dPolyline
 66
     1
 70
     1
 40
0.5
 41
0.5
  0
VERTEX
  5
42
100
AcDbEntity
  8
0
 62
     0
100
AcDbVertex
100
AcDb2dVertex
 10
-0.25
 20
0.0
 42
1.0
  0
VERTEX
  5
43
100
AcDbEntity
  8
0
 62
     0
100
AcDbVertex
100
AcDb2dVertex
 10
0.25
 20
0.0
 42
1.0
  0
SEQEND
  5
44
100
AcDbEntity
  8
0
 62
     0
  0
LINE
  5
45
100
AcDbEntity
  8
0
 62
     0
100
AcDbLine
 10
-0.5
 20
0.0
 11
-1.0
 21
0.0
  0
ENDBLK
  5
46
100
AcDbEntity
  8
0
100
AcDbBlockEnd
  0
BLOCK
  5
48
100
AcDbEntity
  8
0
100
AcDbBlockBegin
  2
_OBLIQUE
 70
     0
 10
0.0
 20
0.0
  0
LINE
  5
49
100
AcDbEntity
  8
0
 62
     0
100
AcDbLine
 10
-0.353553
 20
-0.353553
 11
0.353553
 21
0.353553
  0
ENDBLK
  5
4A
100
AcDbEntity
  8
0
100
AcDbBlockEnd
  0
BLOCK
  5
4C
100
AcDbEntity
  8
DD0
100
AcDbBlockBegin
  2
DIMS0
 70
     0
 10
0.0
 20
0.0
  0
LINE
  5
4D
100
AcDbEntity
  8
DD0
100
AcDbLine
 10
410.185117
 20
534.215814
 11
410.185117
 21
549.575549
  0
LINE
  5
4E
100
AcDbEntity
  8
DD0
100
AcDbLine
 10
393.685144
 20
532.215319
 11
393.685144
 21
549.575549
  0
LINE
  5
4F
100
AcDbEntity
  8
DD0
100
AcDbLine
 10
416.624623
 20
549.078787
 11
410.185117
 21
547.353327
  0
LINE
  5
50
100
AcDbEntity
  8
DD0
100
AcDbLine
 10
410.185117
 20
547.353327
 11
416.624623
 21
545.627866
  0
LINE
  5
51
100
AcDbEntity
  8
DD0
100
AcDbLine
 10
387.245638
 20
545.627866
 11
393.685144
 21
547.353327
  0
LINE
  5
52
100
AcDbEntity
  8
DD0
100
AcDbLine
 10
393.685144
 20
547.353327
 11
387.245638
 21
549.078787
  0
LINE
  5
53
100
AcDbEntity
  8
DD0
100
AcDbLine
 10
417.51845
 20
547.353327
 11
386.35181
 21
547.353327
  0
TEXT
  5
54
100
AcDbEntity
  8
DD0
100
AcDbText
 10
390.12158
 20
548.939359
 40
5.555556
  1
１６．５
 50
0.000132
 41
0.75
  7
STANDARD
100
AcDbText
  0
ENDBLK
  5
55
100
AcDbEntity
  8
DD0
100
AcDbBlockEnd
  0
BLOCK
  5
58
100
AcDbEntity
  8
DD0
100
AcDbBlockBegin
  2
DIMS1
 70
     0
 10
0.0
 20
0.0
  0
LINE
  5
59
100
AcDbEntity
  8
DD0
100
AcDbLine
 10
55.98652
 20
520.715922
 11
55.98652
 21
584.889813
  0
LINE
  5
5A
100
AcDbEntity
  8
DD0
100
AcDbLine
 10
175.986926
 20
526.21536
 11
175.986926
 21
584.889813
  0
LINE
  5
5B
100
AcDbEntity
  8
DD0
100
AcDbLine
 10
62.426026
 20
584.393051
 11
55.98652
 21
582.667591
  0
LINE
  5
5C
100
AcDbEntity
  8
DD0
100
AcDbLine
 10
55.98652
 20
582.667591
 11
62.426026
 21
580.94213
  0
LINE
  5
5D
100
AcDbEntity
  8
DD0
100
AcDbLine
 10
169.547421
 20
580.94213
 11
175.986926
 21
582.667591
  0
LINE
  5
5E
100
AcDbEntity
  8
DD0
100
AcDbLine
 10
175.986926
 20
582.667591
 11
169.547421
 21
584.393051
  0
LINE
  5
5F
100
AcDbEntity
  8
DD0
100
AcDbLine
 10
55.98652
 20
582.667591
 11
175.986926
 21
582.667591
  0
TEXT
  5
60
100
AcDbEntity
  8
DD0
100
AcDbText
 10
102.558947
 20
584.000938
 40
7.0
  1
※１２０
 41
0.833333
  7
STANDARD
100
AcDbText
  0
ENDBLK
  5
61
100
AcDbEntity
  8
DD0
100
AcDbBlockEnd
  0
BLOCK
  5
64
100
AcDbEntity
  8
DD0
100
AcDbBlockBegin
  2
DIMS2
 70
     0
 10
0.0
 20
0.0
  0
LINE
  5
65
100
AcDbEntity
  8
DD0
100
AcDbLine
 10
165.908597
 20
380.495344
 11
213.206505
 21
380.495344
  0
LINE
  5
66
100
AcDbEntity
  8
DD0
100
AcDbLine
 10
165.908597
 20
533.493192
 11
213.206505
 21
533.493192
  0
LINE
  5
67
100
AcDbEntity
  8
DD0
100
AcDbLine
 10
209.258822
 20
386.93485
 11
210.984282
 21
380.495344
  0
LINE
  5
68
100
AcDbEntity
  8
DD0
100
AcDbLine
 10
210.984282
 20
380.495344
 11
212.709743
 21
386.93485
  0
LINE
  5
69
100
AcDbEntity
  8
DD0
100
AcDbLine
 10
212.709743
 20
527.053686
 11
210.984282
 21
533.493192
  0
LINE
  5
6A
100
AcDbEntity
  8
DD0
100
AcDbLine
 10
210.984282
 20
533.493192
 11
209.258822
 21
527.053686
  0
LINE
  5
6B
100
AcDbEntity
  8
DD0
100
AcDbLine
 10
210.984282
 20
380.495344
 11
210.984282
 21
533.493192
  0
TEXT
  5
6C
100
AcDbEntity
  8
DD0
100
AcDbText
 10
209.650952
 20
447.066479
 40
7.0
  1
１５３
 50
90.000003
 41
0.833333
  7
STANDARD
100
AcDbText
  0
ENDBLK
  5
6D
100
AcDbEntity
  8
DD0
100
AcDbBlockEnd
  0
BLOCK
  5
70
100
AcDbEntity
  8
DD0
100
AcDbBlockBegin
  2
DIMS3
 70
     0
 10
0.0
 20
0.0
  0
TEXT
  5
71
100
AcDbEntity
  8
DD0
100
AcDbText
 10
44.964345
 20
331.728016
 40
5.555556
  1
相間バリヤ
 41
0.666667
  7
STANDARD
100
AcDbText
  0
LINE
  5
72
100
AcDbEntity
  8
DD0
100
AcDbLine
 10
95.264997
 20
365.572161
 11
97.486473
 21
371.857818
  0
LINE
  5
73
100
AcDbEntity
  8
DD0
100
AcDbLine
 10
97.486473
 20
371.857818
 11
92.41979
 21
367.525017
  0
LINE
  5
74
100
AcDbEntity
  8
DD0
100
AcDbLine
 10
97.486473
 20
371.857818
 11
69.027445
 21
330.394533
  0
LINE
  5
75
100
AcDbEntity
  8
DD0
100
AcDbLine
 10
69.027445
 20
330.394533
 11
42.360743
 21
330.394601
  0
ENDBLK
  5
76
100
AcDbEntity
  8
DD0
100
AcDbBlockEnd
  0
BLOCK
  5
79
100
AcDbEntity
  8
DD0
100
AcDbBlockBegin
  2
DIMS4
 70
     0
 10
0.0
 20
0.0
  0
LINE
  5
7A
100
AcDbEntity
  8
DD0
100
AcDbLine
 10
165.903206
 20
280.165396
 11
213.206505
 21
280.165396
  0
LINE
  5
7B
100
AcDbEntity
  8
DD0
 60
     1
100
AcDbLine
 10
191.212078
 20
268.665626
 11
213.206505
 21
268.665626
  0
LINE
  5
7C
100
AcDbEntity
  8
DD0
100
AcDbLine
 10
209.258822
 20
286.604901
 11
210.984282
 21
280.165396
  0
LINE
  5
7D
100
AcDbEntity
  8
DD0
100
AcDbLine
 10
210.984282
 20
280.165396
 11
212.709743
 21
286.604901
  0
LINE
  5
7E
100
AcDbEntity
  8
DD0
100
AcDbLine
 10
212.709743
 20
262.22612
 11
210.984282
 21
268.665626
  0
LINE
  5
7F
100
AcDbEntity
  8
DD0
100
AcDbLine
 10
210.984282
 20
268.665626
 11
209.258822
 21
262.22612
  0
LINE
  5
80
100
AcDbEntity
  8
DD0
100
AcDbLine
 10
210.984282
 20
309.365397
 11
210.984282
 21
261.332293
  0
TEXT
  5
81
100
AcDbEntity
  8
DD0
100
AcDbText
 10
209.428733
 20
287.907986
 40
7.0
  1
１１．５
 50
90.000003
 41
0.584656
  7
STANDARD
100
AcDbText
  0
ENDBLK
  5
82
100
AcDbEntity
  8
DD0
100
AcDbBlockEnd
  0
BLOCK
  5
85
100
AcDbEntity
  8
DD0
100
AcDbBlockBegin
  2
DIMS5
 70
     0
 10
0.0
 20
0.0
  0
LINE
  5
86
100
AcDbEntity
  8
DD0
 60
     1
100
AcDbLine
 10
191.212078
 20
268.665626
 11
213.206505
 21
268.665626
  0
LINE
  5
87
100
AcDbEntity
  8
DD0
100
AcDbLine
 10
91.211974
 20
138.665495
 11
213.206505
 21
138.665495
  0
LINE
  5
88
100
AcDbEntity
  8
DD0
100
AcDbLine
 10
212.709743
 20
262.22612
 11
210.984282
 21
268.665626
  0
LINE
  5
89
100
AcDbEntity
  8
DD0
100
AcDbLine
 10
210.984282
 20
268.665626
 11
209.258822
 21
262.22612
  0
LINE
  5
8A
100
AcDbEntity
  8
DD0
100
AcDbLine
 10
209.258822
 20
145.105001
 11
210.984282
 21
138.665495
  0
LINE
  5
8B
100
AcDbEntity
  8
DD0
100
AcDbLine
 10
210.984282
 20
138.665495
 11
212.709743
 21
145.105001
  0
LINE
  5
8C
100
AcDbEntity
  8
DD0
100
AcDbLine
 10
210.984282
 20
268.665626
 11
210.984282
 21
138.665495
  0
TEXT
  5
8D
100
AcDbEntity
  8
DD0
100
AcDbText
 10
209.650952
 20
193.737785
 40
7.0
  1
１３０
 50
90.000003
 41
0.833333
  7
STANDARD
100
AcDbText
  0
ENDBLK
  5
8E
100
AcDbEntity
  8
DD0
100
AcDbBlockEnd
  0
BLOCK
  5
91
100
AcDbEntity
  8
DD0
100
AcDbBlockBegin
  2
DIMS6
 70
     0
 10
0.0
 20
0.0
  0
LINE
  5
92
100
AcDbEntity
  8
DD0
100
AcDbLine
 10
245.684855
 20
515.216553
 11
245.684855
 21
584.889813
  0
LINE
  5
93
100
AcDbEntity
  8
DD0
100
AcDbLine
 10
410.685131
 20
534.215577
 11
410.685131
 21
584.889813
  0
LINE
  5
94
100
AcDbEntity
  8
DD0
100
AcDbLine
 10
252.124361
 20
584.393051
 11
245.684855
 21
582.667591
  0
LINE
  5
95
100
AcDbEntity
  8
DD0
100
AcDbLine
 10
245.684855
 20
582.667591
 11
252.124361
 21
580.94213
  0
LINE
  5
96
100
AcDbEntity
  8
DD0
100
AcDbLine
 10
404.245625
 20
580.94213
 11
410.685131
 21
582.667591
  0
LINE
  5
97
100
AcDbEntity
  8
DD0
100
AcDbLine
 10
410.685131
 20
582.667591
 11
404.245625
 21
584.393051
  0
LINE
  5
98
100
AcDbEntity
  8
DD0
100
AcDbLine
 10
245.684855
 20
582.667591
 11
410.685131
 21
582.667591
  0
TEXT
  5
99
100
AcDbEntity
  8
DD0
100
AcDbText
 10
318.257204
 20
584.000938
 40
7.0
  1
１６５
 41
0.833333
  7
STANDARD
100
AcDbText
  0
ENDBLK
  5
9A
100
AcDbEntity
  8
DD0
100
AcDbBlockEnd
  0
BLOCK
  5
9D
100
AcDbEntity
  8
DD0
100
AcDbBlockBegin
  2
DIMS7
 70
     0
 10
0.0
 20
0.0
  0
LINE
  5
9E
100
AcDbEntity
  8
DD0
100
AcDbLine
 10
136.708793
 20
341.494353
 11
213.206505
 21
341.494353
  0
LINE
  5
9F
100
AcDbEntity
  8
DD0
100
AcDbLine
 10
163.72949
 20
380.493242
 11
213.206505
 21
380.493242
  0
LINE
  5
A0
100
AcDbEntity
  8
DD0
100
AcDbLine
 10
209.258822
 20
347.933859
 11
210.984282
 21
341.494353
  0
LINE
  5
A1
100
AcDbEntity
  8
DD0
100
AcDbLine
 10
210.984282
 20
341.494353
 11
212.709743
 21
347.933859
  0
LINE
  5
A2
100
AcDbEntity
  8
DD0
100
AcDbLine
 10
212.709743
 20
374.053736
 11
210.984282
 21
380.493242
  0
LINE
  5
A3
100
AcDbEntity
  8
DD0
100
AcDbLine
 10
210.984282
 20
380.493242
 11
209.258822
 21
374.053736
  0
LINE
  5
A4
100
AcDbEntity
  8
DD0
100
AcDbLine
 10
210.984282
 20
341.494353
 11
210.984282
 21
380.493242
  0
TEXT
  5
A5
100
AcDbEntity
  8
DD0
100
AcDbText
 10
209.650952
 20
354.566036
 40
7.0
  1
３９
 50
90.000003
 41
0.833333
  7
STANDARD
100
AcDbText
  0
ENDBLK
  5
A6
100
AcDbEntity
  8
DD0
100
AcDbBlockEnd
  0
BLOCK
  5
A9
100
AcDbEntity
  8
DD0
100
AcDbBlockBegin
  2
DIMS8
 70
     0
 10
0.0
 20
0.0
  0
TEXT
  5
AA
100
AcDbEntity
  8
DD0
100
AcDbText
 10
92.907415
 20
97.106411
 40
7.0
  1
２－Ｍ６ねじ穴
 41
0.833333
  7
STANDARD
100
AcDbText
  0
LINE
  5
AB
100
AcDbEntity
  8
DD0
100
AcDbLine
 10
72.16914
 20
131.254726
 11
68.110294
 21
136.543413
  0
LINE
  5
AC
100
AcDbEntity
  8
DD0
100
AcDbLine
 10
68.110294
 20
136.543413
 11
68.981014
 21
129.933852
  0
LINE
  5
AD
100
AcDbEntity
  8
DD0
100
AcDbLine
 10
68.110294
 20
136.543413
 11
85.001859
 21
95.773081
  0
LINE
  5
AE
100
AcDbEntity
  8
DD0
100
AcDbLine
 10
85.001859
 20
95.773081
 11
148.668522
 21
95.773081
  0
ENDBLK
  5
AF
100
AcDbEntity
  8
DD0
100
AcDbBlockEnd
  0
BLOCK
  5
B2
100
AcDbEntity
  8
DD0
100
AcDbBlockBegin
  2
DIMS9
 70
     0
 10
0.0
 20
0.0
  0
LINE
  5
B3
100
AcDbEntity
  8
DD0
100
AcDbLine
 10
165.989825
 20
293.887879
 11
165.989825
 21
313.030539
  0
LINE
  5
B4
100
AcDbEntity
  8
DD0
100
AcDbLine
 10
65.989733
 20
163.88774
 11
65.989733
 21
313.030539
  0
LINE
  5
B5
100
AcDbEntity
  8
DD0
100
AcDbLine
 10
159.550319
 20
309.082857
 11
165.989825
 21
310.808317
  0
LINE
  5
B6
100
AcDbEntity
  8
DD0
100
AcDbLine
 10
165.989825
 20
310.808317
 11
159.550319
 21
312.533778
  0
LINE
  5
B7
100
AcDbEntity
  8
DD0
100
AcDbLine
 10
72.429239
 20
312.533778
 11
65.989733
 21
310.808317
  0
LINE
  5
B8
100
AcDbEntity
  8
DD0
100
AcDbLine
 10
65.989733
 20
310.808317
 11
72.429239
 21
309.082857
  0
LINE
  5
B9
100
AcDbEntity
  8
DD0
100
AcDbLine
 10
165.989825
 20
310.808317
 11
65.989733
 21
310.808317
  0
TEXT
  5
BA
100
AcDbEntity
  8
DD0
100
AcDbText
 10
106.062001
 20
312.141664
 40
7.0
  1
１００
 41
0.833333
  7
STANDARD
100
AcDbText
  0
ENDBLK
  5
BB
100
AcDbEntity
  8
DD0
100
AcDbBlockEnd
  0
ENDSEC
  0
SECTION
  2
ENTITIES
  0
INSERT
  5
56
100
AcDbEntity
  8
DD0
100
AcDbBlockReference
  2
DIMS0
 10
0.0
 20
0.0
  0
INSERT
  5
62
100
AcDbEntity
  8
DD0
100
AcDbBlockReference
  2
DIMS1
 10
0.0
 20
0.0
  0
INSERT
  5
6E
100
AcDbEntity
  8
DD0
100
AcDbBlockReference
  2
DIMS2
 10
0.0
 20
0.0
  0
INSERT
  5
77
100
AcDbEntity
  8
DD0
100
AcDbBlockReference
  2
DIMS3
 10
0.0
 20
0.0
  0
INSERT
  5
83
100
AcDbEntity
  8
DD0
100
AcDbBlockReference
  2
DIMS4
 10
0.0
 20
0.0
  0
INSERT
  5
8F
100
AcDbEntity
  8
DD0
100
AcDbBlockReference
  2
DIMS5
 10
0.0
 20
0.0
  0
INSERT
  5
9B
100
AcDbEntity
  8
DD0
100
AcDbBlockReference
  2
DIMS6
 10
0.0
 20
0.0
  0
INSERT
  5
A7
100
AcDbEntity
  8
DD0
100
AcDbBlockReference
  2
DIMS7
 10
0.0
 20
0.0
  0
INSERT
  5
B0
100
AcDbEntity
  8
DD0
100
AcDbBlockReference
  2
DIMS8
 10
0.0
 20
0.0
  0
INSERT
  5
BC
100
AcDbEntity
  8
DD0
100
AcDbBlockReference
  2
DIMS9
 10
0.0
 20
0.0
  0
LINE
  5
BD
100
AcDbEntity
  8
M0
 62
     7
100
AcDbLine
 10
335.684885
 20
513.993545
 11
347.685129
 21
513.993545
  0
LINE
  5
BE
100
AcDbEntity
  8
M0
 62
     7
100
AcDbLine
 10
307.684885
 20
512.493545
 11
314.484934
 21
512.493545
  0
LINE
  5
BF
100
AcDbEntity
  8
M0
 62
     7
100
AcDbLine
 10
315.584788
 20
502.493545
 11
317.684885
 21
502.493545
  0
LINE
  5
C0
100
AcDbEntity
  8
M0
 62
     7
100
AcDbLine
 10
307.684885
 20
498.493545
 11
314.584788
 21
498.493545
  0
LINE
  5
C1
100
AcDbEntity
  8
M0
 62
     7
100
AcDbLine
 10
321.684885
 20
486.993545
 11
331.684885
 21
486.993545
  0
LINE
  5
C2
100
AcDbEntity
  8
M0
 62
     7
100
AcDbLine
 10
300.684885
 20
484.493545
 11
311.184885
 21
484.493545
  0
LINE
  5
C3
100
AcDbEntity
  8
M0
 62
     7
100
AcDbLine
 10
272.684885
 20
474.493744
 11
290.684885
 21
474.493744
  0
LINE
  5
C4
100
AcDbEntity
  8
M0
 62
     7
100
AcDbLine
 10
270.684885
 20
460.743789
 11
277.184885
 21
460.743789
  0
LINE
  5
C5
100
AcDbEntity
  8
M0
 62
     7
100
AcDbLine
 10
275.684885
 20
459.743789
 11
277.184885
 21
459.743789
  0
LINE
  5
C6
100
AcDbEntity
  8
M0
 62
     7
100
AcDbLine
 10
347.684885
 20
531.993545
 11
347.684885
 21
476.893646
  0
LINE
  5
C7
100
AcDbEntity
  8
M0
 62
     7
100
AcDbLine
 10
334.684885
 20
522.128311
 11
334.684885
 21
489.993545
  0
ARC
  5
C8
100
AcDbEntity
  8
M0
 62
     7
100
AcDbCircle
 10
335.684885
 20
512.993545
 40
1.0
100
AcDbArc
 50
90.0
 51
180.0
  0
ARC
  5
C9
100
AcDbEntity
  8
M0
 62
     7
100
AcDbCircle
 10
333.684885
 20
513.493545
 40
1.0
100
AcDbArc
 50
269.999126
 51
360.0
  0
LINE
  5
CA
100
AcDbEntity
  8
M0
 62
     7
100
AcDbLine
 10
317.684885
 20
511.493545
 11
317.684885
 21
502.493545
  0
LINE
  5
CB
100
AcDbEntity
  8
M0
 62
     7
100
AcDbLine
 10
306.684885
 20
511.493545
 11
306.684885
 21
484.493545
  0
ARC
  5
CC
100
AcDbEntity
  8
M0
 62
     7
100
AcDbCircle
 10
307.684885
 20
511.493545
 40
1.0
100
AcDbArc
 50
90.0
 51
180.0
  0
ARC
  5
CD
100
AcDbEntity
  8
M0
 62
     7
100
AcDbCircle
 10
318.684885
 20
511.493545
 40
1.0
100
AcDbArc
 50
90.0
 51
180.0
  0
LINE
  5
CE
100
AcDbEntity
  8
M0
 62
     7
100
AcDbLine
 10
314.584788
 20
501.493545
 11
314.584788
 21
483.493545
  0
ARC
  5
CF
100
AcDbEntity
  8
M0
 62
     7
100
AcDbCircle
 10
315.584788
 20
501.493545
 40
1.0
100
AcDbArc
 50
90.0
 51
180.0
  0
ARC
  5
D0
100
AcDbEntity
  8
M0
 62
     7
100
AcDbCircle
 10
307.684885
 20
497.493545
 40
1.0
100
AcDbArc
 50
90.0
 51
180.0
  0
ARC
  5
D1
100
AcDbEntity
  8
M0
 62
     7
100
AcDbCircle
 10
331.684885
 20
489.993545
 40
3.0
100
AcDbArc
 50
269.999709
 51
360.0
  0
LINE
  5
D2
100
AcDbEntity
  8
M0
 62
     7
100
AcDbLine
 10
320.684885
 20
485.993545
 11
320.684885
 21
483.493545
  0
ARC
  5
D3
100
AcDbEntity
  8
M0
 62
     7
100
AcDbCircle
 10
321.684885
 20
485.993545
 40
1.0
100
AcDbArc
 50
90.0
 51
180.0
  0
LINE
  5
D4
100
AcDbEntity
  8
M0
 62
     7
100
AcDbLine
 10
311.684885
 20
483.493545
 11
320.684885
 21
483.493545
  0
LINE
  5
D5
100
AcDbEntity
  8
M0
 62
     7
100
AcDbLine
 10
311.684885
 20
483.993545
 11
311.684885
 21
483.493545
  0
ARC
  5
D6
100
AcDbEntity
  8
M0
 62
     7
100
AcDbCircle
 10
311.184885
 20
483.993545
 40
0.5
100
AcDbArc
 50
0.0
 51
90.0
  0
LINE
  5
D7
100
AcDbEntity
  8
M0
 62
     7
100
AcDbLine
 10
270.684885
 20
472.493789
 11
270.684885
 21
456.993789
  0
LINE
  5
D8
100
AcDbEntity
  8
M0
 62
     7
100
AcDbLine
 10
277.184885
 20
460.743789
 11
277.184885
 21
456.993789
  0
LINE
  5
D9
100
AcDbEntity
  8
M0
 62
     7
100
AcDbLine
 10
294.684885
 20
474.493744
 11
294.684885
 21
471.993789
  0
LINE
  5
DA
100
AcDbEntity
  8
M0
 62
     7
100
AcDbLine
 10
298.684885
 20
482.493744
 11
298.684885
 21
478.493744
  0
ARC
  5
DB
100
AcDbEntity
  8
M0
 62
     7
100
AcDbCircle
 10
300.684885
 20
482.493744
 40
2.0
100
AcDbArc
 50
90.0
 51
180.0
  0
LINE
  5
DC
100
AcDbEntity
  8
M0
 62
     7
100
AcDbLine
 10
290.684885
 20
474.493744
 11
290.684885
 21
471.993789
  0
LINE
  5
DD
100
AcDbEntity
  8
M0
 62
     7
100
AcDbLine
 10
272.684885
 20
474.493744
 11
290.684885
 21
474.493744
  0
ARC
  5
DE
100
AcDbEntity
  8
M0
 62
     7
100
AcDbCircle
 10
294.684885
 20
478.493744
 40
4.0
100
AcDbArc
 50
269.999781
 51
360.0
  0
LINE
  5
DF
100
AcDbEntity
  8
M0
 62
     7
100
AcDbLine
 10
290.684885
 20
471.993789
 11
294.684885
 21
471.993789
  0
ARC
  5
E0
100
AcDbEntity
  8
M0
 62
     7
100
AcDbCircle
 10
272.684885
 20
472.493789
 40
2.0
100
AcDbArc
 50
90.0
 51
180.0
  0
LINE
  5
E1
100
AcDbEntity
  8
M0
 62
     7
100
AcDbLine
 10
275.684885
 20
460.743789
 11
275.684885
 21
459.743789
  0
LINE
  5
E2
100
AcDbEntity
  8
M0
 62
     7
100
AcDbLine
 10
290.684885
 20
473.493789
 11
294.684885
 21
473.493789
  0
LINE
  5
E3
100
AcDbEntity
  8
M0
 62
     7
100
AcDbLine
 10
324.684641
 20
463.993789
 11
336.684641
 21
463.993789
  0
LINE
  5
E4
100
AcDbEntity
  8
M0
 62
     7
100
AcDbLine
 10
336.684885
 20
478.743744
 11
336.684885
 21
463.993789
  0
LINE
  5
E5
100
AcDbEntity
  8
M0
 62
     7
100
AcDbLine
 10
322.684641
 20
461.993789
 11
322.684641
 21
458.993789
  0
LINE
  5
E6
100
AcDbEntity
  8
M0
 62
     7
100
AcDbLine
 10
323.684885
 20
457.993789
 11
323.684885
 21
456.993789
  0
LINE
  5
E7
100
AcDbEntity
  8
M0
 62
     7
100
AcDbLine
 10
323.684885
 20
457.993789
 11
322.684885
 21
458.993789
  0
LINE
  5
E8
100
AcDbEntity
  8
M0
 62
     7
100
AcDbLine
 10
334.184885
 20
479.743744
 11
347.684885
 21
479.743744
  0
ARC
  5
E9
100
AcDbEntity
  8
M0
 62
     7
100
AcDbCircle
 10
334.184885
 20
477.243744
 40
2.5
100
AcDbArc
 50
90.0
 51
180.0
  0
LINE
  5
EA
100
AcDbEntity
  8
M0
 62
     7
100
AcDbLine
 10
334.184641
 20
474.743744
 11
336.684885
 21
474.743744
  0
ARC
  5
EB
100
AcDbEntity
  8
M0
 62
     7
100
AcDbCircle
 10
334.184885
 20
477.243744
 40
2.5
100
AcDbArc
 50
180.0
 51
269.99965
  0
LINE
  5
EC
100
AcDbEntity
  8
M0
 62
     7
100
AcDbLine
 10
337.684885
 20
434.493789
 11
347.685129
 21
434.493789
  0
LINE
  5
ED
100
AcDbEntity
  8
M0
 62
     7
100
AcDbLine
 10
337.684885
 20
479.493499
 11
347.685129
 21
479.493499
  0
LINE
  5
EE
100
AcDbEntity
  8
M0
 62
     7
100
AcDbLine
 10
335.684885
 20
408.993789
 11
347.684885
 21
408.993789
  0
LINE
  5
EF
100
AcDbEntity
  8
M0
 62
     7
100
AcDbLine
 10
347.684885
 20
437.793884
 11
347.684885
 21
401.493789
  0
ARC
  5
F0
100
AcDbEntity
  8
M0
 62
     7
100
AcDbCircle
 10
324.684641
 20
461.993789
 40
2.0
100
AcDbArc
 50
90.0
 51
180.0
  0
LINE
  5
F1
100
AcDbEntity
  8
M0
 62
     7
100
AcDbLine
 10
324.684885
 20
449.993789
 11
336.684885
 21
449.993789
  0
LINE
  5
F2
100
AcDbEntity
  8
M0
 62
     7
100
AcDbLine
 10
336.685129
 20
435.493789
 11
336.685129
 21
449.993789
  0
LINE
  5
F3
100
AcDbEntity
  8
M0
 62
     7
100
AcDbLine
 10
322.684885
 20
451.993789
 11
322.684885
 21
454.993789
  0
LINE
  5
F4
100
AcDbEntity
  8
M0
 62
     7
100
AcDbLine
 10
323.685129
 20
455.993789
 11
323.685129
 21
456.993789
  0
LINE
  5
F5
100
AcDbEntity
  8
M0
 62
     7
100
AcDbLine
 10
323.685129
 20
455.993789
 11
322.685129
 21
454.993789
  0
LINE
  5
F6
100
AcDbEntity
  8
M0
 62
     7
100
AcDbLine
 10
334.185129
 20
434.243789
 11
347.685129
 21
434.243789
  0
ARC
  5
F7
100
AcDbEntity
  8
M0
 62
     7
100
AcDbCircle
 10
334.185129
 20
436.743789
 40
2.5
100
AcDbArc
 50
180.0
 51
269.99965
  0
LINE
  5
F8
100
AcDbEntity
  8
M0
 62
     7
100
AcDbLine
 10
334.184885
 20
439.243789
 11
336.685129
 21
439.243789
  0
ARC
  5
F9
100
AcDbEntity
  8
M0
 62
     7
100
AcDbCircle
 10
334.185129
 20
436.743789
 40
2.5
100
AcDbArc
 50
90.0
 51
180.0
  0
ARC
  5
FA
100
AcDbEntity
  8
M0
 62
     7
100
AcDbCircle
 10
337.685129
 20
435.493789
 40
1.0
100
AcDbArc
 50
180.0
 51
269.999126
  0
ARC
  5
FB
100
AcDbEntity
  8
M0
 62
     7
100
AcDbCircle
 10
337.685129
 20
478.493499
 40
1.0
100
AcDbArc
 50
90.0
 51
180.0
  0
ARC
  5
FC
100
AcDbEntity
  8
M0
 62
     7
100
AcDbCircle
 10
324.684885
 20
451.993789
 40
2.0
100
AcDbArc
 50
180.0
 51
269.999563
  0
LINE
  5
FD
100
AcDbEntity
  8
M0
 62
     7
100
AcDbLine
 10
307.685129
 20
401.493789
 11
314.484446
 21
401.493789
  0
LINE
  5
FE
100
AcDbEntity
  8
M0
 62
     7
100
AcDbLine
 10
315.585032
 20
411.493789
 11
317.685129
 21
411.493789
  0
LINE
  5
FF
100
AcDbEntity
  8
M0
 62
     7
100
AcDbLine
 10
307.685129
 20
415.493789
 11
314.585032
 21
415.493789
  0
LINE
  5
100
100
AcDbEntity
  8
M0
 62
     7
100
AcDbLine
 10
321.685129
 20
426.993789
 11
331.685129
 21
426.993789
  0
LINE
  5
101
100
AcDbEntity
  8
M0
 62
     7
100
AcDbLine
 10
300.685129
 20
429.493789
 11
311.185129
 21
429.493789
  0
LINE
  5
102
100
AcDbEntity
  8
M0
 62
     7
100
AcDbLine
 10
272.685129
 20
439.493789
 11
290.685129
 21
439.493789
  0
LINE
  5
103
100
AcDbEntity
  8
M0
 62
     7
100
AcDbLine
 10
270.685129
 20
453.243789
 11
277.185129
 21
453.243789
  0
LINE
  5
104
100
AcDbEntity
  8
M0
 62
     7
100
AcDbLine
 10
275.685129
 20
454.243789
 11
277.185129
 21
454.243789
  0
LINE
  5
105
100
AcDbEntity
  8
M0
 62
     7
100
AcDbLine
 10
334.685129
 20
409.993789
 11
334.685129
 21
423.993789
  0
LINE
  5
106
100
AcDbEntity
  8
M0
 62
     7
100
AcDbLine
 10
317.685129
 20
402.493789
 11
317.685129
 21
411.493789
  0
LINE
  5
107
100
AcDbEntity
  8
M0
 62
     7
100
AcDbLine
 10
306.685129
 20
402.493789
 11
306.685129
 21
429.493789
  0
ARC
  5
108
100
AcDbEntity
  8
M0
 62
     7
100
AcDbCircle
 10
307.685129
 20
402.493789
 40
1.0
100
AcDbArc
 50
180.0
 51
269.999126
  0
ARC
  5
109
100
AcDbEntity
  8
M0
 62
     7
100
AcDbCircle
 10
318.685129
 20
402.493789
 40
1.0
100
AcDbArc
 50
180.0
 51
269.999126
  0
LINE
  5
10A
100
AcDbEntity
  8
M0
 62
     7
100
AcDbLine
 10
314.585032
 20
412.493789
 11
314.585032
 21
430.493789
  0
ARC
  5
10B
100
AcDbEntity
  8
M0
 62
     7
100
AcDbCircle
 10
315.585032
 20
412.493789
 40
1.0
100
AcDbArc
 50
180.0
 51
269.999126
  0
ARC
  5
10C
100
AcDbEntity
  8
M0
 62
     7
100
AcDbCircle
 10
307.685129
 20
416.493789
 40
1.0
100
AcDbArc
 50
180.0
 51
269.999126
  0
ARC
  5
10D
100
AcDbEntity
  8
M0
 62
     7
100
AcDbCircle
 10
331.685129
 20
423.993789
 40
3.0
100
AcDbArc
 50
0.0
 51
90.0
  0
LINE
  5
10E
100
AcDbEntity
  8
M0
 62
     7
100
AcDbLine
 10
320.685129
 20
427.993789
 11
320.685129
 21
430.493789
  0
ARC
  5
10F
100
AcDbEntity
  8
M0
 62
     7
100
AcDbCircle
 10
321.685129
 20
427.993789
 40
1.0
100
AcDbArc
 50
180.0
 51
269.999126
  0
LINE
  5
110
100
AcDbEntity
  8
M0
 62
     7
100
AcDbLine
 10
312.684885
 20
430.493789
 11
320.684885
 21
430.493789
  0
LINE
  5
111
100
AcDbEntity
  8
M0
 62
     7
100
AcDbLine
 10
311.684885
 20
429.993789
 11
311.684885
 21
429.493789
  0
ARC
  5
112
100
AcDbEntity
  8
M0
 62
     7
100
AcDbCircle
 10
311.185129
 20
429.993789
 40
0.5
100
AcDbArc
 50
-90.001749
 51
0.0
  0
LINE
  5
113
100
AcDbEntity
  8
M0
 62
     7
100
AcDbLine
 10
270.685129
 20
441.493789
 11
270.685129
 21
456.993789
  0
LINE
  5
114
100
AcDbEntity
  8
M0
 62
     7
100
AcDbLine
 10
277.185129
 20
453.243789
 11
277.185129
 21
456.993789
  0
LINE
  5
115
100
AcDbEntity
  8
M0
 62
     7
100
AcDbLine
 10
294.685129
 20
439.493789
 11
294.685129
 21
441.993789
  0
LINE
  5
116
100
AcDbEntity
  8
M0
 62
     7
100
AcDbLine
 10
298.685129
 20
431.493789
 11
298.685129
 21
435.493789
  0
ARC
  5
117
100
AcDbEntity
  8
M0
 62
     7
100
AcDbCircle
 10
300.685129
 20
431.493789
 40
2.0
100
AcDbArc
 50
180.0
 51
269.999563
  0
LINE
  5
118
100
AcDbEntity
  8
M0
 62
     7
100
AcDbLine
 10
290.685129
 20
439.493789
 11
290.685129
 21
441.993789
  0
LINE
  5
119
100
AcDbEntity
  8
M0
 62
     7
100
AcDbLine
 10
272.685129
 20
439.493789
 11
290.685129
 21
439.493789
  0
ARC
  5
11A
100
AcDbEntity
  8
M0
 62
     7
100
AcDbCircle
 10
294.685129
 20
435.493789
 40
4.0
100
AcDbArc
 50
0.0
 51
90.0
  0
LINE
  5
11B
100
AcDbEntity
  8
M0
 62
     7
100
AcDbLine
 10
290.685129
 20
441.993789
 11
294.685129
 21
441.993789
  0
ARC
  5
11C
100
AcDbEntity
  8
M0
 62
     7
100
AcDbCircle
 10
272.685129
 20
441.493789
 40
2.0
100
AcDbArc
 50
180.006994
 51
270.0
  0
LINE
  5
11D
100
AcDbEntity
  8
M0
 62
     7
100
AcDbLine
 10
275.685129
 20
453.243789
 11
275.685129
 21
454.243789
  0
LINE
  5
11E
100
AcDbEntity
  8
M0
 62
     7
100
AcDbLine
 10
290.685129
 20
440.493789
 11
294.685129
 21
440.493789
  0
ARC
  5
11F
100
AcDbEntity
  8
M0
 62
     7
100
AcDbCircle
 10
335.685129
 20
409.993789
 40
1.0
100
AcDbArc
 50
180.0
 51
269.999126
  0
ARC
  5
120
100
AcDbEntity
  8
M0
 62
     7
100
AcDbCircle
 10
312.684885
 20
429.493789
 40
1.0
100
AcDbArc
 50
90.0
 51
180.0
  0
LINE
  5
121
100
AcDbEntity
  8
M0
 62
     7
100
AcDbLine
 10
335.684885
 20
520.493545
 11
347.684885
 21
520.493545
  0
LINE
  5
122
100
AcDbEntity
  8
M0
 62
     7
100
AcDbLine
 10
343.150217
 20
531.993545
 11
347.684885
 21
531.993545
  0
LINE
  5
123
100
AcDbEntity
  8
M0
 62
     7
100
AcDbLine
 10
334.919749
 20
522.772354
 11
342.385081
 21
531.637588
  0
ARC
  5
124
100
AcDbEntity
  8
M0
 62
     7
100
AcDbCircle
 10
335.684885
 20
519.493545
 40
1.0
100
AcDbArc
 50
90.0
 51
180.0
  0
ARC
  5
125
100
AcDbEntity
  8
M0
 62
     7
100
AcDbCircle
 10
343.150217
 20
530.993545
 40
1.0
100
AcDbArc
 50
90.0
 51
139.919368
  0
ARC
  5
126
100
AcDbEntity
  8
M0
 62
     7
100
AcDbCircle
 10
335.684885
 20
522.128311
 40
1.0
100
AcDbArc
 50
139.919368
 51
180.0
  0
LINE
  5
127
100
AcDbEntity
  8
M0
 62
     7
100
AcDbLine
 10
317.684641
 20
512.493545
 11
333.684885
 21
512.493545
  0
LINE
  5
128
100
AcDbEntity
  8
M0
 62
     7
100
AcDbLine
 10
317.684885
 20
401.493789
 11
347.685129
 21
401.493789
  0
LINE
  5
129
100
AcDbEntity
  8
M0
 62
     6
100
AcDbLine
 10
247.684855
 20
514.994323
 11
285.684855
 21
514.994323
  0
LINE
  5
12A
100
AcDbEntity
  8
M0
 62
     6
100
AcDbLine
 10
247.684855
 20
502.494323
 11
314.484659
 21
502.494323
  0
LINE
  5
12B
100
AcDbEntity
  8
M0
 62
     6
100
AcDbLine
 10
247.684855
 20
411.494323
 11
314.484659
 21
411.494323
  0
LINE
  5
12C
100
AcDbEntity
  8
M0
 62
     6
100
AcDbLine
 10
247.684855
 20
398.994323
 11
285.684855
 21
398.994323
  0
LINE
  5
12D
100
AcDbEntity
  8
M0
 62
     6
100
AcDbLine
 10
245.684855
 20
512.994323
 11
245.684855
 21
400.994323
  0
LINE
  5
12E
100
AcDbEntity
  8
M0
 62
     6
100
AcDbLine
 10
306.684855
 20
516.994812
 11
306.684855
 21
502.494323
  0
LINE
  5
12F
100
AcDbEntity
  8
M0
 62
     6
100
AcDbLine
 10
314.484659
 20
502.494323
 11
314.484415
 21
501.493591
  0
ARC
  5
130
100
AcDbEntity
  8
M0
 62
     6
100
AcDbCircle
 10
247.684855
 20
512.994323
 40
2.0
100
AcDbArc
 50
90.0
 51
180.0
  0
ARC
  5
131
100
AcDbEntity
  8
M0
 62
     6
100
AcDbCircle
 10
247.684855
 20
400.994323
 40
2.0
100
AcDbArc
 50
180.0
 51
269.999563
  0
ARC
  5
132
100
AcDbEntity
  8
M0
 62
     6
100
AcDbCircle
 10
247.684855
 20
500.494323
 40
2.0
100
AcDbArc
 50
90.0
 51
180.0
  0
ARC
  5
133
100
AcDbEntity
  8
M0
 62
     6
100
AcDbCircle
 10
247.684855
 20
413.494323
 40
2.0
100
AcDbArc
 50
180.0
 51
269.999563
  0
LINE
  5
134
100
AcDbEntity
  8
M0
 62
     6
100
AcDbLine
 10
306.684855
 20
411.494323
 11
306.684855
 21
396.993789
  0
LINE
  5
135
100
AcDbEntity
  8
M0
  6
DASHDOT
 62
     6
100
AcDbLine
 10
235.213694
 20
456.994323
 11
425.666331
 21
456.994323
  0
LINE
  5
136
100
AcDbEntity
  8
M0
 62
     6
100
AcDbLine
 10
298.184855
 20
482.994323
 11
298.748087
 21
482.994323
  0
LINE
  5
137
100
AcDbEntity
  8
M0
 62
     6
100
AcDbLine
 10
298.184855
 20
430.994323
 11
298.748087
 21
430.994323
  0
LINE
  5
138
100
AcDbEntity
  8
M0
 62
     6
100
AcDbLine
 10
297.184855
 20
481.994323
 11
297.184855
 21
478.594177
  0
LINE
  5
139
100
AcDbEntity
  8
M0
 62
     6
100
AcDbLine
 10
270.184855
 20
473.594177
 11
271.014445
 21
473.594177
  0
LINE
  5
13A
100
AcDbEntity
  8
M0
 62
     6
100
AcDbLine
 10
270.184855
 20
440.394226
 11
271.0142
 21
440.394226
  0
LINE
  5
13B
100
AcDbEntity
  8
M0
 62
     6
100
AcDbLine
 10
268.184855
 20
471.594177
 11
268.184855
 21
442.394226
  0
ARC
  5
13C
100
AcDbEntity
  8
M0
 62
     6
100
AcDbCircle
 10
270.184855
 20
471.594177
 40
2.0
100
AcDbArc
 50
90.0
 51
180.0
  0
ARC
  5
13D
100
AcDbEntity
  8
M0
 62
     6
100
AcDbCircle
 10
270.184855
 20
442.394226
 40
2.0
100
AcDbArc
 50
180.0
 51
269.999563
  0
LINE
  5
13E
100
AcDbEntity
  8
M0
 62
     6
100
AcDbLine
 10
297.184855
 20
435.394226
 11
297.184855
 21
431.994323
  0
ARC
  5
13F
100
AcDbEntity
  8
M0
 62
     6
100
AcDbCircle
 10
292.184855
 20
435.394226
 40
5.0
100
AcDbArc
 50
0.0
 51
90.0
  0
ARC
  5
140
100
AcDbEntity
  8
M0
 62
     6
100
AcDbCircle
 10
292.184855
 20
478.594177
 40
5.0
100
AcDbArc
 50
269.999825
 51
360.0
  0
ARC
  5
141
100
AcDbEntity
  8
M0
 62
     6
100
AcDbCircle
 10
298.184855
 20
481.994323
 40
1.0
100
AcDbArc
 50
90.0
 51
180.0
  0
ARC
  5
142
100
AcDbEntity
  8
M0
 62
     6
100
AcDbCircle
 10
298.184855
 20
431.994323
 40
1.0
100
AcDbArc
 50
180.0
 51
269.999126
  0
LINE
  5
143
100
AcDbEntity
  8
M0
 62
     6
100
AcDbLine
 10
314.484415
 20
412.493866
 11
314.484659
 21
411.494323
  0
LINE
  5
144
100
AcDbEntity
  8
M0
 62
     6
100
AcDbLine
 10
285.684855
 20
393.494323
 11
296.683634
 21
393.494323
  0
LINE
  5
145
100
AcDbEntity
  8
M0
 62
     6
100
AcDbLine
 10
285.684855
 20
520.494323
 11
306.684855
 21
520.494323
  0
LINE
  5
146
100
AcDbEntity
  8
M0
 62
     6
100
AcDbLine
 10
285.684855
 20
512.494323
 11
306.684855
 21
512.494323
  0
LINE
  5
147
100
AcDbEntity
  8
M0
 62
     6
100
AcDbLine
 10
285.684855
 20
401.494323
 11
306.684855
 21
401.494323
  0
LINE
  5
148
100
AcDbEntity
  8
M0
 62
     6
100
AcDbLine
 10
285.684855
 20
520.494323
 11
285.684855
 21
512.494323
  0
LINE
  5
149
100
AcDbEntity
  8
M0
 62
     6
100
AcDbLine
 10
285.684855
 20
401.494323
 11
285.684855
 21
393.494323
  0
LINE
  5
14A
100
AcDbEntity
  8
M0
 62
     4
100
AcDbLine
 10
410.685129
 20
416.993835
 11
410.685129
 21
406.993835
  0
LINE
  5
14B
100
AcDbEntity
  8
M0
 62
     4
100
AcDbLine
 10
410.185129
 20
406.993835
 11
410.685129
 21
406.993835
  0
LINE
  5
14C
100
AcDbEntity
  8
M0
 62
     4
100
AcDbLine
 10
410.185129
 20
416.993835
 11
410.685129
 21
416.993835
  0
LINE
  5
14D
100
AcDbEntity
  8
M0
 62
     4
100
AcDbLine
 10
395.685129
 20
381.993835
 11
410.183909
 21
381.993835
  0
LINE
  5
14E
100
AcDbEntity
  8
M0
 62
     4
100
AcDbLine
 10
347.685129
 20
401.493835
 11
392.685129
 21
401.493835
  0
LINE
  5
14F
100
AcDbEntity
  8
M0
 62
     4
100
AcDbLine
 10
347.685129
 20
408.993835
 11
391.685129
 21
408.993835
  0
LINE
  5
150
100
AcDbEntity
  8
M0
 62
     4
100
AcDbLine
 10
337.685129
 20
434.743835
 11
347.685129
 21
434.743835
  0
LINE
  5
151
100
AcDbEntity
  8
M0
 62
     4
100
AcDbLine
 10
336.685129
 20
449.993835
 11
350.685129
 21
449.993835
  0
LINE
  5
152
100
AcDbEntity
  8
M0
 62
     4
100
AcDbLine
 10
410.185129
 20
381.993835
 11
410.185129
 21
531.993591
  0
LINE
  5
153
100
AcDbEntity
  8
M0
 62
     4
100
AcDbLine
 10
347.685129
 20
401.493835
 11
347.685129
 21
449.993835
  0
LINE
  5
154
100
AcDbEntity
  8
M0
 62
     4
100
AcDbLine
 10
336.685129
 20
435.743835
 11
336.685129
 21
449.993835
  0
ARC
  5
155
100
AcDbEntity
  8
M0
 62
     4
100
AcDbCircle
 10
337.685129
 20
435.743835
 40
1.0
100
AcDbArc
 50
180.0
 51
270.0
  0
LINE
  5
156
100
AcDbEntity
  8
M0
 62
     4
100
AcDbLine
 10
352.685129
 20
454.993835
 11
352.685129
 21
451.993835
  0
LINE
  5
157
100
AcDbEntity
  8
M0
 62
     4
100
AcDbLine
 10
351.685129
 20
457.993835
 11
351.685129
 21
455.993835
  0
LINE
  5
158
100
AcDbEntity
  8
M0
 62
     4
100
AcDbLine
 10
351.685129
 20
455.993835
 11
352.685129
 21
454.993835
  0
LINE
  5
159
100
AcDbEntity
  8
M0
 62
     4
100
AcDbLine
 10
347.684641
 20
531.993347
 11
410.183909
 21
531.993347
  0
LINE
  5
15A
100
AcDbEntity
  8
M0
 62
     4
100
AcDbLine
 10
347.685129
 20
520.493347
 11
387.565745
 21
520.493347
  0
LINE
  5
15B
100
AcDbEntity
  8
M0
 62
     4
100
AcDbLine
 10
347.685129
 20
513.993347
 11
391.685129
 21
513.993347
  0
LINE
  5
15C
100
AcDbEntity
  8
M0
 62
     4
100
AcDbLine
 10
337.685129
 20
479.243637
 11
347.685129
 21
479.243637
  0
LINE
  5
15D
100
AcDbEntity
  8
M0
 62
     4
100
AcDbLine
 10
336.685129
 20
463.993637
 11
350.685129
 21
463.993637
  0
LINE
  5
15E
100
AcDbEntity
  8
M0
 62
     4
100
AcDbLine
 10
347.685129
 20
520.493591
 11
347.685129
 21
463.993637
  0
LINE
  5
15F
100
AcDbEntity
  8
M0
 62
     4
100
AcDbLine
 10
336.685129
 20
478.243637
 11
336.685129
 21
463.993637
  0
ARC
  5
160
100
AcDbEntity
  8
M0
 62
     4
100
AcDbCircle
 10
337.685129
 20
478.243637
 40
1.0
100
AcDbArc
 50
90.0
 51
180.0
  0
LINE
  5
161
100
AcDbEntity
  8
M0
 62
     4
100
AcDbLine
 10
352.685129
 20
458.993835
 11
352.685129
 21
461.993621
  0
LINE
  5
162
100
AcDbEntity
  8
M0
 62
     4
100
AcDbLine
 10
351.685129
 20
457.993835
 11
352.685129
 21
458.993835
  0
LINE
  5
163
100
AcDbEntity
  8
M0
 62
     4
100
AcDbLine
 10
351.685129
 20
520.493591
 11
351.685129
 21
526.493347
  0
LINE
  5
164
100
AcDbEntity
  8
M0
 62
     4
100
AcDbLine
 10
362.685129
 20
529.993347
 11
362.685129
 21
531.993591
  0
LINE
  5
165
100
AcDbEntity
  8
M0
 62
     4
100
AcDbLine
 10
354.185129
 20
529.993347
 11
362.685129
 21
529.993347
  0
LINE
  5
166
100
AcDbEntity
  8
M0
 62
     4
100
AcDbLine
 10
350.685129
 20
530.493347
 11
362.685129
 21
530.493347
  0
LINE
  5
167
100
AcDbEntity
  8
M0
 62
     4
100
AcDbLine
 10
352.185129
 20
520.493591
 11
352.185129
 21
527.993347
  0
ARC
  5
168
100
AcDbEntity
  8
M0
 62
     4
100
AcDbCircle
 10
354.185129
 20
527.993347
 40
2.0
100
AcDbArc
 50
90.0
 51
180.0
  0
LINE
  5
169
100
AcDbEntity
  8
M0
 62
     4
100
AcDbLine
 10
350.685129
 20
526.493347
 11
351.685129
 21
526.493347
  0
LINE
  5
16A
100
AcDbEntity
  8
M0
 62
     4
100
AcDbLine
 10
349.685129
 20
529.493347
 11
349.685129
 21
527.493347
  0
ARC
  5
16B
100
AcDbEntity
  8
M0
 62
     4
100
AcDbCircle
 10
350.685129
 20
529.493347
 40
1.0
100
AcDbArc
 50
90.0
 51
180.0
  0
ARC
  5
16C
100
AcDbEntity
  8
M0
 62
     4
100
AcDbCircle
 10
350.685129
 20
527.493347
 40
1.0
100
AcDbArc
 50
180.0
 51
269.999126
  0
LINE
  5
16D
100
AcDbEntity
  8
M0
 62
     4
100
AcDbLine
 10
410.685129
 20
381.993835
 11
410.685129
 21
531.993347
  0
LINE
  5
16E
100
AcDbEntity
  8
M0
 62
     4
100
AcDbLine
 10
410.185129
 20
528.993347
 11
410.685129
 21
528.993347
  0
LINE
  5
16F
100
AcDbEntity
  8
M0
 62
     4
100
AcDbLine
 10
410.185129
 20
514.993347
 11
410.685129
 21
514.993347
  0
LINE
  5
170
100
AcDbEntity
  8
M0
 62
     4
100
AcDbLine
 10
410.684885
 20
398.99414
 11
410.684885
 21
384.994186
  0
LINE
  5
171
100
AcDbEntity
  8
M0
 62
     4
100
AcDbLine
 10
410.184885
 20
384.994186
 11
410.684885
 21
384.994186
  0
LINE
  5
172
100
AcDbEntity
  8
M0
 62
     4
100
AcDbLine
 10
410.184885
 20
398.99414
 11
410.684885
 21
398.99414
  0
ARC
  5
173
100
AcDbEntity
  8
M0
 62
     4
100
AcDbCircle
 10
350.685129
 20
461.993637
 40
2.0
100
AcDbArc
 50
0.0
 51
90.0
  0
ARC
  5
174
100
AcDbEntity
  8
M0
 62
     4
100
AcDbCircle
 10
350.685129
 20
451.993835
 40
2.0
100
AcDbArc
 50
269.999563
 51
360.0
  0
LINE
  5
175
100
AcDbEntity
  8
M0
 62
     4
100
AcDbLine
 10
393.685129
 20
383.993835
 11
393.685129
 21
406.993835
  0
ARC
  5
176
100
AcDbEntity
  8
M0
 62
     4
100
AcDbCircle
 10
391.685129
 20
406.993835
 40
2.0
100
AcDbArc
 50
0.0
 51
90.0
  0
ARC
  5
177
100
AcDbEntity
  8
M0
 62
     4
100
AcDbCircle
 10
395.685129
 20
383.993835
 40
2.0
100
AcDbArc
 50
180.0
 51
269.999563
  0
ARC
  5
178
100
AcDbEntity
  8
M0
 62
     4
100
AcDbCircle
 10
392.685129
 20
400.493835
 40
1.0
100
AcDbArc
 50
0.0
 51
90.0
  0
LINE
  5
179
100
AcDbEntity
  8
M0
 62
     4
100
AcDbLine
 10
393.685129
 20
529.993103
 11
393.685129
 21
515.993347
  0
ARC
  5
17A
100
AcDbEntity
  8
M0
 62
     4
100
AcDbCircle
 10
395.685129
 20
529.993103
 40
2.0
100
AcDbArc
 50
90.0
 51
180.0
  0
ARC
  5
17B
100
AcDbEntity
  8
M0
 62
     4
100
AcDbCircle
 10
391.685129
 20
515.993347
 40
2.0
100
AcDbArc
 50
269.999563
 51
360.0
  0
LINE
  5
17C
100
AcDbEntity
  8
M0
 62
     5
100
AcDbLine
 10
317.684641
 20
516.992813
 11
317.684641
 21
531.992813
  0
LINE
  5
17D
100
AcDbEntity
  8
M0
 62
     5
100
AcDbLine
 10
296.684641
 20
520.492813
 11
314.484934
 21
520.492813
  0
LINE
  5
17E
100
AcDbEntity
  8
M0
  6
DASHDOT
 62
     5
100
AcDbLine
 10
327.684641
 20
524.492813
 11
287.684641
 21
524.492813
  0
LINE
  5
17F
100
AcDbEntity
  8
M0
 62
     5
100
AcDbLine
 10
296.684641
 20
520.992813
 11
314.484934
 21
520.992813
  0
LINE
  5
180
100
AcDbEntity
  8
M0
 62
     5
100
AcDbLine
 10
314.484934
 20
527.992324
 11
296.684641
 21
527.99208
  0
LINE
  5
181
100
AcDbEntity
  8
M0
 62
     5
100
AcDbLine
 10
314.484934
 20
528.492324
 11
296.684641
 21
528.49208
  0
LINE
  5
182
100
AcDbEntity
  8
M0
 62
     5
100
AcDbLine
 10
317.684885
 20
511.492797
 11
317.684885
 21
532.492813
  0
LINE
  5
183
100
AcDbEntity
  8
M0
 62
     5
100
AcDbLine
 10
317.684885
 20
514.492813
 11
314.484934
 21
514.492813
  0
LINE
  5
184
100
AcDbEntity
  8
M0
 62
     5
100
AcDbLine
 10
317.684885
 20
502.492813
 11
314.484934
 21
502.492813
  0
LINE
  5
185
100
AcDbEntity
  8
M0
 62
     5
100
AcDbLine
 10
317.684885
 20
532.492813
 11
314.484934
 21
532.492813
  0
LINE
  5
186
100
AcDbEntity
  8
M0
 62
     5
100
AcDbLine
 10
314.484934
 20
532.492813
 11
314.484934
 21
502.492797
  0
LINE
  5
187
100
AcDbEntity
  8
M0
 62
     5
100
AcDbLine
 10
321.492258
 20
531.992324
 11
317.684641
 21
531.99208
  0
LINE
  5
188
100
AcDbEntity
  8
M0
 62
     5
100
AcDbLine
 10
317.684641
 20
516.992584
 11
321.49177
 21
516.992569
  0
LINE
  5
189
100
AcDbEntity
  8
M0
 62
     5
100
AcDbLine
 10
322.184641
 20
518.192581
 11
322.184641
 21
530.792373
  0
LINE
  5
18A
100
AcDbEntity
  8
M0
 62
     5
100
AcDbLine
 10
321.492014
 20
520.732559
 11
317.684641
 21
520.732544
  0
LINE
  5
18B
100
AcDbEntity
  8
M0
 62
     5
100
AcDbLine
 10
321.492258
 20
528.252334
 11
317.684641
 21
528.25209
  0
LINE
  5
18C
100
AcDbEntity
  8
M0
 62
     5
100
AcDbLine
 10
322.184885
 20
518.192581
 11
321.492014
 21
516.992584
  0
LINE
  5
18D
100
AcDbEntity
  8
M0
 62
     5
100
AcDbLine
 10
322.184885
 20
530.792373
 11
321.492014
 21
531.992569
  0
ARC
  5
18E
100
AcDbEntity
  8
M0
 62
     5
100
AcDbCircle
 10
311.629221
 20
524.492569
 40
10.555579
100
AcDbArc
 50
339.132517
 51
380.867513
  0
ARC
  5
18F
100
AcDbEntity
  8
M0
 62
     5
100
AcDbCircle
 10
317.179514
 20
530.792373
 40
5.005172
100
AcDbArc
 50
329.507337
 51
360.0
  0
ARC
  5
190
100
AcDbEntity
  8
M0
 62
     5
100
AcDbCircle
 10
317.179514
 20
518.192581
 40
5.005145
100
AcDbArc
 50
0.0
 51
30.494576
  0
LINE
  5
191
100
AcDbEntity
  8
M0
 62
     5
100
AcDbLine
 10
296.684641
 20
528.492813
 11
296.684641
 21
520.492813
  0
LINE
  5
192
100
AcDbEntity
  8
M0
 62
     5
100
AcDbLine
 10
317.684397
 20
396.993789
 11
317.684366
 21
381.993789
  0
LINE
  5
193
100
AcDbEntity
  8
M0
 62
     5
100
AcDbLine
 10
296.684153
 20
393.49382
 11
304.384806
 21
393.49382
  0
LINE
  5
194
100
AcDbEntity
  8
M0
  6
DASHDOT
 62
     5
100
AcDbLine
 10
327.684366
 20
389.493774
 11
287.684397
 21
389.493835
  0
LINE
  5
195
100
AcDbEntity
  8
M0
 62
     5
100
AcDbLine
 10
296.684153
 20
392.99382
 11
304.384806
 21
392.99382
  0
LINE
  5
196
100
AcDbEntity
  8
M0
 62
     5
100
AcDbLine
 10
304.384806
 20
385.994262
 11
296.684153
 21
385.994262
  0
LINE
  5
197
100
AcDbEntity
  8
M0
 62
     5
100
AcDbLine
 10
304.384806
 20
385.494262
 11
296.684153
 21
385.494262
  0
LINE
  5
198
100
AcDbEntity
  8
M0
 62
     5
100
AcDbLine
 10
317.684641
 20
402.493805
 11
317.684611
 21
381.493789
  0
LINE
  5
199
100
AcDbEntity
  8
M0
 62
     5
100
AcDbLine
 10
317.684641
 20
399.493789
 11
314.48469
 21
399.493789
  0
LINE
  5
19A
100
AcDbEntity
  8
M0
 62
     5
100
AcDbLine
 10
317.684641
 20
411.493774
 11
314.48469
 21
411.493774
  0
LINE
  5
19B
100
AcDbEntity
  8
M0
 62
     5
100
AcDbLine
 10
317.684611
 20
381.493789
 11
314.484659
 21
381.493789
  0
LINE
  5
19C
100
AcDbEntity
  8
M0
 62
     5
100
AcDbLine
 10
314.484659
 20
381.493789
 11
314.48469
 21
411.493789
  0
LINE
  5
19D
100
AcDbEntity
  8
M0
 62
     5
100
AcDbLine
 10
321.491984
 20
381.994278
 11
317.684366
 21
381.994522
  0
LINE
  5
19E
100
AcDbEntity
  8
M0
 62
     5
100
AcDbLine
 10
317.684397
 20
396.994018
 11
321.491526
 21
396.994033
  0
LINE
  5
19F
100
AcDbEntity
  8
M0
 62
     5
100
AcDbLine
 10
322.184397
 20
395.794021
 11
322.184366
 21
383.194229
  0
LINE
  5
1A0
100
AcDbEntity
  8
M0
 62
     5
100
AcDbLine
 10
321.49177
 20
393.254043
 11
317.684397
 21
393.254058
  0
LINE
  5
1A1
100
AcDbEntity
  8
M0
 62
     5
100
AcDbLine
 10
321.491984
 20
385.734268
 11
317.684366
 21
385.734512
  0
LINE
  5
1A2
100
AcDbEntity
  8
M0
 62
     5
100
AcDbLine
 10
322.184641
 20
395.794021
 11
321.49177
 21
396.994018
  0
LINE
  5
1A3
100
AcDbEntity
  8
M0
 62
     5
100
AcDbLine
 10
322.184611
 20
383.194229
 11
321.49174
 21
381.994033
  0
ARC
  5
1A4
100
AcDbEntity
  8
M0
 62
     5
100
AcDbCircle
 10
311.628977
 20
389.494049
 40
10.555579
100
AcDbArc
 50
-20.867745
 51
20.867328
  0
ARC
  5
1A5
100
AcDbEntity
  8
M0
 62
     5
100
AcDbCircle
 10
317.17924
 20
383.194229
 40
5.005172
100
AcDbArc
 50
0.0
 51
30.492512
  0
ARC
  5
1A6
100
AcDbEntity
  8
M0
 62
     5
100
AcDbCircle
 10
317.17927
 20
395.794021
 40
5.005145
100
AcDbArc
 50
-30.494726
 51
0.0
  0
LINE
  5
1A7
100
AcDbEntity
  8
M0
 62
     5
100
AcDbLine
 10
296.684153
 20
385.49382
 11
296.684153
 21
393.49382
  0
LINE
  5
1A8
100
AcDbEntity
  8
M0
100
AcDbLine
 10
310.884836
 20
381.793808
 11
312.884836
 21
381.793808
  0
LINE
  5
1A9
100
AcDbEntity
  8
M0
100
AcDbLine
 10
312.884836
 20
381.793808
 11
312.884836
 21
397.193817
  0
LINE
  5
1AA
100
AcDbEntity
  8
M0
100
AcDbLine
 10
312.884836
 20
397.193817
 11
310.884836
 21
397.193817
  0
LINE
  5
1AB
100
AcDbEntity
  8
M0
100
AcDbLine
 10
310.884836
 20
397.193817
 11
310.884836
 21
381.793808
  0
LINE
  5
1AC
100
AcDbEntity
  8
M0
100
AcDbLine
 10
312.884836
 20
389.99382
 11
310.884836
 21
390.529709
  0
LINE
  5
1AD
100
AcDbEntity
  8
M0
100
AcDbLine
 10
310.884836
 20
388.99382
 11
312.884836
 21
388.457916
  0
LINE
  5
1AE
100
AcDbEntity
  8
M0
100
AcDbLine
 10
312.884592
 20
380.493805
 11
314.484446
 21
380.493805
  0
LINE
  5
1AF
100
AcDbEntity
  8
M0
100
AcDbLine
 10
314.484446
 20
380.493805
 11
314.484446
 21
398.493805
  0
LINE
  5
1B0
100
AcDbEntity
  8
M0
100
AcDbLine
 10
314.484446
 20
398.493805
 11
312.884592
 21
398.493805
  0
LINE
  5
1B1
100
AcDbEntity
  8
M0
100
AcDbLine
 10
312.884592
 20
398.493805
 11
312.884592
 21
380.493805
  0
LINE
  5
1B2
100
AcDbEntity
  8
M0
100
AcDbLine
 10
305.105784
 20
381.99382
 11
310.884592
 21
381.99382
  0
LINE
  5
1B3
100
AcDbEntity
  8
M0
100
AcDbLine
 10
310.884592
 20
381.99382
 11
310.884592
 21
396.99382
  0
LINE
  5
1B4
100
AcDbEntity
  8
M0
100
AcDbLine
 10
310.884592
 20
396.99382
 11
305.106272
 21
396.993805
  0
LINE
  5
1B5
100
AcDbEntity
  8
M0
100
AcDbLine
 10
304.384592
 20
395.74382
 11
304.384592
 21
383.24382
  0
LINE
  5
1B6
100
AcDbEntity
  8
M0
100
AcDbLine
 10
305.104563
 20
393.253814
 11
310.884592
 21
393.253814
  0
LINE
  5
1B7
100
AcDbEntity
  8
M0
100
AcDbLine
 10
305.104563
 20
385.73381
 11
310.884592
 21
385.73381
  0
LINE
  5
1B8
100
AcDbEntity
  8
M0
100
AcDbLine
 10
304.384348
 20
395.74382
 11
305.106272
 21
396.993805
  0
LINE
  5
1B9
100
AcDbEntity
  8
M0
100
AcDbLine
 10
305.106028
 20
381.99382
 11
304.384348
 21
383.24382
  0
ARC
  5
1BA
100
AcDbEntity
  8
M0
100
AcDbCircle
 10
314.562571
 20
389.493805
 40
10.178164
100
AcDbArc
 50
158.320389
 51
201.679611
  0
ARC
  5
1BB
100
AcDbEntity
  8
M0
100
AcDbCircle
 10
309.050364
 20
395.743805
 40
4.665769
100
AcDbArc
 50
180.0
 51
212.252289
  0
ARC
  5
1BC
100
AcDbEntity
  8
M0
100
AcDbCircle
 10
309.050364
 20
383.243805
 40
4.665769
100
AcDbArc
 50
147.746102
 51
180.0
  0
LINE
  5
1BD
100
AcDbEntity
  8
M0
  6
DASHED
100
AcDbLine
 10
358.684962
 20
531.993423
 11
358.684962
 21
516.884582
  0
LINE
  5
1BE
100
AcDbEntity
  8
M0
  6
DASHED
100
AcDbLine
 10
359.684962
 20
531.993423
 11
359.684962
 21
516.884582
  0
LINE
  5
1BF
100
AcDbEntity
  8
M0
100
AcDbLine
 10
310.885489
 20
532.195021
 11
312.885489
 21
532.195022
  0
LINE
  5
1C0
100
AcDbEntity
  8
M0
100
AcDbLine
 10
312.885489
 20
532.195022
 11
312.885499
 21
516.794876
  0
LINE
  5
1C1
100
AcDbEntity
  8
M0
100
AcDbLine
 10
312.885499
 20
516.794876
 11
310.885499
 21
516.794874
  0
LINE
  5
1C2
100
AcDbEntity
  8
M0
100
AcDbLine
 10
310.885499
 20
516.794874
 11
310.885489
 21
532.195021
  0
LINE
  5
1C3
100
AcDbEntity
  8
M0
100
AcDbLine
 10
312.885495
 20
523.994827
 11
310.885495
 21
523.458937
  0
LINE
  5
1C4
100
AcDbEntity
  8
M0
100
AcDbLine
 10
310.885494
 20
524.994826
 11
312.885494
 21
525.53096
  0
LINE
  5
1C5
100
AcDbEntity
  8
M0
100
AcDbLine
 10
312.885244
 20
533.495071
 11
314.485098
 21
533.495072
  0
LINE
  5
1C6
100
AcDbEntity
  8
M0
100
AcDbLine
 10
314.485098
 20
533.495072
 11
314.485109
 21
515.495072
  0
LINE
  5
1C7
100
AcDbEntity
  8
M0
100
AcDbLine
 10
314.485109
 20
515.495072
 11
312.885256
 21
515.495071
  0
LINE
  5
1C8
100
AcDbEntity
  8
M0
100
AcDbLine
 10
312.885256
 20
515.495071
 11
312.885244
 21
533.495071
  0
LINE
  5
1C9
100
AcDbEntity
  8
M0
100
AcDbLine
 10
305.106437
 20
531.994822
 11
310.885245
 21
531.994826
  0
LINE
  5
1CA
100
AcDbEntity
  8
M0
100
AcDbLine
 10
310.885245
 20
531.994826
 11
310.885255
 21
516.994826
  0
LINE
  5
1CB
100
AcDbEntity
  8
M0
100
AcDbLine
 10
310.885255
 20
516.994826
 11
305.106935
 21
516.995066
  0
LINE
  5
1CC
100
AcDbEntity
  8
M0
100
AcDbLine
 10
304.385254
 20
518.244822
 11
304.385246
 21
530.744822
  0
LINE
  5
1CD
100
AcDbEntity
  8
M0
100
AcDbLine
 10
305.105223
 20
520.735056
 11
310.885252
 21
520.73506
  0
LINE
  5
1CE
100
AcDbEntity
  8
M0
100
AcDbLine
 10
305.105218
 20
528.254832
 11
310.885248
 21
528.254835
  0
LINE
  5
1CF
100
AcDbEntity
  8
M0
100
AcDbLine
 10
304.38501
 20
518.244822
 11
305.106935
 21
516.995066
  0
LINE
  5
1D0
100
AcDbEntity
  8
M0
100
AcDbLine
 10
305.106681
 20
531.994822
 11
304.385002
 21
530.744822
  0
ARC
  5
1D1
100
AcDbEntity
  8
M0
100
AcDbCircle
 10
314.563229
 20
524.495072
 40
10.178164
100
AcDbArc
 50
158.320424
 51
201.67853
  0
ARC
  5
1D2
100
AcDbEntity
  8
M0
100
AcDbCircle
 10
309.051026
 20
518.245069
 40
4.665769
100
AcDbArc
 50
147.746638
 51
180.003034
  0
ARC
  5
1D3
100
AcDbEntity
  8
M0
100
AcDbCircle
 10
309.051018
 20
530.745069
 40
4.665769
100
AcDbArc
 50
180.000036
 51
212.254634
  0
LINE
  5
1D4
100
AcDbEntity
  8
M0
  6
DASHDOT
100
AcDbLine
 10
115.986521
 20
544.357834
 11
115.986521
 21
363.488281
  0
LINE
  5
1D5
100
AcDbEntity
  8
M0
 62
     7
100
AcDbLine
 10
89.462748
 20
401.494262
 11
93.786616
 21
401.494262
  0
LINE
  5
1D6
100
AcDbEntity
  8
M0
 62
     7
100
AcDbLine
 10
175.986521
 20
410.994232
 11
175.986521
 21
511.993957
  0
LINE
  5
1D7
100
AcDbEntity
  8
M0
 62
     7
100
AcDbLine
 10
55.986521
 20
518.493713
 11
55.986521
 21
410.994247
  0
LINE
  5
1D8
100
AcDbEntity
  8
M0
 62
     7
100
AcDbLine
 10
89.463084
 20
512.494201
 11
93.786616
 21
512.494201
  0
LINE
  5
1D9
100
AcDbEntity
  8
M0
 62
     7
100
AcDbLine
 10
173.986521
 20
513.994201
 11
163.227869
 21
513.993957
  0
LINE
  5
1DA
100
AcDbEntity
  8
M0
 62
     7
100
AcDbLine
 10
130.986521
 20
530.993713
 11
130.986521
 21
520.493957
  0
LINE
  5
1DB
100
AcDbEntity
  8
M0
 62
     7
100
AcDbLine
 10
100.986521
 20
530.993713
 11
100.986521
 21
520.493957
  0
ARC
  5
1DC
100
AcDbEntity
  8
M0
 62
     7
100
AcDbCircle
 10
173.986521
 20
511.993957
 40
2.0
100
AcDbArc
 50
0.0
 51
90.0
  0
LINE
  5
1DD
100
AcDbEntity
  8
M0
 62
     7
100
AcDbLine
 10
163.486521
 20
403.494247
 11
163.486521
 21
431.994247
  0
LINE
  5
1DE
100
AcDbEntity
  8
M0
 62
     7
100
AcDbLine
 10
68.486506
 20
403.494262
 11
68.486506
 21
431.994262
  0
ARC
  5
1DF
100
AcDbEntity
  8
M0
 62
     7
100
AcDbCircle
 10
161.486521
 20
510.494201
 40
2.0
100
AcDbArc
 50
0.0
 51
80.219747
  0
ARC
  5
1E0
100
AcDbEntity
  8
M0
 62
     7
100
AcDbCircle
 10
70.486521
 20
510.494201
 40
2.0
100
AcDbArc
 50
99.781115
 51
180.0
  0
ARC
  5
1E1
100
AcDbEntity
  8
M0
 62
     7
100
AcDbCircle
 10
70.486521
 20
403.494262
 40
2.0
100
AcDbArc
 50
179.999563
 51
260.210478
  0
ARC
  5
1E2
100
AcDbEntity
  8
M0
 62
     7
100
AcDbCircle
 10
161.486521
 20
403.494262
 40
2.0
100
AcDbArc
 50
279.786863
 51
360.0
  0
LINE
  5
1E3
100
AcDbEntity
  8
M0
 62
     7
100
AcDbLine
 10
173.986521
 20
408.994262
 11
164.486521
 21
408.994247
  0
ARC
  5
1E4
100
AcDbEntity
  8
M0
 62
     7
100
AcDbCircle
 10
57.986521
 20
410.994247
 40
2.0
100
AcDbArc
 50
179.999563
 51
270.0
  0
ARC
  5
1E5
100
AcDbEntity
  8
M0
 62
     7
100
AcDbCircle
 10
173.986521
 20
410.994247
 40
2.0
100
AcDbArc
 50
269.999563
 51
360.0
  0
LINE
  5
1E6
100
AcDbEntity
  8
M0
 62
     7
100
AcDbLine
 10
67.486521
 20
408.994247
 11
57.986521
 21
408.994247
  0
ARC
  5
1E7
100
AcDbEntity
  8
M0
 62
     7
100
AcDbCircle
 10
67.486521
 20
407.994232
 40
1.0
100
AcDbArc
 50
0.0
 51
89.999126
  0
ARC
  5
1E8
100
AcDbEntity
  8
M0
 62
     7
100
AcDbCircle
 10
164.486521
 20
407.994247
 40
1.0
100
AcDbArc
 50
90.0
 51
179.999126
  0
LINE
  5
1E9
100
AcDbEntity
  8
M0
 62
     7
100
AcDbLine
 10
123.486521
 20
408.994262
 11
123.486521
 21
410.494735
  0
LINE
  5
1EA
100
AcDbEntity
  8
M0
 62
     7
100
AcDbLine
 10
108.486521
 20
408.994262
 11
108.486521
 21
410.494751
  0
LINE
  5
1EB
100
AcDbEntity
  8
M0
 62
     7
100
AcDbLine
 10
77.786524
 20
411.494247
 11
70.986521
 21
411.494232
  0
LINE
  5
1EC
100
AcDbEntity
  8
M0
 62
     7
100
AcDbLine
 10
55.986521
 20
429.494247
 11
59.486521
 21
429.494247
  0
LINE
  5
1ED
100
AcDbEntity
  8
M0
 62
     7
100
AcDbLine
 10
63.986521
 20
459.744262
 11
63.986521
 21
454.244262
  0
LINE
  5
1EE
100
AcDbEntity
  8
M0
 62
     7
100
AcDbLine
 10
55.986521
 20
460.744262
 11
62.986521
 21
460.744262
  0
LINE
  5
1EF
100
AcDbEntity
  8
M0
 62
     7
100
AcDbLine
 10
55.986521
 20
453.244262
 11
62.986521
 21
453.244262
  0
ARC
  5
1F0
100
AcDbEntity
  8
M0
 62
     7
100
AcDbCircle
 10
62.986521
 20
454.244262
 40
1.0
100
AcDbArc
 50
270.0
 51
360.0
  0
ARC
  5
1F1
100
AcDbEntity
  8
M0
 62
     7
100
AcDbCircle
 10
62.986521
 20
459.744262
 40
1.0
100
AcDbArc
 50
0.0
 51
89.999126
  0
LINE
  5
1F2
100
AcDbEntity
  8
M0
 62
     7
100
AcDbLine
 10
56.486521
 20
459.744262
 11
59.986521
 21
459.744262
  0
LINE
  5
1F3
100
AcDbEntity
  8
M0
 62
     7
100
AcDbLine
 10
56.486521
 20
454.244262
 11
59.986521
 21
454.244262
  0
LINE
  5
1F4
100
AcDbEntity
  8
M0
 62
     7
100
AcDbLine
 10
59.986521
 20
460.744262
 11
59.986521
 21
459.744262
  0
LINE
  5
1F5
100
AcDbEntity
  8
M0
 62
     7
100
AcDbLine
 10
59.986521
 20
454.244262
 11
59.986521
 21
453.244262
  0
LINE
  5
1F6
100
AcDbEntity
  8
M0
 62
     7
100
AcDbLine
 10
56.486521
 20
460.744262
 11
56.486521
 21
459.744262
  0
LINE
  5
1F7
100
AcDbEntity
  8
M0
 62
     7
100
AcDbLine
 10
56.486521
 20
454.244262
 11
56.486521
 21
453.244262
  0
LINE
  5
1F8
100
AcDbEntity
  8
M0
 62
     7
100
AcDbLine
 10
56.486521
 20
474.494201
 11
59.486521
 21
474.494201
  0
LINE
  5
1F9
100
AcDbEntity
  8
M0
 62
     7
100
AcDbLine
 10
56.486521
 20
439.494262
 11
59.486521
 21
439.494262
  0
ARC
  5
1FA
100
AcDbEntity
  8
M0
 62
     7
100
AcDbCircle
 10
56.486521
 20
439.994262
 40
0.5
100
AcDbArc
 50
179.998251
 51
270.0
  0
ARC
  5
1FB
100
AcDbEntity
  8
M0
 62
     7
100
AcDbCircle
 10
56.486521
 20
473.994201
 40
0.5
100
AcDbArc
 50
89.998251
 51
180.0
  0
LINE
  5
1FC
100
AcDbEntity
  8
M0
 62
     7
100
AcDbLine
 10
56.486521
 20
484.494201
 11
59.486521
 21
484.494201
  0
LINE
  5
1FD
100
AcDbEntity
  8
M0
 62
     7
100
AcDbLine
 10
55.986521
 20
426.994247
 11
66.486506
 21
426.994247
  0
ARC
  5
1FE
100
AcDbEntity
  8
M0
 62
     7
100
AcDbCircle
 10
66.486506
 20
424.994247
 40
2.0
100
AcDbArc
 50
0.0
 51
89.999563
  0
LINE
  5
1FF
100
AcDbEntity
  8
M0
 62
     7
100
AcDbLine
 10
59.986521
 20
429.994247
 11
59.986521
 21
450.294311
  0
LINE
  5
200
100
AcDbEntity
  8
M0
 62
     7
100
AcDbLine
 10
67.986521
 20
463.694152
 11
67.986521
 21
481.494201
  0
ARC
  5
201
100
AcDbEntity
  8
M0
 62
     7
100
AcDbCircle
 10
59.486521
 20
483.994201
 40
0.5
100
AcDbArc
 50
0.0
 51
89.998251
  0
ARC
  5
202
100
AcDbEntity
  8
M0
 62
     7
100
AcDbCircle
 10
56.486521
 20
483.994201
 40
0.5
100
AcDbArc
 50
89.998251
 51
180.0
  0
ARC
  5
203
100
AcDbEntity
  8
M0
 62
     7
100
AcDbCircle
 10
59.486521
 20
473.994201
 40
0.5
100
AcDbArc
 50
0.0
 51
89.998251
  0
ARC
  5
204
100
AcDbEntity
  8
M0
 62
     7
100
AcDbCircle
 10
59.486521
 20
439.994262
 40
0.5
100
AcDbArc
 50
270.0
 51
360.0
  0
ARC
  5
205
100
AcDbEntity
  8
M0
 62
     7
100
AcDbCircle
 10
59.486521
 20
429.994247
 40
0.5
100
AcDbArc
 50
270.0
 51
360.0
  0
LINE
  5
206
100
AcDbEntity
  8
M0
 62
     7
100
AcDbLine
 10
59.986521
 20
481.994201
 11
68.486613
 21
481.994201
  0
LINE
  5
207
100
AcDbEntity
  8
M0
 62
     7
100
AcDbLine
 10
59.986521
 20
431.994262
 11
68.486506
 21
431.994262
  0
LINE
  5
208
100
AcDbEntity
  8
M0
 62
     7
100
AcDbLine
 10
68.486506
 20
481.994201
 11
68.486521
 21
510.494201
  0
LINE
  5
209
100
AcDbEntity
  8
M0
 62
     7
100
AcDbLine
 10
59.986521
 20
471.494201
 11
60.836512
 21
471.494201
  0
ARC
  5
20A
100
AcDbEntity
  8
M0
  6
DASHED
 62
     7
100
AcDbCircle
 10
60.986521
 20
463.694152
 40
1.0
100
AcDbArc
 50
180.0
 51
270.0
  0
ARC
  5
20B
100
AcDbEntity
  8
M0
 62
     7
100
AcDbCircle
 10
60.986521
 20
463.994201
 40
1.0
100
AcDbArc
 50
180.0
 51
270.0
  0
LINE
  5
20C
100
AcDbEntity
  8
M0
 62
     7
100
AcDbLine
 10
59.986521
 20
464.994201
 11
60.486521
 21
464.994201
  0
LINE
  5
20D
100
AcDbEntity
  8
M0
 62
     7
100
AcDbLine
 10
59.986521
 20
481.094055
 11
60.586512
 21
481.094055
  0
ARC
  5
20E
100
AcDbEntity
  8
M0
 62
     7
100
AcDbCircle
 10
68.486521
 20
481.494201
 40
0.5
100
AcDbArc
 50
89.998251
 51
180.0
  0
LINE
  5
20F
100
AcDbEntity
  8
M0
 62
     7
100
AcDbLine
 10
67.486521
 20
463.493957
 11
67.486521
 21
464.994201
  0
LINE
  5
210
100
AcDbEntity
  8
M0
 62
     7
100
AcDbLine
 10
60.486521
 20
463.494201
 11
60.486521
 21
464.994201
  0
LINE
  5
211
100
AcDbEntity
  8
M0
 62
     7
100
AcDbLine
 10
59.986521
 20
466.494201
 11
60.486521
 21
464.994201
  0
LINE
  5
212
100
AcDbEntity
  8
M0
 62
     7
100
AcDbLine
 10
67.986521
 20
466.494201
 11
67.486521
 21
464.994201
  0
ARC
  5
213
100
AcDbEntity
  8
M0
 62
     7
100
AcDbCircle
 10
60.986521
 20
463.494201
 40
0.5
100
AcDbArc
 50
180.0
 51
270.0
  0
LINE
  5
214
100
AcDbEntity
  8
M0
 62
     7
100
AcDbLine
 10
67.486521
 20
464.994201
 11
67.986521
 21
464.994201
  0
LINE
  5
215
100
AcDbEntity
  8
M0
 62
     7
100
AcDbLine
 10
60.736521
 20
471.794006
 11
60.836512
 21
471.794006
  0
LINE
  5
216
100
AcDbEntity
  8
M0
 62
     7
100
AcDbLine
 10
60.736521
 20
471.494201
 11
60.736521
 21
472.493957
  0
LINE
  5
217
100
AcDbEntity
  8
M0
 62
     7
100
AcDbLine
 10
67.236521
 20
472.494201
 11
67.236521
 21
471.494201
  0
ARC
  5
218
100
AcDbEntity
  8
M0
 62
     7
100
AcDbCircle
 10
60.236521
 20
472.494201
 40
0.5
100
AcDbArc
 50
359.971914
 51
449.998251
  0
ARC
  5
219
100
AcDbEntity
  8
M0
 62
     7
100
AcDbCircle
 10
67.736521
 20
472.494201
 40
0.5
100
AcDbArc
 50
89.998251
 51
180.0
  0
LINE
  5
21A
100
AcDbEntity
  8
M0
 62
     7
100
AcDbLine
 10
59.986521
 20
472.994201
 11
60.486521
 21
472.994201
  0
LINE
  5
21B
100
AcDbEntity
  8
M0
 62
     7
100
AcDbLine
 10
67.486521
 20
474.594055
 11
67.486521
 21
472.994201
  0
LINE
  5
21C
100
AcDbEntity
  8
M0
 62
     7
100
AcDbLine
 10
60.486521
 20
474.594055
 11
60.486521
 21
472.994201
  0
LINE
  5
21D
100
AcDbEntity
  8
M0
 62
     7
100
AcDbLine
 10
59.986521
 20
474.594055
 11
60.486521
 21
474.594055
  0
LINE
  5
21E
100
AcDbEntity
  8
M0
 62
     7
100
AcDbLine
 10
59.986521
 20
476.094055
 11
60.486521
 21
474.594055
  0
LINE
  5
21F
100
AcDbEntity
  8
M0
 62
     7
100
AcDbLine
 10
67.986521
 20
476.094055
 11
67.486521
 21
474.594055
  0
LINE
  5
220
100
AcDbEntity
  8
M0
 62
     7
100
AcDbLine
 10
67.486521
 20
474.594055
 11
67.986521
 21
474.594055
  0
LINE
  5
221
100
AcDbEntity
  8
M0
 62
     7
100
AcDbLine
 10
59.986521
 20
463.694152
 11
59.986521
 21
483.994201
  0
ARC
  5
222
100
AcDbEntity
  8
M0
 62
     7
100
AcDbCircle
 10
68.486521
 20
472.994201
 40
0.5
100
AcDbArc
 50
89.998251
 51
180.0
  0
ARC
  5
223
100
AcDbEntity
  8
M0
 62
     7
100
AcDbCircle
 10
70.986536
 20
499.994201
 40
2.5
100
AcDbArc
 50
89.99965
 51
180.0
  0
LINE
  5
224
100
AcDbEntity
  8
M0
 62
     7
100
AcDbLine
 10
77.786539
 20
502.494201
 11
70.986536
 21
502.494201
  0
LINE
  5
225
100
AcDbEntity
  8
M0
 62
     7
100
AcDbLine
 10
58.986521
 20
486.993957
 11
58.986521
 21
484.494201
  0
LINE
  5
226
100
AcDbEntity
  8
M0
 62
     7
100
AcDbLine
 10
55.986521
 20
486.994201
 11
58.986521
 21
486.994201
  0
LINE
  5
227
100
AcDbEntity
  8
M0
 62
     7
100
AcDbLine
 10
58.986521
 20
429.494247
 11
58.986521
 21
426.994247
  0
LINE
  5
228
100
AcDbEntity
  8
M0
 62
     7
100
AcDbLine
 10
163.486521
 20
481.993957
 11
163.486521
 21
510.494201
  0
LINE
  5
229
100
AcDbEntity
  8
M0
 62
     7
100
AcDbLine
 10
163.986552
 20
463.693908
 11
163.986552
 21
481.493957
  0
ARC
  5
22A
100
AcDbEntity
  8
M0
 62
     7
100
AcDbCircle
 10
163.486552
 20
481.493957
 40
0.5
100
AcDbArc
 50
0.0
 51
90.0
  0
LINE
  5
22B
100
AcDbEntity
  8
M0
 62
     7
100
AcDbLine
 10
105.986521
 20
512.494201
 11
106.099558
 21
512.154846
  0
LINE
  5
22C
100
AcDbEntity
  8
M0
 62
     7
100
AcDbLine
 10
125.873438
 20
512.154846
 11
125.986521
 21
512.494201
  0
LINE
  5
22D
100
AcDbEntity
  8
M0
 62
     7
100
AcDbLine
 10
138.186503
 20
402.494262
 11
138.186503
 21
410.494735
  0
LINE
  5
22E
100
AcDbEntity
  8
M0
 62
     7
100
AcDbLine
 10
138.186503
 20
511.494201
 11
138.186503
 21
503.49469
  0
LINE
  5
22F
100
AcDbEntity
  8
M0
 62
     7
100
AcDbLine
 10
93.786509
 20
511.493957
 11
93.786509
 21
503.480041
  0
LINE
  5
230
100
AcDbEntity
  8
M0
  6
DASHED
 62
     7
100
AcDbLine
 10
60.986521
 20
462.694152
 11
66.986521
 21
462.694152
  0
LINE
  5
231
100
AcDbEntity
  8
M0
 62
     7
100
AcDbLine
 10
60.986521
 20
462.994201
 11
66.986521
 21
462.994201
  0
ARC
  5
232
100
AcDbEntity
  8
M0
 62
     7
100
AcDbCircle
 10
66.986521
 20
463.994201
 40
1.0
100
AcDbArc
 50
270.0
 51
360.0
  0
ARC
  5
233
100
AcDbEntity
  8
M0
  6
DASHED
 62
     7
100
AcDbCircle
 10
66.986521
 20
463.694152
 40
1.0
100
AcDbArc
 50
270.0
 51
360.0
  0
ARC
  5
234
100
AcDbEntity
  8
M0
 62
     7
100
AcDbCircle
 10
66.986521
 20
463.494201
 40
0.5
100
AcDbArc
 50
270.0
 51
359.971914
  0
LINE
  5
235
100
AcDbEntity
  8
M0
 62
     7
100
AcDbLine
 10
67.986521
 20
450.294311
 11
67.986521
 21
432.494262
  0
LINE
  5
236
100
AcDbEntity
  8
M0
 62
     7
100
AcDbLine
 10
59.986521
 20
442.494262
 11
60.836512
 21
442.494262
  0
ARC
  5
237
100
AcDbEntity
  8
M0
  6
DASHED
 62
     7
100
AcDbCircle
 10
60.986521
 20
450.294311
 40
1.0
100
AcDbArc
 50
89.999126
 51
179.999945
  0
ARC
  5
238
100
AcDbEntity
  8
M0
 62
     7
100
AcDbCircle
 10
60.986521
 20
449.994262
 40
1.0
100
AcDbArc
 50
89.999126
 51
179.999945
  0
LINE
  5
239
100
AcDbEntity
  8
M0
 62
     7
100
AcDbLine
 10
59.986521
 20
448.994262
 11
60.486521
 21
448.994262
  0
LINE
  5
23A
100
AcDbEntity
  8
M0
 62
     7
100
AcDbLine
 10
59.986521
 20
432.894409
 11
60.836512
 21
432.894409
  0
ARC
  5
23B
100
AcDbEntity
  8
M0
 62
     7
100
AcDbCircle
 10
68.486521
 20
432.494262
 40
0.5
100
AcDbArc
 50
179.998251
 51
270.0
  0
LINE
  5
23C
100
AcDbEntity
  8
M0
 62
     7
100
AcDbLine
 10
67.486521
 20
450.494506
 11
67.486521
 21
448.994262
  0
LINE
  5
23D
100
AcDbEntity
  8
M0
 62
     7
100
AcDbLine
 10
60.486521
 20
450.494262
 11
60.486521
 21
448.994262
  0
LINE
  5
23E
100
AcDbEntity
  8
M0
 62
     7
100
AcDbLine
 10
59.986521
 20
447.494262
 11
60.486521
 21
448.994262
  0
LINE
  5
23F
100
AcDbEntity
  8
M0
 62
     7
100
AcDbLine
 10
67.986521
 20
447.494262
 11
67.486521
 21
448.994262
  0
ARC
  5
240
100
AcDbEntity
  8
M0
 62
     7
100
AcDbCircle
 10
60.986521
 20
450.494262
 40
0.5
100
AcDbArc
 50
89.998251
 51
179.999891
  0
LINE
  5
241
100
AcDbEntity
  8
M0
 62
     7
100
AcDbLine
 10
67.486521
 20
448.994262
 11
67.986521
 21
448.994262
  0
LINE
  5
242
100
AcDbEntity
  8
M0
 62
     7
100
AcDbLine
 10
60.736521
 20
442.194458
 11
60.836512
 21
442.194458
  0
LINE
  5
243
100
AcDbEntity
  8
M0
 62
     7
100
AcDbLine
 10
59.986521
 20
440.994262
 11
60.486521
 21
440.994262
  0
LINE
  5
244
100
AcDbEntity
  8
M0
 62
     7
100
AcDbLine
 10
60.736521
 20
442.494262
 11
60.736521
 21
441.494506
  0
LINE
  5
245
100
AcDbEntity
  8
M0
 62
     7
100
AcDbLine
 10
67.236521
 20
441.494262
 11
67.236521
 21
442.494262
  0
ARC
  5
246
100
AcDbEntity
  8
M0
 62
     7
100
AcDbCircle
 10
60.236521
 20
441.494262
 40
0.5
100
AcDbArc
 50
-90.0
 51
0.028086
  0
ARC
  5
247
100
AcDbEntity
  8
M0
 62
     7
100
AcDbCircle
 10
67.736521
 20
441.494262
 40
0.5
100
AcDbArc
 50
180.027868
 51
270.0
  0
LINE
  5
248
100
AcDbEntity
  8
M0
 62
     7
100
AcDbLine
 10
67.486521
 20
440.994262
 11
67.986521
 21
440.994262
  0
LINE
  5
249
100
AcDbEntity
  8
M0
 62
     7
100
AcDbLine
 10
67.486521
 20
439.394409
 11
67.486521
 21
440.994262
  0
LINE
  5
24A
100
AcDbEntity
  8
M0
 62
     7
100
AcDbLine
 10
60.486521
 20
439.394409
 11
60.486521
 21
440.994262
  0
LINE
  5
24B
100
AcDbEntity
  8
M0
 62
     7
100
AcDbLine
 10
59.986521
 20
439.394409
 11
60.486521
 21
439.394409
  0
LINE
  5
24C
100
AcDbEntity
  8
M0
 62
     7
100
AcDbLine
 10
59.986521
 20
437.894409
 11
60.486521
 21
439.394409
  0
LINE
  5
24D
100
AcDbEntity
  8
M0
 62
     7
100
AcDbLine
 10
67.986521
 20
437.894409
 11
67.486521
 21
439.394409
  0
LINE
  5
24E
100
AcDbEntity
  8
M0
 62
     7
100
AcDbLine
 10
67.486521
 20
439.394409
 11
67.986521
 21
439.394409
  0
ARC
  5
24F
100
AcDbEntity
  8
M0
 62
     7
100
AcDbCircle
 10
68.486521
 20
440.994262
 40
0.5
100
AcDbArc
 50
180.026229
 51
270.0
  0
LINE
  5
250
100
AcDbEntity
  8
M0
  6
DASHED
 62
     7
100
AcDbLine
 10
60.986521
 20
451.294311
 11
66.986521
 21
451.294311
  0
LINE
  5
251
100
AcDbEntity
  8
M0
 62
     7
100
AcDbLine
 10
60.986521
 20
450.994262
 11
66.986521
 21
450.994262
  0
ARC
  5
252
100
AcDbEntity
  8
M0
 62
     7
100
AcDbCircle
 10
66.986521
 20
449.994262
 40
1.0
100
AcDbArc
 50
0.0
 51
89.999126
  0
ARC
  5
253
100
AcDbEntity
  8
M0
  6
DASHED
 62
     7
100
AcDbCircle
 10
66.986521
 20
450.294311
 40
1.0
100
AcDbArc
 50
0.0
 51
89.999126
  0
ARC
  5
254
100
AcDbEntity
  8
M0
 62
     7
100
AcDbCircle
 10
66.986521
 20
450.494262
 40
0.5
100
AcDbArc
 50
0.028086
 51
89.998251
  0
LINE
  5
255
100
AcDbEntity
  8
M0
 62
     7
100
AcDbLine
 10
163.986552
 20
450.294067
 11
163.986521
 21
432.494247
  0
ARC
  5
256
100
AcDbEntity
  8
M0
 62
     7
100
AcDbCircle
 10
163.486521
 20
432.494247
 40
0.5
100
AcDbArc
 50
269.998251
 51
360.0
  0
LINE
  5
257
100
AcDbEntity
  8
M0
 62
     7
100
AcDbLine
 10
154.186518
 20
411.494247
 11
160.986521
 21
411.494232
  0
ARC
  5
258
100
AcDbEntity
  8
M0
 62
     7
100
AcDbCircle
 10
160.986521
 20
413.994232
 40
2.5
100
AcDbArc
 50
-90.00035
 51
0.0
  0
LINE
  5
259
100
AcDbEntity
  8
M0
 62
     7
100
AcDbLine
 10
171.986521
 20
431.994262
 11
163.486521
 21
431.994247
  0
LINE
  5
25A
100
AcDbEntity
  8
M0
 62
     7
100
AcDbLine
 10
154.186503
 20
502.494201
 11
161.486521
 21
502.494201
  0
LINE
  5
25B
100
AcDbEntity
  8
M0
 62
     7
100
AcDbLine
 10
175.986521
 20
429.494247
 11
172.486521
 21
429.494247
  0
LINE
  5
25C
100
AcDbEntity
  8
M0
 62
     7
100
AcDbLine
 10
167.986521
 20
459.744262
 11
167.986521
 21
454.244262
  0
LINE
  5
25D
100
AcDbEntity
  8
M0
 62
     7
100
AcDbLine
 10
175.986521
 20
460.744262
 11
168.986521
 21
460.744262
  0
LINE
  5
25E
100
AcDbEntity
  8
M0
 62
     7
100
AcDbLine
 10
175.986521
 20
453.244262
 11
168.986521
 21
453.244262
  0
ARC
  5
25F
100
AcDbEntity
  8
M0
 62
     7
100
AcDbCircle
 10
168.986521
 20
454.244262
 40
1.0
100
AcDbArc
 50
179.999945
 51
269.999126
  0
ARC
  5
260
100
AcDbEntity
  8
M0
 62
     7
100
AcDbCircle
 10
168.986521
 20
459.744262
 40
1.0
100
AcDbArc
 50
90.0
 51
180.0
  0
LINE
  5
261
100
AcDbEntity
  8
M0
 62
     7
100
AcDbLine
 10
175.986521
 20
459.744003
 11
171.986521
 21
459.744247
  0
LINE
  5
262
100
AcDbEntity
  8
M0
 62
     7
100
AcDbLine
 10
175.986521
 20
454.244003
 11
171.986521
 21
454.244247
  0
LINE
  5
263
100
AcDbEntity
  8
M0
 62
     7
100
AcDbLine
 10
171.986521
 20
460.744262
 11
171.986521
 21
459.744262
  0
LINE
  5
264
100
AcDbEntity
  8
M0
 62
     7
100
AcDbLine
 10
171.986521
 20
454.244262
 11
171.986521
 21
453.244262
  0
LINE
  5
265
100
AcDbEntity
  8
M0
 62
     7
100
AcDbLine
 10
175.486521
 20
474.494003
 11
172.486521
 21
474.494003
  0
LINE
  5
266
100
AcDbEntity
  8
M0
 62
     7
100
AcDbLine
 10
175.486521
 20
439.494247
 11
172.486521
 21
439.494247
  0
LINE
  5
267
100
AcDbEntity
  8
M0
 62
     7
100
AcDbLine
 10
175.486521
 20
484.494003
 11
172.486521
 21
484.494003
  0
LINE
  5
268
100
AcDbEntity
  8
M0
 62
     7
100
AcDbLine
 10
175.986521
 20
426.994247
 11
165.486536
 21
426.994247
  0
ARC
  5
269
100
AcDbEntity
  8
M0
 62
     7
100
AcDbCircle
 10
165.486536
 20
424.994247
 40
2.0
100
AcDbArc
 50
90.0
 51
179.999563
  0
LINE
  5
26A
100
AcDbEntity
  8
M0
 62
     7
100
AcDbLine
 10
171.986521
 20
429.994247
 11
171.986521
 21
450.294311
  0
ARC
  5
26B
100
AcDbEntity
  8
M0
 62
     7
100
AcDbCircle
 10
172.486521
 20
483.994201
 40
0.5
100
AcDbArc
 50
90.0
 51
180.0
  0
ARC
  5
26C
100
AcDbEntity
  8
M0
 62
     7
100
AcDbCircle
 10
172.486521
 20
473.994201
 40
0.5
100
AcDbArc
 50
90.0
 51
180.0
  0
ARC
  5
26D
100
AcDbEntity
  8
M0
 62
     7
100
AcDbCircle
 10
172.486521
 20
439.994262
 40
0.5
100
AcDbArc
 50
179.998251
 51
269.998251
  0
ARC
  5
26E
100
AcDbEntity
  8
M0
 62
     7
100
AcDbCircle
 10
172.486521
 20
429.994247
 40
0.5
100
AcDbArc
 50
179.998251
 51
269.998251
  0
LINE
  5
26F
100
AcDbEntity
  8
M0
 62
     7
100
AcDbLine
 10
171.986521
 20
481.994201
 11
163.486521
 21
481.993957
  0
LINE
  5
270
100
AcDbEntity
  8
M0
 62
     7
100
AcDbLine
 10
171.986521
 20
431.994262
 11
163.486521
 21
431.994247
  0
LINE
  5
271
100
AcDbEntity
  8
M0
 62
     7
100
AcDbLine
 10
171.986521
 20
471.494201
 11
171.136515
 21
471.493957
  0
ARC
  5
272
100
AcDbEntity
  8
M0
  6
DASHED
 62
     7
100
AcDbCircle
 10
170.986521
 20
463.694152
 40
1.0
100
AcDbArc
 50
-90.000874
 51
0.0
  0
ARC
  5
273
100
AcDbEntity
  8
M0
 62
     7
100
AcDbCircle
 10
170.986521
 20
463.994201
 40
1.0
100
AcDbArc
 50
-90.000874
 51
0.0
  0
LINE
  5
274
100
AcDbEntity
  8
M0
 62
     7
100
AcDbLine
 10
171.986521
 20
464.994201
 11
171.486521
 21
464.994201
  0
LINE
  5
275
100
AcDbEntity
  8
M0
 62
     7
100
AcDbLine
 10
171.986521
 20
481.094055
 11
171.136515
 21
481.093811
  0
LINE
  5
276
100
AcDbEntity
  8
M0
 62
     7
100
AcDbLine
 10
164.486521
 20
463.493957
 11
164.486521
 21
464.994201
  0
LINE
  5
277
100
AcDbEntity
  8
M0
 62
     7
100
AcDbLine
 10
171.486521
 20
463.494201
 11
171.486521
 21
464.994201
  0
LINE
  5
278
100
AcDbEntity
  8
M0
 62
     7
100
AcDbLine
 10
171.986521
 20
466.494201
 11
171.486521
 21
464.994201
  0
LINE
  5
279
100
AcDbEntity
  8
M0
 62
     7
100
AcDbLine
 10
163.986521
 20
466.494201
 11
164.486521
 21
464.994201
  0
ARC
  5
27A
100
AcDbEntity
  8
M0
 62
     7
100
AcDbCircle
 10
170.986521
 20
463.494201
 40
0.5
100
AcDbArc
 50
-90.001749
 51
0.0
  0
LINE
  5
27B
100
AcDbEntity
  8
M0
 62
     7
100
AcDbLine
 10
164.486521
 20
464.994201
 11
163.986521
 21
464.994201
  0
LINE
  5
27C
100
AcDbEntity
  8
M0
 62
     7
100
AcDbLine
 10
171.236521
 20
471.794006
 11
171.136515
 21
471.793762
  0
LINE
  5
27D
100
AcDbEntity
  8
M0
 62
     7
100
AcDbLine
 10
171.986521
 20
472.994201
 11
171.486521
 21
472.993957
  0
LINE
  5
27E
100
AcDbEntity
  8
M0
 62
     7
100
AcDbLine
 10
171.236521
 20
471.494201
 11
171.236521
 21
472.493957
  0
LINE
  5
27F
100
AcDbEntity
  8
M0
 62
     7
100
AcDbLine
 10
164.736521
 20
472.494201
 11
164.736521
 21
471.494201
  0
ARC
  5
280
100
AcDbEntity
  8
M0
 62
     7
100
AcDbCircle
 10
171.736521
 20
472.494201
 40
0.5
100
AcDbArc
 50
90.0
 51
180.055953
  0
ARC
  5
281
100
AcDbEntity
  8
M0
 62
     7
100
AcDbCircle
 10
164.236521
 20
472.494201
 40
0.5
100
AcDbArc
 50
0.0
 51
90.0
  0
LINE
  5
282
100
AcDbEntity
  8
M0
 62
     7
100
AcDbLine
 10
164.486521
 20
472.993957
 11
163.986521
 21
472.994201
  0
LINE
  5
283
100
AcDbEntity
  8
M0
 62
     7
100
AcDbLine
 10
164.486521
 20
474.594055
 11
164.486521
 21
472.994201
  0
LINE
  5
284
100
AcDbEntity
  8
M0
 62
     7
100
AcDbLine
 10
171.486521
 20
474.594055
 11
171.486521
 21
472.994201
  0
LINE
  5
285
100
AcDbEntity
  8
M0
 62
     7
100
AcDbLine
 10
171.986521
 20
474.594055
 11
171.486521
 21
474.594055
  0
LINE
  5
286
100
AcDbEntity
  8
M0
 62
     7
100
AcDbLine
 10
171.986521
 20
476.094055
 11
171.486521
 21
474.594055
  0
LINE
  5
287
100
AcDbEntity
  8
M0
 62
     7
100
AcDbLine
 10
163.986521
 20
476.094055
 11
164.486521
 21
474.594055
  0
LINE
  5
288
100
AcDbEntity
  8
M0
 62
     7
100
AcDbLine
 10
164.486521
 20
474.594055
 11
163.986521
 21
474.594055
  0
LINE
  5
289
100
AcDbEntity
  8
M0
 62
     7
100
AcDbLine
 10
171.986521
 20
463.694152
 11
171.986521
 21
483.994201
  0
LINE
  5
28A
100
AcDbEntity
  8
M0
 62
     7
100
AcDbLine
 10
172.986521
 20
486.993957
 11
172.986521
 21
484.494201
  0
LINE
  5
28B
100
AcDbEntity
  8
M0
 62
     7
100
AcDbLine
 10
175.986521
 20
486.994201
 11
172.986521
 21
486.994201
  0
LINE
  5
28C
100
AcDbEntity
  8
M0
 62
     7
100
AcDbLine
 10
172.986521
 20
429.494247
 11
172.986521
 21
426.994247
  0
LINE
  5
28D
100
AcDbEntity
  8
M0
  6
DASHED
 62
     7
100
AcDbLine
 10
170.986521
 20
462.694152
 11
164.986521
 21
462.694152
  0
LINE
  5
28E
100
AcDbEntity
  8
M0
 62
     7
100
AcDbLine
 10
170.986521
 20
462.994201
 11
164.986521
 21
462.994201
  0
ARC
  5
28F
100
AcDbEntity
  8
M0
 62
     7
100
AcDbCircle
 10
164.986521
 20
463.994201
 40
1.0
100
AcDbArc
 50
180.0
 51
269.999126
  0
ARC
  5
290
100
AcDbEntity
  8
M0
  6
DASHED
 62
     7
100
AcDbCircle
 10
164.986521
 20
463.694152
 40
1.0
100
AcDbArc
 50
180.0
 51
269.999126
  0
ARC
  5
291
100
AcDbEntity
  8
M0
 62
     7
100
AcDbCircle
 10
164.986521
 20
463.494201
 40
0.5
100
AcDbArc
 50
180.055953
 51
269.998251
  0
LINE
  5
292
100
AcDbEntity
  8
M0
 62
     7
100
AcDbLine
 10
171.986521
 20
442.494262
 11
171.136515
 21
442.494247
  0
ARC
  5
293
100
AcDbEntity
  8
M0
  6
DASHED
 62
     7
100
AcDbCircle
 10
170.986521
 20
450.294311
 40
1.0
100
AcDbArc
 50
0.0
 51
90.0
  0
ARC
  5
294
100
AcDbEntity
  8
M0
 62
     7
100
AcDbCircle
 10
170.986521
 20
449.994262
 40
1.0
100
AcDbArc
 50
0.0
 51
90.0
  0
LINE
  5
295
100
AcDbEntity
  8
M0
 62
     7
100
AcDbLine
 10
171.986521
 20
448.994262
 11
171.486521
 21
448.994262
  0
LINE
  5
296
100
AcDbEntity
  8
M0
 62
     7
100
AcDbLine
 10
171.986521
 20
432.894409
 11
171.386515
 21
432.894394
  0
LINE
  5
297
100
AcDbEntity
  8
M0
 62
     7
100
AcDbLine
 10
164.486521
 20
450.494506
 11
164.486521
 21
448.994262
  0
LINE
  5
298
100
AcDbEntity
  8
M0
 62
     7
100
AcDbLine
 10
171.486521
 20
450.494262
 11
171.486521
 21
448.994262
  0
LINE
  5
299
100
AcDbEntity
  8
M0
 62
     7
100
AcDbLine
 10
171.986521
 20
447.494262
 11
171.486521
 21
448.994262
  0
LINE
  5
29A
100
AcDbEntity
  8
M0
 62
     7
100
AcDbLine
 10
163.986521
 20
447.494262
 11
164.486521
 21
448.994262
  0
ARC
  5
29B
100
AcDbEntity
  8
M0
 62
     7
100
AcDbCircle
 10
170.986521
 20
450.494262
 40
0.5
100
AcDbArc
 50
0.0
 51
90.0
  0
LINE
  5
29C
100
AcDbEntity
  8
M0
 62
     7
100
AcDbLine
 10
164.486521
 20
448.994262
 11
163.986521
 21
448.994262
  0
LINE
  5
29D
100
AcDbEntity
  8
M0
 62
     7
100
AcDbLine
 10
171.236521
 20
442.194458
 11
171.136515
 21
442.194442
  0
LINE
  5
29E
100
AcDbEntity
  8
M0
 62
     7
100
AcDbLine
 10
171.986521
 20
440.994262
 11
171.486521
 21
440.994247
  0
LINE
  5
29F
100
AcDbEntity
  8
M0
 62
     7
100
AcDbLine
 10
171.236521
 20
442.494262
 11
171.236521
 21
441.494506
  0
LINE
  5
2A0
100
AcDbEntity
  8
M0
 62
     7
100
AcDbLine
 10
164.736521
 20
441.494262
 11
164.736521
 21
442.494262
  0
ARC
  5
2A1
100
AcDbEntity
  8
M0
 62
     7
100
AcDbCircle
 10
171.736521
 20
441.494262
 40
0.5
100
AcDbArc
 50
179.971914
 51
269.998251
  0
ARC
  5
2A2
100
AcDbEntity
  8
M0
 62
     7
100
AcDbCircle
 10
164.236521
 20
441.494262
 40
0.5
100
AcDbArc
 50
269.998251
 51
359.972023
  0
LINE
  5
2A3
100
AcDbEntity
  8
M0
 62
     7
100
AcDbLine
 10
164.486521
 20
440.994247
 11
163.986521
 21
440.994262
  0
LINE
  5
2A4
100
AcDbEntity
  8
M0
 62
     7
100
AcDbLine
 10
164.486521
 20
439.394409
 11
164.486521
 21
440.994262
  0
LINE
  5
2A5
100
AcDbEntity
  8
M0
 62
     7
100
AcDbLine
 10
171.486521
 20
439.394409
 11
171.486521
 21
440.994262
  0
LINE
  5
2A6
100
AcDbEntity
  8
M0
 62
     7
100
AcDbLine
 10
171.986521
 20
439.394409
 11
171.486521
 21
439.394409
  0
LINE
  5
2A7
100
AcDbEntity
  8
M0
 62
     7
100
AcDbLine
 10
171.986521
 20
437.894409
 11
171.486521
 21
439.394409
  0
LINE
  5
2A8
100
AcDbEntity
  8
M0
 62
     7
100
AcDbLine
 10
163.986521
 20
437.894409
 11
164.486521
 21
439.394409
  0
LINE
  5
2A9
100
AcDbEntity
  8
M0
 62
     7
100
AcDbLine
 10
164.486521
 20
439.394409
 11
163.986521
 21
439.394409
  0
LINE
  5
2AA
100
AcDbEntity
  8
M0
  6
DASHED
 62
     7
100
AcDbLine
 10
170.986521
 20
451.294311
 11
164.986521
 21
451.294311
  0
LINE
  5
2AB
100
AcDbEntity
  8
M0
 62
     7
100
AcDbLine
 10
170.986521
 20
450.994262
 11
164.986521
 21
450.994262
  0
ARC
  5
2AC
100
AcDbEntity
  8
M0
 62
     7
100
AcDbCircle
 10
164.986521
 20
449.994262
 40
1.0
100
AcDbArc
 50
90.0
 51
179.999945
  0
ARC
  5
2AD
100
AcDbEntity
  8
M0
  6
DASHED
 62
     7
100
AcDbCircle
 10
164.986521
 20
450.294311
 40
1.0
100
AcDbArc
 50
90.0
 51
179.999945
  0
ARC
  5
2AE
100
AcDbEntity
  8
M0
 62
     7
100
AcDbCircle
 10
164.986521
 20
450.494262
 40
0.5
100
AcDbArc
 50
90.0
 51
179.999891
  0
ARC
  5
2AF
100
AcDbEntity
  8
M0
 62
     7
100
AcDbCircle
 10
161.486521
 20
500.494201
 40
2.0
100
AcDbArc
 50
0.0
 51
90.0
  0
ARC
  5
2B0
100
AcDbEntity
  8
M0
 62
     7
100
AcDbCircle
 10
105.626124
 20
401.994262
 40
0.5
100
AcDbArc
 50
270.0
 51
341.565224
  0
ARC
  5
2B1
100
AcDbEntity
  8
M0
 62
     7
100
AcDbCircle
 10
126.346888
 20
401.994262
 40
0.5
100
AcDbArc
 50
198.434672
 51
270.0
  0
LINE
  5
2B2
100
AcDbEntity
  8
M0
 62
     7
100
AcDbLine
 10
143.686487
 20
520.493957
 11
130.986521
 21
520.493957
  0
LINE
  5
2B3
100
AcDbEntity
  8
M0
 62
     7
100
AcDbLine
 10
129.986521
 20
531.993957
 11
125.986567
 21
531.993713
  0
ARC
  5
2B4
100
AcDbEntity
  8
M0
 62
     7
100
AcDbCircle
 10
57.986521
 20
518.493957
 40
2.0
100
AcDbArc
 50
89.999563
 51
180.006994
  0
ARC
  5
2B5
100
AcDbEntity
  8
M0
 62
     7
100
AcDbCircle
 10
129.986521
 20
530.993713
 40
1.0
100
AcDbArc
 50
0.0
 51
90.0
  0
ARC
  5
2B6
100
AcDbEntity
  8
M0
 62
     7
100
AcDbCircle
 10
101.986521
 20
530.993713
 40
1.0
100
AcDbArc
 50
90.0
 51
180.0
  0
LINE
  5
2B7
100
AcDbEntity
  8
M0
 62
     7
100
AcDbLine
 10
100.986521
 20
520.493957
 11
88.28657
 21
520.493713
  0
LINE
  5
2B8
100
AcDbEntity
  8
M0
 62
     7
100
AcDbLine
 10
100.986521
 20
522.493957
 11
105.986628
 21
522.493957
  0
LINE
  5
2B9
100
AcDbEntity
  8
M0
 62
     7
100
AcDbLine
 10
116.044642
 20
419.977554
 11
115.986521
 21
419.944244
  0
LINE
  5
2BA
100
AcDbEntity
  8
M0
 62
     7
100
AcDbLine
 10
138.186503
 20
512.494201
 11
142.509806
 21
512.494201
  0
LINE
  5
2BB
100
AcDbEntity
  8
M0
 62
     7
100
AcDbLine
 10
103.486613
 20
512.494201
 11
106.692576
 21
512.494201
  0
LINE
  5
2BC
100
AcDbEntity
  8
M0
 62
     7
100
AcDbLine
 10
138.18661
 20
401.494262
 11
142.510233
 21
401.494262
  0
LINE
  5
2BD
100
AcDbEntity
  8
M0
 62
     7
100
AcDbLine
 10
68.28657
 20
520.493713
 11
57.986521
 21
520.493957
  0
LINE
  5
2BE
100
AcDbEntity
  8
M0
 62
     7
100
AcDbLine
 10
125.280909
 20
512.494201
 11
128.486613
 21
512.494201
  0
LINE
  5
2BF
100
AcDbEntity
  8
M0
 62
     7
100
AcDbLine
 10
125.986567
 20
522.493957
 11
130.986521
 21
522.493957
  0
LINE
  5
2C0
100
AcDbEntity
  8
M0
 62
     7
100
AcDbLine
 10
105.986628
 20
531.993713
 11
101.986521
 21
531.993957
  0
LINE
  5
2C1
100
AcDbEntity
  8
M0
 62
     7
100
AcDbLine
 10
67.136515
 20
471.494201
 11
67.986521
 21
471.494201
  0
LINE
  5
2C2
100
AcDbEntity
  8
M0
 62
     7
100
AcDbLine
 10
67.136515
 20
471.794006
 11
67.236521
 21
471.794006
  0
LINE
  5
2C3
100
AcDbEntity
  8
M0
 62
     7
100
AcDbLine
 10
67.486521
 20
472.994201
 11
67.986521
 21
472.994201
  0
LINE
  5
2C4
100
AcDbEntity
  8
M0
 62
     7
100
AcDbLine
 10
67.136515
 20
481.094055
 11
67.986521
 21
481.094055
  0
LINE
  5
2C5
100
AcDbEntity
  8
M0
 62
     7
100
AcDbLine
 10
164.586512
 20
481.093811
 11
163.986521
 21
481.094055
  0
LINE
  5
2C6
100
AcDbEntity
  8
M0
 62
     7
100
AcDbLine
 10
164.836512
 20
471.793762
 11
164.736521
 21
471.794006
  0
LINE
  5
2C7
100
AcDbEntity
  8
M0
 62
     7
100
AcDbLine
 10
164.836512
 20
471.493957
 11
163.986521
 21
471.494201
  0
LINE
  5
2C8
100
AcDbEntity
  8
M0
 62
     7
100
AcDbLine
 10
164.836512
 20
442.494247
 11
163.986521
 21
442.494262
  0
LINE
  5
2C9
100
AcDbEntity
  8
M0
 62
     7
100
AcDbLine
 10
164.836512
 20
442.194442
 11
164.736521
 21
442.194458
  0
LINE
  5
2CA
100
AcDbEntity
  8
M0
 62
     7
100
AcDbLine
 10
164.836512
 20
432.894394
 11
163.986521
 21
432.894409
  0
LINE
  5
2CB
100
AcDbEntity
  8
M0
 62
     7
100
AcDbLine
 10
67.386515
 20
432.894409
 11
67.986521
 21
432.894409
  0
LINE
  5
2CC
100
AcDbEntity
  8
M0
 62
     7
100
AcDbLine
 10
67.136515
 20
442.194458
 11
67.236521
 21
442.194458
  0
LINE
  5
2CD
100
AcDbEntity
  8
M0
 62
     7
100
AcDbLine
 10
67.136515
 20
442.494262
 11
67.986521
 21
442.494262
  0
ARC
  5
2CE
100
AcDbEntity
  8
M0
 62
     7
100
AcDbCircle
 10
175.486521
 20
473.993759
 40
0.5
100
AcDbArc
 50
0.0
 51
90.0
  0
ARC
  5
2CF
100
AcDbEntity
  8
M0
 62
     7
100
AcDbCircle
 10
175.486521
 20
483.993759
 40
0.5
100
AcDbArc
 50
0.0
 51
90.0
  0
ARC
  5
2D0
100
AcDbEntity
  8
M0
 62
     7
100
AcDbCircle
 10
175.486521
 20
439.994003
 40
0.5
100
AcDbArc
 50
269.998251
 51
360.0
  0
LINE
  5
2D1
100
AcDbEntity
  8
M0
 62
     4
100
AcDbLine
 10
175.986918
 20
389.993805
 11
175.986918
 21
523.993133
  0
LINE
  5
2D2
100
AcDbEntity
  8
M0
 62
     4
100
AcDbLine
 10
167.986902
 20
531.993621
 11
163.686381
 21
531.993164
  0
LINE
  5
2D3
100
AcDbEntity
  8
M0
 62
     4
100
AcDbLine
 10
55.986918
 20
523.993377
 11
55.986918
 21
389.99382
  0
ARC
  5
2D4
100
AcDbEntity
  8
M0
 62
     4
100
AcDbCircle
 10
63.986918
 20
523.993377
 40
8.0
100
AcDbArc
 50
89.999891
 51
180.0
  0
ARC
  5
2D5
100
AcDbEntity
  8
M0
 62
     4
100
AcDbCircle
 10
63.986918
 20
389.99382
 40
8.0
100
AcDbArc
 50
179.999891
 51
270.0
  0
ARC
  5
2D6
100
AcDbEntity
  8
M0
 62
     4
100
AcDbCircle
 10
167.986918
 20
389.99382
 40
8.0
100
AcDbArc
 50
269.999891
 51
360.0
  0
ARC
  5
2D7
100
AcDbEntity
  8
M0
 62
     4
100
AcDbCircle
 10
167.986918
 20
523.993377
 40
8.0
100
AcDbArc
 50
0.0
 51
90.0
  0
LINE
  5
2D8
100
AcDbEntity
  8
M0
 62
     4
100
AcDbLine
 10
68.486918
 20
403.49382
 11
68.486918
 21
407.993805
  0
ARC
  5
2D9
100
AcDbEntity
  8
M0
 62
     4
100
AcDbCircle
 10
70.486918
 20
403.49382
 40
2.0
100
AcDbArc
 50
179.999563
 51
260.210908
  0
LINE
  5
2DA
100
AcDbEntity
  8
M0
 62
     4
100
AcDbLine
 10
57.986918
 20
408.99382
 11
67.486918
 21
408.99382
  0
ARC
  5
2DB
100
AcDbEntity
  8
M0
 62
     4
100
AcDbCircle
 10
57.986918
 20
410.99382
 40
2.0
100
AcDbArc
 50
179.999563
 51
270.0
  0
ARC
  5
2DC
100
AcDbEntity
  8
M0
 62
     4
100
AcDbCircle
 10
67.486918
 20
407.99382
 40
1.0
100
AcDbArc
 50
0.0
 51
89.999126
  0
LINE
  5
2DD
100
AcDbEntity
  8
M0
 62
     4
100
AcDbLine
 10
138.986918
 20
520.49292
 11
138.986918
 21
529.49292
  0
LINE
  5
2DE
100
AcDbEntity
  8
M0
 62
     4
100
AcDbLine
 10
130.986918
 20
520.493408
 11
130.986918
 21
529.992675
  0
LINE
  5
2DF
100
AcDbEntity
  8
M0
 62
     4
100
AcDbLine
 10
142.986918
 20
523.493377
 11
142.986918
 21
530.993133
  0
ARC
  5
2E0
100
AcDbEntity
  8
M0
 62
     4
100
AcDbCircle
 10
145.986918
 20
523.493164
 40
3.0
100
AcDbArc
 50
180.0
 51
219.928703
  0
ARC
  5
2E1
100
AcDbEntity
  8
M0
 62
     4
100
AcDbCircle
 10
141.986918
 20
530.993377
 40
1.0
100
AcDbArc
 50
359.985137
 51
450.0
  0
ARC
  5
2E2
100
AcDbEntity
  8
M0
 62
     4
100
AcDbCircle
 10
142.486918
 20
529.493133
 40
0.5
100
AcDbArc
 50
359.970274
 51
450.0
  0
LINE
  5
2E3
100
AcDbEntity
  8
M0
 62
     4
100
AcDbLine
 10
163.486918
 20
403.49382
 11
163.486918
 21
407.993805
  0
ARC
  5
2E4
100
AcDbEntity
  8
M0
 62
     4
100
AcDbCircle
 10
161.486918
 20
403.49382
 40
2.0
100
AcDbArc
 50
-80.240662
 51
0.0
  0
LINE
  5
2E5
100
AcDbEntity
  8
M0
 62
     4
100
AcDbLine
 10
173.986918
 20
408.99382
 11
164.486918
 21
408.99382
  0
ARC
  5
2E6
100
AcDbEntity
  8
M0
 62
     4
100
AcDbCircle
 10
173.986918
 20
410.99382
 40
2.0
100
AcDbArc
 50
-90.000437
 51
0.0
  0
ARC
  5
2E7
100
AcDbEntity
  8
M0
 62
     4
100
AcDbCircle
 10
164.486918
 20
407.99382
 40
1.0
100
AcDbArc
 50
90.0
 51
179.999126
  0
LINE
  5
2E8
100
AcDbEntity
  8
M0
 62
     4
100
AcDbLine
 10
59.986918
 20
474.493621
 11
59.986918
 21
479.243621
  0
LINE
  5
2E9
100
AcDbEntity
  8
M0
 62
     4
100
AcDbLine
 10
143.68635
 20
520.493164
 11
142.486918
 21
520.493408
  0
LINE
  5
2EA
100
AcDbEntity
  8
M0
 62
     4
100
AcDbLine
 10
173.986918
 20
513.993408
 11
163.227961
 21
513.993164
  0
ARC
  5
2EB
100
AcDbEntity
  8
M0
 62
     4
100
AcDbCircle
 10
173.986918
 20
511.993621
 40
2.0
100
AcDbArc
 50
0.0
 51
90.0
  0
LINE
  5
2EC
100
AcDbEntity
  8
M0
 62
     4
100
AcDbLine
 10
130.986918
 20
520.493621
 11
138.986918
 21
520.493621
  0
LINE
  5
2ED
100
AcDbEntity
  8
M0
 62
     4
100
AcDbLine
 10
142.486918
 20
529.993377
 11
139.486918
 21
529.993377
  0
ARC
  5
2EE
100
AcDbEntity
  8
M0
 62
     4
100
AcDbCircle
 10
139.486918
 20
529.493133
 40
0.5
100
AcDbArc
 50
90.0
 51
180.0
  0
LINE
  5
2EF
100
AcDbEntity
  8
M0
 62
     4
100
AcDbLine
 10
92.986918
 20
520.492675
 11
92.986918
 21
529.49292
  0
LINE
  5
2F0
100
AcDbEntity
  8
M0
 62
     4
100
AcDbLine
 10
100.986918
 20
520.493164
 11
100.986918
 21
529.992675
  0
LINE
  5
2F1
100
AcDbEntity
  8
M0
 62
     4
100
AcDbLine
 10
88.986918
 20
523.493377
 11
88.986918
 21
530.993133
  0
ARC
  5
2F2
100
AcDbEntity
  8
M0
 62
     4
100
AcDbCircle
 10
85.986918
 20
523.493164
 40
3.0
100
AcDbArc
 50
-39.959523
 51
0.0
  0
ARC
  5
2F3
100
AcDbEntity
  8
M0
 62
     4
100
AcDbCircle
 10
89.986918
 20
530.993377
 40
1.0
100
AcDbArc
 50
89.999126
 51
180.027977
  0
ARC
  5
2F4
100
AcDbEntity
  8
M0
 62
     4
100
AcDbCircle
 10
89.486918
 20
529.493133
 40
0.5
100
AcDbArc
 50
89.998251
 51
180.055955
  0
LINE
  5
2F5
100
AcDbEntity
  8
M0
 62
     4
100
AcDbLine
 10
100.986918
 20
520.493621
 11
92.986918
 21
520.493621
  0
LINE
  5
2F6
100
AcDbEntity
  8
M0
 62
     4
100
AcDbLine
 10
89.486918
 20
529.993377
 11
92.486918
 21
529.993377
  0
ARC
  5
2F7
100
AcDbEntity
  8
M0
 62
     4
100
AcDbCircle
 10
92.486918
 20
529.493133
 40
0.5
100
AcDbArc
 50
0.0
 51
89.998251
  0
ARC
  5
2F8
100
AcDbEntity
  8
M0
 62
     4
100
AcDbCircle
 10
60.486918
 20
529.493133
 40
0.5
100
AcDbArc
 50
0.0
 51
89.998251
  0
LINE
  5
2F9
100
AcDbEntity
  8
M0
 62
     4
100
AcDbLine
 10
60.986918
 20
520.493408
 11
60.986918
 21
529.49292
  0
LINE
  5
2FA
100
AcDbEntity
  8
M0
 62
     4
100
AcDbLine
 10
60.486918
 20
529.993377
 11
58.695414
 21
529.993377
  0
LINE
  5
2FB
100
AcDbEntity
  8
M0
 62
     4
100
AcDbLine
 10
60.986918
 20
528.993408
 11
68.286433
 21
528.993408
  0
LINE
  5
2FC
100
AcDbEntity
  8
M0
 62
     4
100
AcDbLine
 10
92.986918
 20
528.993621
 11
100.986918
 21
528.993621
  0
LINE
  5
2FD
100
AcDbEntity
  8
M0
 62
     4
100
AcDbLine
 10
130.986918
 20
528.993621
 11
138.986918
 21
528.993621
  0
LINE
  5
2FE
100
AcDbEntity
  8
M0
 62
     4
100
AcDbLine
 10
68.286433
 20
531.993164
 11
63.986918
 21
531.993377
  0
LINE
  5
2FF
100
AcDbEntity
  8
M0
 62
     4
100
AcDbLine
 10
143.68635
 20
531.993164
 11
125.986429
 21
531.99292
  0
LINE
  5
300
100
AcDbEntity
  8
M0
 62
     4
100
AcDbLine
 10
163.686594
 20
381.99382
 11
167.986918
 21
381.99382
  0
LINE
  5
301
100
AcDbEntity
  8
M0
 62
     4
100
AcDbLine
 10
105.986491
 20
531.99292
 11
88.286433
 21
531.993164
  0
CIRCLE
  5
302
100
AcDbEntity
  8
M0
 62
     5
100
AcDbCircle
 10
153.68661
 20
389.493484
 40
3.999995
  0
CIRCLE
  5
303
100
AcDbEntity
  8
M0
 62
     5
100
AcDbCircle
 10
153.68661
 20
389.493484
 40
3.499995
  0
LINE
  5
304
100
AcDbEntity
  8
M0
 62
     5
100
AcDbLine
 10
138.686365
 20
407.993026
 11
138.686365
 21
411.35968
  0
LINE
  5
305
100
AcDbEntity
  8
M0
 62
     5
100
AcDbLine
 10
138.686381
 20
407.993255
 11
143.68661
 21
399.493255
  0
LINE
  5
306
100
AcDbEntity
  8
M0
 62
     5
100
AcDbLine
 10
152.686381
 20
411.49324
 11
163.686365
 21
399.49324
  0
CIRCLE
  5
307
100
AcDbEntity
  8
M0
 62
     5
100
AcDbCircle
 10
78.286097
 20
389.493545
 40
3.999995
  0
CIRCLE
  5
308
100
AcDbEntity
  8
M0
 62
     5
100
AcDbCircle
 10
78.286097
 20
389.493545
 40
3.499995
  0
LINE
  5
309
100
AcDbEntity
  8
M0
 62
     5
100
AcDbLine
 10
88.286082
 20
399.493515
 11
88.286082
 21
390.700317
  0
LINE
  5
30A
100
AcDbEntity
  8
M0
 62
     4
100
AcDbLine
 10
125.986399
 20
381.99382
 11
143.686564
 21
381.99382
  0
LINE
  5
30B
100
AcDbEntity
  8
M0
 62
     4
100
AcDbLine
 10
88.286433
 20
381.99382
 11
105.986429
 21
381.99382
  0
LINE
  5
30C
100
AcDbEntity
  8
M0
 62
     4
100
AcDbLine
 10
63.986918
 20
381.99382
 11
68.286066
 21
381.99382
  0
LINE
  5
30D
100
AcDbEntity
  8
M0
 62
     5
100
AcDbLine
 10
161.507273
 20
380.493255
 11
163.686548
 21
380.49324
  0
LINE
  5
30E
100
AcDbEntity
  8
M0
 62
     5
100
AcDbLine
 10
163.686594
 20
380.49324
 11
163.686564
 21
387.786605
  0
LINE
  5
30F
100
AcDbEntity
  8
M0
 62
     5
100
AcDbLine
 10
69.949778
 20
380.493255
 11
68.286051
 21
380.493347
  0
LINE
  5
310
100
AcDbEntity
  8
M0
 62
     5
100
AcDbLine
 10
143.686579
 20
399.493515
 11
143.686564
 21
380.495132
  0
LINE
  5
311
100
AcDbEntity
  8
M0
 62
     5
100
AcDbLine
 10
163.687159
 20
380.495376
 11
163.686365
 21
399.49324
  0
LINE
  5
312
100
AcDbEntity
  8
M0
 62
     5
100
AcDbLine
 10
93.286371
 20
407.993011
 11
93.286371
 21
411.359787
  0
LINE
  5
313
100
AcDbEntity
  8
M0
 62
     5
100
AcDbLine
 10
93.286387
 20
407.993255
 11
88.286112
 21
399.493271
  0
LINE
  5
314
100
AcDbEntity
  8
M0
 62
     5
100
AcDbLine
 10
79.286387
 20
411.493301
 11
68.286387
 21
399.493332
  0
LINE
  5
315
100
AcDbEntity
  8
M0
 62
     5
100
AcDbLine
 10
68.286051
 20
396.904312
 11
68.286387
 21
399.493332
  0
LINE
  5
316
100
AcDbEntity
  8
M0
 62
     5
100
AcDbLine
 10
122.986392
 20
411.359802
 11
122.986393
 21
407.993515
  0
LINE
  5
317
100
AcDbEntity
  8
M0
 62
     5
100
AcDbLine
 10
108.98644
 20
411.35971
 11
108.986441
 21
407.993484
  0
LINE
  5
318
100
AcDbEntity
  8
M0
 62
     5
100
AcDbLine
 10
122.986393
 20
407.993255
 11
123.486486
 21
406.576217
  0
LINE
  5
319
100
AcDbEntity
  8
M0
 62
     5
100
AcDbLine
 10
108.986441
 20
407.99324
 11
108.486487
 21
406.57669
  0
CIRCLE
  5
31A
100
AcDbEntity
  8
M0
 62
     5
100
AcDbCircle
 10
115.986446
 20
389.493255
 40
3.499995
  0
CIRCLE
  5
31B
100
AcDbEntity
  8
M0
 62
     5
100
AcDbCircle
 10
115.986446
 20
389.493255
 40
3.999995
  0
LINE
  5
31C
100
AcDbEntity
  8
M0
 62
     5
100
AcDbLine
 10
107.008446
 20
402.388916
 11
105.986444
 21
399.49324
  0
LINE
  5
31D
100
AcDbEntity
  8
M0
 62
     5
100
AcDbLine
 10
124.964102
 20
402.389267
 11
125.986152
 21
399.493255
  0
CIRCLE
  5
31E
100
AcDbEntity
  8
M0
100
AcDbCircle
 10
168.986384
 20
506.99295
 40
3.499997
  0
LINE
  5
31F
100
AcDbEntity
  8
M0
  6
DASHDOT
100
AcDbLine
 10
159.126536
 20
506.99295
 11
177.598933
 21
506.99295
  0
LINE
  5
320
100
AcDbEntity
  8
M0
  6
DASHDOT
100
AcDbLine
 10
168.986384
 20
498.461486
 11
168.986384
 21
520.49295
  0
CIRCLE
  5
321
100
AcDbEntity
  8
M0
100
AcDbCircle
 10
168.986384
 20
506.99295
 40
3.999995
  0
LINE
  5
322
100
AcDbEntity
  8
M0
100
AcDbLine
 10
170.754053
 20
505.22464
 11
167.218714
 21
508.760528
  0
LINE
  5
323
100
AcDbEntity
  8
M0
100
AcDbLine
 10
167.395258
 20
506.461944
 11
169.516627
 21
508.583282
  0
LINE
  5
324
100
AcDbEntity
  8
M0
100
AcDbLine
 10
168.455851
 20
505.401397
 11
170.577235
 21
507.522735
  0
CIRCLE
  5
325
100
AcDbEntity
  8
M0
100
AcDbCircle
 10
62.986384
 20
486.99295
 40
3.499997
  0
LINE
  5
326
100
AcDbEntity
  8
M0
  6
DASHDOT
100
AcDbLine
 10
55.688105
 20
486.99295
 11
71.550089
 21
486.99295
  0
LINE
  5
327
100
AcDbEntity
  8
M0
  6
DASHDOT
100
AcDbLine
 10
62.986384
 20
479.354354
 11
62.986384
 21
494.926559
  0
CIRCLE
  5
328
100
AcDbEntity
  8
M0
100
AcDbCircle
 10
62.986384
 20
486.99295
 40
3.999995
  0
LINE
  5
329
100
AcDbEntity
  8
M0
100
AcDbLine
 10
64.754053
 20
485.22464
 11
61.218714
 21
488.760528
  0
LINE
  5
32A
100
AcDbEntity
  8
M0
100
AcDbLine
 10
61.395258
 20
486.461944
 11
63.516627
 21
488.583282
  0
LINE
  5
32B
100
AcDbEntity
  8
M0
100
AcDbLine
 10
62.455851
 20
485.401397
 11
64.577235
 21
487.522735
  0
CIRCLE
  5
32C
100
AcDbEntity
  8
M0
100
AcDbCircle
 10
62.986384
 20
416.993209
 40
3.499997
  0
LINE
  5
32D
100
AcDbEntity
  8
M0
  6
DASHDOT
100
AcDbLine
 10
53.947825
 20
416.993209
 11
71.114985
 21
416.993209
  0
LINE
  5
32E
100
AcDbEntity
  8
M0
  6
DASHDOT
100
AcDbLine
 10
62.986384
 20
407.767013
 11
62.986384
 21
425.224243
  0
CIRCLE
  5
32F
100
AcDbEntity
  8
M0
100
AcDbCircle
 10
62.986384
 20
416.993209
 40
3.999995
  0
LINE
  5
330
100
AcDbEntity
  8
M0
100
AcDbLine
 10
64.754053
 20
415.224899
 11
61.218714
 21
418.760788
  0
LINE
  5
331
100
AcDbEntity
  8
M0
100
AcDbLine
 10
61.395258
 20
416.462204
 11
63.516627
 21
418.583542
  0
LINE
  5
332
100
AcDbEntity
  8
M0
100
AcDbLine
 10
62.455851
 20
415.401657
 11
64.577235
 21
417.522995
  0
CIRCLE
  5
333
100
AcDbEntity
  8
M0
100
AcDbCircle
 10
168.986384
 20
416.993164
 40
3.499997
  0
LINE
  5
334
100
AcDbEntity
  8
M0
  6
DASHDOT
100
AcDbLine
 10
161.174998
 20
416.993164
 11
177.834589
 21
416.993164
  0
LINE
  5
335
100
AcDbEntity
  8
M0
  6
DASHDOT
100
AcDbLine
 10
168.986384
 20
407.984542
 11
168.986384
 21
425.731826
  0
CIRCLE
  5
336
100
AcDbEntity
  8
M0
100
AcDbCircle
 10
168.986384
 20
416.993164
 40
3.999995
  0
LINE
  5
337
100
AcDbEntity
  8
M0
100
AcDbLine
 10
170.754053
 20
415.224853
 11
167.218714
 21
418.760742
  0
LINE
  5
338
100
AcDbEntity
  8
M0
100
AcDbLine
 10
167.395258
 20
416.462158
 11
169.516627
 21
418.583496
  0
LINE
  5
339
100
AcDbEntity
  8
M0
100
AcDbLine
 10
168.455851
 20
415.401611
 11
170.577235
 21
417.522949
  0
CIRCLE
  5
33A
100
AcDbEntity
  8
M0
100
AcDbCircle
 10
101.136378
 20
505.99295
 40
3.499997
  0
LINE
  5
33B
100
AcDbEntity
  8
M0
  6
DASHDOT
100
AcDbLine
 10
92.995554
 20
505.99295
 11
109.437617
 21
505.99295
  0
LINE
  5
33C
100
AcDbEntity
  8
M0
  6
DASHDOT
100
AcDbLine
 10
101.136378
 20
497.083801
 11
101.136378
 21
519.49295
  0
CIRCLE
  5
33D
100
AcDbEntity
  8
M0
100
AcDbCircle
 10
101.136378
 20
505.99295
 40
3.999995
  0
LINE
  5
33E
100
AcDbEntity
  8
M0
100
AcDbLine
 10
102.904047
 20
504.22464
 11
99.368708
 21
507.760528
  0
LINE
  5
33F
100
AcDbEntity
  8
M0
100
AcDbLine
 10
99.545252
 20
505.461944
 11
101.666621
 21
507.583282
  0
LINE
  5
340
100
AcDbEntity
  8
M0
100
AcDbLine
 10
100.605845
 20
504.401397
 11
102.727228
 21
506.522735
  0
CIRCLE
  5
341
100
AcDbEntity
  8
M0
100
AcDbCircle
 10
130.836375
 20
407.993209
 40
3.499997
  0
LINE
  5
342
100
AcDbEntity
  8
M0
  6
DASHDOT
100
AcDbLine
 10
123.051798
 20
407.993209
 11
138.841257
 21
407.993209
  0
LINE
  5
343
100
AcDbEntity
  8
M0
  6
DASHDOT
100
AcDbLine
 10
130.836375
 20
398.159164
 11
130.836375
 21
416.722198
  0
CIRCLE
  5
344
100
AcDbEntity
  8
M0
100
AcDbCircle
 10
130.836375
 20
407.993209
 40
3.999995
  0
LINE
  5
345
100
AcDbEntity
  8
M0
100
AcDbLine
 10
132.604044
 20
406.224899
 11
129.068705
 21
409.760788
  0
LINE
  5
346
100
AcDbEntity
  8
M0
100
AcDbLine
 10
129.245249
 20
407.462204
 11
131.366617
 21
409.583542
  0
LINE
  5
347
100
AcDbEntity
  8
M0
100
AcDbLine
 10
130.305842
 20
406.401657
 11
132.427225
 21
408.522995
  0
LINE
  5
348
100
AcDbEntity
  8
M0
 62
     5
100
AcDbLine
 10
67.936945
 20
528.992935
 11
62.036936
 21
528.99295
  0
LINE
  5
349
100
AcDbEntity
  8
M0
 62
     5
100
AcDbLine
 10
61.036936
 20
527.993194
 11
61.036921
 21
521.193145
  0
LINE
  5
34A
100
AcDbEntity
  8
M0
 62
     5
100
AcDbLine
 10
68.136927
 20
520.493667
 11
68.386927
 21
520.493667
  0
LINE
  5
34B
100
AcDbEntity
  8
M0
 62
     5
100
AcDbLine
 10
61.836909
 20
520.492462
 11
61.836909
 21
520.693634
  0
LINE
  5
34C
100
AcDbEntity
  8
M0
 62
     5
100
AcDbLine
 10
68.136912
 20
520.492447
 11
68.136912
 21
520.693374
  0
LINE
  5
34D
100
AcDbEntity
  8
M0
 62
     5
100
AcDbLine
 10
61.036921
 20
521.193145
 11
61.336787
 21
521.19339
  0
ARC
  5
34E
100
AcDbEntity
  8
M0
 62
     5
100
AcDbCircle
 10
61.336924
 20
520.693634
 40
0.5
100
AcDbArc
 50
0.0
 51
90.013989
  0
ARC
  5
34F
100
AcDbEntity
  8
M0
 62
     5
100
AcDbCircle
 10
68.636912
 20
520.693374
 40
0.5
100
AcDbArc
 50
134.51656
 51
180.0
  0
ARC
  5
350
100
AcDbEntity
  8
M0
 62
     5
100
AcDbCircle
 10
67.936945
 20
527.992691
 40
1.0
100
AcDbArc
 50
69.53922
 51
89.999126
  0
ARC
  5
351
100
AcDbEntity
  8
M0
 62
     5
100
AcDbCircle
 10
62.036936
 20
527.99295
 40
1.0
100
AcDbArc
 50
89.999126
 51
179.986012
  0
LINE
  5
352
100
AcDbEntity
  8
M0
 62
     5
100
AcDbLine
 10
99.936945
 20
528.992691
 11
94.036936
 21
528.992706
  0
LINE
  5
353
100
AcDbEntity
  8
M0
 62
     5
100
AcDbLine
 10
93.036936
 20
527.99295
 11
93.036921
 21
521.192901
  0
LINE
  5
354
100
AcDbEntity
  8
M0
 62
     5
100
AcDbLine
 10
105.986444
 20
399.49324
 11
105.986449
 21
381.99382
  0
LINE
  5
355
100
AcDbEntity
  8
M0
 62
     5
100
AcDbLine
 10
125.99055
 20
381.99382
 11
125.986152
 21
399.493255
  0
LINE
  5
356
100
AcDbEntity
  8
M0
 62
     5
100
AcDbLine
 10
105.986449
 20
380.493255
 11
106.10762
 21
380.493255
  0
LINE
  5
357
100
AcDbEntity
  8
M0
 62
     5
100
AcDbLine
 10
125.986402
 20
380.493255
 11
125.986414
 21
389.193512
  0
LINE
  5
358
100
AcDbEntity
  8
M0
 62
     5
100
AcDbLine
 10
105.986449
 20
381.847183
 11
105.986449
 21
380.493255
  0
LINE
  5
359
100
AcDbEntity
  8
M0
 62
     5
100
AcDbLine
 10
125.451337
 20
380.493255
 11
125.986402
 21
380.493255
  0
LINE
  5
35A
100
AcDbEntity
  8
M0
 62
     5
100
AcDbLine
 10
68.286082
 20
380.493332
 11
68.286005
 21
399.49292
  0
LINE
  5
35B
100
AcDbEntity
  8
M0
 62
     5
100
AcDbLine
 10
100.936928
 20
521.19313
 11
100.936933
 21
527.992691
  0
LINE
  5
35C
100
AcDbEntity
  8
M0
 62
     5
100
AcDbLine
 10
100.136925
 20
520.493423
 11
100.386925
 21
520.493423
  0
LINE
  5
35D
100
AcDbEntity
  8
M0
 62
     5
100
AcDbLine
 10
93.836909
 20
520.492706
 11
93.836909
 21
520.69339
  0
LINE
  5
35E
100
AcDbEntity
  8
M0
 62
     5
100
AcDbLine
 10
100.13691
 20
520.492691
 11
100.13691
 21
520.69313
  0
LINE
  5
35F
100
AcDbEntity
  8
M0
 62
     5
100
AcDbLine
 10
93.036921
 20
521.192901
 11
93.336787
 21
521.193145
  0
LINE
  5
360
100
AcDbEntity
  8
M0
 62
     5
100
AcDbLine
 10
100.637078
 20
521.19313
 11
100.936928
 21
521.192886
  0
ARC
  5
361
100
AcDbEntity
  8
M0
 62
     5
100
AcDbCircle
 10
93.336924
 20
520.69339
 40
0.5
100
AcDbArc
 50
0.0
 51
90.013989
  0
ARC
  5
362
100
AcDbEntity
  8
M0
 62
     5
100
AcDbCircle
 10
100.636925
 20
520.693374
 40
0.5
100
AcDbArc
 50
89.982405
 51
180.0
  0
ARC
  5
363
100
AcDbEntity
  8
M0
 62
     5
100
AcDbCircle
 10
99.936945
 20
527.992691
 40
1.0
100
AcDbArc
 50
0.0
 51
89.999126
  0
ARC
  5
364
100
AcDbEntity
  8
M0
 62
     5
100
AcDbCircle
 10
94.036936
 20
527.992706
 40
1.0
100
AcDbArc
 50
89.999126
 51
179.986012
  0
LINE
  5
365
100
AcDbEntity
  8
M0
 62
     5
100
AcDbLine
 10
137.93693
 20
528.992935
 11
132.036921
 21
528.99295
  0
LINE
  5
366
100
AcDbEntity
  8
M0
 62
     5
100
AcDbLine
 10
131.036923
 20
527.993194
 11
131.036919
 21
521.193145
  0
LINE
  5
367
100
AcDbEntity
  8
M0
 62
     5
100
AcDbLine
 10
138.936915
 20
521.193374
 11
138.93693
 21
527.992935
  0
LINE
  5
368
100
AcDbEntity
  8
M0
 62
     5
100
AcDbLine
 10
138.136912
 20
520.493667
 11
138.386912
 21
520.493667
  0
LINE
  5
369
100
AcDbEntity
  8
M0
 62
     5
100
AcDbLine
 10
131.836906
 20
520.492706
 11
131.836906
 21
520.693634
  0
LINE
  5
36A
100
AcDbEntity
  8
M0
 62
     5
100
AcDbLine
 10
138.136896
 20
520.492691
 11
138.136896
 21
520.693374
  0
LINE
  5
36B
100
AcDbEntity
  8
M0
 62
     5
100
AcDbLine
 10
131.036919
 20
521.193145
 11
131.336785
 21
521.19339
  0
LINE
  5
36C
100
AcDbEntity
  8
M0
 62
     5
100
AcDbLine
 10
138.637064
 20
521.193374
 11
138.936915
 21
521.19313
  0
ARC
  5
36D
100
AcDbEntity
  8
M0
 62
     5
100
AcDbCircle
 10
131.336921
 20
520.693634
 40
0.5
100
AcDbArc
 50
0.0
 51
90.015628
  0
ARC
  5
36E
100
AcDbEntity
  8
M0
 62
     5
100
AcDbCircle
 10
138.636912
 20
520.693618
 40
0.5
100
AcDbArc
 50
89.982514
 51
180.0
  0
ARC
  5
36F
100
AcDbEntity
  8
M0
 62
     5
100
AcDbCircle
 10
137.93693
 20
527.992935
 40
1.0
100
AcDbArc
 50
0.0
 51
90.0
  0
ARC
  5
370
100
AcDbEntity
  8
M0
 62
     5
100
AcDbCircle
 10
132.036921
 20
527.99295
 40
1.0
100
AcDbArc
 50
90.0
 51
179.986012
  0
LINE
  5
371
100
AcDbEntity
  8
M0
 62
     5
100
AcDbLine
 10
61.036371
 20
472.493438
 11
66.936381
 21
472.493438
  0
LINE
  5
372
100
AcDbEntity
  8
M0
 62
     5
100
AcDbLine
 10
67.936381
 20
475.942901
 11
67.936381
 21
480.293243
  0
LINE
  5
373
100
AcDbEntity
  8
M0
 62
     5
100
AcDbLine
 10
67.136378
 20
481.993194
 11
60.586375
 21
481.993194
  0
LINE
  5
374
100
AcDbEntity
  8
M0
 62
     5
100
AcDbLine
 10
60.036371
 20
480.292999
 11
60.036371
 21
475.942901
  0
LINE
  5
375
100
AcDbEntity
  8
M0
 62
     5
100
AcDbLine
 10
60.836375
 20
480.992706
 11
60.586375
 21
480.992706
  0
LINE
  5
376
100
AcDbEntity
  8
M0
 62
     5
100
AcDbLine
 10
67.136378
 20
481.993438
 11
67.136378
 21
480.792755
  0
LINE
  5
377
100
AcDbEntity
  8
M0
 62
     5
100
AcDbLine
 10
60.836375
 20
481.993438
 11
60.836375
 21
480.792755
  0
LINE
  5
378
100
AcDbEntity
  8
M0
 62
     5
100
AcDbLine
 10
67.936381
 20
480.293243
 11
67.636515
 21
480.292999
  0
LINE
  5
379
100
AcDbEntity
  8
M0
 62
     5
100
AcDbLine
 10
60.336222
 20
480.292999
 11
60.036371
 21
480.293243
  0
ARC
  5
37A
100
AcDbEntity
  8
M0
 62
     5
100
AcDbCircle
 10
67.636378
 20
480.792755
 40
0.5
100
AcDbArc
 50
180.0
 51
270.017485
  0
ARC
  5
37B
100
AcDbEntity
  8
M0
 62
     5
100
AcDbCircle
 10
60.336375
 20
480.792755
 40
0.5
100
AcDbArc
 50
269.982515
 51
360.0
  0
LINE
  5
37C
100
AcDbEntity
  8
M0
 62
     5
100
AcDbLine
 10
60.586375
 20
481.993438
 11
60.586375
 21
480.993438
  0
ARC
  5
37D
100
AcDbEntity
  8
M0
 62
     5
100
AcDbCircle
 10
66.936381
 20
473.493438
 40
1.0
100
AcDbArc
 50
270.0
 51
287.588846
  0
ARC
  5
37E
100
AcDbEntity
  8
M0
 62
     5
100
AcDbCircle
 10
61.036371
 20
473.493438
 40
1.0
100
AcDbArc
 50
252.411988
 51
270.0
  0
LINE
  5
37F
100
AcDbEntity
  8
M0
 62
     5
100
AcDbLine
 10
61.036371
 20
462.993652
 11
66.936381
 21
462.993652
  0
LINE
  5
380
100
AcDbEntity
  8
M0
 62
     5
100
AcDbLine
 10
67.936381
 20
466.343017
 11
67.936381
 21
470.793457
  0
LINE
  5
381
100
AcDbEntity
  8
M0
 62
     5
100
AcDbLine
 10
67.136378
 20
472.493408
 11
60.736384
 21
472.493164
  0
LINE
  5
382
100
AcDbEntity
  8
M0
 62
     5
100
AcDbLine
 10
60.036371
 20
470.793213
 11
60.036371
 21
466.343017
  0
LINE
  5
383
100
AcDbEntity
  8
M0
 62
     5
100
AcDbLine
 10
60.836375
 20
471.49292
 11
60.586375
 21
471.49292
  0
LINE
  5
384
100
AcDbEntity
  8
M0
 62
     5
100
AcDbLine
 10
67.136378
 20
472.493652
 11
67.136378
 21
471.292968
  0
LINE
  5
385
100
AcDbEntity
  8
M0
 62
     5
100
AcDbLine
 10
60.836375
 20
472.493652
 11
60.836375
 21
471.292968
  0
LINE
  5
386
100
AcDbEntity
  8
M0
 62
     5
100
AcDbLine
 10
67.936381
 20
470.793457
 11
67.636515
 21
470.793213
  0
LINE
  5
387
100
AcDbEntity
  8
M0
 62
     5
100
AcDbLine
 10
60.336222
 20
470.793213
 11
60.036371
 21
470.793457
  0
ARC
  5
388
100
AcDbEntity
  8
M0
 62
     5
100
AcDbCircle
 10
67.636378
 20
471.292968
 40
0.5
100
AcDbArc
 50
180.0
 51
270.017485
  0
ARC
  5
389
100
AcDbEntity
  8
M0
 62
     5
100
AcDbCircle
 10
60.336375
 20
471.292968
 40
0.5
100
AcDbArc
 50
269.982515
 51
360.0
  0
LINE
  5
38A
100
AcDbEntity
  8
M0
 62
     5
100
AcDbLine
 10
165.036371
 20
472.493194
 11
170.936381
 21
472.493194
  0
LINE
  5
38B
100
AcDbEntity
  8
M0
 62
     5
100
AcDbLine
 10
171.936381
 20
475.942901
 11
171.936381
 21
480.292999
  0
LINE
  5
38C
100
AcDbEntity
  8
M0
 62
     5
100
AcDbLine
 10
171.136378
 20
481.99295
 11
164.586375
 21
481.99295
  0
LINE
  5
38D
100
AcDbEntity
  8
M0
 62
     5
100
AcDbLine
 10
164.036371
 20
480.292755
 11
164.036371
 21
475.942901
  0
LINE
  5
38E
100
AcDbEntity
  8
M0
 62
     5
100
AcDbLine
 10
164.836375
 20
480.992462
 11
164.586375
 21
480.992462
  0
LINE
  5
38F
100
AcDbEntity
  8
M0
 62
     5
100
AcDbLine
 10
171.136378
 20
481.993194
 11
171.136378
 21
480.792511
  0
LINE
  5
390
100
AcDbEntity
  8
M0
 62
     5
100
AcDbLine
 10
164.836375
 20
481.993194
 11
164.836375
 21
480.792511
  0
LINE
  5
391
100
AcDbEntity
  8
M0
 62
     5
100
AcDbLine
 10
171.936381
 20
480.292999
 11
171.636515
 21
480.292755
  0
LINE
  5
392
100
AcDbEntity
  8
M0
 62
     5
100
AcDbLine
 10
164.336222
 20
480.292755
 11
164.036371
 21
480.292999
  0
ARC
  5
393
100
AcDbEntity
  8
M0
 62
     5
100
AcDbCircle
 10
171.636378
 20
480.792511
 40
0.5
100
AcDbArc
 50
180.0
 51
270.015737
  0
ARC
  5
394
100
AcDbEntity
  8
M0
 62
     5
100
AcDbCircle
 10
164.336375
 20
480.792511
 40
0.5
100
AcDbArc
 50
269.980766
 51
360.0
  0
LINE
  5
395
100
AcDbEntity
  8
M0
 62
     5
100
AcDbLine
 10
164.586375
 20
481.993194
 11
164.586375
 21
480.993194
  0
ARC
  5
396
100
AcDbEntity
  8
M0
 62
     5
100
AcDbCircle
 10
165.036371
 20
473.493194
 40
1.0
100
AcDbArc
 50
252.41297
 51
269.999126
  0
ARC
  5
397
100
AcDbEntity
  8
M0
 62
     5
100
AcDbCircle
 10
170.936381
 20
473.493194
 40
1.0
100
AcDbArc
 50
269.999126
 51
287.586197
  0
LINE
  5
398
100
AcDbEntity
  8
M0
 62
     5
100
AcDbLine
 10
165.036371
 20
462.993408
 11
170.936381
 21
462.993408
  0
LINE
  5
399
100
AcDbEntity
  8
M0
 62
     5
100
AcDbLine
 10
171.936381
 20
466.343017
 11
171.936381
 21
470.793213
  0
LINE
  5
39A
100
AcDbEntity
  8
M0
 62
     5
100
AcDbLine
 10
171.136378
 20
472.493164
 11
164.736384
 21
472.49292
  0
LINE
  5
39B
100
AcDbEntity
  8
M0
 62
     5
100
AcDbLine
 10
164.036371
 20
470.792968
 11
164.036371
 21
466.343017
  0
LINE
  5
39C
100
AcDbEntity
  8
M0
 62
     5
100
AcDbLine
 10
164.836375
 20
471.492675
 11
164.586375
 21
471.492675
  0
LINE
  5
39D
100
AcDbEntity
  8
M0
 62
     5
100
AcDbLine
 10
171.136378
 20
472.493408
 11
171.136378
 21
471.292724
  0
LINE
  5
39E
100
AcDbEntity
  8
M0
 62
     5
100
AcDbLine
 10
164.836375
 20
472.493408
 11
164.836375
 21
471.292724
  0
LINE
  5
39F
100
AcDbEntity
  8
M0
 62
     5
100
AcDbLine
 10
171.936381
 20
470.793213
 11
171.636515
 21
470.792968
  0
LINE
  5
3A0
100
AcDbEntity
  8
M0
 62
     5
100
AcDbLine
 10
164.336222
 20
470.792968
 11
164.036371
 21
470.793213
  0
ARC
  5
3A1
100
AcDbEntity
  8
M0
 62
     5
100
AcDbCircle
 10
171.636378
 20
471.292724
 40
0.5
100
AcDbArc
 50
180.0
 51
270.015737
  0
ARC
  5
3A2
100
AcDbEntity
  8
M0
 62
     5
100
AcDbCircle
 10
164.336375
 20
471.292724
 40
0.5
100
AcDbArc
 50
269.980766
 51
360.0
  0
LINE
  5
3A3
100
AcDbEntity
  8
M0
 62
     5
100
AcDbLine
 10
170.936396
 20
450.992719
 11
165.036387
 21
450.992723
  0
LINE
  5
3A4
100
AcDbEntity
  8
M0
 62
     5
100
AcDbLine
 10
164.036387
 20
447.643237
 11
164.036356
 21
443.192919
  0
LINE
  5
3A5
100
AcDbEntity
  8
M0
 62
     5
100
AcDbLine
 10
164.836359
 20
441.492968
 11
171.236368
 21
441.492964
  0
LINE
  5
3A6
100
AcDbEntity
  8
M0
 62
     5
100
AcDbLine
 10
171.936365
 20
443.193143
 11
171.936381
 21
447.643232
  0
LINE
  5
3A7
100
AcDbEntity
  8
M0
 62
     5
100
AcDbLine
 10
171.136378
 20
442.493453
 11
171.386378
 21
442.493453
  0
LINE
  5
3A8
100
AcDbEntity
  8
M0
 62
     5
100
AcDbLine
 10
164.836375
 20
441.492724
 11
164.836375
 21
442.693408
  0
LINE
  5
3A9
100
AcDbEntity
  8
M0
 62
     5
100
AcDbLine
 10
171.136378
 20
441.49272
 11
171.136378
 21
442.693404
  0
LINE
  5
3AA
100
AcDbEntity
  8
M0
 62
     5
100
AcDbLine
 10
164.036371
 20
443.192919
 11
164.336237
 21
443.193164
  0
LINE
  5
3AB
100
AcDbEntity
  8
M0
 62
     5
100
AcDbLine
 10
171.63653
 20
443.193159
 11
171.936381
 21
443.192915
  0
ARC
  5
3AC
100
AcDbEntity
  8
M0
 62
     5
100
AcDbCircle
 10
164.336375
 20
442.693408
 40
0.5
100
AcDbArc
 50
0.0
 51
90.015737
  0
ARC
  5
3AD
100
AcDbEntity
  8
M0
 62
     5
100
AcDbCircle
 10
171.636378
 20
442.693403
 40
0.5
100
AcDbArc
 50
89.982515
 51
179.999891
  0
LINE
  5
3AE
100
AcDbEntity
  8
M0
 62
     5
100
AcDbLine
 10
170.936396
 20
441.492963
 11
165.036387
 21
441.492967
  0
LINE
  5
3AF
100
AcDbEntity
  8
M0
 62
     5
100
AcDbLine
 10
164.036387
 20
438.043396
 11
164.036356
 21
433.693176
  0
LINE
  5
3B0
100
AcDbEntity
  8
M0
 62
     5
100
AcDbLine
 10
164.836375
 20
431.993225
 11
171.386378
 21
431.993209
  0
LINE
  5
3B1
100
AcDbEntity
  8
M0
 62
     5
100
AcDbLine
 10
171.936365
 20
433.69339
 11
171.936381
 21
438.04338
  0
LINE
  5
3B2
100
AcDbEntity
  8
M0
 62
     5
100
AcDbLine
 10
171.136378
 20
432.993698
 11
171.386378
 21
432.993698
  0
LINE
  5
3B3
100
AcDbEntity
  8
M0
 62
     5
100
AcDbLine
 10
164.836375
 20
431.992981
 11
164.836375
 21
433.193664
  0
LINE
  5
3B4
100
AcDbEntity
  8
M0
 62
     5
100
AcDbLine
 10
171.136378
 20
431.992965
 11
171.136378
 21
433.193649
  0
LINE
  5
3B5
100
AcDbEntity
  8
M0
 62
     5
100
AcDbLine
 10
164.036371
 20
433.693176
 11
164.336237
 21
433.69342
  0
LINE
  5
3B6
100
AcDbEntity
  8
M0
 62
     5
100
AcDbLine
 10
171.63653
 20
433.693405
 11
171.936381
 21
433.693161
  0
ARC
  5
3B7
100
AcDbEntity
  8
M0
 62
     5
100
AcDbCircle
 10
164.336375
 20
433.193664
 40
0.5
100
AcDbArc
 50
0.0
 51
90.015737
  0
ARC
  5
3B8
100
AcDbEntity
  8
M0
 62
     5
100
AcDbCircle
 10
171.636378
 20
433.193649
 40
0.5
100
AcDbArc
 50
89.982515
 51
179.998251
  0
LINE
  5
3B9
100
AcDbEntity
  8
M0
 62
     5
100
AcDbLine
 10
171.386378
 20
431.992965
 11
171.386378
 21
432.992965
  0
ARC
  5
3BA
100
AcDbEntity
  8
M0
 62
     5
100
AcDbCircle
 10
170.936396
 20
440.49295
 40
1.0
100
AcDbArc
 50
72.543117
 51
90.0
  0
ARC
  5
3BB
100
AcDbEntity
  8
M0
 62
     5
100
AcDbCircle
 10
165.036387
 20
440.492981
 40
1.0
100
AcDbArc
 50
90.0
 51
107.458633
  0
LINE
  5
3BC
100
AcDbEntity
  8
M0
 62
     5
100
AcDbLine
 10
66.936411
 20
450.992735
 11
61.036402
 21
450.992738
  0
LINE
  5
3BD
100
AcDbEntity
  8
M0
 62
     5
100
AcDbLine
 10
60.036402
 20
447.643237
 11
60.036371
 21
443.192935
  0
LINE
  5
3BE
100
AcDbEntity
  8
M0
 62
     5
100
AcDbLine
 10
60.836375
 20
441.492983
 11
67.236384
 21
441.49298
  0
LINE
  5
3BF
100
AcDbEntity
  8
M0
 62
     5
100
AcDbLine
 10
67.936381
 20
443.193159
 11
67.936396
 21
447.643232
  0
LINE
  5
3C0
100
AcDbEntity
  8
M0
 62
     5
100
AcDbLine
 10
67.136393
 20
442.493468
 11
67.386393
 21
442.493468
  0
LINE
  5
3C1
100
AcDbEntity
  8
M0
 62
     5
100
AcDbLine
 10
60.83639
 20
441.492739
 11
60.83639
 21
442.693423
  0
LINE
  5
3C2
100
AcDbEntity
  8
M0
 62
     5
100
AcDbLine
 10
67.136393
 20
441.492736
 11
67.136393
 21
442.693419
  0
LINE
  5
3C3
100
AcDbEntity
  8
M0
 62
     5
100
AcDbLine
 10
60.036387
 20
443.192935
 11
60.336252
 21
443.193179
  0
LINE
  5
3C4
100
AcDbEntity
  8
M0
 62
     5
100
AcDbLine
 10
67.636545
 20
443.193174
 11
67.936396
 21
443.19293
  0
ARC
  5
3C5
100
AcDbEntity
  8
M0
 62
     5
100
AcDbCircle
 10
60.33639
 20
442.693423
 40
0.5
100
AcDbArc
 50
0.0
 51
90.013988
  0
ARC
  5
3C6
100
AcDbEntity
  8
M0
 62
     5
100
AcDbCircle
 10
67.636393
 20
442.693418
 40
0.5
100
AcDbArc
 50
89.980766
 51
179.999891
  0
LINE
  5
3C7
100
AcDbEntity
  8
M0
 62
     5
100
AcDbLine
 10
66.936411
 20
441.492979
 11
61.036402
 21
441.492983
  0
LINE
  5
3C8
100
AcDbEntity
  8
M0
 62
     5
100
AcDbLine
 10
60.036402
 20
438.043396
 11
60.036371
 21
433.693191
  0
LINE
  5
3C9
100
AcDbEntity
  8
M0
 62
     5
100
AcDbLine
 10
60.83639
 20
431.99324
 11
67.386393
 21
431.993225
  0
LINE
  5
3CA
100
AcDbEntity
  8
M0
 62
     5
100
AcDbLine
 10
67.936381
 20
433.693405
 11
67.936396
 21
438.04338
  0
LINE
  5
3CB
100
AcDbEntity
  8
M0
 62
     5
100
AcDbLine
 10
67.136393
 20
432.993713
 11
67.386393
 21
432.993713
  0
LINE
  5
3CC
100
AcDbEntity
  8
M0
 62
     5
100
AcDbLine
 10
60.83639
 20
431.992996
 11
60.83639
 21
433.193679
  0
LINE
  5
3CD
100
AcDbEntity
  8
M0
 62
     5
100
AcDbLine
 10
67.136393
 20
431.992981
 11
67.136393
 21
433.193664
  0
LINE
  5
3CE
100
AcDbEntity
  8
M0
 62
     5
100
AcDbLine
 10
60.036387
 20
433.693191
 11
60.336252
 21
433.693435
  0
LINE
  5
3CF
100
AcDbEntity
  8
M0
 62
     5
100
AcDbLine
 10
67.636545
 20
433.69342
 11
67.936396
 21
433.693176
  0
ARC
  5
3D0
100
AcDbEntity
  8
M0
 62
     5
100
AcDbCircle
 10
60.33639
 20
433.193679
 40
0.5
100
AcDbArc
 50
0.0
 51
90.013988
  0
ARC
  5
3D1
100
AcDbEntity
  8
M0
 62
     5
100
AcDbCircle
 10
67.636393
 20
433.193664
 40
0.5
100
AcDbArc
 50
89.980766
 51
179.998251
  0
LINE
  5
3D2
100
AcDbEntity
  8
M0
 62
     5
100
AcDbLine
 10
67.386393
 20
431.992981
 11
67.386393
 21
432.992981
  0
ARC
  5
3D3
100
AcDbEntity
  8
M0
 62
     5
100
AcDbCircle
 10
66.936411
 20
440.492965
 40
1.0
100
AcDbArc
 50
72.542283
 51
89.999126
  0
ARC
  5
3D4
100
AcDbEntity
  8
M0
 62
     5
100
AcDbCircle
 10
61.036402
 20
440.492996
 40
1.0
100
AcDbArc
 50
89.999126
 51
107.457799
  0
ARC
  5
3D5
100
AcDbEntity
  8
M0
100
AcDbCircle
 10
145.686106
 20
504.993438
 40
3.499997
100
AcDbArc
 50
314.42065
 51
585.578818
  0
LINE
  5
3D6
100
AcDbEntity
  8
M0
  6
DASHDOT
100
AcDbLine
 10
138.388071
 20
504.993438
 11
154.32255
 21
504.993438
  0
LINE
  5
3D7
100
AcDbEntity
  8
M0
  6
DASHDOT
100
AcDbLine
 10
145.686106
 20
497.591369
 11
145.686106
 21
513.453399
  0
LINE
  5
3D8
100
AcDbEntity
  8
M0
100
AcDbLine
 10
147.453776
 20
503.225128
 11
143.918436
 21
506.761016
  0
LINE
  5
3D9
100
AcDbEntity
  8
M0
100
AcDbLine
 10
144.09498
 20
504.462433
 11
146.216349
 21
506.58377
  0
LINE
  5
3DA
100
AcDbEntity
  8
M0
100
AcDbLine
 10
145.155573
 20
503.401886
 11
147.276957
 21
505.523224
  0
ARC
  5
3DB
100
AcDbEntity
  8
M0
100
AcDbCircle
 10
115.986872
 20
504.992706
 40
3.499997
100
AcDbArc
 50
314.437828
 51
585.561885
  0
LINE
  5
3DC
100
AcDbEntity
  8
M0
  6
DASHDOT
100
AcDbLine
 10
108.494982
 20
504.992706
 11
123.414316
 21
504.992706
  0
LINE
  5
3DD
100
AcDbEntity
  8
M0
100
AcDbLine
 10
117.754542
 20
503.224395
 11
114.219202
 21
506.760284
  0
LINE
  5
3DE
100
AcDbEntity
  8
M0
100
AcDbLine
 10
114.395746
 20
504.4617
 11
116.517115
 21
506.583038
  0
LINE
  5
3DF
100
AcDbEntity
  8
M0
100
AcDbLine
 10
115.456339
 20
503.401153
 11
117.577723
 21
505.522491
  0
ARC
  5
3E0
100
AcDbEntity
  8
M0
100
AcDbCircle
 10
86.286417
 20
504.99295
 40
3.499997
100
AcDbArc
 50
314.43231
 51
585.567693
  0
LINE
  5
3E1
100
AcDbEntity
  8
M0
  6
DASHDOT
100
AcDbLine
 10
78.891947
 20
504.99295
 11
94.155695
 21
504.99295
  0
LINE
  5
3E2
100
AcDbEntity
  8
M0
  6
DASHDOT
100
AcDbLine
 10
86.286417
 20
497.156311
 11
86.286417
 21
513.018341
  0
LINE
  5
3E3
100
AcDbEntity
  8
M0
100
AcDbLine
 10
88.054087
 20
503.22464
 11
84.518748
 21
506.760528
  0
LINE
  5
3E4
100
AcDbEntity
  8
M0
100
AcDbLine
 10
84.695292
 20
504.461944
 11
86.81666
 21
506.583282
  0
LINE
  5
3E5
100
AcDbEntity
  8
M0
100
AcDbLine
 10
85.755884
 20
503.401397
 11
87.877268
 21
505.522735
  0
ARC
  5
3E6
100
AcDbEntity
  8
M0
100
AcDbCircle
 10
145.686396
 20
408.99324
 40
3.499997
100
AcDbArc
 50
134.404754
 51
405.595603
  0
LINE
  5
3E7
100
AcDbEntity
  8
M0
  6
DASHDOT
100
AcDbLine
 10
138.623759
 20
408.99324
 11
153.978144
 21
408.99324
  0
LINE
  5
3E8
100
AcDbEntity
  8
M0
  6
DASHDOT
100
AcDbLine
 10
145.686396
 20
401.059631
 11
145.686396
 21
416.432174
  0
LINE
  5
3E9
100
AcDbEntity
  8
M0
100
AcDbLine
 10
147.454066
 20
407.224929
 11
143.918726
 21
410.760818
  0
LINE
  5
3EA
100
AcDbEntity
  8
M0
100
AcDbLine
 10
144.09527
 20
408.462234
 11
146.216639
 21
410.583572
  0
LINE
  5
3EB
100
AcDbEntity
  8
M0
100
AcDbLine
 10
145.155863
 20
407.401687
 11
147.277247
 21
409.523025
  0
ARC
  5
3EC
100
AcDbEntity
  8
M0
100
AcDbCircle
 10
115.986429
 20
408.99324
 40
3.499997
100
AcDbArc
 50
134.404014
 51
405.596064
  0
LINE
  5
3ED
100
AcDbEntity
  8
M0
  6
DASHDOT
100
AcDbLine
 10
107.715494
 20
408.99324
 11
124.012537
 21
408.99324
  0
LINE
  5
3EE
100
AcDbEntity
  8
M0
100
AcDbLine
 10
117.754099
 20
407.224929
 11
114.21876
 21
410.760818
  0
LINE
  5
3EF
100
AcDbEntity
  8
M0
100
AcDbLine
 10
114.395304
 20
408.462234
 11
116.516672
 21
410.583572
  0
LINE
  5
3F0
100
AcDbEntity
  8
M0
100
AcDbLine
 10
115.455897
 20
407.401687
 11
117.57728
 21
409.523025
  0
ARC
  5
3F1
100
AcDbEntity
  8
M0
100
AcDbCircle
 10
86.286371
 20
408.99324
 40
3.499997
100
AcDbArc
 50
134.403869
 51
405.595952
  0
LINE
  5
3F2
100
AcDbEntity
  8
M0
  6
DASHDOT
100
AcDbLine
 10
77.224177
 20
408.99324
 11
94.246332
 21
408.99324
  0
LINE
  5
3F3
100
AcDbEntity
  8
M0
  6
DASHDOT
100
AcDbLine
 10
86.286371
 20
401.440323
 11
86.286371
 21
416.214645
  0
LINE
  5
3F4
100
AcDbEntity
  8
M0
100
AcDbLine
 10
88.054041
 20
407.224929
 11
84.518702
 21
410.760818
  0
LINE
  5
3F5
100
AcDbEntity
  8
M0
100
AcDbLine
 10
84.695246
 20
408.462234
 11
86.816614
 21
410.583572
  0
LINE
  5
3F6
100
AcDbEntity
  8
M0
100
AcDbLine
 10
85.755839
 20
407.401687
 11
87.877222
 21
409.523025
  0
LINE
  5
3F7
100
AcDbEntity
  8
M0
100
AcDbLine
 10
169.386286
 20
480.092559
 11
171.206354
 21
480.092559
  0
LINE
  5
3F8
100
AcDbEntity
  8
M0
100
AcDbLine
 10
166.586237
 20
480.092559
 11
164.766169
 21
480.092559
  0
LINE
  5
3F9
100
AcDbEntity
  8
M0
100
AcDbLine
 10
170.467097
 20
481.292755
 11
165.505427
 21
481.292511
  0
ARC
  5
3FA
100
AcDbEntity
  8
M0
100
AcDbCircle
 10
165.505427
 20
480.792511
 40
0.5
100
AcDbArc
 50
90.0
 51
162.856778
  0
ARC
  5
3FB
100
AcDbEntity
  8
M0
100
AcDbCircle
 10
170.467097
 20
480.792511
 40
0.5
100
AcDbArc
 50
17.151452
 51
90.0
  0
CIRCLE
  5
3FC
100
AcDbEntity
  8
M0
100
AcDbCircle
 10
167.986384
 20
476.992706
 40
2.999997
  0
LINE
  5
3FD
100
AcDbEntity
  8
M0
100
AcDbLine
 10
165.027399
 20
480.939972
 11
164.211237
 21
478.292755
  0
LINE
  5
3FE
100
AcDbEntity
  8
M0
100
AcDbLine
 10
165.027399
 20
473.04544
 11
164.211237
 21
475.692657
  0
LINE
  5
3FF
100
AcDbEntity
  8
M0
100
AcDbLine
 10
170.94488
 20
480.939972
 11
171.761286
 21
478.292755
  0
LINE
  5
400
100
AcDbEntity
  8
M0
100
AcDbLine
 10
170.94488
 20
473.04544
 11
171.761286
 21
475.692657
  0
LINE
  5
401
100
AcDbEntity
  8
M0
100
AcDbLine
 10
170.307917
 20
478.892608
 11
171.576227
 21
478.892608
  0
LINE
  5
402
100
AcDbEntity
  8
M0
100
AcDbLine
 10
170.307917
 20
475.092559
 11
171.576227
 21
475.092559
  0
LINE
  5
403
100
AcDbEntity
  8
M0
100
AcDbLine
 10
169.386286
 20
473.892608
 11
171.206354
 21
473.892608
  0
LINE
  5
404
100
AcDbEntity
  8
M0
100
AcDbLine
 10
165.664606
 20
478.892608
 11
164.396296
 21
478.892608
  0
LINE
  5
405
100
AcDbEntity
  8
M0
100
AcDbLine
 10
165.664606
 20
475.092559
 11
164.396296
 21
475.092559
  0
LINE
  5
406
100
AcDbEntity
  8
M0
100
AcDbLine
 10
166.586237
 20
473.892608
 11
164.766169
 21
473.892608
  0
LINE
  5
407
100
AcDbEntity
  8
M0
100
AcDbLine
 10
165.505427
 20
472.692657
 11
170.467097
 21
472.692657
  0
LINE
  5
408
100
AcDbEntity
  8
M0
100
AcDbLine
 10
171.761286
 20
475.692657
 11
171.761286
 21
478.292755
  0
LINE
  5
409
100
AcDbEntity
  8
M0
100
AcDbLine
 10
164.211237
 20
478.292755
 11
164.211237
 21
475.692657
  0
LINE
  5
40A
100
AcDbEntity
  8
M0
  6
DASHDOT
100
AcDbLine
 10
161.711237
 20
476.992706
 11
174.261286
 21
476.992706
  0
LINE
  5
40B
100
AcDbEntity
  8
M0
100
AcDbLine
 10
169.386286
 20
473.892608
 11
169.386286
 21
474.339386
  0
LINE
  5
40C
100
AcDbEntity
  8
M0
100
AcDbLine
 10
169.386286
 20
479.646026
 11
169.386286
 21
480.092559
  0
LINE
  5
40D
100
AcDbEntity
  8
M0
100
AcDbLine
 10
166.586237
 20
479.646026
 11
166.586237
 21
480.092559
  0
LINE
  5
40E
100
AcDbEntity
  8
M0
100
AcDbLine
 10
166.586237
 20
473.892608
 11
166.586237
 21
474.339386
  0
LINE
  5
40F
100
AcDbEntity
  8
M0
100
AcDbLine
 10
169.57696
 20
475.401886
 11
166.395319
 21
478.583526
  0
LINE
  5
410
100
AcDbEntity
  8
M0
100
AcDbLine
 10
168.339655
 20
478.406768
 11
166.572077
 21
476.63919
  0
LINE
  5
411
100
AcDbEntity
  8
M0
100
AcDbLine
 10
169.400202
 20
477.346222
 11
167.632624
 21
475.578643
  0
ARC
  5
412
100
AcDbEntity
  8
M0
100
AcDbCircle
 10
165.505427
 20
473.192657
 40
0.5
100
AcDbArc
 50
197.11777
 51
269.998251
  0
ARC
  5
413
100
AcDbEntity
  8
M0
100
AcDbCircle
 10
170.467097
 20
473.192657
 40
0.5
100
AcDbArc
 50
269.998251
 51
342.874517
  0
LINE
  5
414
100
AcDbEntity
  8
M0
  6
DASHDOT
100
AcDbLine
 10
167.986384
 20
470.629202
 11
167.986384
 21
483.792755
  0
LINE
  5
415
100
AcDbEntity
  8
M0
100
AcDbLine
 10
169.386286
 20
470.593017
 11
171.206354
 21
470.593017
  0
LINE
  5
416
100
AcDbEntity
  8
M0
100
AcDbLine
 10
166.586237
 20
470.593017
 11
164.766169
 21
470.593017
  0
LINE
  5
417
100
AcDbEntity
  8
M0
100
AcDbLine
 10
170.467097
 20
471.793213
 11
165.505427
 21
471.792968
  0
ARC
  5
418
100
AcDbEntity
  8
M0
100
AcDbCircle
 10
165.505427
 20
471.292968
 40
0.5
100
AcDbArc
 50
90.0
 51
162.856673
  0
ARC
  5
419
100
AcDbEntity
  8
M0
100
AcDbCircle
 10
170.467097
 20
471.292968
 40
0.5
100
AcDbArc
 50
17.152392
 51
90.0
  0
CIRCLE
  5
41A
100
AcDbEntity
  8
M0
100
AcDbCircle
 10
167.986384
 20
467.493164
 40
2.999997
  0
LINE
  5
41B
100
AcDbEntity
  8
M0
100
AcDbLine
 10
165.027399
 20
471.440429
 11
164.211237
 21
468.793213
  0
LINE
  5
41C
100
AcDbEntity
  8
M0
100
AcDbLine
 10
165.027399
 20
463.545898
 11
164.211237
 21
466.193115
  0
LINE
  5
41D
100
AcDbEntity
  8
M0
100
AcDbLine
 10
170.94488
 20
471.440429
 11
171.761286
 21
468.793213
  0
LINE
  5
41E
100
AcDbEntity
  8
M0
100
AcDbLine
 10
170.94488
 20
463.545898
 11
171.761286
 21
466.193115
  0
LINE
  5
41F
100
AcDbEntity
  8
M0
100
AcDbLine
 10
170.307917
 20
469.393066
 11
171.576227
 21
469.393066
  0
LINE
  5
420
100
AcDbEntity
  8
M0
100
AcDbLine
 10
170.307917
 20
465.593017
 11
171.576227
 21
465.593017
  0
LINE
  5
421
100
AcDbEntity
  8
M0
100
AcDbLine
 10
169.386286
 20
464.393066
 11
171.206354
 21
464.393066
  0
LINE
  5
422
100
AcDbEntity
  8
M0
100
AcDbLine
 10
165.664606
 20
469.393066
 11
164.396296
 21
469.393066
  0
LINE
  5
423
100
AcDbEntity
  8
M0
100
AcDbLine
 10
165.664606
 20
465.593017
 11
164.396296
 21
465.593017
  0
LINE
  5
424
100
AcDbEntity
  8
M0
100
AcDbLine
 10
166.586237
 20
464.393066
 11
164.766169
 21
464.393066
  0
LINE
  5
425
100
AcDbEntity
  8
M0
100
AcDbLine
 10
165.505427
 20
463.193115
 11
170.467097
 21
463.193115
  0
LINE
  5
426
100
AcDbEntity
  8
M0
100
AcDbLine
 10
171.761286
 20
466.193115
 11
171.761286
 21
468.793213
  0
LINE
  5
427
100
AcDbEntity
  8
M0
100
AcDbLine
 10
164.211237
 20
468.793213
 11
164.211237
 21
466.193115
  0
LINE
  5
428
100
AcDbEntity
  8
M0
  6
DASHDOT
100
AcDbLine
 10
161.711237
 20
467.493164
 11
174.261286
 21
467.493164
  0
LINE
  5
429
100
AcDbEntity
  8
M0
100
AcDbLine
 10
169.386286
 20
464.393066
 11
169.386286
 21
464.839843
  0
LINE
  5
42A
100
AcDbEntity
  8
M0
100
AcDbLine
 10
169.386286
 20
470.146484
 11
169.386286
 21
470.593017
  0
LINE
  5
42B
100
AcDbEntity
  8
M0
100
AcDbLine
 10
166.586237
 20
470.146484
 11
166.586237
 21
470.593017
  0
LINE
  5
42C
100
AcDbEntity
  8
M0
100
AcDbLine
 10
166.586237
 20
464.393066
 11
166.586237
 21
464.839843
  0
LINE
  5
42D
100
AcDbEntity
  8
M0
100
AcDbLine
 10
169.57696
 20
465.902343
 11
166.395319
 21
469.083984
  0
LINE
  5
42E
100
AcDbEntity
  8
M0
100
AcDbLine
 10
168.339655
 20
468.907226
 11
166.572077
 21
467.139648
  0
LINE
  5
42F
100
AcDbEntity
  8
M0
100
AcDbLine
 10
169.400202
 20
467.846679
 11
167.632624
 21
466.079101
  0
ARC
  5
430
100
AcDbEntity
  8
M0
100
AcDbCircle
 10
165.505427
 20
463.693115
 40
0.5
100
AcDbArc
 50
197.116934
 51
269.998251
  0
ARC
  5
431
100
AcDbEntity
  8
M0
100
AcDbCircle
 10
170.467097
 20
463.693115
 40
0.5
100
AcDbArc
 50
269.998251
 51
342.874517
  0
LINE
  5
432
100
AcDbEntity
  8
M0
  6
DASHDOT
100
AcDbLine
 10
167.986384
 20
461.12966
 11
167.986384
 21
474.293213
  0
LINE
  5
433
100
AcDbEntity
  8
M0
100
AcDbLine
 10
169.386286
 20
449.594116
 11
171.206354
 21
449.594116
  0
LINE
  5
434
100
AcDbEntity
  8
M0
100
AcDbLine
 10
166.586237
 20
449.594116
 11
164.766169
 21
449.594116
  0
LINE
  5
435
100
AcDbEntity
  8
M0
100
AcDbLine
 10
170.467097
 20
450.794311
 11
165.505427
 21
450.794067
  0
ARC
  5
436
100
AcDbEntity
  8
M0
100
AcDbCircle
 10
165.505427
 20
450.294067
 40
0.5
100
AcDbArc
 50
90.0
 51
162.856569
  0
ARC
  5
437
100
AcDbEntity
  8
M0
100
AcDbCircle
 10
170.467097
 20
450.294067
 40
0.5
100
AcDbArc
 50
17.152497
 51
90.0
  0
CIRCLE
  5
438
100
AcDbEntity
  8
M0
100
AcDbCircle
 10
167.986384
 20
446.494262
 40
2.999997
  0
LINE
  5
439
100
AcDbEntity
  8
M0
100
AcDbLine
 10
165.027399
 20
450.441528
 11
164.211237
 21
447.794311
  0
LINE
  5
43A
100
AcDbEntity
  8
M0
100
AcDbLine
 10
165.027399
 20
442.546997
 11
164.211237
 21
445.194214
  0
LINE
  5
43B
100
AcDbEntity
  8
M0
100
AcDbLine
 10
170.94488
 20
450.441528
 11
171.761286
 21
447.794311
  0
LINE
  5
43C
100
AcDbEntity
  8
M0
100
AcDbLine
 10
170.94488
 20
442.546997
 11
171.761286
 21
445.194214
  0
LINE
  5
43D
100
AcDbEntity
  8
M0
100
AcDbLine
 10
170.307917
 20
448.394165
 11
171.576227
 21
448.394165
  0
LINE
  5
43E
100
AcDbEntity
  8
M0
100
AcDbLine
 10
170.307917
 20
444.594116
 11
171.576227
 21
444.594116
  0
LINE
  5
43F
100
AcDbEntity
  8
M0
100
AcDbLine
 10
169.386286
 20
443.394165
 11
171.206354
 21
443.394165
  0
LINE
  5
440
100
AcDbEntity
  8
M0
100
AcDbLine
 10
165.664606
 20
448.394165
 11
164.396296
 21
448.394165
  0
LINE
  5
441
100
AcDbEntity
  8
M0
100
AcDbLine
 10
165.664606
 20
444.594116
 11
164.396296
 21
444.594116
  0
LINE
  5
442
100
AcDbEntity
  8
M0
100
AcDbLine
 10
166.586237
 20
443.394165
 11
164.766169
 21
443.394165
  0
LINE
  5
443
100
AcDbEntity
  8
M0
100
AcDbLine
 10
165.505427
 20
442.194214
 11
170.467097
 21
442.194214
  0
LINE
  5
444
100
AcDbEntity
  8
M0
100
AcDbLine
 10
171.761286
 20
445.194214
 11
171.761286
 21
447.794311
  0
LINE
  5
445
100
AcDbEntity
  8
M0
100
AcDbLine
 10
164.211237
 20
447.794311
 11
164.211237
 21
445.194214
  0
LINE
  5
446
100
AcDbEntity
  8
M0
  6
DASHDOT
100
AcDbLine
 10
161.711237
 20
446.494262
 11
174.261286
 21
446.494262
  0
LINE
  5
447
100
AcDbEntity
  8
M0
100
AcDbLine
 10
169.386286
 20
443.394165
 11
169.386286
 21
443.840942
  0
LINE
  5
448
100
AcDbEntity
  8
M0
100
AcDbLine
 10
169.386286
 20
449.147583
 11
169.386286
 21
449.594116
  0
LINE
  5
449
100
AcDbEntity
  8
M0
100
AcDbLine
 10
166.586237
 20
449.147583
 11
166.586237
 21
449.594116
  0
LINE
  5
44A
100
AcDbEntity
  8
M0
100
AcDbLine
 10
166.586237
 20
443.394165
 11
166.586237
 21
443.840942
  0
LINE
  5
44B
100
AcDbEntity
  8
M0
100
AcDbLine
 10
169.57696
 20
444.903442
 11
166.395319
 21
448.085083
  0
LINE
  5
44C
100
AcDbEntity
  8
M0
100
AcDbLine
 10
168.339655
 20
447.908325
 11
166.572077
 21
446.140747
  0
LINE
  5
44D
100
AcDbEntity
  8
M0
100
AcDbLine
 10
169.400202
 20
446.847778
 11
167.632624
 21
445.0802
  0
ARC
  5
44E
100
AcDbEntity
  8
M0
100
AcDbCircle
 10
165.505427
 20
442.694214
 40
0.5
100
AcDbArc
 50
197.11683
 51
269.998251
  0
ARC
  5
44F
100
AcDbEntity
  8
M0
100
AcDbCircle
 10
170.467097
 20
442.694214
 40
0.5
100
AcDbArc
 50
269.998251
 51
342.874621
  0
LINE
  5
450
100
AcDbEntity
  8
M0
  6
DASHDOT
100
AcDbLine
 10
167.986384
 20
440.130767
 11
167.986384
 21
453.294311
  0
LINE
  5
451
100
AcDbEntity
  8
M0
100
AcDbLine
 10
169.386286
 20
440.093063
 11
171.206354
 21
440.093063
  0
LINE
  5
452
100
AcDbEntity
  8
M0
100
AcDbLine
 10
166.586237
 20
440.093063
 11
164.766169
 21
440.093063
  0
LINE
  5
453
100
AcDbEntity
  8
M0
100
AcDbLine
 10
170.467097
 20
441.293258
 11
165.505427
 21
441.293014
  0
ARC
  5
454
100
AcDbEntity
  8
M0
100
AcDbCircle
 10
165.505427
 20
440.793014
 40
0.5
100
AcDbArc
 50
90.0
 51
162.855107
  0
ARC
  5
455
100
AcDbEntity
  8
M0
100
AcDbCircle
 10
170.467097
 20
440.793014
 40
0.5
100
AcDbArc
 50
17.153123
 51
90.0
  0
CIRCLE
  5
456
100
AcDbEntity
  8
M0
100
AcDbCircle
 10
167.986384
 20
436.993209
 40
2.999994
  0
LINE
  5
457
100
AcDbEntity
  8
M0
100
AcDbLine
 10
165.027399
 20
440.940475
 11
164.211237
 21
438.293258
  0
LINE
  5
458
100
AcDbEntity
  8
M0
100
AcDbLine
 10
165.027399
 20
433.045944
 11
164.211237
 21
435.693161
  0
LINE
  5
459
100
AcDbEntity
  8
M0
100
AcDbLine
 10
170.94488
 20
440.940475
 11
171.761286
 21
438.293258
  0
LINE
  5
45A
100
AcDbEntity
  8
M0
100
AcDbLine
 10
170.94488
 20
433.045944
 11
171.761286
 21
435.693161
  0
LINE
  5
45B
100
AcDbEntity
  8
M0
100
AcDbLine
 10
170.307917
 20
438.893112
 11
171.576227
 21
438.893112
  0
LINE
  5
45C
100
AcDbEntity
  8
M0
100
AcDbLine
 10
170.307917
 20
435.093063
 11
171.576227
 21
435.093063
  0
LINE
  5
45D
100
AcDbEntity
  8
M0
100
AcDbLine
 10
169.386286
 20
433.893112
 11
171.206354
 21
433.893112
  0
LINE
  5
45E
100
AcDbEntity
  8
M0
100
AcDbLine
 10
165.664606
 20
438.893112
 11
164.396296
 21
438.893112
  0
LINE
  5
45F
100
AcDbEntity
  8
M0
100
AcDbLine
 10
165.664606
 20
435.093063
 11
164.396296
 21
435.093063
  0
LINE
  5
460
100
AcDbEntity
  8
M0
100
AcDbLine
 10
166.586237
 20
433.893112
 11
164.766169
 21
433.893112
  0
LINE
  5
461
100
AcDbEntity
  8
M0
100
AcDbLine
 10
165.505427
 20
432.693161
 11
170.467097
 21
432.693161
  0
LINE
  5
462
100
AcDbEntity
  8
M0
100
AcDbLine
 10
171.761286
 20
435.693161
 11
171.761286
 21
438.293258
  0
LINE
  5
463
100
AcDbEntity
  8
M0
100
AcDbLine
 10
164.211237
 20
438.293258
 11
164.211237
 21
435.693161
  0
LINE
  5
464
100
AcDbEntity
  8
M0
  6
DASHDOT
100
AcDbLine
 10
161.711237
 20
436.993209
 11
174.261286
 21
436.993209
  0
LINE
  5
465
100
AcDbEntity
  8
M0
100
AcDbLine
 10
169.386286
 20
433.893112
 11
169.386286
 21
434.339889
  0
LINE
  5
466
100
AcDbEntity
  8
M0
100
AcDbLine
 10
169.386286
 20
439.64653
 11
169.386286
 21
440.093063
  0
LINE
  5
467
100
AcDbEntity
  8
M0
100
AcDbLine
 10
166.586237
 20
439.64653
 11
166.586237
 21
440.093063
  0
LINE
  5
468
100
AcDbEntity
  8
M0
100
AcDbLine
 10
166.586237
 20
433.893112
 11
166.586237
 21
434.339889
  0
LINE
  5
469
100
AcDbEntity
  8
M0
100
AcDbLine
 10
169.57696
 20
435.402389
 11
166.395319
 21
438.58403
  0
LINE
  5
46A
100
AcDbEntity
  8
M0
100
AcDbLine
 10
168.339655
 20
438.407272
 11
166.572077
 21
436.639694
  0
LINE
  5
46B
100
AcDbEntity
  8
M0
100
AcDbLine
 10
169.400202
 20
437.346725
 11
167.632624
 21
435.579147
  0
ARC
  5
46C
100
AcDbEntity
  8
M0
100
AcDbCircle
 10
165.505427
 20
433.193161
 40
0.5
100
AcDbArc
 50
197.116099
 51
269.998251
  0
ARC
  5
46D
100
AcDbEntity
  8
M0
100
AcDbCircle
 10
170.467097
 20
433.193161
 40
0.5
100
AcDbArc
 50
269.998251
 51
342.876188
  0
LINE
  5
46E
100
AcDbEntity
  8
M0
  6
DASHDOT
100
AcDbLine
 10
167.986384
 20
430.629684
 11
167.986384
 21
443.793258
  0
LINE
  5
46F
100
AcDbEntity
  8
M0
100
AcDbLine
 10
65.386286
 20
480.09378
 11
67.206354
 21
480.09378
  0
LINE
  5
470
100
AcDbEntity
  8
M0
100
AcDbLine
 10
62.586237
 20
480.09378
 11
60.766169
 21
480.09378
  0
LINE
  5
471
100
AcDbEntity
  8
M0
100
AcDbLine
 10
66.467097
 20
481.293975
 11
61.505427
 21
481.293731
  0
ARC
  5
472
100
AcDbEntity
  8
M0
100
AcDbCircle
 10
61.505427
 20
480.793731
 40
0.5
100
AcDbArc
 50
89.998251
 51
162.856262
  0
ARC
  5
473
100
AcDbEntity
  8
M0
100
AcDbCircle
 10
66.467097
 20
480.793731
 40
0.5
100
AcDbArc
 50
17.150937
 51
89.998251
  0
CIRCLE
  5
474
100
AcDbEntity
  8
M0
100
AcDbCircle
 10
63.986384
 20
476.993927
 40
2.999994
  0
LINE
  5
475
100
AcDbEntity
  8
M0
100
AcDbLine
 10
61.027399
 20
480.941192
 11
60.211237
 21
478.293975
  0
LINE
  5
476
100
AcDbEntity
  8
M0
100
AcDbLine
 10
61.027399
 20
473.046661
 11
60.211237
 21
475.693878
  0
LINE
  5
477
100
AcDbEntity
  8
M0
100
AcDbLine
 10
66.94488
 20
480.941192
 11
67.761286
 21
478.293975
  0
LINE
  5
478
100
AcDbEntity
  8
M0
100
AcDbLine
 10
66.94488
 20
473.046661
 11
67.761286
 21
475.693878
  0
LINE
  5
479
100
AcDbEntity
  8
M0
100
AcDbLine
 10
66.307917
 20
478.893829
 11
67.576227
 21
478.893829
  0
LINE
  5
47A
100
AcDbEntity
  8
M0
100
AcDbLine
 10
66.307917
 20
475.09378
 11
67.576227
 21
475.09378
  0
LINE
  5
47B
100
AcDbEntity
  8
M0
100
AcDbLine
 10
65.386286
 20
473.893829
 11
67.206354
 21
473.893829
  0
LINE
  5
47C
100
AcDbEntity
  8
M0
100
AcDbLine
 10
61.664606
 20
478.893829
 11
60.396296
 21
478.893829
  0
LINE
  5
47D
100
AcDbEntity
  8
M0
100
AcDbLine
 10
61.664606
 20
475.09378
 11
60.396296
 21
475.09378
  0
LINE
  5
47E
100
AcDbEntity
  8
M0
100
AcDbLine
 10
62.586237
 20
473.893829
 11
60.766169
 21
473.893829
  0
LINE
  5
47F
100
AcDbEntity
  8
M0
100
AcDbLine
 10
61.505427
 20
472.693878
 11
66.467097
 21
472.693878
  0
LINE
  5
480
100
AcDbEntity
  8
M0
100
AcDbLine
 10
67.761286
 20
475.693878
 11
67.761286
 21
478.293975
  0
LINE
  5
481
100
AcDbEntity
  8
M0
100
AcDbLine
 10
60.211237
 20
478.293975
 11
60.211237
 21
475.693878
  0
LINE
  5
482
100
AcDbEntity
  8
M0
  6
DASHDOT
100
AcDbLine
 10
57.711237
 20
476.993927
 11
70.261286
 21
476.993927
  0
LINE
  5
483
100
AcDbEntity
  8
M0
100
AcDbLine
 10
65.386286
 20
473.893829
 11
65.386286
 21
474.340606
  0
LINE
  5
484
100
AcDbEntity
  8
M0
100
AcDbLine
 10
65.386286
 20
479.647247
 11
65.386286
 21
480.09378
  0
LINE
  5
485
100
AcDbEntity
  8
M0
100
AcDbLine
 10
62.586237
 20
479.647247
 11
62.586237
 21
480.09378
  0
LINE
  5
486
100
AcDbEntity
  8
M0
100
AcDbLine
 10
62.586237
 20
473.893829
 11
62.586237
 21
474.340606
  0
LINE
  5
487
100
AcDbEntity
  8
M0
100
AcDbLine
 10
65.57696
 20
475.403106
 11
62.395319
 21
478.584747
  0
LINE
  5
488
100
AcDbEntity
  8
M0
100
AcDbLine
 10
64.339655
 20
478.407989
 11
62.572077
 21
476.640411
  0
LINE
  5
489
100
AcDbEntity
  8
M0
100
AcDbLine
 10
65.400202
 20
477.347442
 11
63.632624
 21
475.579864
  0
ARC
  5
48A
100
AcDbEntity
  8
M0
100
AcDbCircle
 10
61.505427
 20
473.193878
 40
0.5
100
AcDbArc
 50
197.118284
 51
270.0
  0
ARC
  5
48B
100
AcDbEntity
  8
M0
100
AcDbCircle
 10
66.467097
 20
473.193878
 40
0.5
100
AcDbArc
 50
270.0
 51
342.875032
  0
LINE
  5
48C
100
AcDbEntity
  8
M0
  6
DASHDOT
100
AcDbLine
 10
63.986384
 20
470.630401
 11
63.986384
 21
483.793975
  0
LINE
  5
48D
100
AcDbEntity
  8
M0
100
AcDbLine
 10
65.386286
 20
470.593017
 11
67.206354
 21
470.593017
  0
LINE
  5
48E
100
AcDbEntity
  8
M0
100
AcDbLine
 10
62.586237
 20
470.593017
 11
60.766169
 21
470.593017
  0
LINE
  5
48F
100
AcDbEntity
  8
M0
100
AcDbLine
 10
66.467097
 20
471.793213
 11
61.505427
 21
471.792968
  0
ARC
  5
490
100
AcDbEntity
  8
M0
100
AcDbCircle
 10
61.505427
 20
471.292968
 40
0.5
100
AcDbArc
 50
89.998251
 51
162.856158
  0
ARC
  5
491
100
AcDbEntity
  8
M0
100
AcDbCircle
 10
66.467097
 20
471.292968
 40
0.5
100
AcDbArc
 50
17.151876
 51
89.998251
  0
CIRCLE
  5
492
100
AcDbEntity
  8
M0
100
AcDbCircle
 10
63.986384
 20
467.493164
 40
2.999994
  0
LINE
  5
493
100
AcDbEntity
  8
M0
100
AcDbLine
 10
61.027399
 20
471.440429
 11
60.211237
 21
468.793213
  0
LINE
  5
494
100
AcDbEntity
  8
M0
100
AcDbLine
 10
61.027399
 20
463.545898
 11
60.211237
 21
466.193115
  0
LINE
  5
495
100
AcDbEntity
  8
M0
100
AcDbLine
 10
66.94488
 20
471.440429
 11
67.761286
 21
468.793213
  0
LINE
  5
496
100
AcDbEntity
  8
M0
100
AcDbLine
 10
66.94488
 20
463.545898
 11
67.761286
 21
466.193115
  0
LINE
  5
497
100
AcDbEntity
  8
M0
100
AcDbLine
 10
66.307917
 20
469.393066
 11
67.576227
 21
469.393066
  0
LINE
  5
498
100
AcDbEntity
  8
M0
100
AcDbLine
 10
66.307917
 20
465.593017
 11
67.576227
 21
465.593017
  0
LINE
  5
499
100
AcDbEntity
  8
M0
100
AcDbLine
 10
65.386286
 20
464.393066
 11
67.206354
 21
464.393066
  0
LINE
  5
49A
100
AcDbEntity
  8
M0
100
AcDbLine
 10
61.664606
 20
469.393066
 11
60.396296
 21
469.393066
  0
LINE
  5
49B
100
AcDbEntity
  8
M0
100
AcDbLine
 10
61.664606
 20
465.593017
 11
60.396296
 21
465.593017
  0
LINE
  5
49C
100
AcDbEntity
  8
M0
100
AcDbLine
 10
62.586237
 20
464.393066
 11
60.766169
 21
464.393066
  0
LINE
  5
49D
100
AcDbEntity
  8
M0
100
AcDbLine
 10
61.505427
 20
463.193115
 11
66.467097
 21
463.193115
  0
LINE
  5
49E
100
AcDbEntity
  8
M0
100
AcDbLine
 10
67.761286
 20
466.193115
 11
67.761286
 21
468.793213
  0
LINE
  5
49F
100
AcDbEntity
  8
M0
100
AcDbLine
 10
60.211237
 20
468.793213
 11
60.211237
 21
466.193115
  0
LINE
  5
4A0
100
AcDbEntity
  8
M0
  6
DASHDOT
100
AcDbLine
 10
57.711237
 20
467.493164
 11
70.261286
 21
467.493164
  0
LINE
  5
4A1
100
AcDbEntity
  8
M0
100
AcDbLine
 10
65.386286
 20
464.393066
 11
65.386286
 21
464.839843
  0
LINE
  5
4A2
100
AcDbEntity
  8
M0
100
AcDbLine
 10
65.386286
 20
470.146484
 11
65.386286
 21
470.593017
  0
LINE
  5
4A3
100
AcDbEntity
  8
M0
100
AcDbLine
 10
62.586237
 20
470.146484
 11
62.586237
 21
470.593017
  0
LINE
  5
4A4
100
AcDbEntity
  8
M0
100
AcDbLine
 10
62.586237
 20
464.393066
 11
62.586237
 21
464.839843
  0
LINE
  5
4A5
100
AcDbEntity
  8
M0
100
AcDbLine
 10
65.57696
 20
465.902343
 11
62.395319
 21
469.083984
  0
LINE
  5
4A6
100
AcDbEntity
  8
M0
100
AcDbLine
 10
64.339655
 20
468.907226
 11
62.572077
 21
467.139648
  0
LINE
  5
4A7
100
AcDbEntity
  8
M0
100
AcDbLine
 10
65.400202
 20
467.846679
 11
63.632624
 21
466.079101
  0
ARC
  5
4A8
100
AcDbEntity
  8
M0
100
AcDbCircle
 10
61.505427
 20
463.693115
 40
0.5
100
AcDbArc
 50
197.117449
 51
270.0
  0
ARC
  5
4A9
100
AcDbEntity
  8
M0
100
AcDbCircle
 10
66.467097
 20
463.693115
 40
0.5
100
AcDbArc
 50
270.0
 51
342.875032
  0
LINE
  5
4AA
100
AcDbEntity
  8
M0
  6
DASHDOT
100
AcDbLine
 10
63.986384
 20
461.129638
 11
63.986384
 21
474.293213
  0
LINE
  5
4AB
100
AcDbEntity
  8
M0
100
AcDbLine
 10
65.386286
 20
449.592834
 11
67.206354
 21
449.592834
  0
LINE
  5
4AC
100
AcDbEntity
  8
M0
100
AcDbLine
 10
62.586237
 20
449.592834
 11
60.766169
 21
449.592834
  0
LINE
  5
4AD
100
AcDbEntity
  8
M0
100
AcDbLine
 10
66.467097
 20
450.793029
 11
61.505427
 21
450.792785
  0
ARC
  5
4AE
100
AcDbEntity
  8
M0
100
AcDbCircle
 10
61.505427
 20
450.292785
 40
0.5
100
AcDbArc
 50
89.998251
 51
162.856053
  0
ARC
  5
4AF
100
AcDbEntity
  8
M0
100
AcDbCircle
 10
66.467097
 20
450.292785
 40
0.5
100
AcDbArc
 50
17.151981
 51
89.998251
  0
CIRCLE
  5
4B0
100
AcDbEntity
  8
M0
100
AcDbCircle
 10
63.986384
 20
446.492981
 40
2.999994
  0
LINE
  5
4B1
100
AcDbEntity
  8
M0
100
AcDbLine
 10
61.027399
 20
450.440246
 11
60.211237
 21
447.793029
  0
LINE
  5
4B2
100
AcDbEntity
  8
M0
100
AcDbLine
 10
61.027399
 20
442.545715
 11
60.211237
 21
445.192932
  0
LINE
  5
4B3
100
AcDbEntity
  8
M0
100
AcDbLine
 10
66.94488
 20
450.440246
 11
67.761286
 21
447.793029
  0
LINE
  5
4B4
100
AcDbEntity
  8
M0
100
AcDbLine
 10
66.94488
 20
442.545715
 11
67.761286
 21
445.192932
  0
LINE
  5
4B5
100
AcDbEntity
  8
M0
100
AcDbLine
 10
66.307917
 20
448.392883
 11
67.576227
 21
448.392883
  0
LINE
  5
4B6
100
AcDbEntity
  8
M0
100
AcDbLine
 10
66.307917
 20
444.592834
 11
67.576227
 21
444.592834
  0
LINE
  5
4B7
100
AcDbEntity
  8
M0
100
AcDbLine
 10
65.386286
 20
443.392883
 11
67.206354
 21
443.392883
  0
LINE
  5
4B8
100
AcDbEntity
  8
M0
100
AcDbLine
 10
61.664606
 20
448.392883
 11
60.396296
 21
448.392883
  0
LINE
  5
4B9
100
AcDbEntity
  8
M0
100
AcDbLine
 10
61.664606
 20
444.592834
 11
60.396296
 21
444.592834
  0
LINE
  5
4BA
100
AcDbEntity
  8
M0
100
AcDbLine
 10
62.586237
 20
443.392883
 11
60.766169
 21
443.392883
  0
LINE
  5
4BB
100
AcDbEntity
  8
M0
100
AcDbLine
 10
61.505427
 20
442.192932
 11
66.467097
 21
442.192932
  0
LINE
  5
4BC
100
AcDbEntity
  8
M0
100
AcDbLine
 10
67.761286
 20
445.192932
 11
67.761286
 21
447.793029
  0
LINE
  5
4BD
100
AcDbEntity
  8
M0
100
AcDbLine
 10
60.211237
 20
447.793029
 11
60.211237
 21
445.192932
  0
LINE
  5
4BE
100
AcDbEntity
  8
M0
  6
DASHDOT
100
AcDbLine
 10
57.711237
 20
446.492981
 11
70.261286
 21
446.492981
  0
LINE
  5
4BF
100
AcDbEntity
  8
M0
100
AcDbLine
 10
65.386286
 20
443.392883
 11
65.386286
 21
443.83966
  0
LINE
  5
4C0
100
AcDbEntity
  8
M0
100
AcDbLine
 10
65.386286
 20
449.146301
 11
65.386286
 21
449.592834
  0
LINE
  5
4C1
100
AcDbEntity
  8
M0
100
AcDbLine
 10
62.586237
 20
449.146301
 11
62.586237
 21
449.592834
  0
LINE
  5
4C2
100
AcDbEntity
  8
M0
100
AcDbLine
 10
62.586237
 20
443.392883
 11
62.586237
 21
443.83966
  0
LINE
  5
4C3
100
AcDbEntity
  8
M0
100
AcDbLine
 10
65.57696
 20
444.90216
 11
62.395319
 21
448.083801
  0
LINE
  5
4C4
100
AcDbEntity
  8
M0
100
AcDbLine
 10
64.339655
 20
447.907043
 11
62.572077
 21
446.139465
  0
LINE
  5
4C5
100
AcDbEntity
  8
M0
100
AcDbLine
 10
65.400202
 20
446.846496
 11
63.632624
 21
445.078918
  0
ARC
  5
4C6
100
AcDbEntity
  8
M0
100
AcDbCircle
 10
61.505427
 20
442.692932
 40
0.5
100
AcDbArc
 50
197.117344
 51
270.0
  0
ARC
  5
4C7
100
AcDbEntity
  8
M0
100
AcDbCircle
 10
66.467097
 20
442.692932
 40
0.5
100
AcDbArc
 50
270.0
 51
342.875136
  0
LINE
  5
4C8
100
AcDbEntity
  8
M0
  6
DASHDOT
100
AcDbLine
 10
63.986384
 20
440.129455
 11
63.986384
 21
453.293029
  0
LINE
  5
4C9
100
AcDbEntity
  8
M0
100
AcDbLine
 10
65.386286
 20
440.093078
 11
67.206354
 21
440.093078
  0
LINE
  5
4CA
100
AcDbEntity
  8
M0
100
AcDbLine
 10
62.586237
 20
440.093078
 11
60.766169
 21
440.093078
  0
LINE
  5
4CB
100
AcDbEntity
  8
M0
100
AcDbLine
 10
66.467097
 20
441.293274
 11
61.505427
 21
441.293029
  0
ARC
  5
4CC
100
AcDbEntity
  8
M0
100
AcDbCircle
 10
61.505427
 20
440.793029
 40
0.5
100
AcDbArc
 50
89.998251
 51
162.854591
  0
ARC
  5
4CD
100
AcDbEntity
  8
M0
100
AcDbCircle
 10
66.467097
 20
440.793029
 40
0.5
100
AcDbArc
 50
17.152607
 51
89.998251
  0
CIRCLE
  5
4CE
100
AcDbEntity
  8
M0
100
AcDbCircle
 10
63.986384
 20
436.993225
 40
2.999994
  0
LINE
  5
4CF
100
AcDbEntity
  8
M0
100
AcDbLine
 10
61.027399
 20
440.94049
 11
60.211237
 21
438.293274
  0
LINE
  5
4D0
100
AcDbEntity
  8
M0
100
AcDbLine
 10
61.027399
 20
433.045959
 11
60.211237
 21
435.693176
  0
LINE
  5
4D1
100
AcDbEntity
  8
M0
100
AcDbLine
 10
66.94488
 20
440.94049
 11
67.761286
 21
438.293274
  0
LINE
  5
4D2
100
AcDbEntity
  8
M0
100
AcDbLine
 10
66.94488
 20
433.045959
 11
67.761286
 21
435.693176
  0
LINE
  5
4D3
100
AcDbEntity
  8
M0
100
AcDbLine
 10
66.307917
 20
438.893127
 11
67.576227
 21
438.893127
  0
LINE
  5
4D4
100
AcDbEntity
  8
M0
100
AcDbLine
 10
66.307917
 20
435.093078
 11
67.576227
 21
435.093078
  0
LINE
  5
4D5
100
AcDbEntity
  8
M0
100
AcDbLine
 10
65.386286
 20
433.893127
 11
67.206354
 21
433.893127
  0
LINE
  5
4D6
100
AcDbEntity
  8
M0
100
AcDbLine
 10
61.664606
 20
438.893127
 11
60.396296
 21
438.893127
  0
LINE
  5
4D7
100
AcDbEntity
  8
M0
100
AcDbLine
 10
61.664606
 20
435.093078
 11
60.396296
 21
435.093078
  0
LINE
  5
4D8
100
AcDbEntity
  8
M0
100
AcDbLine
 10
62.586237
 20
433.893127
 11
60.766169
 21
433.893127
  0
LINE
  5
4D9
100
AcDbEntity
  8
M0
100
AcDbLine
 10
61.505427
 20
432.693176
 11
66.467097
 21
432.693176
  0
LINE
  5
4DA
100
AcDbEntity
  8
M0
100
AcDbLine
 10
67.761286
 20
435.693176
 11
67.761286
 21
438.293274
  0
LINE
  5
4DB
100
AcDbEntity
  8
M0
100
AcDbLine
 10
60.211237
 20
438.293274
 11
60.211237
 21
435.693176
  0
LINE
  5
4DC
100
AcDbEntity
  8
M0
  6
DASHDOT
100
AcDbLine
 10
57.711237
 20
436.993225
 11
70.261286
 21
436.993225
  0
LINE
  5
4DD
100
AcDbEntity
  8
M0
100
AcDbLine
 10
65.386286
 20
433.893127
 11
65.386286
 21
434.339904
  0
LINE
  5
4DE
100
AcDbEntity
  8
M0
100
AcDbLine
 10
65.386286
 20
439.646545
 11
65.386286
 21
440.093078
  0
LINE
  5
4DF
100
AcDbEntity
  8
M0
100
AcDbLine
 10
62.586237
 20
439.646545
 11
62.586237
 21
440.093078
  0
LINE
  5
4E0
100
AcDbEntity
  8
M0
100
AcDbLine
 10
62.586237
 20
433.893127
 11
62.586237
 21
434.339904
  0
LINE
  5
4E1
100
AcDbEntity
  8
M0
100
AcDbLine
 10
65.57696
 20
435.402404
 11
62.395319
 21
438.584045
  0
LINE
  5
4E2
100
AcDbEntity
  8
M0
100
AcDbLine
 10
64.339655
 20
438.407287
 11
62.572077
 21
436.639709
  0
LINE
  5
4E3
100
AcDbEntity
  8
M0
100
AcDbLine
 10
65.400202
 20
437.34674
 11
63.632624
 21
435.579162
  0
ARC
  5
4E4
100
AcDbEntity
  8
M0
100
AcDbCircle
 10
61.505427
 20
433.193176
 40
0.5
100
AcDbArc
 50
197.116613
 51
270.0
  0
ARC
  5
4E5
100
AcDbEntity
  8
M0
100
AcDbCircle
 10
66.467097
 20
433.193176
 40
0.5
100
AcDbArc
 50
270.0
 51
342.876703
  0
LINE
  5
4E6
100
AcDbEntity
  8
M0
  6
DASHDOT
100
AcDbLine
 10
63.986384
 20
430.629699
 11
63.986384
 21
443.793274
  0
LINE
  5
4E7
100
AcDbEntity
  8
M0
100
AcDbLine
 10
136.38682
 20
527.593292
 11
138.206888
 21
527.593292
  0
LINE
  5
4E8
100
AcDbEntity
  8
M0
100
AcDbLine
 10
133.586771
 20
527.593292
 11
131.766703
 21
527.593292
  0
LINE
  5
4E9
100
AcDbEntity
  8
M0
100
AcDbLine
 10
137.467631
 20
528.793487
 11
132.505961
 21
528.793243
  0
ARC
  5
4EA
100
AcDbEntity
  8
M0
100
AcDbCircle
 10
132.505961
 20
528.293243
 40
0.5
100
AcDbArc
 50
90.0
 51
162.856778
  0
ARC
  5
4EB
100
AcDbEntity
  8
M0
100
AcDbCircle
 10
137.467631
 20
528.293243
 40
0.5
100
AcDbArc
 50
17.151452
 51
90.0
  0
CIRCLE
  5
4EC
100
AcDbEntity
  8
M0
100
AcDbCircle
 10
134.986918
 20
524.493438
 40
2.999994
  0
LINE
  5
4ED
100
AcDbEntity
  8
M0
100
AcDbLine
 10
132.027933
 20
528.440704
 11
131.211771
 21
525.793487
  0
LINE
  5
4EE
100
AcDbEntity
  8
M0
100
AcDbLine
 10
132.027933
 20
520.546173
 11
131.211771
 21
523.19339
  0
LINE
  5
4EF
100
AcDbEntity
  8
M0
100
AcDbLine
 10
137.945414
 20
528.440704
 11
138.76182
 21
525.793487
  0
LINE
  5
4F0
100
AcDbEntity
  8
M0
100
AcDbLine
 10
137.945414
 20
520.546173
 11
138.76182
 21
523.19339
  0
LINE
  5
4F1
100
AcDbEntity
  8
M0
100
AcDbLine
 10
137.308451
 20
526.393341
 11
138.576761
 21
526.393341
  0
LINE
  5
4F2
100
AcDbEntity
  8
M0
100
AcDbLine
 10
137.308451
 20
522.593292
 11
138.576761
 21
522.593292
  0
LINE
  5
4F3
100
AcDbEntity
  8
M0
100
AcDbLine
 10
136.38682
 20
521.393341
 11
138.206888
 21
521.393341
  0
LINE
  5
4F4
100
AcDbEntity
  8
M0
100
AcDbLine
 10
132.66514
 20
526.393341
 11
131.39683
 21
526.393341
  0
LINE
  5
4F5
100
AcDbEntity
  8
M0
100
AcDbLine
 10
132.66514
 20
522.593292
 11
131.39683
 21
522.593292
  0
LINE
  5
4F6
100
AcDbEntity
  8
M0
100
AcDbLine
 10
133.586771
 20
521.393341
 11
131.766703
 21
521.393341
  0
LINE
  5
4F7
100
AcDbEntity
  8
M0
100
AcDbLine
 10
138.76182
 20
523.19339
 11
138.76182
 21
525.793487
  0
LINE
  5
4F8
100
AcDbEntity
  8
M0
100
AcDbLine
 10
131.211771
 20
525.793487
 11
131.211771
 21
523.19339
  0
LINE
  5
4F9
100
AcDbEntity
  8
M0
  6
DASHDOT
100
AcDbLine
 10
128.711771
 20
524.493438
 11
141.26182
 21
524.493438
  0
LINE
  5
4FA
100
AcDbEntity
  8
M0
100
AcDbLine
 10
136.38682
 20
521.393341
 11
136.38682
 21
521.840118
  0
LINE
  5
4FB
100
AcDbEntity
  8
M0
100
AcDbLine
 10
136.38682
 20
527.146759
 11
136.38682
 21
527.593292
  0
LINE
  5
4FC
100
AcDbEntity
  8
M0
100
AcDbLine
 10
133.586771
 20
527.146759
 11
133.586771
 21
527.593292
  0
LINE
  5
4FD
100
AcDbEntity
  8
M0
100
AcDbLine
 10
133.586771
 20
521.393341
 11
133.586771
 21
521.840118
  0
LINE
  5
4FE
100
AcDbEntity
  8
M0
100
AcDbLine
 10
136.577494
 20
522.902618
 11
133.395853
 21
526.084259
  0
LINE
  5
4FF
100
AcDbEntity
  8
M0
100
AcDbLine
 10
135.340189
 20
525.907501
 11
133.572611
 21
524.139923
  0
LINE
  5
500
100
AcDbEntity
  8
M0
100
AcDbLine
 10
136.400736
 20
524.846954
 11
134.633158
 21
523.079376
  0
ARC
  5
501
100
AcDbEntity
  8
M0
100
AcDbCircle
 10
132.505961
 20
520.69339
 40
0.5
100
AcDbArc
 50
197.11777
 51
203.510836
  0
ARC
  5
502
100
AcDbEntity
  8
M0
100
AcDbCircle
 10
137.467631
 20
520.69339
 40
0.5
100
AcDbArc
 50
336.486863
 51
342.874517
  0
LINE
  5
503
100
AcDbEntity
  8
M0
  6
DASHDOT
100
AcDbLine
 10
134.986918
 20
518.129913
 11
134.986918
 21
531.293487
  0
LINE
  5
504
100
AcDbEntity
  8
M0
  6
DASHDOT
100
AcDbLine
 10
90.711771
 20
524.493194
 11
103.26182
 21
524.493194
  0
ARC
  5
505
100
AcDbEntity
  8
M0
100
AcDbCircle
 10
94.505961
 20
520.693145
 40
0.5
100
AcDbArc
 50
197.118284
 51
203.480996
  0
ARC
  5
506
100
AcDbEntity
  8
M0
100
AcDbCircle
 10
99.467631
 20
520.693145
 40
0.5
100
AcDbArc
 50
336.518097
 51
342.875032
  0
LINE
  5
507
100
AcDbEntity
  8
M0
  6
DASHDOT
100
AcDbLine
 10
96.986918
 20
518.129669
 11
96.986918
 21
531.293243
  0
LINE
  5
508
100
AcDbEntity
  8
M0
100
AcDbLine
 10
66.38682
 20
527.593292
 11
68.206888
 21
527.593292
  0
LINE
  5
509
100
AcDbEntity
  8
M0
100
AcDbLine
 10
63.586771
 20
527.593292
 11
61.766703
 21
527.593292
  0
LINE
  5
50A
100
AcDbEntity
  8
M0
100
AcDbLine
 10
67.467631
 20
528.793487
 11
62.505961
 21
528.793243
  0
ARC
  5
50B
100
AcDbEntity
  8
M0
100
AcDbCircle
 10
62.505961
 20
528.293243
 40
0.5
100
AcDbArc
 50
89.998251
 51
162.856262
  0
ARC
  5
50C
100
AcDbEntity
  8
M0
100
AcDbCircle
 10
67.467631
 20
528.293243
 40
0.5
100
AcDbArc
 50
17.150937
 51
89.998251
  0
CIRCLE
  5
50D
100
AcDbEntity
  8
M0
100
AcDbCircle
 10
64.986918
 20
524.493438
 40
2.999994
  0
LINE
  5
50E
100
AcDbEntity
  8
M0
100
AcDbLine
 10
62.027933
 20
528.440704
 11
61.211771
 21
525.793487
  0
LINE
  5
50F
100
AcDbEntity
  8
M0
100
AcDbLine
 10
62.027933
 20
520.546173
 11
61.211771
 21
523.19339
  0
LINE
  5
510
100
AcDbEntity
  8
M0
100
AcDbLine
 10
67.945414
 20
528.440704
 11
68.286433
 21
527.334747
  0
LINE
  5
511
100
AcDbEntity
  8
M0
100
AcDbLine
 10
67.945414
 20
520.546173
 11
68.286433
 21
521.651886
  0
LINE
  5
512
100
AcDbEntity
  8
M0
100
AcDbLine
 10
67.308451
 20
526.393341
 11
68.286433
 21
526.393341
  0
LINE
  5
513
100
AcDbEntity
  8
M0
100
AcDbLine
 10
67.308451
 20
522.593292
 11
68.286433
 21
522.593292
  0
LINE
  5
514
100
AcDbEntity
  8
M0
100
AcDbLine
 10
66.38682
 20
521.393341
 11
68.206888
 21
521.393341
  0
LINE
  5
515
100
AcDbEntity
  8
M0
100
AcDbLine
 10
62.66514
 20
526.393341
 11
61.39683
 21
526.393341
  0
LINE
  5
516
100
AcDbEntity
  8
M0
100
AcDbLine
 10
62.66514
 20
522.593292
 11
61.39683
 21
522.593292
  0
LINE
  5
517
100
AcDbEntity
  8
M0
100
AcDbLine
 10
63.586771
 20
521.393341
 11
61.766703
 21
521.393341
  0
LINE
  5
518
100
AcDbEntity
  8
M0
100
AcDbLine
 10
61.211771
 20
525.793487
 11
61.211771
 21
523.19339
  0
LINE
  5
519
100
AcDbEntity
  8
M0
  6
DASHDOT
100
AcDbLine
 10
58.711771
 20
524.493438
 11
71.26182
 21
524.493438
  0
LINE
  5
51A
100
AcDbEntity
  8
M0
100
AcDbLine
 10
66.38682
 20
521.393341
 11
66.38682
 21
521.840118
  0
LINE
  5
51B
100
AcDbEntity
  8
M0
100
AcDbLine
 10
66.38682
 20
527.146759
 11
66.38682
 21
527.593292
  0
LINE
  5
51C
100
AcDbEntity
  8
M0
100
AcDbLine
 10
63.586771
 20
527.146759
 11
63.586771
 21
527.593292
  0
LINE
  5
51D
100
AcDbEntity
  8
M0
100
AcDbLine
 10
63.586771
 20
521.393341
 11
63.586771
 21
521.840118
  0
LINE
  5
51E
100
AcDbEntity
  8
M0
100
AcDbLine
 10
66.577494
 20
522.902618
 11
63.395853
 21
526.084259
  0
LINE
  5
51F
100
AcDbEntity
  8
M0
100
AcDbLine
 10
65.340189
 20
525.907501
 11
63.572611
 21
524.139923
  0
LINE
  5
520
100
AcDbEntity
  8
M0
100
AcDbLine
 10
66.400736
 20
524.846954
 11
64.633158
 21
523.079376
  0
ARC
  5
521
100
AcDbEntity
  8
M0
100
AcDbCircle
 10
62.505961
 20
520.69339
 40
0.5
100
AcDbArc
 50
197.118284
 51
203.542071
  0
ARC
  5
522
100
AcDbEntity
  8
M0
100
AcDbCircle
 10
67.467631
 20
520.69339
 40
0.5
100
AcDbArc
 50
336.457025
 51
342.875032
  0
LINE
  5
523
100
AcDbEntity
  8
M0
  6
DASHDOT
100
AcDbLine
 10
64.986918
 20
518.129913
 11
64.986918
 21
531.293487
  0
LINE
  5
524
100
AcDbEntity
  8
M0
100
AcDbLine
 10
107.987467
 20
451.29393
 11
108.137369
 21
451.29393
  0
LINE
  5
525
100
AcDbEntity
  8
M0
100
AcDbLine
 10
108.137369
 20
446.694076
 11
108.137369
 21
451.29393
  0
ARC
  5
526
100
AcDbEntity
  8
M0
100
AcDbCircle
 10
107.987467
 20
454.29393
 40
2.999994
100
AcDbArc
 50
179.999964
 51
270.0
  0
LINE
  5
527
100
AcDbEntity
  8
M0
100
AcDbLine
 10
104.987467
 20
463.993835
 11
104.987467
 21
454.29393
  0
ARC
  5
528
100
AcDbEntity
  8
M0
100
AcDbCircle
 10
107.987467
 20
463.993835
 40
2.999994
100
AcDbArc
 50
90.0
 51
179.999982
  0
LINE
  5
529
100
AcDbEntity
  8
M0
100
AcDbLine
 10
108.137369
 20
446.694076
 11
123.837321
 21
446.694076
  0
LINE
  5
52A
100
AcDbEntity
  8
M0
100
AcDbLine
 10
123.837321
 20
446.694076
 11
123.837321
 21
451.29393
  0
ARC
  5
52B
100
AcDbEntity
  8
M0
100
AcDbCircle
 10
123.987467
 20
454.29393
 40
2.999992
100
AcDbArc
 50
270.0
 51
360.0
  0
LINE
  5
52C
100
AcDbEntity
  8
M0
100
AcDbLine
 10
123.837321
 20
451.29393
 11
123.987467
 21
451.29393
  0
LINE
  5
52D
100
AcDbEntity
  8
M0
100
AcDbLine
 10
119.737467
 20
468.493683
 11
112.237467
 21
468.493683
  0
LINE
  5
52E
100
AcDbEntity
  8
M0
100
AcDbLine
 10
112.237467
 20
468.993454
 11
119.737467
 21
468.993454
  0
LINE
  5
52F
100
AcDbEntity
  8
M0
100
AcDbLine
 10
113.737467
 20
470.693634
 11
118.237467
 21
470.693634
  0
LINE
  5
530
100
AcDbEntity
  8
M0
100
AcDbLine
 10
118.237467
 20
470.693405
 11
118.237467
 21
468.993454
  0
LINE
  5
531
100
AcDbEntity
  8
M0
100
AcDbLine
 10
113.737467
 20
470.693405
 11
113.737467
 21
468.993454
  0
LINE
  5
532
100
AcDbEntity
  8
M0
100
AcDbLine
 10
126.987467
 20
454.293686
 11
126.987467
 21
463.993591
  0
LINE
  5
533
100
AcDbEntity
  8
M0
100
AcDbLine
 10
123.987223
 20
466.994079
 11
119.737467
 21
466.993835
  0
ARC
  5
534
100
AcDbEntity
  8
M0
100
AcDbCircle
 10
123.987467
 20
463.993835
 40
2.999992
100
AcDbArc
 50
0.0
 51
90.0
  0
LINE
  5
535
100
AcDbEntity
  8
M0
100
AcDbLine
 10
119.737467
 20
468.993896
 11
119.737467
 21
466.993896
  0
LINE
  5
536
100
AcDbEntity
  8
M0
100
AcDbLine
 10
112.237467
 20
468.993408
 11
112.237467
 21
466.993896
  0
LINE
  5
537
100
AcDbEntity
  8
M0
100
AcDbLine
 10
112.237467
 20
466.993835
 11
107.987467
 21
466.994079
  0
LINE
  5
538
100
AcDbEntity
  8
M0
100
AcDbLine
 10
112.987467
 20
456.993881
 11
118.987467
 21
456.993881
  0
LINE
  5
539
100
AcDbEntity
  8
M0
100
AcDbLine
 10
112.987467
 20
461.493881
 11
118.987467
 21
461.493881
  0
LINE
  5
53A
100
AcDbEntity
  8
M0
100
AcDbLine
 10
118.987467
 20
461.493881
 11
118.987467
 21
456.993881
  0
LINE
  5
53B
100
AcDbEntity
  8
M0
100
AcDbLine
 10
112.987467
 20
461.493881
 11
112.987467
 21
456.993881
  0
LINE
  5
53C
100
AcDbEntity
  8
M0
  6
DASHDOT
100
AcDbLine
 10
137.18664
 20
389.49324
 11
170.186625
 21
389.49324
  0
LINE
  5
53D
100
AcDbEntity
  8
M0
100
AcDbLine
 10
160.186625
 20
385.734893
 11
160.186625
 21
393.251526
  0
LINE
  5
53E
100
AcDbEntity
  8
M0
100
AcDbLine
 10
147.18664
 20
385.734863
 11
147.18664
 21
393.251556
  0
LINE
  5
53F
100
AcDbEntity
  8
M0
100
AcDbLine
 10
153.68664
 20
396.99324
 11
147.18664
 21
393.251556
  0
LINE
  5
540
100
AcDbEntity
  8
M0
100
AcDbLine
 10
153.68664
 20
396.99324
 11
160.186625
 21
393.251541
  0
LINE
  5
541
100
AcDbEntity
  8
M0
100
AcDbLine
 10
153.68664
 20
381.99324
 11
147.18664
 21
385.734878
  0
LINE
  5
542
100
AcDbEntity
  8
M0
100
AcDbLine
 10
153.68664
 20
381.99324
 11
160.186625
 21
385.734893
  0
CIRCLE
  5
543
100
AcDbEntity
  8
M0
 62
     5
100
AcDbCircle
 10
78.286433
 20
524.49295
 40
3.999992
  0
CIRCLE
  5
544
100
AcDbEntity
  8
M0
 62
     5
100
AcDbCircle
 10
78.286433
 20
524.49295
 40
3.499992
  0
LINE
  5
545
100
AcDbEntity
  8
M0
 62
     5
100
AcDbLine
 10
93.286677
 20
505.993438
 11
93.286677
 21
502.627716
  0
LINE
  5
546
100
AcDbEntity
  8
M0
 62
     5
100
AcDbLine
 10
93.286677
 20
505.993194
 11
88.286433
 21
514.493194
  0
LINE
  5
547
100
AcDbEntity
  8
M0
 62
     5
100
AcDbLine
 10
79.286677
 20
502.493194
 11
68.286677
 21
514.493194
  0
LINE
  5
548
100
AcDbEntity
  8
M0
  6
DASHDOT
 62
     5
100
AcDbLine
 10
88.286433
 20
524.493194
 11
68.286433
 21
524.493194
  0
LINE
  5
549
100
AcDbEntity
  8
M0
 62
     5
100
AcDbLine
 10
88.286433
 20
514.49295
 11
88.286433
 21
533.493194
  0
LINE
  5
54A
100
AcDbEntity
  8
M0
 62
     5
100
AcDbLine
 10
88.286433
 20
533.493194
 11
68.286433
 21
533.493194
  0
LINE
  5
54B
100
AcDbEntity
  8
M0
 62
     5
100
AcDbLine
 10
68.286433
 20
533.493194
 11
68.286677
 21
514.493194
  0
LINE
  5
54C
100
AcDbEntity
  8
M0
  6
DASHDOT
 62
     5
100
AcDbLine
 10
78.286433
 20
533.493194
 11
78.286677
 21
514.493194
  0
LINE
  5
54D
100
AcDbEntity
  8
M0
 62
     5
100
AcDbLine
 10
125.986475
 20
514.492706
 11
125.986491
 21
533.492706
  0
LINE
  5
54E
100
AcDbEntity
  8
M0
 62
     5
100
AcDbLine
 10
125.986491
 20
533.492706
 11
105.986552
 21
533.49295
  0
LINE
  5
54F
100
AcDbEntity
  8
M0
  6
DASHDOT
100
AcDbLine
 10
153.68664
 20
371.99324
 11
153.68664
 21
405.99324
  0
LINE
  5
550
100
AcDbEntity
  8
M0
 62
     5
100
AcDbLine
 10
108.986506
 20
502.627472
 11
108.986506
 21
505.992706
  0
LINE
  5
551
100
AcDbEntity
  8
M0
 62
     5
100
AcDbLine
 10
122.98646
 20
502.627227
 11
122.98646
 21
505.992218
  0
LINE
  5
552
100
AcDbEntity
  8
M0
 62
     5
100
AcDbLine
 10
108.986506
 20
505.99295
 11
108.486506
 21
507.409698
  0
LINE
  5
553
100
AcDbEntity
  8
M0
 62
     5
100
AcDbLine
 10
122.98646
 20
505.992706
 11
123.486506
 21
507.40921
  0
LINE
  5
554
100
AcDbEntity
  8
M0
 62
     5
100
AcDbLine
 10
124.965143
 20
511.598663
 11
125.986475
 21
514.492706
  0
LINE
  5
555
100
AcDbEntity
  8
M0
 62
     5
100
AcDbLine
 10
107.008173
 20
511.598663
 11
105.986765
 21
514.49295
  0
CIRCLE
  5
556
100
AcDbEntity
  8
M0
 62
     5
100
AcDbCircle
 10
115.986536
 20
524.492462
 40
3.999989
  0
CIRCLE
  5
557
100
AcDbEntity
  8
M0
 62
     5
100
AcDbCircle
 10
115.986536
 20
524.492462
 40
3.499989
  0
LINE
  5
558
100
AcDbEntity
  8
M0
  6
DASHDOT
 62
     5
100
AcDbLine
 10
125.986536
 20
524.492706
 11
105.986536
 21
524.492706
  0
LINE
  5
559
100
AcDbEntity
  8
M0
 62
     5
100
AcDbLine
 10
138.686091
 20
505.993683
 11
138.686091
 21
502.627716
  0
LINE
  5
55A
100
AcDbEntity
  8
M0
 62
     5
100
AcDbLine
 10
138.686091
 20
505.993438
 11
143.68635
 21
514.493438
  0
LINE
  5
55B
100
AcDbEntity
  8
M0
 62
     5
100
AcDbLine
 10
152.686075
 20
502.493194
 11
163.686075
 21
514.493194
  0
CIRCLE
  5
55C
100
AcDbEntity
  8
M0
 62
     5
100
AcDbCircle
 10
153.686106
 20
524.493194
 40
3.499989
  0
LINE
  5
55D
100
AcDbEntity
  8
M0
  6
DASHDOT
 62
     5
100
AcDbLine
 10
163.686106
 20
524.493438
 11
143.686106
 21
524.493438
  0
ARC
  5
55E
100
AcDbEntity
  8
M0
100
AcDbCircle
 10
165.986948
 20
521.993194
 40
5.249997
100
AcDbArc
 50
244.011303
 51
475.989887
  0
LINE
  5
55F
100
AcDbEntity
  8
M0
  6
DASHDOT
100
AcDbLine
 10
158.147623
 20
521.993194
 11
177.218241
 21
521.993194
  0
LINE
  5
560
100
AcDbEntity
  8
M0
  6
DASHDOT
100
AcDbLine
 10
165.986948
 20
511.622573
 11
165.986948
 21
534.554519
  0
ARC
  5
561
100
AcDbEntity
  8
M0
100
AcDbCircle
 10
165.986948
 20
521.993194
 40
5.749994
100
AcDbArc
 50
246.415851
 51
473.585229
  0
LINE
  5
562
100
AcDbEntity
  8
M0
100
AcDbLine
 10
163.686381
 20
524.293487
 11
168.81518
 21
519.164581
  0
LINE
  5
563
100
AcDbEntity
  8
M0
100
AcDbLine
 10
165.279764
 20
519.871841
 11
168.108149
 21
522.700256
  0
LINE
  5
564
100
AcDbEntity
  8
M0
100
AcDbLine
 10
163.865549
 20
521.286071
 11
166.693842
 21
524.114517
  0
ARC
  5
565
100
AcDbEntity
  8
M0
100
AcDbCircle
 10
65.986918
 20
391.99382
 40
5.249997
100
AcDbArc
 50
66.034721
 51
298.677881
  0
LINE
  5
566
100
AcDbEntity
  8
M0
  6
DASHDOT
100
AcDbLine
 10
55.379938
 20
391.99382
 11
74.305521
 21
391.99382
  0
LINE
  5
567
100
AcDbEntity
  8
M0
  6
DASHDOT
100
AcDbLine
 10
65.986918
 20
381.11882
 11
65.986918
 21
402.002243
  0
ARC
  5
568
100
AcDbEntity
  8
M0
100
AcDbCircle
 10
65.986918
 20
391.99382
 40
5.749994
100
AcDbArc
 50
63.338801
 51
297.354523
  0
LINE
  5
569
100
AcDbEntity
  8
M0
100
AcDbLine
 10
63.158411
 20
394.822265
 11
67.829691
 21
390.150863
  0
CIRCLE
  5
56A
100
AcDbEntity
  8
M0
 62
     5
100
AcDbCircle
 10
153.686106
 20
524.493194
 40
3.999989
  0
LINE
  5
56B
100
AcDbEntity
  8
M0
 62
     5
100
AcDbLine
 10
143.68635
 20
514.493194
 11
143.686381
 21
533.493438
  0
LINE
  5
56C
100
AcDbEntity
  8
M0
 62
     5
100
AcDbLine
 10
143.686381
 20
533.493438
 11
163.686381
 21
533.493194
  0
LINE
  5
56D
100
AcDbEntity
  8
M0
 62
     5
100
AcDbLine
 10
163.686381
 20
533.493194
 11
163.686075
 21
514.493194
  0
LINE
  5
56E
100
AcDbEntity
  8
M0
  6
DASHDOT
 62
     5
100
AcDbLine
 10
153.686106
 20
533.493438
 11
153.68635
 21
514.493438
  0
LINE
  5
56F
100
AcDbEntity
  8
M0
 62
     5
100
AcDbLine
 10
105.986552
 20
533.49295
 11
105.986765
 21
514.49295
  0
LINE
  5
570
100
AcDbEntity
  8
M0
100
AcDbLine
 10
65.279734
 20
389.872467
 11
67.382838
 21
391.975601
  0
LINE
  5
571
100
AcDbEntity
  8
M0
100
AcDbLine
 10
63.865519
 20
391.286697
 11
66.693812
 21
394.115142
  0
LINE
  5
572
100
AcDbEntity
  8
M0
 62
     6
100
AcDbLine
 10
94.286539
 20
398.994339
 11
100.486536
 21
398.994339
  0
LINE
  5
573
100
AcDbEntity
  8
M0
 62
     6
100
AcDbLine
 10
68.486536
 20
500.49414
 11
68.486536
 21
413.494339
  0
LINE
  5
574
100
AcDbEntity
  8
M0
 62
     6
100
AcDbLine
 10
103.486536
 20
399.494323
 11
103.486536
 21
400.994339
  0
LINE
  5
575
100
AcDbEntity
  8
M0
 62
     6
100
AcDbLine
 10
99.986536
 20
399.494339
 11
99.986536
 21
400.994323
  0
LINE
  5
576
100
AcDbEntity
  8
M0
 62
     6
100
AcDbLine
 10
96.986536
 20
399.494323
 11
96.986536
 21
400.994339
  0
LINE
  5
577
100
AcDbEntity
  8
M0
 62
     6
100
AcDbLine
 10
93.786539
 20
399.494339
 11
93.786539
 21
410.494323
  0
LINE
  5
578
100
AcDbEntity
  8
M0
 62
     6
100
AcDbLine
 10
70.486536
 20
411.494339
 11
92.786539
 21
411.494339
  0
LINE
  5
579
100
AcDbEntity
  8
M0
 62
     6
100
AcDbLine
 10
108.486536
 20
410.494339
 11
108.486536
 21
405.494339
  0
LINE
  5
57A
100
AcDbEntity
  8
M0
 62
     6
100
AcDbLine
 10
109.486536
 20
411.494339
 11
122.486536
 21
411.494339
  0
ARC
  5
57B
100
AcDbEntity
  8
M0
 62
     6
100
AcDbCircle
 10
104.486536
 20
405.494339
 40
3.999996
100
AcDbArc
 50
270.0
 51
360.0
  0
LINE
  5
57C
100
AcDbEntity
  8
M0
 62
     6
100
AcDbLine
 10
100.486536
 20
398.994339
 11
102.986536
 21
398.994339
  0
ARC
  5
57D
100
AcDbEntity
  8
M0
 62
     6
100
AcDbCircle
 10
94.286539
 20
399.494339
 40
0.5
100
AcDbArc
 50
179.998251
 51
270.0
  0
ARC
  5
57E
100
AcDbEntity
  8
M0
 62
     6
100
AcDbCircle
 10
96.486536
 20
399.494339
 40
0.5
100
AcDbArc
 50
270.0
 51
360.0
  0
ARC
  5
57F
100
AcDbEntity
  8
M0
 62
     6
100
AcDbCircle
 10
100.486536
 20
399.494339
 40
0.5
100
AcDbArc
 50
179.998251
 51
270.0
  0
ARC
  5
580
100
AcDbEntity
  8
M0
 62
     6
100
AcDbCircle
 10
102.986536
 20
399.494339
 40
0.5
100
AcDbArc
 50
270.0
 51
360.0
  0
ARC
  5
581
100
AcDbEntity
  8
M0
 62
     6
100
AcDbCircle
 10
92.786539
 20
410.494339
 40
1.0
100
AcDbArc
 50
0.0
 51
89.999126
  0
LINE
  5
582
100
AcDbEntity
  8
M0
 62
     6
100
AcDbLine
 10
93.486475
 20
401.494339
 11
93.786539
 21
401.494339
  0
LINE
  5
583
100
AcDbEntity
  8
M0
 62
     6
100
AcDbLine
 10
103.986536
 20
401.494339
 11
104.486536
 21
401.494339
  0
ARC
  5
584
100
AcDbEntity
  8
M0
 62
     6
100
AcDbCircle
 10
70.486536
 20
413.494339
 40
2.0
100
AcDbArc
 50
179.999563
 51
270.0
  0
LINE
  5
585
100
AcDbEntity
  8
M0
 62
     6
100
AcDbLine
 10
80.286539
 20
414.994339
 11
92.286539
 21
414.994339
  0
LINE
  5
586
100
AcDbEntity
  8
M0
 62
     6
100
AcDbLine
 10
92.286539
 20
414.994339
 11
92.286539
 21
411.994339
  0
LINE
  5
587
100
AcDbEntity
  8
M0
 62
     6
100
AcDbLine
 10
80.286539
 20
414.994339
 11
80.286539
 21
411.994339
  0
LINE
  5
588
100
AcDbEntity
  8
M0
 62
     6
100
AcDbLine
 10
109.986536
 20
411.994323
 11
109.986536
 21
414.994339
  0
LINE
  5
589
100
AcDbEntity
  8
M0
 62
     6
100
AcDbLine
 10
109.986536
 20
414.994339
 11
121.986536
 21
414.994308
  0
ARC
  5
58A
100
AcDbEntity
  8
M0
 62
     6
100
AcDbCircle
 10
109.486536
 20
410.494339
 40
1.0
100
AcDbArc
 50
90.0
 51
179.999126
  0
ARC
  5
58B
100
AcDbEntity
  8
M0
 62
     6
100
AcDbCircle
 10
109.486536
 20
411.994339
 40
0.5
100
AcDbArc
 50
270.0
 51
360.0
  0
LINE
  5
58C
100
AcDbEntity
  8
M0
 62
     6
100
AcDbLine
 10
137.686533
 20
398.994323
 11
135.486536
 21
398.994339
  0
LINE
  5
58D
100
AcDbEntity
  8
M0
 62
     6
100
AcDbLine
 10
163.486536
 20
500.49414
 11
163.486536
 21
413.494308
  0
LINE
  5
58E
100
AcDbEntity
  8
M0
 62
     6
100
AcDbLine
 10
128.486536
 20
399.494323
 11
128.486536
 21
400.994308
  0
LINE
  5
58F
100
AcDbEntity
  8
M0
 62
     6
100
AcDbLine
 10
131.986536
 20
399.494339
 11
131.986536
 21
400.994323
  0
LINE
  5
590
100
AcDbEntity
  8
M0
 62
     6
100
AcDbLine
 10
134.986536
 20
399.494323
 11
134.986536
 21
400.994308
  0
LINE
  5
591
100
AcDbEntity
  8
M0
 62
     6
100
AcDbLine
 10
138.186533
 20
399.494323
 11
138.186533
 21
410.494308
  0
LINE
  5
592
100
AcDbEntity
  8
M0
 62
     6
100
AcDbLine
 10
161.486536
 20
411.494323
 11
139.186533
 21
411.494323
  0
LINE
  5
593
100
AcDbEntity
  8
M0
 62
     6
100
AcDbLine
 10
123.486536
 20
410.494339
 11
123.486536
 21
405.494339
  0
ARC
  5
594
100
AcDbEntity
  8
M0
 62
     6
100
AcDbCircle
 10
127.486536
 20
405.494339
 40
3.999996
100
AcDbArc
 50
179.999781
 51
270.0
  0
LINE
  5
595
100
AcDbEntity
  8
M0
 62
     6
100
AcDbLine
 10
135.486536
 20
398.994339
 11
128.986536
 21
398.994339
  0
ARC
  5
596
100
AcDbEntity
  8
M0
 62
     6
100
AcDbCircle
 10
137.686533
 20
399.494323
 40
0.5
100
AcDbArc
 50
-90.001749
 51
0.0
  0
ARC
  5
597
100
AcDbEntity
  8
M0
 62
     6
100
AcDbCircle
 10
135.486536
 20
399.494339
 40
0.5
100
AcDbArc
 50
179.998251
 51
269.998251
  0
ARC
  5
598
100
AcDbEntity
  8
M0
 62
     6
100
AcDbCircle
 10
131.486536
 20
399.494339
 40
0.5
100
AcDbArc
 50
-90.0
 51
0.0
  0
ARC
  5
599
100
AcDbEntity
  8
M0
 62
     6
100
AcDbCircle
 10
128.986536
 20
399.494339
 40
0.5
100
AcDbArc
 50
179.998251
 51
270.0
  0
ARC
  5
59A
100
AcDbEntity
  8
M0
 62
     6
100
AcDbCircle
 10
139.186533
 20
410.494323
 40
1.0
100
AcDbArc
 50
90.0
 51
179.999126
  0
LINE
  5
59B
100
AcDbEntity
  8
M0
 62
     6
100
AcDbLine
 10
138.48646
 20
401.494339
 11
138.186533
 21
401.494323
  0
LINE
  5
59C
100
AcDbEntity
  8
M0
 62
     6
100
AcDbLine
 10
127.986536
 20
401.494339
 11
127.486536
 21
401.494339
  0
ARC
  5
59D
100
AcDbEntity
  8
M0
 62
     6
100
AcDbCircle
 10
161.486536
 20
413.494308
 40
2.0
100
AcDbArc
 50
-90.000437
 51
0.0
  0
LINE
  5
59E
100
AcDbEntity
  8
M0
 62
     6
100
AcDbLine
 10
151.686533
 20
414.994308
 11
139.686533
 21
414.994308
  0
LINE
  5
59F
100
AcDbEntity
  8
M0
 62
     6
100
AcDbLine
 10
139.686533
 20
414.994308
 11
139.686533
 21
411.994308
  0
LINE
  5
5A0
100
AcDbEntity
  8
M0
 62
     6
100
AcDbLine
 10
151.686533
 20
414.994308
 11
151.686533
 21
411.994308
  0
LINE
  5
5A1
100
AcDbEntity
  8
M0
 62
     6
100
AcDbLine
 10
121.986536
 20
411.994323
 11
121.986536
 21
414.994308
  0
ARC
  5
5A2
100
AcDbEntity
  8
M0
 62
     6
100
AcDbCircle
 10
122.486536
 20
410.494339
 40
1.0
100
AcDbArc
 50
0.0
 51
90.0
  0
ARC
  5
5A3
100
AcDbEntity
  8
M0
 62
     6
100
AcDbCircle
 10
122.486536
 20
411.994339
 40
0.5
100
AcDbArc
 50
179.998251
 51
270.0
  0
LINE
  5
5A4
100
AcDbEntity
  8
M0
 62
     6
100
AcDbLine
 10
94.286539
 20
514.99414
 11
100.486536
 21
514.99414
  0
LINE
  5
5A5
100
AcDbEntity
  8
M0
 62
     6
100
AcDbLine
 10
103.486536
 20
514.49414
 11
103.486536
 21
512.49414
  0
LINE
  5
5A6
100
AcDbEntity
  8
M0
 62
     6
100
AcDbLine
 10
99.986536
 20
514.49414
 11
99.986536
 21
512.49414
  0
LINE
  5
5A7
100
AcDbEntity
  8
M0
 62
     6
100
AcDbLine
 10
96.986536
 20
514.49414
 11
96.986536
 21
512.49414
  0
LINE
  5
5A8
100
AcDbEntity
  8
M0
 62
     6
100
AcDbLine
 10
93.786539
 20
514.49414
 11
93.786539
 21
503.49414
  0
LINE
  5
5A9
100
AcDbEntity
  8
M0
 62
     6
100
AcDbLine
 10
70.486536
 20
502.49414
 11
92.786539
 21
502.49414
  0
LINE
  5
5AA
100
AcDbEntity
  8
M0
 62
     6
100
AcDbLine
 10
108.486536
 20
503.49414
 11
108.486536
 21
508.49414
  0
LINE
  5
5AB
100
AcDbEntity
  8
M0
 62
     6
100
AcDbLine
 10
109.486536
 20
502.49414
 11
122.486536
 21
502.49414
  0
ARC
  5
5AC
100
AcDbEntity
  8
M0
 62
     6
100
AcDbCircle
 10
104.486536
 20
508.49414
 40
3.999996
100
AcDbArc
 50
0.0
 51
90.0
  0
LINE
  5
5AD
100
AcDbEntity
  8
M0
 62
     6
100
AcDbLine
 10
100.486536
 20
514.99414
 11
102.986536
 21
514.99414
  0
ARC
  5
5AE
100
AcDbEntity
  8
M0
 62
     6
100
AcDbCircle
 10
94.286539
 20
514.49414
 40
0.5
100
AcDbArc
 50
89.998251
 51
180.0
  0
ARC
  5
5AF
100
AcDbEntity
  8
M0
 62
     6
100
AcDbCircle
 10
96.486536
 20
514.49414
 40
0.5
100
AcDbArc
 50
0.0
 51
89.998251
  0
ARC
  5
5B0
100
AcDbEntity
  8
M0
 62
     6
100
AcDbCircle
 10
100.486536
 20
514.49414
 40
0.5
100
AcDbArc
 50
90.0
 51
180.0
  0
ARC
  5
5B1
100
AcDbEntity
  8
M0
 62
     6
100
AcDbCircle
 10
102.986536
 20
514.49414
 40
0.5
100
AcDbArc
 50
0.0
 51
90.0
  0
ARC
  5
5B2
100
AcDbEntity
  8
M0
 62
     6
100
AcDbCircle
 10
92.786539
 20
503.49414
 40
1.0
100
AcDbArc
 50
-90.0
 51
0.0
  0
LINE
  5
5B3
100
AcDbEntity
  8
M0
 62
     6
100
AcDbLine
 10
93.486475
 20
512.49414
 11
93.786539
 21
512.49414
  0
LINE
  5
5B4
100
AcDbEntity
  8
M0
 62
     6
100
AcDbLine
 10
103.486536
 20
512.49414
 11
104.486536
 21
512.49414
  0
ARC
  5
5B5
100
AcDbEntity
  8
M0
 62
     6
100
AcDbCircle
 10
70.486536
 20
500.49414
 40
2.0
100
AcDbArc
 50
89.999563
 51
180.0
  0
LINE
  5
5B6
100
AcDbEntity
  8
M0
 62
     6
100
AcDbLine
 10
80.286539
 20
498.99414
 11
92.286539
 21
498.99414
  0
LINE
  5
5B7
100
AcDbEntity
  8
M0
 62
     6
100
AcDbLine
 10
92.286539
 20
498.99414
 11
92.286539
 21
502.49414
  0
LINE
  5
5B8
100
AcDbEntity
  8
M0
 62
     6
100
AcDbLine
 10
80.286539
 20
498.99414
 11
80.286539
 21
502.49414
  0
LINE
  5
5B9
100
AcDbEntity
  8
M0
 62
     6
100
AcDbLine
 10
109.986536
 20
501.99414
 11
109.986536
 21
498.99414
  0
LINE
  5
5BA
100
AcDbEntity
  8
M0
 62
     6
100
AcDbLine
 10
109.986536
 20
498.99414
 11
121.986536
 21
498.99414
  0
ARC
  5
5BB
100
AcDbEntity
  8
M0
 62
     6
100
AcDbCircle
 10
109.486536
 20
503.49414
 40
1.0
100
AcDbArc
 50
180.0
 51
270.0
  0
ARC
  5
5BC
100
AcDbEntity
  8
M0
 62
     6
100
AcDbCircle
 10
109.486536
 20
501.99414
 40
0.5
100
AcDbArc
 50
0.0
 51
90.0
  0
LINE
  5
5BD
100
AcDbEntity
  8
M0
 62
     6
100
AcDbLine
 10
137.686533
 20
514.99414
 11
131.486536
 21
514.99414
  0
LINE
  5
5BE
100
AcDbEntity
  8
M0
 62
     6
100
AcDbLine
 10
128.486536
 20
514.49414
 11
128.486536
 21
512.49414
  0
LINE
  5
5BF
100
AcDbEntity
  8
M0
 62
     6
100
AcDbLine
 10
131.986536
 20
514.49414
 11
131.986536
 21
512.49414
  0
LINE
  5
5C0
100
AcDbEntity
  8
M0
 62
     6
100
AcDbLine
 10
134.986536
 20
514.49414
 11
134.986536
 21
512.49414
  0
LINE
  5
5C1
100
AcDbEntity
  8
M0
 62
     6
100
AcDbLine
 10
138.186533
 20
514.49414
 11
138.186533
 21
503.49414
  0
LINE
  5
5C2
100
AcDbEntity
  8
M0
 62
     6
100
AcDbLine
 10
161.486536
 20
502.49414
 11
139.186533
 21
502.49414
  0
LINE
  5
5C3
100
AcDbEntity
  8
M0
 62
     6
100
AcDbLine
 10
123.486536
 20
503.49414
 11
123.486536
 21
508.49414
  0
ARC
  5
5C4
100
AcDbEntity
  8
M0
 62
     6
100
AcDbCircle
 10
127.486536
 20
508.49414
 40
3.999996
100
AcDbArc
 50
90.0
 51
180.0
  0
LINE
  5
5C5
100
AcDbEntity
  8
M0
 62
     6
100
AcDbLine
 10
131.486536
 20
514.99414
 11
128.986536
 21
514.99414
  0
ARC
  5
5C6
100
AcDbEntity
  8
M0
 62
     6
100
AcDbCircle
 10
137.686533
 20
514.49414
 40
0.5
100
AcDbArc
 50
0.0
 51
90.0
  0
ARC
  5
5C7
100
AcDbEntity
  8
M0
 62
     6
100
AcDbCircle
 10
135.486536
 20
514.49414
 40
0.5
100
AcDbArc
 50
90.0
 51
180.0
  0
ARC
  5
5C8
100
AcDbEntity
  8
M0
 62
     6
100
AcDbCircle
 10
131.486536
 20
514.49414
 40
0.5
100
AcDbArc
 50
0.0
 51
90.0
  0
ARC
  5
5C9
100
AcDbEntity
  8
M0
 62
     6
100
AcDbCircle
 10
128.986536
 20
514.49414
 40
0.5
100
AcDbArc
 50
90.0
 51
180.0
  0
ARC
  5
5CA
100
AcDbEntity
  8
M0
 62
     6
100
AcDbCircle
 10
139.186533
 20
503.49414
 40
1.0
100
AcDbArc
 50
180.0
 51
269.999126
  0
LINE
  5
5CB
100
AcDbEntity
  8
M0
 62
     6
100
AcDbLine
 10
138.486475
 20
512.49414
 11
138.186533
 21
512.49414
  0
LINE
  5
5CC
100
AcDbEntity
  8
M0
 62
     6
100
AcDbLine
 10
128.486536
 20
512.49414
 11
127.486536
 21
512.49414
  0
ARC
  5
5CD
100
AcDbEntity
  8
M0
 62
     6
100
AcDbCircle
 10
161.486536
 20
500.49414
 40
2.0
100
AcDbArc
 50
0.0
 51
90.0
  0
LINE
  5
5CE
100
AcDbEntity
  8
M0
 62
     6
100
AcDbLine
 10
151.686533
 20
498.99414
 11
139.686533
 21
498.99414
  0
LINE
  5
5CF
100
AcDbEntity
  8
M0
 62
     6
100
AcDbLine
 10
139.686533
 20
498.99414
 11
139.686533
 21
502.49414
  0
LINE
  5
5D0
100
AcDbEntity
  8
M0
 62
     6
100
AcDbLine
 10
151.686533
 20
498.99414
 11
151.686533
 21
502.49414
  0
LINE
  5
5D1
100
AcDbEntity
  8
M0
 62
     6
100
AcDbLine
 10
121.986536
 20
501.99414
 11
121.986536
 21
498.99414
  0
ARC
  5
5D2
100
AcDbEntity
  8
M0
 62
     6
100
AcDbCircle
 10
122.486536
 20
503.49414
 40
1.0
100
AcDbArc
 50
270.0
 51
360.0
  0
ARC
  5
5D3
100
AcDbEntity
  8
M0
 62
     6
100
AcDbCircle
 10
122.486536
 20
501.99414
 40
0.5
100
AcDbArc
 50
90.0
 51
180.0
  0
CIRCLE
  5
5D4
100
AcDbEntity
  8
M0
 62
     6
100
AcDbCircle
 10
101.136469
 20
505.99414
 40
4.499997
  0
CIRCLE
  5
5D5
100
AcDbEntity
  8
M0
 62
     6
100
AcDbCircle
 10
130.836466
 20
407.994293
 40
4.499997
  0
CIRCLE
  5
5D6
100
AcDbEntity
  8
M0
 62
     6
100
AcDbCircle
 10
73.486475
 20
418.744293
 40
1.859998
  0
LINE
  5
5D7
100
AcDbEntity
  8
M0
  6
DASHDOT
 62
     6
100
AcDbLine
 10
66.626475
 20
418.744293
 11
80.346461
 21
418.744293
  0
LINE
  5
5D8
100
AcDbEntity
  8
M0
  6
DASHDOT
 62
     6
100
AcDbLine
 10
73.486475
 20
411.884292
 11
73.486475
 21
425.604278
  0
CIRCLE
  5
5D9
100
AcDbEntity
  8
M0
 62
     6
100
AcDbCircle
 10
73.486475
 20
495.24414
 40
1.859998
  0
LINE
  5
5DA
100
AcDbEntity
  8
M0
  6
DASHDOT
 62
     6
100
AcDbLine
 10
66.626475
 20
495.24414
 11
80.346461
 21
495.24414
  0
LINE
  5
5DB
100
AcDbEntity
  8
M0
  6
DASHDOT
 62
     6
100
AcDbLine
 10
73.486475
 20
488.384277
 11
73.486475
 21
502.104248
  0
CIRCLE
  5
5DC
100
AcDbEntity
  8
M0
 62
     6
100
AcDbCircle
 10
158.486475
 20
495.24414
 40
1.859998
  0
LINE
  5
5DD
100
AcDbEntity
  8
M0
  6
DASHDOT
 62
     6
100
AcDbLine
 10
151.626475
 20
495.24414
 11
165.346461
 21
495.24414
  0
LINE
  5
5DE
100
AcDbEntity
  8
M0
  6
DASHDOT
 62
     6
100
AcDbLine
 10
158.486475
 20
488.384277
 11
158.486475
 21
502.104248
  0
CIRCLE
  5
5DF
100
AcDbEntity
  8
M0
 62
     6
100
AcDbCircle
 10
158.486475
 20
418.744293
 40
1.859998
  0
LINE
  5
5E0
100
AcDbEntity
  8
M0
  6
DASHDOT
 62
     6
100
AcDbLine
 10
151.626475
 20
418.744293
 11
165.346461
 21
418.744293
  0
LINE
  5
5E1
100
AcDbEntity
  8
M0
  6
DASHDOT
 62
     6
100
AcDbLine
 10
158.486475
 20
411.884292
 11
158.486475
 21
425.604278
  0
CIRCLE
  5
5E2
100
AcDbEntity
  8
M0
 62
     6
100
AcDbCircle
 10
73.486475
 20
495.24414
 40
1.359998
  0
CIRCLE
  5
5E3
100
AcDbEntity
  8
M0
 62
     6
100
AcDbCircle
 10
73.486475
 20
418.744293
 40
1.359998
  0
CIRCLE
  5
5E4
100
AcDbEntity
  8
M0
 62
     6
100
AcDbCircle
 10
158.486475
 20
418.744293
 40
1.359998
  0
CIRCLE
  5
5E5
100
AcDbEntity
  8
M0
 62
     6
100
AcDbCircle
 10
158.486475
 20
495.24414
 40
1.359998
  0
LINE
  5
5E6
100
AcDbEntity
  8
M0
  6
DASHDOT
 62
     6
100
AcDbLine
 10
39.101099
 20
456.994278
 11
192.699442
 21
456.994278
  0
ARC
  5
5E7
100
AcDbEntity
  8
M0
 62
     6
100
AcDbCircle
 10
79.786539
 20
411.994339
 40
0.5
100
AcDbArc
 50
270.0
 51
360.0
  0
ARC
  5
5E8
100
AcDbEntity
  8
M0
 62
     6
100
AcDbCircle
 10
92.786539
 20
411.994339
 40
0.5
100
AcDbArc
 50
179.998251
 51
270.0
  0
ARC
  5
5E9
100
AcDbEntity
  8
M0
 62
     6
100
AcDbCircle
 10
152.186533
 20
411.994308
 40
0.5
100
AcDbArc
 50
179.998251
 51
269.998251
  0
ARC
  5
5EA
100
AcDbEntity
  8
M0
 62
     6
100
AcDbCircle
 10
139.186533
 20
411.994308
 40
0.5
100
AcDbArc
 50
269.998251
 51
360.0
  0
ARC
  5
5EB
100
AcDbEntity
  8
M0
 62
     6
100
AcDbCircle
 10
134.486536
 20
400.994323
 40
0.5
100
AcDbArc
 50
0.0
 51
90.0
  0
ARC
  5
5EC
100
AcDbEntity
  8
M0
 62
     6
100
AcDbCircle
 10
132.486536
 20
400.994323
 40
0.5
100
AcDbArc
 50
90.0
 51
179.998251
  0
ARC
  5
5ED
100
AcDbEntity
  8
M0
 62
     6
100
AcDbCircle
 10
99.486536
 20
400.994339
 40
0.5
100
AcDbArc
 50
0.0
 51
89.998251
  0
ARC
  5
5EE
100
AcDbEntity
  8
M0
 62
     6
100
AcDbCircle
 10
97.486536
 20
400.994339
 40
0.5
100
AcDbArc
 50
89.998251
 51
179.998251
  0
ARC
  5
5EF
100
AcDbEntity
  8
M0
 62
     6
100
AcDbCircle
 10
103.986536
 20
400.994339
 40
0.5
100
AcDbArc
 50
90.0
 51
179.998251
  0
ARC
  5
5F0
100
AcDbEntity
  8
M0
 62
     6
100
AcDbCircle
 10
127.986536
 20
400.994323
 40
0.5
100
AcDbArc
 50
0.0
 51
90.0
  0
LINE
  5
5F1
100
AcDbEntity
  8
M0
 62
     6
100
AcDbLine
 10
94.486475
 20
393.494339
 11
101.48646
 21
393.494339
  0
LINE
  5
5F2
100
AcDbEntity
  8
M0
 62
     6
100
AcDbLine
 10
134.986475
 20
396.494339
 11
134.986475
 21
393.494339
  0
LINE
  5
5F3
100
AcDbEntity
  8
M0
 62
     6
100
AcDbLine
 10
132.986475
 20
396.494339
 11
132.986475
 21
393.494339
  0
LINE
  5
5F4
100
AcDbEntity
  8
M0
 62
     6
100
AcDbLine
 10
98.986475
 20
396.494339
 11
98.986475
 21
393.494339
  0
LINE
  5
5F5
100
AcDbEntity
  8
M0
 62
     6
100
AcDbLine
 10
96.986475
 20
396.494339
 11
96.986475
 21
393.494339
  0
LINE
  5
5F6
100
AcDbEntity
  8
M0
 62
     6
100
AcDbLine
 10
100.486475
 20
398.994339
 11
100.486475
 21
396.494339
  0
LINE
  5
5F7
100
AcDbEntity
  8
M0
 62
     6
100
AcDbLine
 10
95.486475
 20
398.994339
 11
95.486475
 21
396.494339
  0
LINE
  5
5F8
100
AcDbEntity
  8
M0
 62
     6
100
AcDbLine
 10
136.486475
 20
398.994323
 11
136.486475
 21
396.494339
  0
LINE
  5
5F9
100
AcDbEntity
  8
M0
 62
     6
100
AcDbLine
 10
131.486475
 20
398.994339
 11
131.486475
 21
396.494339
  0
LINE
  5
5FA
100
AcDbEntity
  8
M0
 62
     6
100
AcDbLine
 10
103.486475
 20
399.486526
 11
103.486475
 21
396.494339
  0
LINE
  5
5FB
100
AcDbEntity
  8
M0
 62
     6
100
AcDbLine
 10
92.486475
 20
400.494339
 11
92.486475
 21
395.494339
  0
LINE
  5
5FC
100
AcDbEntity
  8
M0
 62
     6
100
AcDbLine
 10
139.486475
 20
400.494323
 11
139.486475
 21
395.494339
  0
LINE
  5
5FD
100
AcDbEntity
  8
M0
 62
     6
100
AcDbLine
 10
128.486475
 20
399.494323
 11
128.486475
 21
396.494323
  0
LINE
  5
5FE
100
AcDbEntity
  8
M0
 62
     6
100
AcDbLine
 10
95.486475
 20
396.494339
 11
96.986475
 21
396.494339
  0
LINE
  5
5FF
100
AcDbEntity
  8
M0
 62
     6
100
AcDbLine
 10
128.486475
 20
396.494339
 11
130.486475
 21
393.494339
  0
LINE
  5
600
100
AcDbEntity
  8
M0
 62
     6
100
AcDbLine
 10
103.486475
 20
396.494339
 11
101.486475
 21
393.494339
  0
LINE
  5
601
100
AcDbEntity
  8
M0
 62
     6
100
AcDbLine
 10
130.48646
 20
393.494339
 11
137.486475
 21
393.494339
  0
LINE
  5
602
100
AcDbEntity
  8
M0
 62
     6
100
AcDbLine
 10
131.486475
 20
396.494339
 11
132.986475
 21
396.494339
  0
LINE
  5
603
100
AcDbEntity
  8
M0
 62
     6
100
AcDbLine
 10
98.986475
 20
396.494339
 11
100.486475
 21
396.494339
  0
LINE
  5
604
100
AcDbEntity
  8
M0
 62
     6
100
AcDbLine
 10
134.986475
 20
396.494339
 11
136.486475
 21
396.494339
  0
ARC
  5
605
100
AcDbEntity
  8
M0
 62
     6
100
AcDbCircle
 10
138.486475
 20
400.494323
 40
1.0
100
AcDbArc
 50
0.0
 51
90.0
  0
ARC
  5
606
100
AcDbEntity
  8
M0
 62
     6
100
AcDbCircle
 10
93.486475
 20
400.494339
 40
1.0
100
AcDbArc
 50
89.999126
 51
179.999126
  0
LINE
  5
607
100
AcDbEntity
  8
M0
 62
     6
100
AcDbLine
 10
97.486536
 20
401.494339
 11
99.486536
 21
401.494339
  0
LINE
  5
608
100
AcDbEntity
  8
M0
 62
     6
100
AcDbLine
 10
134.486536
 20
401.494323
 11
132.486536
 21
401.494339
  0
ARC
  5
609
100
AcDbEntity
  8
M0
 62
     6
100
AcDbCircle
 10
94.486475
 20
395.494339
 40
2.0
100
AcDbArc
 50
179.999563
 51
270.0
  0
ARC
  5
60A
100
AcDbEntity
  8
M0
 62
     6
100
AcDbCircle
 10
137.486475
 20
395.494339
 40
2.0
100
AcDbArc
 50
269.999563
 51
360.0
  0
LINE
  5
60B
100
AcDbEntity
  8
M0
 62
     6
100
AcDbLine
 10
94.486475
 20
520.49414
 11
101.48646
 21
520.49414
  0
LINE
  5
60C
100
AcDbEntity
  8
M0
 62
     6
100
AcDbLine
 10
95.486475
 20
517.49414
 11
96.986475
 21
517.49414
  0
LINE
  5
60D
100
AcDbEntity
  8
M0
 62
     6
100
AcDbLine
 10
98.986475
 20
520.49414
 11
98.986475
 21
517.49414
  0
LINE
  5
60E
100
AcDbEntity
  8
M0
 62
     6
100
AcDbLine
 10
132.986475
 20
520.49414
 11
132.986475
 21
517.49414
  0
LINE
  5
60F
100
AcDbEntity
  8
M0
 62
     6
100
AcDbLine
 10
96.986475
 20
520.49414
 11
96.986475
 21
517.49414
  0
LINE
  5
610
100
AcDbEntity
  8
M0
 62
     6
100
AcDbLine
 10
134.986475
 20
520.49414
 11
134.986475
 21
517.49414
  0
LINE
  5
611
100
AcDbEntity
  8
M0
 62
     6
100
AcDbLine
 10
100.486475
 20
517.49414
 11
100.486475
 21
514.99414
  0
LINE
  5
612
100
AcDbEntity
  8
M0
 62
     6
100
AcDbLine
 10
95.486475
 20
517.49414
 11
95.486475
 21
514.99414
  0
LINE
  5
613
100
AcDbEntity
  8
M0
 62
     6
100
AcDbLine
 10
136.486475
 20
517.49414
 11
136.486475
 21
514.99414
  0
LINE
  5
614
100
AcDbEntity
  8
M0
 62
     6
100
AcDbLine
 10
131.486475
 20
517.49414
 11
131.486475
 21
514.99414
  0
LINE
  5
615
100
AcDbEntity
  8
M0
 62
     6
100
AcDbLine
 10
103.486475
 20
514.501953
 11
103.486475
 21
517.49414
  0
LINE
  5
616
100
AcDbEntity
  8
M0
 62
     6
100
AcDbLine
 10
92.486475
 20
513.49414
 11
92.486475
 21
518.49414
  0
LINE
  5
617
100
AcDbEntity
  8
M0
 62
     6
100
AcDbLine
 10
128.486475
 20
514.49414
 11
128.486475
 21
517.49414
  0
LINE
  5
618
100
AcDbEntity
  8
M0
 62
     6
100
AcDbLine
 10
139.486475
 20
513.49414
 11
139.486475
 21
518.49414
  0
ARC
  5
619
100
AcDbEntity
  8
M0
 62
     6
100
AcDbCircle
 10
137.486475
 20
518.49414
 40
2.0
100
AcDbArc
 50
0.0
 51
90.0
  0
ARC
  5
61A
100
AcDbEntity
  8
M0
 62
     6
100
AcDbCircle
 10
94.486475
 20
518.49414
 40
2.0
100
AcDbArc
 50
89.999563
 51
180.0
  0
LINE
  5
61B
100
AcDbEntity
  8
M0
 62
     6
100
AcDbLine
 10
101.486475
 20
520.49414
 11
103.486475
 21
517.49414
  0
LINE
  5
61C
100
AcDbEntity
  8
M0
 62
     6
100
AcDbLine
 10
130.486475
 20
520.49414
 11
128.486475
 21
517.49414
  0
LINE
  5
61D
100
AcDbEntity
  8
M0
 62
     6
100
AcDbLine
 10
131.486475
 20
517.49414
 11
132.986475
 21
517.49414
  0
LINE
  5
61E
100
AcDbEntity
  8
M0
 62
     6
100
AcDbLine
 10
98.986475
 20
517.49414
 11
100.486475
 21
517.49414
  0
LINE
  5
61F
100
AcDbEntity
  8
M0
 62
     6
100
AcDbLine
 10
134.986475
 20
517.49414
 11
136.486475
 21
517.49414
  0
ARC
  5
620
100
AcDbEntity
  8
M0
 62
     6
100
AcDbCircle
 10
93.486475
 20
513.49414
 40
1.0
100
AcDbArc
 50
180.0
 51
270.0
  0
ARC
  5
621
100
AcDbEntity
  8
M0
 62
     6
100
AcDbCircle
 10
138.486475
 20
513.49414
 40
1.0
100
AcDbArc
 50
269.999126
 51
360.0
  0
LINE
  5
622
100
AcDbEntity
  8
M0
 62
     6
100
AcDbLine
 10
96.986536
 20
512.49414
 11
99.986536
 21
512.49414
  0
LINE
  5
623
100
AcDbEntity
  8
M0
 62
     6
100
AcDbLine
 10
134.986536
 20
512.49414
 11
131.986536
 21
512.49414
  0
LINE
  5
624
100
AcDbEntity
  8
M0
 62
     6
100
AcDbLine
 10
130.48646
 20
520.49414
 11
137.486475
 21
520.49414
  0
LINE
  5
625
100
AcDbEntity
  8
M0
 62
     5
100
AcDbLine
 10
88.286433
 20
399.495605
 11
88.286433
 21
380.495361
  0
LINE
  5
626
100
AcDbEntity
  8
M0
 62
     5
100
AcDbLine
 10
88.286433
 20
380.495361
 11
68.286433
 21
380.495361
  0
LINE
  5
627
100
AcDbEntity
  8
M0
 62
     5
100
AcDbLine
 10
125.986491
 20
380.495849
 11
105.986552
 21
380.495605
  0
LINE
  5
628
100
AcDbEntity
  8
M0
 62
     5
100
AcDbLine
 10
143.686381
 20
380.495117
 11
163.686381
 21
380.495361
  0
LINE
  5
629
100
AcDbEntity
  8
M0
100
AcDbLine
 10
153.68661
 20
396.998825
 11
160.188059
 21
393.246231
  0
LINE
  5
62A
100
AcDbEntity
  8
M0
100
AcDbLine
 10
160.188059
 20
393.246231
 11
160.188059
 21
385.740585
  0
LINE
  5
62B
100
AcDbEntity
  8
M0
100
AcDbLine
 10
160.188059
 20
385.740585
 11
153.68661
 21
381.987838
  0
LINE
  5
62C
100
AcDbEntity
  8
M0
100
AcDbLine
 10
153.68661
 20
381.987838
 11
147.187586
 21
385.740585
  0
LINE
  5
62D
100
AcDbEntity
  8
M0
100
AcDbLine
 10
147.187586
 20
385.740585
 11
147.187586
 21
393.246231
  0
LINE
  5
62E
100
AcDbEntity
  8
M0
100
AcDbLine
 10
147.187586
 20
393.246231
 11
153.68661
 21
396.998825
  0
CIRCLE
  5
62F
100
AcDbEntity
  8
M0
100
AcDbCircle
 10
153.68661
 20
389.493484
 40
4.0
  0
LINE
  5
630
100
AcDbEntity
  8
M0
  6
DASHDOT
100
AcDbLine
 10
163.838938
 20
389.493484
 11
143.534281
 21
389.493484
  0
LINE
  5
631
100
AcDbEntity
  8
M0
  6
DASHDOT
100
AcDbLine
 10
153.686594
 20
399.645813
 11
153.68661
 21
378.341156
  0
LINE
  5
632
100
AcDbEntity
  8
M0
100
AcDbLine
 10
78.286433
 20
396.998825
 11
71.784983
 21
393.246231
  0
LINE
  5
633
100
AcDbEntity
  8
M0
100
AcDbLine
 10
71.784983
 20
393.246231
 11
71.784983
 21
385.740585
  0
LINE
  5
634
100
AcDbEntity
  8
M0
100
AcDbLine
 10
71.784983
 20
385.740585
 11
78.286433
 21
381.987838
  0
LINE
  5
635
100
AcDbEntity
  8
M0
100
AcDbLine
 10
78.286433
 20
381.987838
 11
84.785456
 21
385.740585
  0
LINE
  5
636
100
AcDbEntity
  8
M0
100
AcDbLine
 10
84.785456
 20
385.740585
 11
84.785456
 21
393.246231
  0
LINE
  5
637
100
AcDbEntity
  8
M0
100
AcDbLine
 10
84.785456
 20
393.246231
 11
78.286433
 21
396.998825
  0
CIRCLE
  5
638
100
AcDbEntity
  8
M0
100
AcDbCircle
 10
78.286433
 20
389.493484
 40
4.0
  0
LINE
  5
639
100
AcDbEntity
  8
M0
  6
DASHDOT
100
AcDbLine
 10
68.134104
 20
389.493484
 11
88.438761
 21
389.493484
  0
LINE
  5
63A
100
AcDbEntity
  8
M0
  6
DASHDOT
100
AcDbLine
 10
78.286448
 20
399.645813
 11
78.286433
 21
378.341156
  0
LINE
  5
63B
100
AcDbEntity
  8
M0
100
AcDbLine
 10
78.286433
 20
516.98973
 11
71.784983
 21
520.742324
  0
LINE
  5
63C
100
AcDbEntity
  8
M0
100
AcDbLine
 10
71.784983
 20
520.742324
 11
71.784983
 21
528.24797
  0
LINE
  5
63D
100
AcDbEntity
  8
M0
100
AcDbLine
 10
71.784983
 20
528.24797
 11
78.286433
 21
532.000717
  0
LINE
  5
63E
100
AcDbEntity
  8
M0
100
AcDbLine
 10
78.286433
 20
532.000717
 11
84.785456
 21
528.24797
  0
LINE
  5
63F
100
AcDbEntity
  8
M0
100
AcDbLine
 10
84.785456
 20
528.24797
 11
84.785456
 21
520.742324
  0
LINE
  5
640
100
AcDbEntity
  8
M0
100
AcDbLine
 10
84.785456
 20
520.742324
 11
78.286433
 21
516.98973
  0
CIRCLE
  5
641
100
AcDbEntity
  8
M0
100
AcDbCircle
 10
78.286433
 20
524.495071
 40
4.0
  0
LINE
  5
642
100
AcDbEntity
  8
M0
  6
DASHDOT
100
AcDbLine
 10
68.134104
 20
524.495071
 11
88.438761
 21
524.495071
  0
LINE
  5
643
100
AcDbEntity
  8
M0
  6
DASHDOT
100
AcDbLine
 10
78.286448
 20
514.342743
 11
78.286433
 21
535.6474
  0
LINE
  5
644
100
AcDbEntity
  8
M0
100
AcDbLine
 10
153.68661
 20
516.98973
 11
160.188059
 21
520.742324
  0
LINE
  5
645
100
AcDbEntity
  8
M0
100
AcDbLine
 10
160.188059
 20
520.742324
 11
160.188059
 21
528.24797
  0
LINE
  5
646
100
AcDbEntity
  8
M0
100
AcDbLine
 10
160.188059
 20
528.24797
 11
153.68661
 21
532.000717
  0
LINE
  5
647
100
AcDbEntity
  8
M0
100
AcDbLine
 10
153.68661
 20
532.000717
 11
147.187586
 21
528.24797
  0
LINE
  5
648
100
AcDbEntity
  8
M0
100
AcDbLine
 10
147.187586
 20
528.24797
 11
147.187586
 21
520.742324
  0
LINE
  5
649
100
AcDbEntity
  8
M0
100
AcDbLine
 10
147.187586
 20
520.742324
 11
153.68661
 21
516.98973
  0
LINE
  5
64A
100
AcDbEntity
  8
M0
  6
DASHDOT
100
AcDbLine
 10
163.838938
 20
524.495071
 11
143.534281
 21
524.495071
  0
CIRCLE
  5
64B
100
AcDbEntity
  8
M0
100
AcDbCircle
 10
153.68661
 20
524.495071
 40
4.0
  0
LINE
  5
64C
100
AcDbEntity
  8
M0
  6
DASHDOT
100
AcDbLine
 10
153.686594
 20
514.342743
 11
153.68661
 21
535.6474
  0
LINE
  5
64D
100
AcDbEntity
  8
M0
100
AcDbLine
 10
115.98679
 20
396.998535
 11
109.485341
 21
393.245941
  0
LINE
  5
64E
100
AcDbEntity
  8
M0
100
AcDbLine
 10
109.485341
 20
393.245941
 11
109.485341
 21
385.740295
  0
LINE
  5
64F
100
AcDbEntity
  8
M0
100
AcDbLine
 10
109.485341
 20
385.740295
 11
115.98679
 21
381.987548
  0
LINE
  5
650
100
AcDbEntity
  8
M0
100
AcDbLine
 10
115.98679
 20
381.987548
 11
122.485813
 21
385.740295
  0
LINE
  5
651
100
AcDbEntity
  8
M0
100
AcDbLine
 10
122.485813
 20
385.740295
 11
122.485813
 21
393.245941
  0
LINE
  5
652
100
AcDbEntity
  8
M0
100
AcDbLine
 10
122.485813
 20
393.245941
 11
115.98679
 21
396.998535
  0
CIRCLE
  5
653
100
AcDbEntity
  8
M0
100
AcDbCircle
 10
115.98679
 20
389.493194
 40
4.0
  0
LINE
  5
654
100
AcDbEntity
  8
M0
  6
DASHDOT
100
AcDbLine
 10
105.834462
 20
389.493194
 11
126.139118
 21
389.493194
  0
LINE
  5
655
100
AcDbEntity
  8
M0
  6
DASHDOT
100
AcDbLine
 10
115.986806
 20
399.645523
 11
115.98679
 21
378.340866
  0
LINE
  5
656
100
AcDbEntity
  8
M0
100
AcDbLine
 10
115.98679
 20
516.99002
 11
109.485341
 21
520.742614
  0
LINE
  5
657
100
AcDbEntity
  8
M0
100
AcDbLine
 10
109.485341
 20
520.742614
 11
109.485341
 21
528.24826
  0
LINE
  5
658
100
AcDbEntity
  8
M0
100
AcDbLine
 10
109.485341
 20
528.24826
 11
115.98679
 21
532.001007
  0
LINE
  5
659
100
AcDbEntity
  8
M0
100
AcDbLine
 10
115.98679
 20
532.001007
 11
122.485813
 21
528.24826
  0
LINE
  5
65A
100
AcDbEntity
  8
M0
100
AcDbLine
 10
122.485813
 20
528.24826
 11
122.485813
 21
520.742614
  0
LINE
  5
65B
100
AcDbEntity
  8
M0
100
AcDbLine
 10
122.485813
 20
520.742614
 11
115.98679
 21
516.99002
  0
CIRCLE
  5
65C
100
AcDbEntity
  8
M0
100
AcDbCircle
 10
115.98679
 20
524.495361
 40
4.0
  0
LINE
  5
65D
100
AcDbEntity
  8
M0
  6
DASHDOT
100
AcDbLine
 10
105.834462
 20
524.495361
 11
126.139118
 21
524.495361
  0
LINE
  5
65E
100
AcDbEntity
  8
M0
  6
DASHDOT
100
AcDbLine
 10
115.986806
 20
514.343032
 11
115.98679
 21
535.647689
  0
LINE
  5
65F
100
AcDbEntity
  8
M0
  6
DASHED
100
AcDbLine
 10
98.986475
 20
398.994339
 11
97.486475
 21
398.994339
  0
LINE
  5
660
100
AcDbEntity
  8
M0
  6
DASHED
100
AcDbLine
 10
98.986475
 20
341.494339
 11
98.986475
 21
398.994339
  0
LINE
  5
661
100
AcDbEntity
  8
M0
  6
DASHED
100
AcDbLine
 10
97.486475
 20
398.994339
 11
97.486475
 21
341.494339
  0
LINE
  5
662
100
AcDbEntity
  8
M0
  6
DASHED
100
AcDbLine
 10
97.486475
 20
341.494339
 11
98.986475
 21
341.494339
  0
LINE
  5
663
100
AcDbEntity
  8
M0
  6
DASHED
100
AcDbLine
 10
132.986567
 20
398.994339
 11
134.486567
 21
398.994339
  0
LINE
  5
664
100
AcDbEntity
  8
M0
  6
DASHED
100
AcDbLine
 10
132.986567
 20
341.494339
 11
132.986567
 21
398.994339
  0
LINE
  5
665
100
AcDbEntity
  8
M0
  6
DASHED
100
AcDbLine
 10
134.486567
 20
398.994339
 11
134.486567
 21
341.494339
  0
LINE
  5
666
100
AcDbEntity
  8
M0
  6
DASHED
100
AcDbLine
 10
134.486567
 20
341.494339
 11
132.986567
 21
341.494339
  0
LINE
  5
667
100
AcDbEntity
  8
M0
  6
DASHED
100
AcDbLine
 10
132.986567
 20
514.994217
 11
134.486567
 21
514.994217
  0
LINE
  5
668
100
AcDbEntity
  8
M0
  6
DASHED
100
AcDbLine
 10
132.986552
 20
572.494217
 11
132.986567
 21
514.994217
  0
LINE
  5
669
100
AcDbEntity
  8
M0
  6
DASHED
100
AcDbLine
 10
134.486567
 20
514.994217
 11
134.486552
 21
572.494217
  0
LINE
  5
66A
100
AcDbEntity
  8
M0
  6
DASHED
100
AcDbLine
 10
134.486552
 20
572.494217
 11
132.986552
 21
572.494217
  0
LINE
  5
66B
100
AcDbEntity
  8
M0
  6
DASHED
100
AcDbLine
 10
98.986491
 20
514.994217
 11
97.486491
 21
514.994217
  0
LINE
  5
66C
100
AcDbEntity
  8
M0
  6
DASHED
100
AcDbLine
 10
98.986475
 20
572.494217
 11
98.986491
 21
514.994217
  0
LINE
  5
66D
100
AcDbEntity
  8
M0
  6
DASHED
100
AcDbLine
 10
97.486491
 20
514.994217
 11
97.486475
 21
572.494217
  0
LINE
  5
66E
100
AcDbEntity
  8
M0
  6
DASHED
100
AcDbLine
 10
97.486475
 20
572.494217
 11
98.986475
 21
572.494217
  0
LINE
  5
66F
100
AcDbEntity
  8
M0
  6
DIVIDE
100
AcDbLine
 10
88.281197
 20
127.165485
 11
68.278675
 21
127.166706
  0
LINE
  5
670
100
AcDbEntity
  8
M0
  6
DIVIDE
100
AcDbLine
 10
88.281197
 20
128.667195
 11
88.281197
 21
127.165485
  0
LINE
  5
671
100
AcDbEntity
  8
M0
  6
DIVIDE
100
AcDbLine
 10
105.981226
 20
127.168903
 11
105.981226
 21
128.667195
  0
LINE
  5
672
100
AcDbEntity
  8
M0
  6
DIVIDE
100
AcDbLine
 10
125.981002
 20
128.667195
 11
143.681214
 21
128.667195
  0
LINE
  5
673
100
AcDbEntity
  8
M0
  6
DIVIDE
100
AcDbLine
 10
143.681214
 20
128.667195
 11
143.681214
 21
127.168415
  0
LINE
  5
674
100
AcDbEntity
  8
M0
  6
DIVIDE
100
AcDbLine
 10
143.68097
 20
127.168415
 11
143.681214
 21
127.168415
  0
LINE
  5
675
100
AcDbEntity
  8
M0
  6
DIVIDE
100
AcDbLine
 10
167.981286
 20
128.667195
 11
163.681722
 21
128.667195
  0
LINE
  5
676
100
AcDbEntity
  8
M0
  6
DIVIDE
100
AcDbLine
 10
105.981226
 20
280.166121
 11
105.981226
 21
278.666852
  0
LINE
  5
677
100
AcDbEntity
  8
M0
  6
DIVIDE
100
AcDbLine
 10
88.281197
 20
278.668073
 11
105.981226
 21
278.666852
  0
LINE
  5
678
100
AcDbEntity
  8
M0
  6
DIVIDE
100
AcDbLine
 10
88.281197
 20
278.668073
 11
88.281197
 21
280.166365
  0
LINE
  5
679
100
AcDbEntity
  8
M0
  6
DIVIDE
100
AcDbLine
 10
88.281197
 20
280.166365
 11
68.281208
 21
280.166365
  0
LINE
  5
67A
100
AcDbEntity
  8
M0
  6
DIVIDE
100
AcDbLine
 10
68.281208
 20
280.166365
 11
68.281223
 21
278.666364
  0
LINE
  5
67B
100
AcDbEntity
  8
M0
  6
DIVIDE
100
AcDbLine
 10
143.68097
 20
278.666364
 11
143.68097
 21
280.16661
  0
LINE
  5
67C
100
AcDbEntity
  8
M0
  6
DIVIDE
100
AcDbLine
 10
163.680989
 20
280.166365
 11
163.680989
 21
278.666364
  0
LINE
  5
67D
100
AcDbEntity
  8
M0
  6
DIVIDE
100
AcDbLine
 10
125.981246
 20
278.66612
 11
125.981246
 21
280.165877
  0
LINE
  5
67E
100
AcDbEntity
  8
M0
  6
DIVIDE
100
AcDbLine
 10
163.680989
 20
280.165389
 11
143.681214
 21
280.165633
  0
LINE
  5
67F
100
AcDbEntity
  8
M0
  6
DIVIDE
100
AcDbLine
 10
125.999068
 20
280.165877
 11
105.981226
 21
280.166121
  0
LINE
  5
680
100
AcDbEntity
  8
M0
  6
DIVIDE
100
AcDbLine
 10
88.281197
 20
128.667195
 11
105.981226
 21
128.667195
  0
LINE
  5
681
100
AcDbEntity
  8
M0
  6
DIVIDE
100
AcDbLine
 10
125.98564
 20
127.169147
 11
125.985152
 21
128.667195
  0
LINE
  5
682
100
AcDbEntity
  8
M0
  6
DIVIDE
100
AcDbLine
 10
105.981226
 20
127.168903
 11
125.98564
 21
127.169147
  0
LINE
  5
683
100
AcDbEntity
  8
M0
  6
DIVIDE
100
AcDbLine
 10
143.681214
 20
127.169391
 11
163.681722
 21
127.169635
  0
LINE
  5
684
100
AcDbEntity
  8
M0
  6
DIVIDE
100
AcDbLine
 10
68.278873
 20
128.667195
 11
63.981308
 21
128.667195
  0
LINE
  5
685
100
AcDbEntity
  8
M0
  6
DIVIDE
100
AcDbLine
 10
55.9813
 20
136.667203
 11
55.9813
 21
270.6666
  0
LINE
  5
686
100
AcDbEntity
  8
M0
  6
DIVIDE
100
AcDbLine
 10
68.278675
 20
127.166706
 11
68.278873
 21
128.667195
  0
LINE
  5
687
100
AcDbEntity
  8
M0
  6
DIVIDE
100
AcDbLine
 10
163.681722
 20
127.169635
 11
163.681722
 21
128.667195
  0
LINE
  5
688
100
AcDbEntity
  8
M0
  6
DIVIDE
100
AcDbLine
 10
175.981294
 20
270.666845
 11
175.981294
 21
136.667203
  0
LINE
  5
689
100
AcDbEntity
  8
M0
  6
DIVIDE
100
AcDbLine
 10
167.981042
 20
278.666852
 11
163.680989
 21
278.666608
  0
LINE
  5
68A
100
AcDbEntity
  8
M0
  6
DIVIDE
100
AcDbLine
 10
143.68097
 20
278.666364
 11
125.981246
 21
278.66612
  0
LINE
  5
68B
100
AcDbEntity
  8
M0
  6
DIVIDE
100
AcDbLine
 10
63.981704
 20
278.666608
 11
68.281223
 21
278.666364
  0
ARC
  5
68C
100
AcDbEntity
  8
M0
  6
DIVIDE
100
AcDbCircle
 10
63.981308
 20
270.6666
 40
8.000008
100
AcDbArc
 50
89.999891
 51
180.0
  0
ARC
  5
68D
100
AcDbEntity
  8
M0
  6
DIVIDE
100
AcDbCircle
 10
63.981308
 20
136.667203
 40
8.000008
100
AcDbArc
 50
179.999891
 51
270.0
  0
ARC
  5
68E
100
AcDbEntity
  8
M0
  6
DIVIDE
100
AcDbCircle
 10
167.981286
 20
136.667203
 40
8.000008
100
AcDbArc
 50
269.999891
 51
360.0
  0
ARC
  5
68F
100
AcDbEntity
  8
M0
  6
DIVIDE
100
AcDbCircle
 10
167.981286
 20
270.666845
 40
8.000008
100
AcDbArc
 50
0.0
 51
90.0
  0
LINE
  5
690
100
AcDbEntity
  8
M0
  6
DASHDOT
100
AcDbLine
 10
115.990757
 20
291.89416
 11
115.982701
 21
112.71674
  0
LINE
  5
691
100
AcDbEntity
  8
M0
  6
DASHDOT
100
AcDbLine
 10
39.074469
 20
203.66678
 11
188.6295
 21
203.667024
  0
CIRCLE
  5
692
100
AcDbEntity
  8
M0
100
AcDbCircle
 10
165.989829
 20
268.665622
 40
3.000003
  0
LINE
  5
693
100
AcDbEntity
  8
M0
  6
DASHDOT
100
AcDbLine
 10
142.989807
 20
268.665622
 11
188.989852
 21
268.665622
  0
LINE
  5
694
100
AcDbEntity
  8
M0
  6
DASHDOT
100
AcDbLine
 10
165.989829
 20
245.6656
 11
165.989829
 21
291.665644
  0
CIRCLE
  5
695
100
AcDbEntity
  8
M0
100
AcDbCircle
 10
65.989732
 20
138.665496
 40
3.000003
  0
LINE
  5
696
100
AcDbEntity
  8
M0
  6
DASHDOT
100
AcDbLine
 10
42.98971
 20
138.665496
 11
88.989755
 21
138.665496
  0
LINE
  5
697
100
AcDbEntity
  8
M0
  6
DASHDOT
100
AcDbLine
 10
65.989732
 20
115.665474
 11
65.989732
 21
161.665518
  0
CIRCLE
  5
698
100
AcDbEntity
  8
M0
100
AcDbCircle
 10
65.989732
 20
138.665496
 40
2.250002
  0
CIRCLE
  5
699
100
AcDbEntity
  8
M0
100
AcDbCircle
 10
165.989829
 20
268.665622
 40
2.250002
  0
LINE
  5
69A
100
AcDbEntity
  8
M1
 62
     2
100
AcDbLine
 10
22.222223
 20
22.222223
 11
22.222223
 21
633.33335
  0
LINE
  5
69B
100
AcDbEntity
  8
M1
 62
     2
100
AcDbLine
 10
22.222223
 20
633.33335
 11
444.444456
 21
633.33335
  0
LINE
  5
69C
100
AcDbEntity
  8
M1
 62
     2
100
AcDbLine
 10
444.444456
 20
633.33335
 11
444.444456
 21
22.222223
  0
LINE
  5
69D
100
AcDbEntity
  8
M1
 62
     2
100
AcDbLine
 10
444.444456
 20
22.222223
 11
22.222223
 21
22.222223
  0
LINE
  5
69E
100
AcDbEntity
  8
M1
 62
     2
100
AcDbLine
 10
444.444456
 20
44.444446
 11
222.222228
 21
44.444446
  0
LINE
  5
69F
100
AcDbEntity
  8
M1
 62
     2
100
AcDbLine
 10
444.444456
 20
66.666668
 11
222.222228
 21
66.666668
  0
LINE
  5
6A0
100
AcDbEntity
  8
M1
 62
     2
100
AcDbLine
 10
444.444456
 20
88.888891
 11
222.222228
 21
88.888891
  0
LINE
  5
6A1
100
AcDbEntity
  8
M1
 62
     2
100
AcDbLine
 10
222.222228
 20
22.222223
 11
222.222228
 21
88.888891
  0
TEXT
  5
6A2
100
AcDbEntity
  8
M1
 62
     2
100
AcDbText
 10
227.777784
 20
27.777779
 40
11.111112
  1
適　用；
  7
STANDARD
100
AcDbText
  0
TEXT
  5
6A3
100
AcDbEntity
  8
M1
 62
     2
100
AcDbText
 10
227.777784
 20
50.000001
 40
11.111112
  1
形　式；
  7
STANDARD
100
AcDbText
  0
TEXT
  5
6A4
100
AcDbEntity
  8
M1
 62
     2
100
AcDbText
 10
281.111119
 20
50.000001
 40
11.111112
  1
＠Ｈ１５０Ｃ，Ｈ１５０Ｃ－Ｇ
 41
0.5
  7
STANDARD
100
AcDbText
  0
TEXT
  5
6A5
100
AcDbEntity
  8
M1
 62
     2
100
AcDbText
 10
227.777784
 20
72.222224
 40
11.111112
  1
登録名：
  7
STANDARD
100
AcDbText
  0
TEXT
  5
6A6
100
AcDbEntity
  8
M1
 62
     2
100
AcDbText
 10
281.111119
 20
72.222224
 40
11.111112
  1
ＤＭＨ１５０ＣＲ００
 41
0.5
  7
STANDARD
100
AcDbText
  0
LINE
  5
6A7
100
AcDbEntity
  8
DN0
100
AcDbLine
 10
96.184247
 20
51.852225
 11
136.762028
 21
51.852225
  0
TEXT
  5
6A8
100
AcDbEntity
  8
DN0
100
AcDbText
 10
97.306469
 20
52.852225
 40
10.0
  1
せん孔図
 41
0.833333
  7
STANDARD
100
AcDbText
  0
TEXT
  5
6A9
100
AcDbEntity
  8
DN0
100
AcDbText
 10
58.129845
 20
602.573258
 40
7.0
  1
※補助接点４ａ４ｂ付の場合は１４４
 41
0.833333
  7
STANDARD
100
AcDbText
  0
ENDSEC
  0
SECTION
  2
OBJECTS
  0
DICTIONARY
  5
C
100
AcDbDictionary
  3
ACAD_GROUP
350
D
  3
ACAD_MLINESTYLE
350
E
  0
DICTIONARY
  5
D
102
{ACAD_REACTORS
330
C
102
}
100
AcDbDictionary
  0
DICTIONARY
  5
E
102
{ACAD_REACTORS
330
C
102
}
100
AcDbDictionary
  3
STANDARD
350
13
  0
MLINESTYLE
  5
13
102
{ACAD_REACTORS
330
E
102
}
100
AcDbMlineStyle
  2
STANDARD
 70
     0
  3

 62
     0
 51
90.0
 52
90.0
 71
     2
 49
0.5
 62
   256
  6
BYLAYER
 49
-0.5
 62
   256
  6
BYLAYER
  0
ENDSEC
  0
EOF
