  0
SECTION
  2
HEADER
  9
$ACADVER
  1
AC1014
  9
$INSBASE
 10
0.000000
 20
0.000000
 30
0.0
  9
$VIEWCTR
 10
7.531722
 20
4.5
  9
$VIEWSIZE
 40
9.0
  9
$SNAPMODE
 70
     0
  9
$SNAPUNIT
 10
1.0
 20
1.0
  9
$SNAPBASE
 10
0.0
 20
0.0
  9
$SNAPANG
 50
0.0
  9
$SNAPSTYLE
 70
     0
  9
$SNAPISOPAIR
 70
     0
  9
$GRIDMODE
 70
     0
  9
$GRIDUNIT
 10
0.0
 20
0.0
  9
$ORTHOMODE
 70
     0
  9
$REGENMODE
 70
     1
  9
$FILLMODE
 70
     1
  9
$QTEXTMODE
 70
     0
  9
$DRAGMODE
 70
     2
  9
$LTSCALE
  40
     1.000000
  9
$OSMODE
 70
     0
  9
$ATTMODE
 70
     1
  9
$TEXTSIZE
 40
0.2
  9
$TRACEWID
 40
0.05
  9
$TEXTSTYLE
  7
STANDARD
  9
$CELTYPE
  6
BYLAYER
  9
$CECOLOR
 62
   256
  9
$DIMSCALE
 40
1.0
  9
$DIMASZ
 40
0.18
  9
$DIMEXO
 40
0.0625
  9
$DIMDLI
 40
0.38
  9
$DIMRND
 40
0.0
  9
$DIMDLE
 40
0.0
  9
$DIMEXE
 40
0.18
  9
$DIMTP
 40
0.0
  9
$DIMTM
 40
0.0
  9
$DIMTXT
 40
0.18
  9
$DIMCEN
 40
0.09
  9
$DIMTSZ
 40
0.0
  9
$DIMTOL
 70
     0
  9
$DIMLIM
 70
     0
  9
$DIMTIH
 70
     1
  9
$DIMTOH
 70
     1
  9
$DIMSE1
 70
     0
  9
$DIMSE2
 70
     0
  9
$DIMTAD
 70
     0
  9
$DIMZIN
 70
     0
  9
$DIMBLK
  1

  9
$LUNITS
 70
     2
  9
$LUPREC
 70
     4
  9
$AXISMODE
 70
     0
  9
$AXISUNIT
 10
0.0
 20
0.0
  9
$SKETCHINC
 40
0.1
  9
$FILLETRAD
 40
0.0
  9
$AUNITS
 70
     0
  9
$AUPREC
 70
     0
  9
$MENU
  1
ACAD
  9
$ELEVATION
 40
0.0
  9
$THICKNESS
 40
0.0
  9
$VIEWDIR
 10
0.0
 20
0.0
 30
1.0
  9
$LIMCHECK
 70
     0
  9
$BLIPMODE
 70
     1
  9
$CHAMFERA
 40
0.0
  9
$CHAMFERB
 40
0.0
  9
$FASTZOOM
 70
     1
  9
$SKPOLY
 70
     0
  9
$TDCREATE
 40
0000000.0000000000
  9
$TDUPDATE
 40
0000000.0000000000
  9
$TDINDWG
 40
0.0000000000
  9
$TDUSRTIMER
 40
0.0000000000
  9
$USRTIMER
 70
     1
  9
$ANGBASE
 50
0.0
  9
$ANGDIR
 70
     0
  9
$PDMODE
 70
     0
  9
$PDSIZE
 40
0.0
  9
$PLINEWID
 40
0.0
  9
$COORDS
 70
     0
  9
$USERI1
 70
     0
  9
$USERI2
 70
     0
  9
$USERI3
 70
     0
  9
$USERI4
 70
     0
  9
$USERI5
 70
     0
  9
$USERR1
 40
0.0
  9
$USERR2
 40
0.0
  9
$USERR3
 40
0.0
  9
$USERR4
 40
0.0
  9
$USERR5
 40
0.0
  9
$CLAYER
  8
M0
  9
$EXTMIN
 10
30.303029
 20
30.303029
  9
$EXTMAX
 10
606.060582
 20
863.636329
  9
$LIMMIN
 10
0.0
 20
0.0
  9
$LIMMAX
 10
210.0
 20
297.0
  9
$HANDSEED
  5
A99
  0
ENDSEC
  0
SECTION
  2
CLASSES
  0
ENDSEC
  0
SECTION
  2
TABLES
  0
TABLE
  2
VPORT
  5
8
100
AcDbSymbolTable
 70
     2
  0
VPORT
  5
14
100
AcDbSymbolTableRecord
100
AcDbViewportTableRecord
  2
*ACTIVE
 70
     0
 10
0.0
 20
0.0
 11
1.0
 21
1.0
 12
484.0
 22
297.0
 13
0.0
 23
0.0
 14
1.0
 24
1.0
 15
0.0
 25
0.0
 16
0.0
 26
0.0
 36
1.0
 17
0.0
 27
0.0
 37
0.0
 40
594.0
 41
2.0
 42
50.0
 43
0.0
 44
0.0
 50
0.0
 51
0.0
 71
     0
 72
   100
 73
     1
 74
     1
 75
     0
 76
     0
 77
     0
 78
     0
  0
ENDTAB
  0
TABLE
  2
LTYPE
  5
5
100
AcDbSymbolTable
 70
     5
  0
LTYPE
  5
15
100
AcDbSymbolTableRecord
100
AcDbLinetypeTableRecord
  2
BYBLOCK
 70
     0
  3

 72
    65
 73
     0
 40
0.0
  0
LTYPE
  5
16
100
AcDbSymbolTableRecord
100
AcDbLinetypeTableRecord
  2
BYLAYER
 70
     0
  3

 72
    65
 73
     0
 40
0.0
  0
LTYPE
  5
17
100
AcDbSymbolTableRecord
100
AcDbLinetypeTableRecord
  2
CONTINUOUS
 70
    64
  3
Solid line
 72
    65
 73
     0
 40
0.0
  0
LTYPE
  5
18
100
AcDbSymbolTableRecord
100
AcDbLinetypeTableRecord
  2
DASHED
 70
    64
  3
__ __ __ __ __ __ __ __ __ __ __ __ __ __ __ __
 72
    65
 73
     2
 40
0.75
 49
0.5
 74
     0
 49
-0.25
 74
     0
  0
LTYPE
  5
19
100
AcDbSymbolTableRecord
100
AcDbLinetypeTableRecord
  2
DASHDOT
 70
    64
  3
__ . __ . __ . __ . __ . __ . __ . __ . __ . __
 72
    65
 73
     4
 40
1.0
 49
0.5
 74
     0
 49
-0.25
 74
     0
 49
0.0
 74
     0
 49
-0.25
 74
     0
  0
LTYPE
  5
1A
100
AcDbSymbolTableRecord
100
AcDbLinetypeTableRecord
  2
DIVIDE
 70
    64
  3
____ . . ____ . . ____ . . ____ . . ____ . . __
 72
    65
 73
     6
 40
1.25
 49
0.5
 74
     0
 49
-0.25
 74
     0
 49
0.0
 74
     0
 49
-0.25
 74
     0
 49
0.0
 74
     0
 49
-0.25
 74
     0
  0
LTYPE
  5
1B
100
AcDbSymbolTableRecord
100
AcDbLinetypeTableRecord
  2
DOT
 70
    64
  3
. . . . . . . . . . . . . . . . . . . . . . . .
 72
    65
 73
     2
 40
0.25
 49
0.0
 74
     0
 49
-0.25
 74
     0
  0
ENDTAB
  0
TABLE
  2
LAYER
  5
2
100
AcDbSymbolTable
 70
   102
  0
LAYER
  5
F
100
AcDbSymbolTableRecord
100
AcDbLayerTableRecord
  2
0
 70
     0
 62
     7
  6
CONTINUOUS
  0
LAYER
  5
1C
100
AcDbSymbolTableRecord
100
AcDbLayerTableRecord
  2
DEFPOINTS
 70
     0
 62
     7
  6
CONTINUOUS
  0
LAYER
  5
1D
100
AcDbSymbolTableRecord
100
AcDbLayerTableRecord
  2
M0
 70
     0
 62
     3
  6
CONTINUOUS
  0
LAYER
  5
1E
100
AcDbSymbolTableRecord
100
AcDbLayerTableRecord
  2
M1
 70
     0
 62
     3
  6
CONTINUOUS
  0
LAYER
  5
1F
100
AcDbSymbolTableRecord
100
AcDbLayerTableRecord
  2
DD0
 70
     0
 62
     4
  6
CONTINUOUS
  0
LAYER
  5
20
100
AcDbSymbolTableRecord
100
AcDbLayerTableRecord
  2
DN0
 70
     0
 62
     2
  6
CONTINUOUS
  0
ENDTAB
  0
TABLE
  2
STYLE
  5
3
100
AcDbSymbolTable
 70
     2
  0
STYLE
  5
10
100
AcDbSymbolTableRecord
100
AcDbTextStyleTableRecord
  2
STANDARD
 70
     0
 40
0.0
 41
1.0
 50
0.0
 71
     0
 42
0.2
  3
txt
  4
BIGFONT
  0
ENDTAB
  0
TABLE
  2
VIEW
  5
6
100
AcDbSymbolTable
 70
     0
  0
ENDTAB
  0
TABLE
  2
UCS
  5
7
100
AcDbSymbolTable
 70
     0
  0
ENDTAB
  0
TABLE
  2
APPID
  5
9
100
AcDbSymbolTable
 70
     1
  0
APPID
  5
11
100
AcDbSymbolTableRecord
100
AcDbRegAppTableRecord
  2
ACAD
 70
     0
  0
ENDTAB
  0
TABLE
  2
DIMSTYLE
  5
A
100
AcDbSymbolTable
 70
     2
  0
DIMSTYLE
105
27
100
AcDbSymbolTableRecord
100
AcDbDimStyleTableRecord
  2
STANDARD
 70
     0
  3

  4

  5

  6
_OPEN
  7
_OPEN
 40
1.0
 41
9.090909
 42
1.0
 43
8.0
 44
1.0
 45
0.0
 46
0.0
 47
0.0
 48
0.0
140
9.545454
141
0.09
142
0.0
143
0.03937
144
1.0
145
0.0
146
1.0
147
0.6
 71
     0
 72
     0
 73
     1
 74
     1
 75
     0
 76
     0
 77
     3
 78
     8
170
     0
171
     2
172
     0
173
     1
174
     0
175
     0
176
     0
177
     0
178
     0
270
     2
271
     2
272
     4
273
     2
274
     2
340
10
275
     0
280
     0
281
     0
282
     0
283
     1
284
     0
285
     0
286
     0
287
     3
288
     0
  0
DIMSTYLE
105
28
100
AcDbSymbolTableRecord
100
AcDbDimStyleTableRecord
  2
LEADSTYL
 70
     0
  3

  4

  5

  6
_OPEN
  7
_OPEN
 40
1.0
 41
9.090909
 42
0.0625
 43
0.38
 44
0.18
 45
0.0
 46
0.0
 47
0.0
 48
0.0
140
9.545454
141
0.09
142
0.0
143
25.4
144
1.0
145
0.0
146
1.0
147
0.6
 71
     0
 72
     0
 73
     1
 74
     1
 75
     0
 76
     0
 77
     0
 78
     0
170
     0
171
     2
172
     0
173
     1
174
     0
175
     0
176
     0
177
     0
178
     0
270
     2
271
     4
272
     4
273
     2
274
     2
340
10
275
     0
280
     0
281
     0
282
     0
283
     1
284
     0
285
     0
286
     0
287
     3
288
     0
  0
ENDTAB
  0
TABLE
  2
BLOCK_RECORD
  5
1
100
AcDbSymbolTable
 70
    14
  0
BLOCK_RECORD
  5
21
100
AcDbSymbolTableRecord
100
AcDbBlockTableRecord
  2
*MODEL_SPACE
  0
BLOCK_RECORD
  5
24
100
AcDbSymbolTableRecord
100
AcDbBlockTableRecord
  2
*PAPER_SPACE
  0
BLOCK_RECORD
  5
29
100
AcDbSymbolTableRecord
100
AcDbBlockTableRecord
  2
_NONE
  0
BLOCK_RECORD
  5
2D
100
AcDbSymbolTableRecord
100
AcDbBlockTableRecord
  2
_OPEN
  0
BLOCK_RECORD
  5
33
100
AcDbSymbolTableRecord
100
AcDbBlockTableRecord
  2
_CLOSED
  0
BLOCK_RECORD
  5
3A
100
AcDbSymbolTableRecord
100
AcDbBlockTableRecord
  2
_ORIGIN
  0
BLOCK_RECORD
  5
3F
100
AcDbSymbolTableRecord
100
AcDbBlockTableRecord
  2
_DOT
  0
BLOCK_RECORD
  5
47
100
AcDbSymbolTableRecord
100
AcDbBlockTableRecord
  2
_OBLIQUE
  0
BLOCK_RECORD
  5
4B
100
AcDbSymbolTableRecord
100
AcDbBlockTableRecord
  2
DIMS0
  0
BLOCK_RECORD
  5
57
100
AcDbSymbolTableRecord
100
AcDbBlockTableRecord
  2
DIMS1
  0
BLOCK_RECORD
  5
63
100
AcDbSymbolTableRecord
100
AcDbBlockTableRecord
  2
DIMS2
  0
BLOCK_RECORD
  5
6F
100
AcDbSymbolTableRecord
100
AcDbBlockTableRecord
  2
DIMS3
  0
BLOCK_RECORD
  5
7B
100
AcDbSymbolTableRecord
100
AcDbBlockTableRecord
  2
DIMS4
  0
BLOCK_RECORD
  5
87
100
AcDbSymbolTableRecord
100
AcDbBlockTableRecord
  2
DIMS5
  0
BLOCK_RECORD
  5
90
100
AcDbSymbolTableRecord
100
AcDbBlockTableRecord
  2
DIMS6
  0
BLOCK_RECORD
  5
9C
100
AcDbSymbolTableRecord
100
AcDbBlockTableRecord
  2
DIMS7
  0
ENDTAB
  0
ENDSEC
  0
SECTION
  2
BLOCKS
  0
BLOCK
  5
22
100
AcDbEntity
  8
0
100
AcDbBlockBegin
  2
*MODEL_SPACE
 70
     0
 10
0.0
 20
0.0
 30
0.0
  3
*MODEL_SPACE
  1

  0
ENDBLK
  5
23
100
AcDbEntity
  8
0
100
AcDbBlockEnd
  0
BLOCK
  5
25
100
AcDbEntity
 67
     1
  8
0
100
AcDbBlockBegin
  2
*PAPER_SPACE
 70
     0
 10
0.0
 20
0.0
 30
0.0
  3
*PAPER_SPACE
  1

  0
ENDBLK
  5
26
100
AcDbEntity
 67
     1
  8
0
100
AcDbBlockEnd
  0
BLOCK
  5
2A
100
AcDbEntity
  8
0
100
AcDbBlockBegin
  2
_NONE
 70
     0
 10
0.0
 20
0.0
  0
CIRCLE
  5
2B
100
AcDbEntity
  8
0
 62
     0
100
AcDbCircle
 10
0.0
 20
0.0
 40
0.25
  0
ENDBLK
  5
2C
100
AcDbEntity
  8
0
100
AcDbBlockEnd
  0
BLOCK
  5
2E
100
AcDbEntity
  8
0
100
AcDbBlockBegin
  2
_OPEN
 70
     0
 10
0.0
 20
0.0
  0
LINE
  5
2F
100
AcDbEntity
  8
0
 62
     0
100
AcDbLine
 10
-0.965926
 20
0.258819
 11
0.0
 21
0.0
  0
LINE
  5
30
100
AcDbEntity
  8
0
 62
     0
100
AcDbLine
 10
0.0
 20
0.0
 11
-0.965926
 21
-0.258819
  0
LINE
  5
31
100
AcDbEntity
  8
0
 62
     0
100
AcDbLine
 10
0.0
 20
0.0
 11
-1.0
 21
0.0
  0
ENDBLK
  5
32
100
AcDbEntity
  8
0
100
AcDbBlockEnd
  0
BLOCK
  5
34
100
AcDbEntity
  8
0
100
AcDbBlockBegin
  2
_CLOSED
 70
     0
 10
0.0
 20
0.0
  0
LINE
  5
35
100
AcDbEntity
  8
0
 62
     0
100
AcDbLine
 10
-0.965926
 20
0.258819
 11
0.0
 21
0.0
  0
LINE
  5
36
100
AcDbEntity
  8
0
 62
     0
100
AcDbLine
 10
0.0
 20
0.0
 11
-0.965926
 21
-0.258819
  0
LINE
  5
37
100
AcDbEntity
  8
0
 62
     0
100
AcDbLine
 10
-0.965926
 20
0.258819
 11
-0.965926
 21
-0.258819
  0
LINE
  5
38
100
AcDbEntity
  8
0
 62
     0
100
AcDbLine
 10
0.0
 20
0.0
 11
-1.0
 21
0.0
  0
ENDBLK
  5
39
100
AcDbEntity
  8
0
100
AcDbBlockEnd
  0
BLOCK
  5
3B
100
AcDbEntity
  8
0
100
AcDbBlockBegin
  2
_ORIGIN
 70
     0
 10
0.0
 20
0.0
  0
CIRCLE
  5
3C
100
AcDbEntity
  8
0
 62
     0
100
AcDbCircle
 10
0.0
 20
0.0
 40
0.5
  0
LINE
  5
3D
100
AcDbEntity
  8
0
 62
     0
100
AcDbLine
 10
0.0
 20
0.0
 11
-1.0
 21
0.0
  0
ENDBLK
  5
3E
100
AcDbEntity
  8
0
100
AcDbBlockEnd
  0
BLOCK
  5
40
100
AcDbEntity
  8
0
100
AcDbBlockBegin
  2
_DOT
 70
     0
 10
0.0
 20
0.0
  0
POLYLINE
  5
41
100
AcDbEntity
  8
0
 62
     0
100
AcDb2dPolyline
 66
     1
 70
     1
 40
0.5
 41
0.5
  0
VERTEX
  5
42
100
AcDbEntity
  8
0
 62
     0
100
AcDbVertex
100
AcDb2dVertex
 10
-0.25
 20
0.0
 42
1.0
  0
VERTEX
  5
43
100
AcDbEntity
  8
0
 62
     0
100
AcDbVertex
100
AcDb2dVertex
 10
0.25
 20
0.0
 42
1.0
  0
SEQEND
  5
44
100
AcDbEntity
  8
0
 62
     0
  0
LINE
  5
45
100
AcDbEntity
  8
0
 62
     0
100
AcDbLine
 10
-0.5
 20
0.0
 11
-1.0
 21
0.0
  0
ENDBLK
  5
46
100
AcDbEntity
  8
0
100
AcDbBlockEnd
  0
BLOCK
  5
48
100
AcDbEntity
  8
0
100
AcDbBlockBegin
  2
_OBLIQUE
 70
     0
 10
0.0
 20
0.0
  0
LINE
  5
49
100
AcDbEntity
  8
0
 62
     0
100
AcDbLine
 10
-0.353553
 20
-0.353553
 11
0.353553
 21
0.353553
  0
ENDBLK
  5
4A
100
AcDbEntity
  8
0
100
AcDbBlockEnd
  0
BLOCK
  5
4C
100
AcDbEntity
  8
DD0
100
AcDbBlockBegin
  2
DIMS0
 70
     0
 10
0.0
 20
0.0
  0
LINE
  5
4D
100
AcDbEntity
  8
DD0
100
AcDbLine
 10
538.158095
 20
735.551608
 11
538.158095
 21
772.091505
  0
LINE
  5
4E
100
AcDbEntity
  8
DD0
100
AcDbLine
 10
367.058202
 20
701.052089
 11
367.058202
 21
772.091505
  0
LINE
  5
4F
100
AcDbEntity
  8
DD0
100
AcDbLine
 10
529.376951
 20
766.708302
 11
538.158095
 21
769.061202
  0
LINE
  5
50
100
AcDbEntity
  8
DD0
100
AcDbLine
 10
538.158095
 20
769.061202
 11
529.376951
 21
771.414103
  0
LINE
  5
51
100
AcDbEntity
  8
DD0
100
AcDbLine
 10
375.839345
 20
771.414103
 11
367.058202
 21
769.061202
  0
LINE
  5
52
100
AcDbEntity
  8
DD0
100
AcDbLine
 10
367.058202
 20
769.061202
 11
375.839345
 21
766.708302
  0
LINE
  5
53
100
AcDbEntity
  8
DD0
100
AcDbLine
 10
538.158095
 20
769.061202
 11
367.058202
 21
769.061202
  0
TEXT
  5
54
100
AcDbEntity
  8
DD0
100
AcDbText
 10
439.070232
 20
770.879403
 40
9.545454
  1
１７１
 41
0.833333
  7
STANDARD
100
AcDbText
  0
ENDBLK
  5
55
100
AcDbEntity
  8
DD0
100
AcDbBlockEnd
  0
BLOCK
  5
58
100
AcDbEntity
  8
DD0
100
AcDbBlockBegin
  2
DIMS1
 70
     0
 10
0.0
 20
0.0
  0
LINE
  5
59
100
AcDbEntity
  8
DD0
100
AcDbLine
 10
224.1627
 20
732.521629
 11
286.155782
 21
732.521629
  0
LINE
  5
5A
100
AcDbEntity
  8
DD0
100
AcDbLine
 10
224.1627
 20
467.52188
 11
286.155782
 21
467.52188
  0
LINE
  5
5B
100
AcDbEntity
  8
DD0
100
AcDbLine
 10
285.478379
 20
723.740486
 11
283.125479
 21
732.521629
  0
LINE
  5
5C
100
AcDbEntity
  8
DD0
100
AcDbLine
 10
283.125479
 20
732.521629
 11
280.772578
 21
723.740486
  0
LINE
  5
5D
100
AcDbEntity
  8
DD0
100
AcDbLine
 10
280.772578
 20
476.303024
 11
283.125479
 21
467.52188
  0
LINE
  5
5E
100
AcDbEntity
  8
DD0
100
AcDbLine
 10
283.125479
 20
467.52188
 11
285.478379
 21
476.303024
  0
LINE
  5
5F
100
AcDbEntity
  8
DD0
100
AcDbLine
 10
283.125479
 20
732.521629
 11
283.125479
 21
467.52188
  0
TEXT
  5
60
100
AcDbEntity
  8
DD0
100
AcDbText
 10
281.307302
 20
586.483862
 40
9.545454
  1
２６５
 50
90.000003
 41
0.833333
  7
STANDARD
100
AcDbText
  0
ENDBLK
  5
61
100
AcDbEntity
  8
DD0
100
AcDbBlockEnd
  0
BLOCK
  5
64
100
AcDbEntity
  8
DD0
100
AcDbBlockBegin
  2
DIMS2
 70
     0
 10
0.0
 20
0.0
  0
LINE
  5
65
100
AcDbEntity
  8
DD0
100
AcDbLine
 10
106.132399
 20
730.552182
 11
106.132399
 21
772.136866
  0
LINE
  5
66
100
AcDbEntity
  8
DD0
100
AcDbLine
 10
226.132378
 20
730.552182
 11
226.132378
 21
772.136866
  0
LINE
  5
67
100
AcDbEntity
  8
DD0
100
AcDbLine
 10
114.913543
 20
771.459463
 11
106.132399
 21
769.106563
  0
LINE
  5
68
100
AcDbEntity
  8
DD0
100
AcDbLine
 10
106.132399
 20
769.106563
 11
114.913543
 21
766.753662
  0
LINE
  5
69
100
AcDbEntity
  8
DD0
100
AcDbLine
 10
217.351235
 20
766.753662
 11
226.132378
 21
769.106563
  0
LINE
  5
6A
100
AcDbEntity
  8
DD0
100
AcDbLine
 10
226.132378
 20
769.106563
 11
217.351235
 21
771.459463
  0
LINE
  5
6B
100
AcDbEntity
  8
DD0
100
AcDbLine
 10
106.132399
 20
769.106563
 11
226.132378
 21
769.106563
  0
TEXT
  5
6C
100
AcDbEntity
  8
DD0
100
AcDbText
 10
143.049066
 20
770.924763
 40
9.545454
  1
※　１２０
 41
0.833333
  7
STANDARD
100
AcDbText
  0
ENDBLK
  5
6D
100
AcDbEntity
  8
DD0
100
AcDbBlockEnd
  0
BLOCK
  5
70
100
AcDbEntity
  8
DD0
100
AcDbBlockBegin
  2
DIMS3
 70
     0
 10
0.0
 20
0.0
  0
LINE
  5
71
100
AcDbEntity
  8
DD0
100
AcDbLine
 10
229.162288
 20
395.340875
 11
285.158782
 21
395.340875
  0
LINE
  5
72
100
AcDbEntity
  8
DD0
100
AcDbLine
 10
197.162297
 20
387.84081
 11
285.158782
 21
387.84081
  0
LINE
  5
73
100
AcDbEntity
  8
DD0
100
AcDbLine
 10
279.775579
 20
404.122018
 11
282.128479
 21
395.340875
  0
LINE
  5
74
100
AcDbEntity
  8
DD0
100
AcDbLine
 10
282.128479
 20
395.340875
 11
284.481379
 21
404.122018
  0
LINE
  5
75
100
AcDbEntity
  8
DD0
100
AcDbLine
 10
284.481379
 20
379.059667
 11
282.128479
 21
387.84081
  0
LINE
  5
76
100
AcDbEntity
  8
DD0
100
AcDbLine
 10
282.128479
 20
387.84081
 11
279.775579
 21
379.059667
  0
LINE
  5
77
100
AcDbEntity
  8
DD0
100
AcDbLine
 10
282.128479
 20
405.340874
 11
282.128479
 21
377.840811
  0
TEXT
  5
78
100
AcDbEntity
  8
DD0
100
AcDbText
 10
294.098189
 20
378.05295
 40
9.545454
  1
７．５
 50
90.000003
 41
0.833333
  7
STANDARD
100
AcDbText
  0
ENDBLK
  5
79
100
AcDbEntity
  8
DD0
100
AcDbBlockEnd
  0
BLOCK
  5
7C
100
AcDbEntity
  8
DD0
100
AcDbBlockBegin
  2
DIMS4
 70
     0
 10
0.0
 20
0.0
  0
LINE
  5
7D
100
AcDbEntity
  8
DD0
100
AcDbLine
 10
116.132003
 20
106.810213
 11
116.132003
 21
96.07973
  0
LINE
  5
7E
100
AcDbEntity
  8
DD0
100
AcDbLine
 10
216.131999
 20
106.810213
 11
216.131999
 21
96.07973
  0
LINE
  5
7F
100
AcDbEntity
  8
DD0
100
AcDbLine
 10
124.913147
 20
101.462928
 11
116.132003
 21
99.110027
  0
LINE
  5
80
100
AcDbEntity
  8
DD0
100
AcDbLine
 10
116.132003
 20
99.110027
 11
124.913147
 21
96.757127
  0
LINE
  5
81
100
AcDbEntity
  8
DD0
100
AcDbLine
 10
207.350856
 20
96.757127
 11
216.131999
 21
99.110027
  0
LINE
  5
82
100
AcDbEntity
  8
DD0
100
AcDbLine
 10
216.131999
 20
99.110027
 11
207.350856
 21
101.462928
  0
LINE
  5
83
100
AcDbEntity
  8
DD0
100
AcDbLine
 10
116.132003
 20
99.110027
 11
216.131999
 21
99.110027
  0
TEXT
  5
84
100
AcDbEntity
  8
DD0
100
AcDbText
 10
149.125381
 20
101.388372
 40
9.545454
  1
１００
 41
0.833333
  7
STANDARD
100
AcDbText
  0
ENDBLK
  5
85
100
AcDbEntity
  8
DD0
100
AcDbBlockEnd
  0
BLOCK
  5
88
100
AcDbEntity
  8
DD0
100
AcDbBlockBegin
  2
DIMS5
 70
     0
 10
0.0
 20
0.0
  0
TEXT
  5
89
100
AcDbEntity
  8
DD0
100
AcDbText
 10
67.037763
 20
421.557277
 40
9.545454
  1
３－Ｍ６ねじ穴
 41
0.833333
  7
STANDARD
100
AcDbText
  0
LINE
  5
8A
100
AcDbEntity
  8
DD0
100
AcDbLine
 10
157.647937
 20
396.162665
 11
164.771391
 21
390.514566
  0
LINE
  5
8B
100
AcDbEntity
  8
DD0
100
AcDbLine
 10
164.771391
 20
390.514566
 11
161.426349
 21
398.967691
  0
LINE
  5
8C
100
AcDbEntity
  8
DD0
100
AcDbLine
 10
164.771391
 20
390.514566
 11
143.075637
 21
419.739077
  0
LINE
  5
8D
100
AcDbEntity
  8
DD0
100
AcDbLine
 10
143.075637
 20
419.739077
 11
56.257465
 21
419.739077
  0
ENDBLK
  5
8E
100
AcDbEntity
  8
DD0
100
AcDbBlockEnd
  0
BLOCK
  5
91
100
AcDbEntity
  8
DD0
100
AcDbBlockBegin
  2
DIMS6
 70
     0
 10
0.0
 20
0.0
  0
LINE
  5
92
100
AcDbEntity
  8
DD0
100
AcDbLine
 10
535.858041
 20
464.491254
 11
535.858041
 21
423.875827
  0
LINE
  5
93
100
AcDbEntity
  8
DD0
100
AcDbLine
 10
538.158049
 20
464.462169
 11
538.158049
 21
423.875827
  0
LINE
  5
94
100
AcDbEntity
  8
DD0
100
AcDbLine
 10
527.076897
 20
424.553229
 11
535.858041
 21
426.906129
  0
LINE
  5
95
100
AcDbEntity
  8
DD0
100
AcDbLine
 10
535.858041
 20
426.906129
 11
527.076897
 21
429.25903
  0
LINE
  5
96
100
AcDbEntity
  8
DD0
100
AcDbLine
 10
546.939192
 20
429.25903
 11
538.158049
 21
426.906129
  0
LINE
  5
97
100
AcDbEntity
  8
DD0
100
AcDbLine
 10
538.158049
 20
426.906129
 11
546.939192
 21
424.553229
  0
LINE
  5
98
100
AcDbEntity
  8
DD0
100
AcDbLine
 10
494.191373
 20
426.906129
 11
548.158048
 21
426.906129
  0
TEXT
  5
99
100
AcDbEntity
  8
DD0
100
AcDbText
 10
496.638358
 20
428.72433
 40
9.545454
  1
２．３
 41
0.833333
  7
STANDARD
100
AcDbText
  0
ENDBLK
  5
9A
100
AcDbEntity
  8
DD0
100
AcDbBlockEnd
  0
BLOCK
  5
9D
100
AcDbEntity
  8
DD0
100
AcDbBlockBegin
  2
DIMS7
 70
     0
 10
0.0
 20
0.0
  0
LINE
  5
9E
100
AcDbEntity
  8
DD0
100
AcDbLine
 10
197.162297
 20
387.84081
 11
285.158782
 21
387.84081
  0
LINE
  5
9F
100
AcDbEntity
  8
DD0
100
AcDbLine
 10
247.162341
 20
137.840555
 11
285.158782
 21
137.840555
  0
LINE
  5
A0
100
AcDbEntity
  8
DD0
100
AcDbLine
 10
284.481379
 20
379.059667
 11
282.128479
 21
387.84081
  0
LINE
  5
A1
100
AcDbEntity
  8
DD0
100
AcDbLine
 10
282.128479
 20
387.84081
 11
279.775579
 21
379.059667
  0
LINE
  5
A2
100
AcDbEntity
  8
DD0
100
AcDbLine
 10
279.775579
 20
146.621698
 11
282.128479
 21
137.840555
  0
LINE
  5
A3
100
AcDbEntity
  8
DD0
100
AcDbLine
 10
282.128479
 20
137.840555
 11
284.481379
 21
146.621698
  0
LINE
  5
A4
100
AcDbEntity
  8
DD0
100
AcDbLine
 10
282.128479
 20
387.84081
 11
282.128479
 21
137.840555
  0
TEXT
  5
A5
100
AcDbEntity
  8
DD0
100
AcDbText
 10
280.310302
 20
249.302807
 40
9.545454
  1
２５０
 50
90.000003
 41
0.833333
  7
STANDARD
100
AcDbText
  0
ENDBLK
  5
A6
100
AcDbEntity
  8
DD0
100
AcDbBlockEnd
  0
ENDSEC
  0
SECTION
  2
ENTITIES
  0
INSERT
  5
56
100
AcDbEntity
  8
DD0
100
AcDbBlockReference
  2
DIMS0
 10
0.0
 20
0.0
  0
INSERT
  5
62
100
AcDbEntity
  8
DD0
100
AcDbBlockReference
  2
DIMS1
 10
0.0
 20
0.0
  0
INSERT
  5
6E
100
AcDbEntity
  8
DD0
100
AcDbBlockReference
  2
DIMS2
 10
0.0
 20
0.0
  0
INSERT
  5
7A
100
AcDbEntity
  8
DD0
100
AcDbBlockReference
  2
DIMS3
 10
0.0
 20
0.0
  0
INSERT
  5
86
100
AcDbEntity
  8
DD0
100
AcDbBlockReference
  2
DIMS4
 10
0.0
 20
0.0
  0
INSERT
  5
8F
100
AcDbEntity
  8
DD0
100
AcDbBlockReference
  2
DIMS5
 10
0.0
 20
0.0
  0
INSERT
  5
9B
100
AcDbEntity
  8
DD0
100
AcDbBlockReference
  2
DIMS6
 10
0.0
 20
0.0
  0
INSERT
  5
A7
100
AcDbEntity
  8
DD0
100
AcDbBlockReference
  2
DIMS7
 10
0.0
 20
0.0
  0
LINE
  5
A8
100
AcDbEntity
  8
M0
 62
     7
100
AcDbLine
 10
457.05823
 20
699.021003
 11
469.058474
 21
699.021003
  0
LINE
  5
A9
100
AcDbEntity
  8
M0
 62
     7
100
AcDbLine
 10
429.05823
 20
697.521003
 11
435.858279
 21
697.521003
  0
LINE
  5
AA
100
AcDbEntity
  8
M0
 62
     7
100
AcDbLine
 10
436.958133
 20
687.521003
 11
439.05823
 21
687.521003
  0
LINE
  5
AB
100
AcDbEntity
  8
M0
 62
     7
100
AcDbLine
 10
429.05823
 20
683.521003
 11
435.958133
 21
683.521003
  0
LINE
  5
AC
100
AcDbEntity
  8
M0
 62
     7
100
AcDbLine
 10
443.05823
 20
672.021003
 11
453.05823
 21
672.021003
  0
LINE
  5
AD
100
AcDbEntity
  8
M0
 62
     7
100
AcDbLine
 10
422.05823
 20
669.521003
 11
432.55823
 21
669.521003
  0
LINE
  5
AE
100
AcDbEntity
  8
M0
 62
     7
100
AcDbLine
 10
394.05823
 20
659.521003
 11
412.05823
 21
659.521003
  0
LINE
  5
AF
100
AcDbEntity
  8
M0
 62
     7
100
AcDbLine
 10
392.05823
 20
645.771247
 11
398.55823
 21
645.771247
  0
LINE
  5
B0
100
AcDbEntity
  8
M0
 62
     7
100
AcDbLine
 10
397.05823
 20
644.771247
 11
398.55823
 21
644.771247
  0
LINE
  5
B1
100
AcDbEntity
  8
M0
 62
     7
100
AcDbLine
 10
469.05823
 20
717.021003
 11
469.05823
 21
661.920905
  0
LINE
  5
B2
100
AcDbEntity
  8
M0
 62
     7
100
AcDbLine
 10
456.05823
 20
707.155768
 11
456.05823
 21
675.021003
  0
ARC
  5
B3
100
AcDbEntity
  8
M0
 62
     7
100
AcDbCircle
 10
457.05823
 20
698.021003
 40
1.0
100
AcDbArc
 50
90.0
 51
180.0
  0
ARC
  5
B4
100
AcDbEntity
  8
M0
 62
     7
100
AcDbCircle
 10
455.05823
 20
698.521003
 40
1.0
100
AcDbArc
 50
269.999126
 51
360.0
  0
LINE
  5
B5
100
AcDbEntity
  8
M0
 62
     7
100
AcDbLine
 10
439.05823
 20
696.521003
 11
439.05823
 21
687.521003
  0
LINE
  5
B6
100
AcDbEntity
  8
M0
 62
     7
100
AcDbLine
 10
428.05823
 20
696.521003
 11
428.05823
 21
669.521003
  0
ARC
  5
B7
100
AcDbEntity
  8
M0
 62
     7
100
AcDbCircle
 10
429.05823
 20
696.521003
 40
1.0
100
AcDbArc
 50
90.0
 51
180.0
  0
ARC
  5
B8
100
AcDbEntity
  8
M0
 62
     7
100
AcDbCircle
 10
440.05823
 20
696.521003
 40
1.0
100
AcDbArc
 50
90.0
 51
180.0
  0
LINE
  5
B9
100
AcDbEntity
  8
M0
 62
     7
100
AcDbLine
 10
435.958133
 20
686.521003
 11
435.958133
 21
668.521003
  0
ARC
  5
BA
100
AcDbEntity
  8
M0
 62
     7
100
AcDbCircle
 10
436.958133
 20
686.521003
 40
1.0
100
AcDbArc
 50
90.0
 51
180.0
  0
ARC
  5
BB
100
AcDbEntity
  8
M0
 62
     7
100
AcDbCircle
 10
429.05823
 20
682.521003
 40
1.0
100
AcDbArc
 50
90.0
 51
180.0
  0
ARC
  5
BC
100
AcDbEntity
  8
M0
 62
     7
100
AcDbCircle
 10
453.05823
 20
675.021003
 40
3.0
100
AcDbArc
 50
269.999709
 51
360.0
  0
LINE
  5
BD
100
AcDbEntity
  8
M0
 62
     7
100
AcDbLine
 10
442.05823
 20
671.021003
 11
442.05823
 21
668.521003
  0
ARC
  5
BE
100
AcDbEntity
  8
M0
 62
     7
100
AcDbCircle
 10
443.05823
 20
671.021003
 40
1.0
100
AcDbArc
 50
90.0
 51
180.0
  0
LINE
  5
BF
100
AcDbEntity
  8
M0
 62
     7
100
AcDbLine
 10
433.05823
 20
668.521003
 11
442.05823
 21
668.521003
  0
LINE
  5
C0
100
AcDbEntity
  8
M0
 62
     7
100
AcDbLine
 10
433.05823
 20
669.021003
 11
433.05823
 21
668.521003
  0
ARC
  5
C1
100
AcDbEntity
  8
M0
 62
     7
100
AcDbCircle
 10
432.55823
 20
669.021003
 40
0.5
100
AcDbArc
 50
0.0
 51
90.0
  0
LINE
  5
C2
100
AcDbEntity
  8
M0
 62
     7
100
AcDbLine
 10
392.05823
 20
657.521247
 11
392.05823
 21
642.021247
  0
LINE
  5
C3
100
AcDbEntity
  8
M0
 62
     7
100
AcDbLine
 10
398.55823
 20
645.771247
 11
398.55823
 21
642.021247
  0
LINE
  5
C4
100
AcDbEntity
  8
M0
 62
     7
100
AcDbLine
 10
416.05823
 20
659.521003
 11
416.05823
 21
657.021247
  0
LINE
  5
C5
100
AcDbEntity
  8
M0
 62
     7
100
AcDbLine
 10
420.05823
 20
667.521003
 11
420.05823
 21
663.521003
  0
ARC
  5
C6
100
AcDbEntity
  8
M0
 62
     7
100
AcDbCircle
 10
422.05823
 20
667.521003
 40
2.0
100
AcDbArc
 50
90.0
 51
180.0
  0
LINE
  5
C7
100
AcDbEntity
  8
M0
 62
     7
100
AcDbLine
 10
412.05823
 20
659.521003
 11
412.05823
 21
657.021247
  0
LINE
  5
C8
100
AcDbEntity
  8
M0
 62
     7
100
AcDbLine
 10
394.05823
 20
659.521003
 11
412.05823
 21
659.521003
  0
ARC
  5
C9
100
AcDbEntity
  8
M0
 62
     7
100
AcDbCircle
 10
416.05823
 20
663.521003
 40
4.0
100
AcDbArc
 50
269.999781
 51
360.0
  0
LINE
  5
CA
100
AcDbEntity
  8
M0
 62
     7
100
AcDbLine
 10
412.05823
 20
657.021247
 11
416.05823
 21
657.021247
  0
ARC
  5
CB
100
AcDbEntity
  8
M0
 62
     7
100
AcDbCircle
 10
394.05823
 20
657.521247
 40
2.0
100
AcDbArc
 50
90.0
 51
180.0
  0
LINE
  5
CC
100
AcDbEntity
  8
M0
 62
     7
100
AcDbLine
 10
397.05823
 20
645.771247
 11
397.05823
 21
644.771247
  0
LINE
  5
CD
100
AcDbEntity
  8
M0
 62
     7
100
AcDbLine
 10
412.05823
 20
658.521247
 11
416.05823
 21
658.521247
  0
LINE
  5
CE
100
AcDbEntity
  8
M0
 62
     7
100
AcDbLine
 10
446.057986
 20
649.021247
 11
458.057986
 21
649.021247
  0
LINE
  5
CF
100
AcDbEntity
  8
M0
 62
     7
100
AcDbLine
 10
458.05823
 20
663.771003
 11
458.05823
 21
649.021247
  0
LINE
  5
D0
100
AcDbEntity
  8
M0
 62
     7
100
AcDbLine
 10
444.057986
 20
647.021247
 11
444.057986
 21
644.021247
  0
LINE
  5
D1
100
AcDbEntity
  8
M0
 62
     7
100
AcDbLine
 10
445.05823
 20
643.021247
 11
445.05823
 21
642.021247
  0
LINE
  5
D2
100
AcDbEntity
  8
M0
 62
     7
100
AcDbLine
 10
445.05823
 20
643.021247
 11
444.05823
 21
644.021247
  0
LINE
  5
D3
100
AcDbEntity
  8
M0
 62
     7
100
AcDbLine
 10
455.55823
 20
664.771003
 11
469.05823
 21
664.771003
  0
ARC
  5
D4
100
AcDbEntity
  8
M0
 62
     7
100
AcDbCircle
 10
455.55823
 20
662.271003
 40
2.5
100
AcDbArc
 50
90.0
 51
180.0
  0
LINE
  5
D5
100
AcDbEntity
  8
M0
 62
     7
100
AcDbLine
 10
455.557986
 20
659.771003
 11
458.05823
 21
659.771003
  0
ARC
  5
D6
100
AcDbEntity
  8
M0
 62
     7
100
AcDbCircle
 10
455.55823
 20
662.271003
 40
2.5
100
AcDbArc
 50
180.0
 51
269.99965
  0
LINE
  5
D7
100
AcDbEntity
  8
M0
 62
     7
100
AcDbLine
 10
459.05823
 20
619.521247
 11
469.058474
 21
619.521247
  0
LINE
  5
D8
100
AcDbEntity
  8
M0
 62
     7
100
AcDbLine
 10
459.05823
 20
664.520759
 11
469.058474
 21
664.520759
  0
LINE
  5
D9
100
AcDbEntity
  8
M0
 62
     7
100
AcDbLine
 10
457.05823
 20
594.021247
 11
469.05823
 21
594.021247
  0
LINE
  5
DA
100
AcDbEntity
  8
M0
 62
     7
100
AcDbLine
 10
469.05823
 20
622.821296
 11
469.05823
 21
586.521247
  0
ARC
  5
DB
100
AcDbEntity
  8
M0
 62
     7
100
AcDbCircle
 10
446.057986
 20
647.021247
 40
2.0
100
AcDbArc
 50
90.0
 51
180.0
  0
LINE
  5
DC
100
AcDbEntity
  8
M0
 62
     7
100
AcDbLine
 10
446.05823
 20
635.021247
 11
458.05823
 21
635.021247
  0
LINE
  5
DD
100
AcDbEntity
  8
M0
 62
     7
100
AcDbLine
 10
458.058474
 20
620.521247
 11
458.058474
 21
635.021247
  0
LINE
  5
DE
100
AcDbEntity
  8
M0
 62
     7
100
AcDbLine
 10
444.05823
 20
637.021247
 11
444.05823
 21
640.021247
  0
LINE
  5
DF
100
AcDbEntity
  8
M0
 62
     7
100
AcDbLine
 10
445.058474
 20
641.021247
 11
445.058474
 21
642.021247
  0
LINE
  5
E0
100
AcDbEntity
  8
M0
 62
     7
100
AcDbLine
 10
445.058474
 20
641.021247
 11
444.058474
 21
640.021247
  0
LINE
  5
E1
100
AcDbEntity
  8
M0
 62
     7
100
AcDbLine
 10
455.558474
 20
619.271247
 11
469.058474
 21
619.271247
  0
ARC
  5
E2
100
AcDbEntity
  8
M0
 62
     7
100
AcDbCircle
 10
455.558474
 20
621.771247
 40
2.5
100
AcDbArc
 50
180.0
 51
269.99965
  0
LINE
  5
E3
100
AcDbEntity
  8
M0
 62
     7
100
AcDbLine
 10
455.55823
 20
624.271247
 11
458.058474
 21
624.271247
  0
ARC
  5
E4
100
AcDbEntity
  8
M0
 62
     7
100
AcDbCircle
 10
455.558474
 20
621.771247
 40
2.5
100
AcDbArc
 50
90.0
 51
180.0
  0
ARC
  5
E5
100
AcDbEntity
  8
M0
 62
     7
100
AcDbCircle
 10
459.058474
 20
620.521247
 40
1.0
100
AcDbArc
 50
180.0
 51
269.999126
  0
ARC
  5
E6
100
AcDbEntity
  8
M0
 62
     7
100
AcDbCircle
 10
459.058474
 20
663.520759
 40
1.0
100
AcDbArc
 50
90.0
 51
180.0
  0
ARC
  5
E7
100
AcDbEntity
  8
M0
 62
     7
100
AcDbCircle
 10
446.05823
 20
637.021247
 40
2.0
100
AcDbArc
 50
180.0
 51
269.999563
  0
LINE
  5
E8
100
AcDbEntity
  8
M0
 62
     7
100
AcDbLine
 10
429.058474
 20
586.521247
 11
435.857791
 21
586.521247
  0
LINE
  5
E9
100
AcDbEntity
  8
M0
 62
     7
100
AcDbLine
 10
436.958377
 20
596.521247
 11
439.058474
 21
596.521247
  0
LINE
  5
EA
100
AcDbEntity
  8
M0
 62
     7
100
AcDbLine
 10
429.058474
 20
600.521247
 11
435.958377
 21
600.521247
  0
LINE
  5
EB
100
AcDbEntity
  8
M0
 62
     7
100
AcDbLine
 10
443.058474
 20
612.021247
 11
453.058474
 21
612.021247
  0
LINE
  5
EC
100
AcDbEntity
  8
M0
 62
     7
100
AcDbLine
 10
422.058474
 20
614.521247
 11
432.558474
 21
614.521247
  0
LINE
  5
ED
100
AcDbEntity
  8
M0
 62
     7
100
AcDbLine
 10
394.058474
 20
624.521247
 11
412.058474
 21
624.521247
  0
LINE
  5
EE
100
AcDbEntity
  8
M0
 62
     7
100
AcDbLine
 10
392.058474
 20
638.271247
 11
398.558474
 21
638.271247
  0
LINE
  5
EF
100
AcDbEntity
  8
M0
 62
     7
100
AcDbLine
 10
397.058474
 20
639.271247
 11
398.558474
 21
639.271247
  0
LINE
  5
F0
100
AcDbEntity
  8
M0
 62
     7
100
AcDbLine
 10
456.058474
 20
595.021247
 11
456.058474
 21
609.021247
  0
LINE
  5
F1
100
AcDbEntity
  8
M0
 62
     7
100
AcDbLine
 10
439.058474
 20
587.521247
 11
439.058474
 21
596.521247
  0
LINE
  5
F2
100
AcDbEntity
  8
M0
 62
     7
100
AcDbLine
 10
428.058474
 20
587.521247
 11
428.058474
 21
614.521247
  0
ARC
  5
F3
100
AcDbEntity
  8
M0
 62
     7
100
AcDbCircle
 10
429.058474
 20
587.521247
 40
1.0
100
AcDbArc
 50
180.013988
 51
269.999126
  0
ARC
  5
F4
100
AcDbEntity
  8
M0
 62
     7
100
AcDbCircle
 10
440.058474
 20
587.521247
 40
1.0
100
AcDbArc
 50
180.013988
 51
269.999126
  0
LINE
  5
F5
100
AcDbEntity
  8
M0
 62
     7
100
AcDbLine
 10
435.958377
 20
597.521247
 11
435.958377
 21
615.521247
  0
ARC
  5
F6
100
AcDbEntity
  8
M0
 62
     7
100
AcDbCircle
 10
436.958377
 20
597.521247
 40
1.0
100
AcDbArc
 50
180.013988
 51
269.999126
  0
ARC
  5
F7
100
AcDbEntity
  8
M0
 62
     7
100
AcDbCircle
 10
429.058474
 20
601.521247
 40
1.0
100
AcDbArc
 50
180.013988
 51
269.999126
  0
ARC
  5
F8
100
AcDbEntity
  8
M0
 62
     7
100
AcDbCircle
 10
453.058474
 20
609.021247
 40
3.0
100
AcDbArc
 50
0.0
 51
90.0
  0
LINE
  5
F9
100
AcDbEntity
  8
M0
 62
     7
100
AcDbLine
 10
442.058474
 20
613.021247
 11
442.058474
 21
615.521247
  0
ARC
  5
FA
100
AcDbEntity
  8
M0
 62
     7
100
AcDbCircle
 10
443.058474
 20
613.021247
 40
1.0
100
AcDbArc
 50
180.013988
 51
269.999126
  0
LINE
  5
FB
100
AcDbEntity
  8
M0
 62
     7
100
AcDbLine
 10
434.05823
 20
615.521247
 11
442.05823
 21
615.521247
  0
LINE
  5
FC
100
AcDbEntity
  8
M0
 62
     7
100
AcDbLine
 10
433.05823
 20
615.021247
 11
433.05823
 21
614.521247
  0
ARC
  5
FD
100
AcDbEntity
  8
M0
 62
     7
100
AcDbCircle
 10
432.558474
 20
615.021247
 40
0.5
100
AcDbArc
 50
-90.001749
 51
0.0
  0
LINE
  5
FE
100
AcDbEntity
  8
M0
 62
     7
100
AcDbLine
 10
392.058474
 20
626.521247
 11
392.058474
 21
642.021247
  0
LINE
  5
FF
100
AcDbEntity
  8
M0
 62
     7
100
AcDbLine
 10
398.558474
 20
638.271247
 11
398.558474
 21
642.021247
  0
LINE
  5
100
100
AcDbEntity
  8
M0
 62
     7
100
AcDbLine
 10
416.058474
 20
624.521247
 11
416.058474
 21
627.021247
  0
LINE
  5
101
100
AcDbEntity
  8
M0
 62
     7
100
AcDbLine
 10
420.058474
 20
616.521247
 11
420.058474
 21
620.521247
  0
ARC
  5
102
100
AcDbEntity
  8
M0
 62
     7
100
AcDbCircle
 10
422.058474
 20
616.521247
 40
2.0
100
AcDbArc
 50
180.006994
 51
269.999563
  0
LINE
  5
103
100
AcDbEntity
  8
M0
 62
     7
100
AcDbLine
 10
412.058474
 20
624.521247
 11
412.058474
 21
627.021247
  0
LINE
  5
104
100
AcDbEntity
  8
M0
 62
     7
100
AcDbLine
 10
394.058474
 20
624.521247
 11
412.058474
 21
624.521247
  0
ARC
  5
105
100
AcDbEntity
  8
M0
 62
     7
100
AcDbCircle
 10
416.058474
 20
620.521247
 40
4.0
100
AcDbArc
 50
0.0
 51
90.0
  0
LINE
  5
106
100
AcDbEntity
  8
M0
 62
     7
100
AcDbLine
 10
412.058474
 20
627.021247
 11
416.058474
 21
627.021247
  0
ARC
  5
107
100
AcDbEntity
  8
M0
 62
     7
100
AcDbCircle
 10
394.058474
 20
626.521247
 40
2.0
100
AcDbArc
 50
180.006994
 51
269.999563
  0
LINE
  5
108
100
AcDbEntity
  8
M0
 62
     7
100
AcDbLine
 10
397.058474
 20
638.271247
 11
397.058474
 21
639.271247
  0
LINE
  5
109
100
AcDbEntity
  8
M0
 62
     7
100
AcDbLine
 10
412.058474
 20
625.521247
 11
416.058474
 21
625.521247
  0
ARC
  5
10A
100
AcDbEntity
  8
M0
 62
     7
100
AcDbCircle
 10
457.058474
 20
595.021247
 40
1.0
100
AcDbArc
 50
180.0
 51
269.999126
  0
ARC
  5
10B
100
AcDbEntity
  8
M0
 62
     7
100
AcDbCircle
 10
434.05823
 20
614.521247
 40
1.0
100
AcDbArc
 50
90.0
 51
180.0
  0
LINE
  5
10C
100
AcDbEntity
  8
M0
 62
     7
100
AcDbLine
 10
457.05823
 20
705.521003
 11
469.05823
 21
705.521003
  0
LINE
  5
10D
100
AcDbEntity
  8
M0
 62
     7
100
AcDbLine
 10
464.523562
 20
717.021003
 11
469.05823
 21
717.021003
  0
LINE
  5
10E
100
AcDbEntity
  8
M0
 62
     7
100
AcDbLine
 10
456.293093
 20
707.799811
 11
463.758426
 21
716.665046
  0
ARC
  5
10F
100
AcDbEntity
  8
M0
 62
     7
100
AcDbCircle
 10
457.05823
 20
704.521003
 40
1.0
100
AcDbArc
 50
90.0
 51
180.0
  0
ARC
  5
110
100
AcDbEntity
  8
M0
 62
     7
100
AcDbCircle
 10
464.523562
 20
716.021003
 40
1.0
100
AcDbArc
 50
90.0
 51
139.919368
  0
ARC
  5
111
100
AcDbEntity
  8
M0
 62
     7
100
AcDbCircle
 10
457.05823
 20
707.155768
 40
1.0
100
AcDbArc
 50
139.919368
 51
180.0
  0
LINE
  5
112
100
AcDbEntity
  8
M0
 62
     7
100
AcDbLine
 10
439.057986
 20
697.521003
 11
455.05823
 21
697.521003
  0
LINE
  5
113
100
AcDbEntity
  8
M0
 62
     7
100
AcDbLine
 10
439.05823
 20
586.521247
 11
469.058474
 21
586.521247
  0
LINE
  5
114
100
AcDbEntity
  8
M0
 62
     6
100
AcDbLine
 10
369.0582
 20
700.021781
 11
407.0582
 21
700.021781
  0
LINE
  5
115
100
AcDbEntity
  8
M0
 62
     6
100
AcDbLine
 10
369.0582
 20
687.521781
 11
435.858004
 21
687.521781
  0
LINE
  5
116
100
AcDbEntity
  8
M0
 62
     6
100
AcDbLine
 10
369.0582
 20
596.521781
 11
435.858004
 21
596.521781
  0
LINE
  5
117
100
AcDbEntity
  8
M0
 62
     6
100
AcDbLine
 10
369.0582
 20
584.021781
 11
407.0582
 21
584.021781
  0
LINE
  5
118
100
AcDbEntity
  8
M0
 62
     6
100
AcDbLine
 10
367.0582
 20
698.021781
 11
367.0582
 21
586.021781
  0
LINE
  5
119
100
AcDbEntity
  8
M0
 62
     6
100
AcDbLine
 10
428.0582
 20
702.022269
 11
428.0582
 21
687.521781
  0
LINE
  5
11A
100
AcDbEntity
  8
M0
 62
     6
100
AcDbLine
 10
435.858004
 20
687.521781
 11
435.85776
 21
686.521048
  0
ARC
  5
11B
100
AcDbEntity
  8
M0
 62
     6
100
AcDbCircle
 10
369.0582
 20
698.021781
 40
2.0
100
AcDbArc
 50
90.0
 51
180.0
  0
ARC
  5
11C
100
AcDbEntity
  8
M0
 62
     6
100
AcDbCircle
 10
369.0582
 20
586.021781
 40
2.0
100
AcDbArc
 50
180.0
 51
269.999563
  0
ARC
  5
11D
100
AcDbEntity
  8
M0
 62
     6
100
AcDbCircle
 10
369.0582
 20
685.521781
 40
2.0
100
AcDbArc
 50
90.0
 51
180.0
  0
ARC
  5
11E
100
AcDbEntity
  8
M0
 62
     6
100
AcDbCircle
 10
369.0582
 20
598.521781
 40
2.0
100
AcDbArc
 50
180.0
 51
269.999563
  0
LINE
  5
11F
100
AcDbEntity
  8
M0
 62
     6
100
AcDbLine
 10
428.0582
 20
596.521781
 11
428.0582
 21
582.021048
  0
LINE
  5
120
100
AcDbEntity
  8
M0
  6
DASHDOT
 62
     6
100
AcDbLine
 10
356.587039
 20
642.021781
 11
547.039538
 21
642.021781
  0
LINE
  5
121
100
AcDbEntity
  8
M0
 62
     6
100
AcDbLine
 10
419.5582
 20
668.021781
 11
420.121432
 21
668.021781
  0
LINE
  5
122
100
AcDbEntity
  8
M0
 62
     6
100
AcDbLine
 10
419.5582
 20
616.021781
 11
420.121432
 21
616.021781
  0
LINE
  5
123
100
AcDbEntity
  8
M0
 62
     6
100
AcDbLine
 10
418.5582
 20
667.021781
 11
418.5582
 21
663.621634
  0
LINE
  5
124
100
AcDbEntity
  8
M0
 62
     6
100
AcDbLine
 10
391.5582
 20
658.621634
 11
392.38779
 21
658.621634
  0
LINE
  5
125
100
AcDbEntity
  8
M0
 62
     6
100
AcDbLine
 10
391.5582
 20
625.421683
 11
392.387545
 21
625.421683
  0
LINE
  5
126
100
AcDbEntity
  8
M0
 62
     6
100
AcDbLine
 10
389.5582
 20
656.621634
 11
389.5582
 21
627.421683
  0
ARC
  5
127
100
AcDbEntity
  8
M0
 62
     6
100
AcDbCircle
 10
391.5582
 20
656.621634
 40
2.0
100
AcDbArc
 50
90.0
 51
180.0
  0
ARC
  5
128
100
AcDbEntity
  8
M0
 62
     6
100
AcDbCircle
 10
391.5582
 20
627.421683
 40
2.0
100
AcDbArc
 50
180.0
 51
269.999563
  0
LINE
  5
129
100
AcDbEntity
  8
M0
 62
     6
100
AcDbLine
 10
418.5582
 20
620.421683
 11
418.5582
 21
617.021781
  0
ARC
  5
12A
100
AcDbEntity
  8
M0
 62
     6
100
AcDbCircle
 10
413.5582
 20
620.421683
 40
5.0
100
AcDbArc
 50
0.0
 51
90.0
  0
ARC
  5
12B
100
AcDbEntity
  8
M0
 62
     6
100
AcDbCircle
 10
413.5582
 20
663.621634
 40
5.0
100
AcDbArc
 50
269.999825
 51
360.0
  0
ARC
  5
12C
100
AcDbEntity
  8
M0
 62
     6
100
AcDbCircle
 10
419.5582
 20
667.021781
 40
1.0
100
AcDbArc
 50
90.0
 51
180.0
  0
ARC
  5
12D
100
AcDbEntity
  8
M0
 62
     6
100
AcDbCircle
 10
419.5582
 20
617.021781
 40
1.0
100
AcDbArc
 50
180.0
 51
269.999126
  0
LINE
  5
12E
100
AcDbEntity
  8
M0
 62
     6
100
AcDbLine
 10
435.85776
 20
597.521293
 11
435.858004
 21
596.521781
  0
LINE
  5
12F
100
AcDbEntity
  8
M0
 62
     6
100
AcDbLine
 10
407.0582
 20
578.521781
 11
418.056979
 21
578.521781
  0
LINE
  5
130
100
AcDbEntity
  8
M0
 62
     6
100
AcDbLine
 10
407.0582
 20
705.521781
 11
425.758426
 21
705.521781
  0
LINE
  5
131
100
AcDbEntity
  8
M0
 62
     6
100
AcDbLine
 10
407.0582
 20
697.521781
 11
428.0582
 21
697.521781
  0
LINE
  5
132
100
AcDbEntity
  8
M0
 62
     6
100
AcDbLine
 10
407.0582
 20
586.521781
 11
428.0582
 21
586.521781
  0
LINE
  5
133
100
AcDbEntity
  8
M0
 62
     6
100
AcDbLine
 10
407.0582
 20
705.521781
 11
407.0582
 21
697.521781
  0
LINE
  5
134
100
AcDbEntity
  8
M0
 62
     6
100
AcDbLine
 10
407.0582
 20
586.521781
 11
407.0582
 21
578.521781
  0
LINE
  5
135
100
AcDbEntity
  8
M0
 62
     4
100
AcDbLine
 10
532.058474
 20
602.021293
 11
532.058474
 21
592.021293
  0
LINE
  5
136
100
AcDbEntity
  8
M0
 62
     4
100
AcDbLine
 10
531.558474
 20
592.021293
 11
532.058474
 21
592.021293
  0
LINE
  5
137
100
AcDbEntity
  8
M0
 62
     4
100
AcDbLine
 10
531.558474
 20
602.021293
 11
532.058474
 21
602.021293
  0
LINE
  5
138
100
AcDbEntity
  8
M0
 62
     4
100
AcDbLine
 10
517.058474
 20
567.021293
 11
531.557254
 21
567.021293
  0
LINE
  5
139
100
AcDbEntity
  8
M0
 62
     4
100
AcDbLine
 10
469.058474
 20
586.521293
 11
514.058474
 21
586.521293
  0
LINE
  5
13A
100
AcDbEntity
  8
M0
 62
     4
100
AcDbLine
 10
469.058474
 20
594.021293
 11
513.058474
 21
594.021293
  0
LINE
  5
13B
100
AcDbEntity
  8
M0
 62
     4
100
AcDbLine
 10
459.058474
 20
619.771293
 11
469.058474
 21
619.771293
  0
LINE
  5
13C
100
AcDbEntity
  8
M0
 62
     4
100
AcDbLine
 10
458.058474
 20
635.021293
 11
472.058474
 21
635.021293
  0
LINE
  5
13D
100
AcDbEntity
  8
M0
 62
     4
100
AcDbLine
 10
531.558474
 20
567.021293
 11
531.558474
 21
717.021048
  0
LINE
  5
13E
100
AcDbEntity
  8
M0
 62
     4
100
AcDbLine
 10
469.058474
 20
586.521293
 11
469.058474
 21
635.021293
  0
LINE
  5
13F
100
AcDbEntity
  8
M0
 62
     4
100
AcDbLine
 10
458.058474
 20
620.771293
 11
458.058474
 21
635.021293
  0
ARC
  5
140
100
AcDbEntity
  8
M0
 62
     4
100
AcDbCircle
 10
459.058474
 20
620.771293
 40
1.0
100
AcDbArc
 50
180.0
 51
269.999126
  0
LINE
  5
141
100
AcDbEntity
  8
M0
 62
     4
100
AcDbLine
 10
474.058474
 20
640.021293
 11
474.058474
 21
637.021293
  0
LINE
  5
142
100
AcDbEntity
  8
M0
 62
     4
100
AcDbLine
 10
473.058474
 20
643.021293
 11
473.058474
 21
641.021293
  0
LINE
  5
143
100
AcDbEntity
  8
M0
 62
     4
100
AcDbLine
 10
473.058474
 20
641.021293
 11
474.058474
 21
640.021293
  0
LINE
  5
144
100
AcDbEntity
  8
M0
 62
     4
100
AcDbLine
 10
469.057986
 20
717.020804
 11
531.557254
 21
717.020804
  0
LINE
  5
145
100
AcDbEntity
  8
M0
 62
     4
100
AcDbLine
 10
469.058474
 20
705.520804
 11
508.93909
 21
705.520804
  0
LINE
  5
146
100
AcDbEntity
  8
M0
 62
     4
100
AcDbLine
 10
469.058474
 20
699.020804
 11
513.058474
 21
699.020804
  0
LINE
  5
147
100
AcDbEntity
  8
M0
 62
     4
100
AcDbLine
 10
459.058474
 20
664.271048
 11
469.058474
 21
664.271048
  0
LINE
  5
148
100
AcDbEntity
  8
M0
 62
     4
100
AcDbLine
 10
458.058474
 20
649.021048
 11
472.058474
 21
649.021048
  0
LINE
  5
149
100
AcDbEntity
  8
M0
 62
     4
100
AcDbLine
 10
469.058474
 20
705.521048
 11
469.058474
 21
649.021048
  0
LINE
  5
14A
100
AcDbEntity
  8
M0
 62
     4
100
AcDbLine
 10
458.058474
 20
663.271048
 11
458.058474
 21
649.021048
  0
ARC
  5
14B
100
AcDbEntity
  8
M0
 62
     4
100
AcDbCircle
 10
459.058474
 20
663.271048
 40
1.0
100
AcDbArc
 50
90.0
 51
180.0
  0
LINE
  5
14C
100
AcDbEntity
  8
M0
 62
     4
100
AcDbLine
 10
474.058474
 20
644.021293
 11
474.058474
 21
647.021048
  0
LINE
  5
14D
100
AcDbEntity
  8
M0
 62
     4
100
AcDbLine
 10
473.058474
 20
643.021293
 11
474.058474
 21
644.021293
  0
LINE
  5
14E
100
AcDbEntity
  8
M0
 62
     4
100
AcDbLine
 10
473.058474
 20
705.521048
 11
473.058474
 21
711.520804
  0
LINE
  5
14F
100
AcDbEntity
  8
M0
 62
     4
100
AcDbLine
 10
484.058474
 20
715.020804
 11
484.058474
 21
717.021048
  0
LINE
  5
150
100
AcDbEntity
  8
M0
 62
     4
100
AcDbLine
 10
475.558474
 20
715.020804
 11
484.058474
 21
715.020804
  0
LINE
  5
151
100
AcDbEntity
  8
M0
 62
     4
100
AcDbLine
 10
472.058474
 20
715.520804
 11
484.058474
 21
715.520804
  0
LINE
  5
152
100
AcDbEntity
  8
M0
 62
     4
100
AcDbLine
 10
473.558474
 20
705.521048
 11
473.558474
 21
713.020804
  0
ARC
  5
153
100
AcDbEntity
  8
M0
 62
     4
100
AcDbCircle
 10
475.558474
 20
713.020804
 40
2.0
100
AcDbArc
 50
90.0
 51
180.0
  0
LINE
  5
154
100
AcDbEntity
  8
M0
 62
     4
100
AcDbLine
 10
472.058474
 20
711.520804
 11
473.058474
 21
711.520804
  0
LINE
  5
155
100
AcDbEntity
  8
M0
 62
     4
100
AcDbLine
 10
471.058474
 20
714.520804
 11
471.058474
 21
712.520804
  0
ARC
  5
156
100
AcDbEntity
  8
M0
 62
     4
100
AcDbCircle
 10
472.058474
 20
714.520804
 40
1.0
100
AcDbArc
 50
90.0
 51
180.0
  0
ARC
  5
157
100
AcDbEntity
  8
M0
 62
     4
100
AcDbCircle
 10
472.058474
 20
712.520804
 40
1.0
100
AcDbArc
 50
180.0
 51
269.999126
  0
LINE
  5
158
100
AcDbEntity
  8
M0
 62
     4
100
AcDbLine
 10
532.058474
 20
700.020804
 11
532.058474
 21
714.020804
  0
LINE
  5
159
100
AcDbEntity
  8
M0
 62
     4
100
AcDbLine
 10
531.558474
 20
714.020804
 11
532.058474
 21
714.020804
  0
LINE
  5
15A
100
AcDbEntity
  8
M0
 62
     4
100
AcDbLine
 10
531.558474
 20
700.020804
 11
532.058474
 21
700.020804
  0
LINE
  5
15B
100
AcDbEntity
  8
M0
 62
     4
100
AcDbLine
 10
532.05823
 20
584.021537
 11
532.05823
 21
570.021537
  0
LINE
  5
15C
100
AcDbEntity
  8
M0
 62
     4
100
AcDbLine
 10
531.55823
 20
570.021537
 11
532.05823
 21
570.021537
  0
LINE
  5
15D
100
AcDbEntity
  8
M0
 62
     4
100
AcDbLine
 10
531.55823
 20
584.021537
 11
532.05823
 21
584.021537
  0
ARC
  5
15E
100
AcDbEntity
  8
M0
 62
     4
100
AcDbCircle
 10
472.058474
 20
647.021048
 40
2.0
100
AcDbArc
 50
0.0
 51
90.0
  0
ARC
  5
15F
100
AcDbEntity
  8
M0
 62
     4
100
AcDbCircle
 10
472.058474
 20
637.021293
 40
2.0
100
AcDbArc
 50
269.999563
 51
360.0
  0
LINE
  5
160
100
AcDbEntity
  8
M0
 62
     4
100
AcDbLine
 10
515.058474
 20
569.021293
 11
515.058474
 21
592.021293
  0
ARC
  5
161
100
AcDbEntity
  8
M0
 62
     4
100
AcDbCircle
 10
513.058474
 20
592.021293
 40
2.0
100
AcDbArc
 50
0.0
 51
90.0
  0
ARC
  5
162
100
AcDbEntity
  8
M0
 62
     4
100
AcDbCircle
 10
517.058474
 20
569.021293
 40
2.0
100
AcDbArc
 50
180.0
 51
269.999563
  0
ARC
  5
163
100
AcDbEntity
  8
M0
 62
     4
100
AcDbCircle
 10
514.058474
 20
585.521293
 40
1.0
100
AcDbArc
 50
0.0
 51
90.0
  0
LINE
  5
164
100
AcDbEntity
  8
M0
 62
     4
100
AcDbLine
 10
515.058474
 20
715.02056
 11
515.058474
 21
701.020804
  0
ARC
  5
165
100
AcDbEntity
  8
M0
 62
     4
100
AcDbCircle
 10
517.058474
 20
715.02056
 40
2.0
100
AcDbArc
 50
90.0
 51
180.0
  0
ARC
  5
166
100
AcDbEntity
  8
M0
 62
     4
100
AcDbCircle
 10
513.058474
 20
701.020804
 40
2.0
100
AcDbArc
 50
269.999563
 51
360.0
  0
LINE
  5
167
100
AcDbEntity
  8
M0
  6
DASHDOT
100
AcDbLine
 10
508.052996
 20
821.491476
 11
508.0656
 21
821.491476
  0
LINE
  5
168
100
AcDbEntity
  8
M0
  6
DASHDOT
100
AcDbLine
 10
508.052996
 20
821.491476
 11
508.065661
 21
821.491476
  0
LINE
  5
169
100
AcDbEntity
  8
M0
 62
     2
100
AcDbLine
 10
435.858035
 20
583.020621
 11
432.658084
 21
583.020865
  0
LINE
  5
16A
100
AcDbEntity
  8
M0
 62
     2
100
AcDbLine
 10
432.658084
 20
583.020865
 11
432.658084
 21
552.450553
  0
LINE
  5
16B
100
AcDbEntity
  8
M0
 62
     2
100
AcDbLine
 10
435.858035
 20
583.020865
 11
435.858035
 21
552.450065
  0
LINE
  5
16C
100
AcDbEntity
  8
M0
 62
     2
100
AcDbLine
 10
432.658084
 20
565.020865
 11
435.858035
 21
565.020865
  0
LINE
  5
16D
100
AcDbEntity
  8
M0
 62
     2
100
AcDbLine
 10
432.658084
 20
555.020865
 11
435.858035
 21
555.020865
  0
LINE
  5
16E
100
AcDbEntity
  8
M0
 62
     2
100
AcDbLine
 10
436.438845
 20
547.448111
 11
449.073855
 21
543.863639
  0
LINE
  5
16F
100
AcDbEntity
  8
M0
 62
     2
100
AcDbLine
 10
437.312136
 20
550.526236
 11
450.670291
 21
546.736441
  0
ARC
  5
170
100
AcDbEntity
  8
M0
 62
     2
100
AcDbCircle
 10
437.858035
 20
552.450553
 40
5.199996
100
AcDbArc
 50
180.0
 51
254.161643
  0
ARC
  5
171
100
AcDbEntity
  8
M0
 62
     2
100
AcDbCircle
 10
437.858035
 20
552.450065
 40
2.0
100
AcDbArc
 50
180.0
 51
254.158179
  0
LINE
  5
172
100
AcDbEntity
  8
M0
 62
     1
100
AcDbLine
 10
535.858035
 20
467.521537
 11
538.158084
 21
467.521537
  0
LINE
  5
173
100
AcDbEntity
  8
M0
 62
     1
100
AcDbLine
 10
538.158084
 20
732.521537
 11
532.05823
 21
732.521537
  0
LINE
  5
174
100
AcDbEntity
  8
M0
 62
     1
100
AcDbLine
 10
532.05823
 20
732.521537
 11
532.05823
 21
493.321097
  0
LINE
  5
175
100
AcDbEntity
  8
M0
 62
     1
100
AcDbLine
 10
534.358035
 20
732.521537
 11
534.358035
 21
493.2918
  0
LINE
  5
176
100
AcDbEntity
  8
M0
 62
     1
100
AcDbLine
 10
532.05823
 20
727.521537
 11
534.358035
 21
727.521537
  0
ARC
  5
177
100
AcDbEntity
  8
M0
 62
     1
100
AcDbCircle
 10
534.858035
 20
701.021048
 40
3.299995
100
AcDbArc
 50
276.673405
 51
360.0
  0
ARC
  5
178
100
AcDbEntity
  8
M0
 62
     1
100
AcDbCircle
 10
535.358035
 20
696.750052
 40
1.0
100
AcDbArc
 50
96.68864
 51
180.0
  0
LINE
  5
179
100
AcDbEntity
  8
M0
 62
     1
100
AcDbLine
 10
538.158084
 20
475.021537
 11
535.858035
 21
475.021293
  0
LINE
  5
17A
100
AcDbEntity
  8
M0
 62
     1
100
AcDbLine
 10
535.858035
 20
489.050101
 11
535.858035
 21
467.521537
  0
ARC
  5
17B
100
AcDbEntity
  8
M0
 62
     1
100
AcDbCircle
 10
534.858035
 20
489.021048
 40
3.299995
100
AcDbArc
 50
0.0
 51
83.325111
  0
ARC
  5
17C
100
AcDbEntity
  8
M0
 62
     1
100
AcDbCircle
 10
535.358035
 20
493.2918
 40
1.0
100
AcDbArc
 50
180.0
 51
263.313402
  0
ARC
  5
17D
100
AcDbEntity
  8
M0
 62
     1
100
AcDbCircle
 10
535.358035
 20
493.321097
 40
3.299995
100
AcDbArc
 50
180.0
 51
263.32169
  0
ARC
  5
17E
100
AcDbEntity
  8
M0
 62
     1
100
AcDbCircle
 10
534.858035
 20
489.050101
 40
1.0
100
AcDbArc
 50
0.0
 51
83.326427
  0
LINE
  5
17F
100
AcDbEntity
  8
M0
 62
     1
100
AcDbLine
 10
538.158084
 20
701.020804
 11
538.158084
 21
732.521293
  0
LINE
  5
180
100
AcDbEntity
  8
M0
  6
DASHED
 62
     1
100
AcDbLine
 10
535.858035
 20
732.521293
 11
535.858035
 21
717.02056
  0
LINE
  5
181
100
AcDbEntity
  8
M0
 62
     1
100
AcDbLine
 10
538.15803
 20
489.021048
 11
538.15803
 21
467.492484
  0
LINE
  5
182
100
AcDbEntity
  8
M0
 62
     5
100
AcDbLine
 10
439.057986
 20
702.02027
 11
439.057986
 21
717.02027
  0
LINE
  5
183
100
AcDbEntity
  8
M0
 62
     5
100
AcDbLine
 10
418.057986
 20
705.52027
 11
425.758426
 21
705.52027
  0
LINE
  5
184
100
AcDbEntity
  8
M0
  6
DASHDOT
 62
     5
100
AcDbLine
 10
449.057986
 20
709.52027
 11
409.057986
 21
709.52027
  0
LINE
  5
185
100
AcDbEntity
  8
M0
 62
     5
100
AcDbLine
 10
418.057986
 20
706.02027
 11
425.758426
 21
706.02027
  0
LINE
  5
186
100
AcDbEntity
  8
M0
 62
     5
100
AcDbLine
 10
425.758426
 20
713.019538
 11
418.057986
 21
713.019538
  0
LINE
  5
187
100
AcDbEntity
  8
M0
 62
     5
100
AcDbLine
 10
425.758426
 20
713.519538
 11
418.057986
 21
713.519538
  0
LINE
  5
188
100
AcDbEntity
  8
M0
 62
     5
100
AcDbLine
 10
439.05823
 20
696.520026
 11
439.05823
 21
717.52027
  0
LINE
  5
189
100
AcDbEntity
  8
M0
 62
     5
100
AcDbLine
 10
439.05823
 20
699.52027
 11
435.858279
 21
699.52027
  0
LINE
  5
18A
100
AcDbEntity
  8
M0
 62
     5
100
AcDbLine
 10
439.05823
 20
687.52027
 11
435.858279
 21
687.52027
  0
LINE
  5
18B
100
AcDbEntity
  8
M0
 62
     5
100
AcDbLine
 10
439.05823
 20
717.52027
 11
435.858279
 21
717.52027
  0
LINE
  5
18C
100
AcDbEntity
  8
M0
 62
     5
100
AcDbLine
 10
435.858279
 20
717.52027
 11
435.858279
 21
687.520026
  0
LINE
  5
18D
100
AcDbEntity
  8
M0
 62
     5
100
AcDbLine
 10
442.865603
 20
717.019782
 11
439.057986
 21
717.019538
  0
LINE
  5
18E
100
AcDbEntity
  8
M0
 62
     5
100
AcDbLine
 10
439.057986
 20
702.020026
 11
442.865115
 21
702.020026
  0
LINE
  5
18F
100
AcDbEntity
  8
M0
 62
     5
100
AcDbLine
 10
443.557986
 20
703.219977
 11
443.557986
 21
715.819831
  0
LINE
  5
190
100
AcDbEntity
  8
M0
 62
     5
100
AcDbLine
 10
442.865359
 20
705.760016
 11
439.057986
 21
705.759772
  0
LINE
  5
191
100
AcDbEntity
  8
M0
 62
     5
100
AcDbLine
 10
442.865603
 20
713.279792
 11
439.057986
 21
713.279548
  0
LINE
  5
192
100
AcDbEntity
  8
M0
 62
     5
100
AcDbLine
 10
443.55823
 20
703.219977
 11
442.865359
 21
702.020026
  0
LINE
  5
193
100
AcDbEntity
  8
M0
 62
     5
100
AcDbLine
 10
443.55823
 20
715.819831
 11
442.865359
 21
717.020026
  0
ARC
  5
194
100
AcDbEntity
  8
M0
 62
     5
100
AcDbCircle
 10
433.002566
 20
709.520026
 40
10.555579
100
AcDbArc
 50
339.132333
 51
380.866429
  0
ARC
  5
195
100
AcDbEntity
  8
M0
 62
     5
100
AcDbCircle
 10
438.552859
 20
715.819831
 40
5.005172
100
AcDbArc
 50
329.507036
 51
360.0
  0
ARC
  5
196
100
AcDbEntity
  8
M0
 62
     5
100
AcDbCircle
 10
438.552859
 20
703.219977
 40
5.005145
100
AcDbArc
 50
0.0
 51
30.493761
  0
LINE
  5
197
100
AcDbEntity
  8
M0
 62
     5
100
AcDbLine
 10
418.057986
 20
713.52027
 11
418.057986
 21
705.52027
  0
LINE
  5
198
100
AcDbEntity
  8
M0
 62
     5
100
AcDbLine
 10
439.057742
 20
582.021048
 11
439.057711
 21
567.021048
  0
LINE
  5
199
100
AcDbEntity
  8
M0
 62
     5
100
AcDbLine
 10
418.057498
 20
578.521048
 11
422.55823
 21
578.521048
  0
LINE
  5
19A
100
AcDbEntity
  8
M0
  6
DASHDOT
 62
     5
100
AcDbLine
 10
449.057711
 20
574.521048
 11
409.057742
 21
574.521293
  0
LINE
  5
19B
100
AcDbEntity
  8
M0
 62
     5
100
AcDbLine
 10
418.057498
 20
578.021048
 11
422.55823
 21
578.021048
  0
LINE
  5
19C
100
AcDbEntity
  8
M0
 62
     5
100
AcDbLine
 10
422.55823
 20
571.021537
 11
418.057498
 21
571.021537
  0
LINE
  5
19D
100
AcDbEntity
  8
M0
 62
     5
100
AcDbLine
 10
422.55823
 20
570.521537
 11
418.057498
 21
570.521537
  0
LINE
  5
19E
100
AcDbEntity
  8
M0
 62
     5
100
AcDbLine
 10
439.057986
 20
587.521048
 11
439.057956
 21
566.521048
  0
LINE
  5
19F
100
AcDbEntity
  8
M0
 62
     5
100
AcDbLine
 10
439.057986
 20
584.521048
 11
435.858035
 21
584.521048
  0
LINE
  5
1A0
100
AcDbEntity
  8
M0
 62
     5
100
AcDbLine
 10
439.057986
 20
596.521048
 11
435.858035
 21
596.521048
  0
LINE
  5
1A1
100
AcDbEntity
  8
M0
 62
     5
100
AcDbLine
 10
439.057956
 20
566.521048
 11
435.858004
 21
566.521048
  0
LINE
  5
1A2
100
AcDbEntity
  8
M0
 62
     5
100
AcDbLine
 10
435.858004
 20
566.521048
 11
435.858035
 21
596.521048
  0
LINE
  5
1A3
100
AcDbEntity
  8
M0
 62
     5
100
AcDbLine
 10
442.865329
 20
567.021537
 11
439.057711
 21
567.021781
  0
LINE
  5
1A4
100
AcDbEntity
  8
M0
 62
     5
100
AcDbLine
 10
439.057742
 20
582.021293
 11
442.864871
 21
582.021293
  0
LINE
  5
1A5
100
AcDbEntity
  8
M0
 62
     5
100
AcDbLine
 10
443.557742
 20
580.821341
 11
443.557711
 21
568.221488
  0
LINE
  5
1A6
100
AcDbEntity
  8
M0
 62
     5
100
AcDbLine
 10
442.865115
 20
578.281302
 11
439.057742
 21
578.281302
  0
LINE
  5
1A7
100
AcDbEntity
  8
M0
 62
     5
100
AcDbLine
 10
442.865329
 20
570.761527
 11
439.057711
 21
570.761771
  0
LINE
  5
1A8
100
AcDbEntity
  8
M0
 62
     5
100
AcDbLine
 10
443.557986
 20
580.821341
 11
442.865115
 21
582.021293
  0
LINE
  5
1A9
100
AcDbEntity
  8
M0
 62
     5
100
AcDbLine
 10
443.557956
 20
568.221488
 11
442.865084
 21
567.021293
  0
ARC
  5
1AA
100
AcDbEntity
  8
M0
 62
     5
100
AcDbCircle
 10
433.002322
 20
574.521293
 40
10.555579
100
AcDbArc
 50
-20.867667
 51
20.866429
  0
ARC
  5
1AB
100
AcDbEntity
  8
M0
 62
     5
100
AcDbCircle
 10
438.552584
 20
568.221488
 40
5.005172
100
AcDbArc
 50
0.0
 51
30.490555
  0
ARC
  5
1AC
100
AcDbEntity
  8
M0
 62
     5
100
AcDbCircle
 10
438.552615
 20
580.821341
 40
5.005145
100
AcDbArc
 50
-30.49617
 51
0.0
  0
LINE
  5
1AD
100
AcDbEntity
  8
M0
 62
     5
100
AcDbLine
 10
418.057498
 20
570.521048
 11
418.057498
 21
578.521048
  0
LINE
  5
1AE
100
AcDbEntity
  8
M0
 62
     5
100
AcDbLine
 10
472.258181
 20
481.42118
 11
478.358767
 21
481.42118
  0
LINE
  5
1AF
100
AcDbEntity
  8
M0
 62
     5
100
AcDbLine
 10
472.258181
 20
473.42118
 11
478.358767
 21
473.42118
  0
LINE
  5
1B0
100
AcDbEntity
  8
M0
 62
     5
100
AcDbLine
 10
472.258181
 20
473.92118
 11
478.358767
 21
473.92118
  0
LINE
  5
1B1
100
AcDbEntity
  8
M0
 62
     5
100
AcDbLine
 10
472.258181
 20
480.92118
 11
478.358767
 21
480.92118
  0
LINE
  5
1B2
100
AcDbEntity
  8
M0
 62
     5
100
AcDbLine
 10
472.258181
 20
481.42118
 11
472.258181
 21
473.42118
  0
LINE
  5
1B3
100
AcDbEntity
  8
M0
 62
     5
100
AcDbLine
 10
497.065799
 20
484.920691
 11
493.258181
 21
484.920447
  0
LINE
  5
1B4
100
AcDbEntity
  8
M0
 62
     5
100
AcDbLine
 10
493.258181
 20
469.920936
 11
497.06531
 21
469.920936
  0
LINE
  5
1B5
100
AcDbEntity
  8
M0
 62
     5
100
AcDbLine
 10
497.758181
 20
471.120887
 11
497.758181
 21
483.72074
  0
LINE
  5
1B6
100
AcDbEntity
  8
M0
 62
     5
100
AcDbLine
 10
497.065554
 20
473.660926
 11
493.258181
 21
473.660682
  0
LINE
  5
1B7
100
AcDbEntity
  8
M0
 62
     5
100
AcDbLine
 10
497.065799
 20
481.180701
 11
493.258181
 21
481.180457
  0
LINE
  5
1B8
100
AcDbEntity
  8
M0
 62
     5
100
AcDbLine
 10
497.758426
 20
471.120887
 11
497.065554
 21
469.920936
  0
LINE
  5
1B9
100
AcDbEntity
  8
M0
 62
     5
100
AcDbLine
 10
497.758426
 20
483.72074
 11
497.065554
 21
484.920936
  0
ARC
  5
1BA
100
AcDbEntity
  8
M0
 62
     5
100
AcDbCircle
 10
487.202761
 20
477.420936
 40
10.555572
100
AcDbArc
 50
339.132333
 51
380.866429
  0
ARC
  5
1BB
100
AcDbEntity
  8
M0
 62
     5
100
AcDbCircle
 10
492.753054
 20
483.72074
 40
5.005164
100
AcDbArc
 50
329.506948
 51
360.0
  0
ARC
  5
1BC
100
AcDbEntity
  8
M0
 62
     5
100
AcDbCircle
 10
492.753054
 20
471.120887
 40
5.005137
100
AcDbArc
 50
0.0
 51
30.493761
  0
LINE
  5
1BD
100
AcDbEntity
  8
M0
 62
     5
100
AcDbLine
 10
453.857791
 20
467.421668
 11
449.057986
 21
467.421424
  0
LINE
  5
1BE
100
AcDbEntity
  8
M0
 62
     5
100
AcDbLine
 10
449.057986
 20
467.421424
 11
449.05823
 21
493.921668
  0
LINE
  5
1BF
100
AcDbEntity
  8
M0
 62
     5
100
AcDbLine
 10
453.857791
 20
467.421424
 11
453.858035
 21
493.921424
  0
LINE
  5
1C0
100
AcDbEntity
  8
M0
 62
     5
100
AcDbLine
 10
455.858035
 20
495.921424
 11
466.758181
 21
495.921424
  0
LINE
  5
1C1
100
AcDbEntity
  8
M0
  6
DASHDOT
 62
     5
100
AcDbLine
 10
427.662967
 20
477.421668
 11
461.525515
 21
477.421424
  0
LINE
  5
1C2
100
AcDbEntity
  8
M0
 62
     5
100
AcDbLine
 10
449.05823
 20
488.921424
 11
453.858035
 21
488.921424
  0
LINE
  5
1C3
100
AcDbEntity
  8
M0
 62
     5
100
AcDbLine
 10
449.05823
 20
491.421424
 11
453.858035
 21
491.421424
  0
ARC
  5
1C4
100
AcDbEntity
  8
M0
 62
     5
100
AcDbCircle
 10
455.858035
 20
493.921424
 40
2.0
100
AcDbArc
 50
90.0
 51
180.0
  0
ARC
  5
1C5
100
AcDbEntity
  8
M0
 62
     5
100
AcDbCircle
 10
455.858035
 20
493.921668
 40
6.799993
100
AcDbArc
 50
90.0
 51
180.0
  0
ARC
  5
1C6
100
AcDbEntity
  8
M0
 62
     5
100
AcDbCircle
 10
466.758181
 20
502.721473
 40
6.799993
100
AcDbArc
 50
269.999871
 51
335.742803
  0
LINE
  5
1C7
100
AcDbEntity
  8
M0
 62
     5
100
AcDbLine
 10
432.857791
 20
473.421668
 11
438.958224
 21
473.421424
  0
LINE
  5
1C8
100
AcDbEntity
  8
M0
 62
     5
100
AcDbLine
 10
432.858035
 20
481.421424
 11
438.958224
 21
481.421424
  0
LINE
  5
1C9
100
AcDbEntity
  8
M0
 62
     5
100
AcDbLine
 10
432.858035
 20
480.921424
 11
438.958224
 21
480.921424
  0
LINE
  5
1CA
100
AcDbEntity
  8
M0
 62
     5
100
AcDbLine
 10
432.857791
 20
473.921668
 11
438.958224
 21
473.921424
  0
LINE
  5
1CB
100
AcDbEntity
  8
M0
 62
     5
100
AcDbLine
 10
432.857791
 20
473.421668
 11
432.858035
 21
481.421424
  0
LINE
  5
1CC
100
AcDbEntity
  8
M0
 62
     5
100
AcDbLine
 10
457.665408
 20
469.921912
 11
453.857791
 21
469.922156
  0
LINE
  5
1CD
100
AcDbEntity
  8
M0
 62
     5
100
AcDbLine
 10
453.858035
 20
484.921668
 11
457.665164
 21
484.921668
  0
LINE
  5
1CE
100
AcDbEntity
  8
M0
 62
     5
100
AcDbLine
 10
458.358035
 20
483.721717
 11
458.357791
 21
471.121863
  0
LINE
  5
1CF
100
AcDbEntity
  8
M0
 62
     5
100
AcDbLine
 10
457.665408
 20
481.181678
 11
453.858035
 21
481.181922
  0
LINE
  5
1D0
100
AcDbEntity
  8
M0
 62
     5
100
AcDbLine
 10
457.665408
 20
473.661902
 11
453.857791
 21
473.662146
  0
LINE
  5
1D1
100
AcDbEntity
  8
M0
 62
     5
100
AcDbLine
 10
458.358279
 20
483.721717
 11
457.665408
 21
484.921668
  0
LINE
  5
1D2
100
AcDbEntity
  8
M0
 62
     5
100
AcDbLine
 10
458.358035
 20
471.121863
 11
457.665164
 21
469.921668
  0
ARC
  5
1D3
100
AcDbEntity
  8
M0
 62
     5
100
AcDbCircle
 10
447.802615
 20
477.421668
 40
10.555572
100
AcDbArc
 50
-20.868965
 51
20.866429
  0
ARC
  5
1D4
100
AcDbEntity
  8
M0
 62
     5
100
AcDbCircle
 10
453.352664
 20
471.121863
 40
5.005164
100
AcDbArc
 50
0.0
 51
30.490644
  0
ARC
  5
1D5
100
AcDbEntity
  8
M0
 62
     5
100
AcDbCircle
 10
453.352908
 20
483.721717
 40
5.005137
100
AcDbArc
 50
-30.49617
 51
0.0
  0
LINE
  5
1D6
100
AcDbEntity
  8
M0
 62
     5
100
AcDbLine
 10
488.458621
 20
467.421668
 11
493.258426
 21
467.421424
  0
LINE
  5
1D7
100
AcDbEntity
  8
M0
 62
     5
100
AcDbLine
 10
493.258426
 20
467.421424
 11
493.258426
 21
493.921668
  0
LINE
  5
1D8
100
AcDbEntity
  8
M0
 62
     5
100
AcDbLine
 10
488.458621
 20
467.421424
 11
488.458621
 21
493.92118
  0
LINE
  5
1D9
100
AcDbEntity
  8
M0
 62
     5
100
AcDbLine
 10
486.458621
 20
495.92118
 11
482.158328
 21
495.920936
  0
LINE
  5
1DA
100
AcDbEntity
  8
M0
 62
     5
100
AcDbLine
 10
486.458621
 20
500.721228
 11
486.26575
 21
500.721228
  0
LINE
  5
1DB
100
AcDbEntity
  8
M0
  6
DASHDOT
 62
     5
100
AcDbLine
 10
508.742038
 20
477.421424
 11
463.905398
 21
477.421424
  0
LINE
  5
1DC
100
AcDbEntity
  8
M0
 62
     5
100
AcDbLine
 10
493.258426
 20
488.921424
 11
488.458621
 21
488.921424
  0
LINE
  5
1DD
100
AcDbEntity
  8
M0
 62
     5
100
AcDbLine
 10
493.258426
 20
491.421424
 11
488.458621
 21
491.421424
  0
ARC
  5
1DE
100
AcDbEntity
  8
M0
 62
     5
100
AcDbCircle
 10
486.458621
 20
493.92118
 40
2.0
100
AcDbArc
 50
0.0
 51
90.0
  0
ARC
  5
1DF
100
AcDbEntity
  8
M0
 62
     5
100
AcDbCircle
 10
486.458621
 20
493.921424
 40
6.799993
100
AcDbArc
 50
0.0
 51
90.0
  0
LINE
  5
1E0
100
AcDbEntity
  8
M0
 62
     5
100
AcDbLine
 10
442.158328
 20
490.921424
 11
449.057986
 21
490.921424
  0
LINE
  5
1E1
100
AcDbEntity
  8
M0
 62
     5
100
AcDbLine
 10
486.158328
 20
490.921424
 11
486.158328
 21
495.920936
  0
LINE
  5
1E2
100
AcDbEntity
  8
M0
 62
     5
100
AcDbLine
 10
454.711795
 20
502.420936
 11
442.158328
 21
502.421424
  0
LINE
  5
1E3
100
AcDbEntity
  8
M0
 62
     5
100
AcDbLine
 10
442.158328
 20
502.421424
 11
442.158328
 21
490.921424
  0
LINE
  5
1E4
100
AcDbEntity
  8
M0
 62
     5
100
AcDbLine
 10
456.158328
 20
485.921424
 11
472.55823
 21
485.921424
  0
LINE
  5
1E5
100
AcDbEntity
  8
M0
 62
     5
100
AcDbLine
 10
442.158328
 20
499.421424
 11
451.858767
 21
499.421424
  0
LINE
  5
1E6
100
AcDbEntity
  8
M0
 62
     5
100
AcDbLine
 10
456.158328
 20
485.921424
 11
456.158328
 21
495.921424
  0
LINE
  5
1E7
100
AcDbEntity
  8
M0
 62
     5
100
AcDbLine
 10
456.158328
 20
495.921424
 11
474.158328
 21
495.921424
  0
LINE
  5
1E8
100
AcDbEntity
  8
M0
 62
     5
100
AcDbLine
 10
474.158328
 20
499.928016
 11
474.158328
 21
495.921424
  0
LINE
  5
1E9
100
AcDbEntity
  8
M0
 62
     5
100
AcDbLine
 10
482.158328
 20
499.928016
 11
482.158328
 21
495.921424
  0
LINE
  5
1EA
100
AcDbEntity
  8
M0
 62
     5
100
AcDbLine
 10
472.55823
 20
490.921424
 11
472.55823
 21
485.921424
  0
LINE
  5
1EB
100
AcDbEntity
  8
M0
 62
     5
100
AcDbLine
 10
472.55823
 20
490.921424
 11
486.158328
 21
490.921424
  0
LINE
  5
1EC
100
AcDbEntity
  8
M0
 62
     5
100
AcDbLine
 10
453.857791
 20
490.921424
 11
456.158328
 21
490.921424
  0
LINE
  5
1ED
100
AcDbEntity
  8
M0
 62
     5
100
AcDbLine
 10
482.158328
 20
495.921424
 11
486.158328
 21
495.921424
  0
LINE
  5
1EE
100
AcDbEntity
  8
M0
 62
     5
100
AcDbLine
 10
486.458621
 20
500.721228
 11
485.088504
 21
500.721228
  0
LINE
  5
1EF
100
AcDbEntity
  8
M0
 62
     5
100
AcDbLine
 10
456.058474
 20
500.721228
 11
455.858035
 21
500.721228
  0
LINE
  5
1F0
100
AcDbEntity
  8
M0
100
AcDbLine
 10
512.758914
 20
701.770514
 11
512.758914
 21
712.270514
  0
LINE
  5
1F1
100
AcDbEntity
  8
M0
  6
DASHDOT
100
AcDbLine
 10
504.138064
 20
707.020514
 11
541.698855
 21
707.020514
  0
LINE
  5
1F2
100
AcDbEntity
  8
M0
100
AcDbLine
 10
512.758914
 20
712.27027
 11
511.025271
 21
712.118659
  0
LINE
  5
1F3
100
AcDbEntity
  8
M0
100
AcDbLine
 10
512.758914
 20
701.77027
 11
511.025515
 21
701.922126
  0
ARC
  5
1F4
100
AcDbEntity
  8
M0
100
AcDbCircle
 10
522.858767
 20
707.020514
 40
13.999994
100
AcDbArc
 50
164.639366
 51
195.362627
  0
ARC
  5
1F5
100
AcDbEntity
  8
M0
100
AcDbCircle
 10
511.191043
 20
710.225837
 40
1.899998
100
AcDbArc
 50
95.005779
 51
164.642816
  0
ARC
  5
1F6
100
AcDbEntity
  8
M0
100
AcDbCircle
 10
511.191043
 20
703.814704
 40
1.899998
100
AcDbArc
 50
195.356697
 51
265.001281
  0
LINE
  5
1F7
100
AcDbEntity
  8
M0
100
AcDbLine
 10
514.258914
 20
701.270514
 11
514.258914
 21
712.770514
  0
LINE
  5
1F8
100
AcDbEntity
  8
M0
100
AcDbLine
 10
515.058718
 20
701.270514
 11
515.058718
 21
712.770514
  0
LINE
  5
1F9
100
AcDbEntity
  8
M0
100
AcDbLine
 10
514.258914
 20
712.770514
 11
515.058718
 21
712.770514
  0
LINE
  5
1FA
100
AcDbEntity
  8
M0
100
AcDbLine
 10
514.258914
 20
701.270514
 11
515.058718
 21
701.270514
  0
LINE
  5
1FB
100
AcDbEntity
  8
M0
100
AcDbLine
 10
512.758914
 20
712.270514
 11
514.258914
 21
712.270514
  0
LINE
  5
1FC
100
AcDbEntity
  8
M0
100
AcDbLine
 10
512.758914
 20
701.770514
 11
514.258914
 21
701.770514
  0
LINE
  5
1FD
100
AcDbEntity
  8
M0
100
AcDbLine
 10
512.758914
 20
707.92237
 11
514.258914
 21
707.52027
  0
LINE
  5
1FE
100
AcDbEntity
  8
M0
100
AcDbLine
 10
512.758914
 20
706.52027
 11
514.258914
 21
706.118415
  0
LINE
  5
1FF
100
AcDbEntity
  8
M0
100
AcDbLine
 10
508.871463
 20
707.620368
 11
510.958865
 21
707.620368
  0
LINE
  5
200
100
AcDbEntity
  8
M0
100
AcDbLine
 10
508.871463
 20
706.420417
 11
510.958865
 21
706.420417
  0
LINE
  5
201
100
AcDbEntity
  8
M0
100
AcDbLine
 10
510.958865
 20
707.620368
 11
510.958865
 21
706.420417
  0
LINE
  5
202
100
AcDbEntity
  8
M0
100
AcDbLine
 10
537.758914
 20
704.020514
 11
537.758914
 21
710.020514
  0
LINE
  5
203
100
AcDbEntity
  8
M0
100
AcDbLine
 10
534.358035
 20
710.02027
 11
537.758914
 21
710.02027
  0
LINE
  5
204
100
AcDbEntity
  8
M0
100
AcDbLine
 10
534.358035
 20
704.020514
 11
537.758914
 21
704.020514
  0
LINE
  5
205
100
AcDbEntity
  8
M0
100
AcDbLine
 10
534.358035
 20
709.52027
 11
537.758914
 21
709.52027
  0
LINE
  5
206
100
AcDbEntity
  8
M0
100
AcDbLine
 10
534.358035
 20
704.520514
 11
537.758914
 21
704.520514
  0
LINE
  5
207
100
AcDbEntity
  8
M0
100
AcDbLine
 10
512.758914
 20
571.771293
 11
512.758914
 21
582.271293
  0
LINE
  5
208
100
AcDbEntity
  8
M0
  6
DASHDOT
100
AcDbLine
 10
504.138064
 20
577.021293
 11
541.698855
 21
577.021293
  0
LINE
  5
209
100
AcDbEntity
  8
M0
100
AcDbLine
 10
512.758914
 20
582.271048
 11
511.025271
 21
582.119437
  0
LINE
  5
20A
100
AcDbEntity
  8
M0
100
AcDbLine
 10
512.758914
 20
571.771048
 11
511.025515
 21
571.922904
  0
ARC
  5
20B
100
AcDbEntity
  8
M0
100
AcDbCircle
 10
522.858767
 20
577.021293
 40
13.999994
100
AcDbArc
 50
164.639366
 51
195.362627
  0
ARC
  5
20C
100
AcDbEntity
  8
M0
100
AcDbCircle
 10
511.191043
 20
580.226615
 40
1.899998
100
AcDbArc
 50
95.005779
 51
164.642816
  0
ARC
  5
20D
100
AcDbEntity
  8
M0
100
AcDbCircle
 10
511.191043
 20
573.815482
 40
1.899998
100
AcDbArc
 50
195.356697
 51
265.001281
  0
LINE
  5
20E
100
AcDbEntity
  8
M0
100
AcDbLine
 10
514.258914
 20
571.271293
 11
514.258914
 21
582.771293
  0
LINE
  5
20F
100
AcDbEntity
  8
M0
100
AcDbLine
 10
515.058718
 20
569.021293
 11
515.058718
 21
582.771293
  0
LINE
  5
210
100
AcDbEntity
  8
M0
100
AcDbLine
 10
514.258914
 20
582.771293
 11
515.058718
 21
582.771293
  0
LINE
  5
211
100
AcDbEntity
  8
M0
100
AcDbLine
 10
514.258914
 20
571.271293
 11
515.058718
 21
571.271293
  0
LINE
  5
212
100
AcDbEntity
  8
M0
100
AcDbLine
 10
512.758914
 20
582.271293
 11
514.258914
 21
582.271293
  0
LINE
  5
213
100
AcDbEntity
  8
M0
100
AcDbLine
 10
512.758914
 20
571.771293
 11
514.258914
 21
571.771293
  0
LINE
  5
214
100
AcDbEntity
  8
M0
100
AcDbLine
 10
512.758914
 20
577.923148
 11
514.258914
 21
577.521048
  0
LINE
  5
215
100
AcDbEntity
  8
M0
100
AcDbLine
 10
512.758914
 20
576.521048
 11
514.258914
 21
576.119193
  0
LINE
  5
216
100
AcDbEntity
  8
M0
100
AcDbLine
 10
508.871463
 20
577.621146
 11
510.958865
 21
577.621146
  0
LINE
  5
217
100
AcDbEntity
  8
M0
100
AcDbLine
 10
508.871463
 20
576.421195
 11
510.958865
 21
576.421195
  0
LINE
  5
218
100
AcDbEntity
  8
M0
100
AcDbLine
 10
510.958865
 20
577.621146
 11
510.958865
 21
576.421195
  0
LINE
  5
219
100
AcDbEntity
  8
M0
100
AcDbLine
 10
537.758914
 20
574.021293
 11
537.758914
 21
580.021293
  0
LINE
  5
21A
100
AcDbEntity
  8
M0
100
AcDbLine
 10
534.358035
 20
580.021293
 11
537.758914
 21
580.021293
  0
LINE
  5
21B
100
AcDbEntity
  8
M0
100
AcDbLine
 10
534.358035
 20
574.021293
 11
537.758914
 21
574.021293
  0
LINE
  5
21C
100
AcDbEntity
  8
M0
100
AcDbLine
 10
534.358035
 20
579.521293
 11
537.758914
 21
579.521293
  0
LINE
  5
21D
100
AcDbEntity
  8
M0
100
AcDbLine
 10
534.358035
 20
574.521293
 11
537.758914
 21
574.521293
  0
LINE
  5
21E
100
AcDbEntity
  8
M0
100
AcDbLine
 10
429.058474
 20
566.821082
 11
431.058474
 21
566.821082
  0
LINE
  5
21F
100
AcDbEntity
  8
M0
100
AcDbLine
 10
431.058474
 20
566.821082
 11
431.058474
 21
582.221228
  0
LINE
  5
220
100
AcDbEntity
  8
M0
100
AcDbLine
 10
431.058474
 20
582.221228
 11
429.058474
 21
582.221228
  0
LINE
  5
221
100
AcDbEntity
  8
M0
100
AcDbLine
 10
429.058474
 20
582.221228
 11
429.058474
 21
566.821082
  0
LINE
  5
222
100
AcDbEntity
  8
M0
100
AcDbLine
 10
431.058474
 20
575.021277
 11
429.058474
 21
575.557166
  0
LINE
  5
223
100
AcDbEntity
  8
M0
100
AcDbLine
 10
429.058474
 20
574.021277
 11
431.058474
 21
573.485144
  0
LINE
  5
224
100
AcDbEntity
  8
M0
100
AcDbLine
 10
431.05823
 20
565.521033
 11
432.658084
 21
565.521033
  0
LINE
  5
225
100
AcDbEntity
  8
M0
100
AcDbLine
 10
432.658084
 20
565.521033
 11
432.658084
 21
583.521033
  0
LINE
  5
226
100
AcDbEntity
  8
M0
100
AcDbLine
 10
432.658084
 20
583.521033
 11
431.05823
 21
583.521033
  0
LINE
  5
227
100
AcDbEntity
  8
M0
100
AcDbLine
 10
431.05823
 20
583.521033
 11
431.05823
 21
565.521033
  0
LINE
  5
228
100
AcDbEntity
  8
M0
100
AcDbLine
 10
423.279422
 20
567.021277
 11
429.05823
 21
567.021277
  0
LINE
  5
229
100
AcDbEntity
  8
M0
100
AcDbLine
 10
429.05823
 20
567.021277
 11
429.05823
 21
582.021277
  0
LINE
  5
22A
100
AcDbEntity
  8
M0
100
AcDbLine
 10
429.05823
 20
582.021277
 11
423.27991
 21
582.021033
  0
LINE
  5
22B
100
AcDbEntity
  8
M0
100
AcDbLine
 10
422.55823
 20
580.771277
 11
422.55823
 21
568.271277
  0
LINE
  5
22C
100
AcDbEntity
  8
M0
100
AcDbLine
 10
423.278201
 20
578.281043
 11
429.05823
 21
578.281043
  0
LINE
  5
22D
100
AcDbEntity
  8
M0
100
AcDbLine
 10
423.278201
 20
570.761268
 11
429.05823
 21
570.761268
  0
LINE
  5
22E
100
AcDbEntity
  8
M0
100
AcDbLine
 10
422.557986
 20
580.771277
 11
423.27991
 21
582.021033
  0
LINE
  5
22F
100
AcDbEntity
  8
M0
100
AcDbLine
 10
423.279666
 20
567.021277
 11
422.557986
 21
568.271277
  0
ARC
  5
230
100
AcDbEntity
  8
M0
100
AcDbCircle
 10
432.736209
 20
574.521033
 40
10.178164
100
AcDbArc
 50
158.321506
 51
201.679581
  0
ARC
  5
231
100
AcDbEntity
  8
M0
100
AcDbCircle
 10
427.224002
 20
580.771033
 40
4.665769
100
AcDbArc
 50
179.994004
 51
212.253398
  0
ARC
  5
232
100
AcDbEntity
  8
M0
100
AcDbCircle
 10
427.224002
 20
568.271033
 40
4.665769
100
AcDbArc
 50
147.745402
 51
180.0
  0
LINE
  5
233
100
AcDbEntity
  8
M0
 62
     7
100
AcDbLine
 10
449.059853
 20
543.528791
 11
449.058733
 21
523.027326
  0
ARC
  5
234
100
AcDbEntity
  8
M0
 62
     7
100
AcDbCircle
 10
453.059838
 20
543.52879
 40
3.999987
100
AcDbArc
 50
90.0
 51
179.999982
  0
LINE
  5
235
100
AcDbEntity
  8
M0
 62
     7
100
AcDbLine
 10
458.449259
 20
499.927958
 11
482.697108
 21
499.927462
  0
LINE
  5
236
100
AcDbEntity
  8
M0
 62
     7
100
AcDbLine
 10
449.192736
 20
523.027326
 11
454.585719
 21
502.892803
  0
ARC
  5
237
100
AcDbEntity
  8
M0
 62
     7
100
AcDbCircle
 10
458.449535
 20
503.928202
 40
3.999989
100
AcDbArc
 50
194.99819
 51
269.999763
  0
LINE
  5
238
100
AcDbEntity
  8
M0
 62
     7
100
AcDbLine
 10
469.949856
 20
505.52732
 11
484.055615
 21
505.526095
  0
LINE
  5
239
100
AcDbEntity
  8
M0
 62
     7
100
AcDbLine
 10
487.055462
 20
503.526094
 11
493.055462
 21
503.525603
  0
LINE
  5
23A
100
AcDbEntity
  8
M0
 62
     7
100
AcDbLine
 10
494.055584
 20
505.525603
 11
500.298123
 21
505.525357
  0
ARC
  5
23B
100
AcDbEntity
  8
M0
 62
     7
100
AcDbCircle
 10
493.055523
 20
504.525603
 40
1.0
100
AcDbArc
 50
269.999108
 51
359.985994
  0
LINE
  5
23C
100
AcDbEntity
  8
M0
 62
     7
100
AcDbLine
 10
531.055905
 20
506.42232
 11
531.056135
 21
509.522174
  0
LINE
  5
23D
100
AcDbEntity
  8
M0
 62
     7
100
AcDbLine
 10
475.475858
 20
510.02805
 11
499.092542
 21
510.025602
  0
LINE
  5
23E
100
AcDbEntity
  8
M0
 62
     7
100
AcDbLine
 10
482.360437
 20
547.526827
 11
470.21731
 21
547.526587
  0
LINE
  5
23F
100
AcDbEntity
  8
M0
 62
     7
100
AcDbLine
 10
468.557909
 20
523.528541
 11
468.560159
 21
544.528541
  0
LINE
  5
240
100
AcDbEntity
  8
M0
  6
DASHED
 62
     7
100
AcDbLine
 10
462.05846
 20
527.779275
 11
462.059179
 21
534.279275
  0
LINE
  5
241
100
AcDbEntity
  8
M0
 62
     7
100
AcDbLine
 10
469.558153
 20
523.528296
 11
472.578322
 21
512.251928
  0
ARC
  5
242
100
AcDbEntity
  8
M0
 62
     7
100
AcDbCircle
 10
475.476332
 20
513.02805
 40
2.999989
100
AcDbArc
 50
194.993347
 51
269.990657
  0
LINE
  5
243
100
AcDbEntity
  8
M0
  6
DASHED
 62
     7
100
AcDbLine
 10
468.057909
 20
523.528541
 11
468.058415
 21
530.526344
  0
LINE
  5
244
100
AcDbEntity
  8
M0
  6
DASHED
 62
     7
100
AcDbLine
 10
468.059486
 20
538.528541
 11
468.559486
 21
538.528541
  0
LINE
  5
245
100
AcDbEntity
  8
M0
 62
     7
100
AcDbLine
 10
461.55846
 20
527.779275
 11
462.05846
 21
527.779275
  0
LINE
  5
246
100
AcDbEntity
  8
M0
 62
     7
100
AcDbLine
 10
478.757155
 20
514.027805
 11
484.057204
 21
514.027071
  0
LINE
  5
247
100
AcDbEntity
  8
M0
 62
     7
100
AcDbLine
 10
487.056822
 20
512.026582
 11
498.556807
 21
512.025602
  0
LINE
  5
248
100
AcDbEntity
  8
M0
 62
     7
100
AcDbLine
 10
501.430707
 20
507.025357
 11
505.25639
 21
507.025111
  0
LINE
  5
249
100
AcDbEntity
  8
M0
 62
     7
100
AcDbLine
 10
502.502544
 20
503.025112
 11
518.649883
 21
503.023398
  0
ARC
  5
24A
100
AcDbEntity
  8
M0
 62
     7
100
AcDbCircle
 10
482.3603
 20
545.526827
 40
1.999992
100
AcDbArc
 50
359.93004
 51
450.0
  0
LINE
  5
24B
100
AcDbEntity
  8
M0
 62
     7
100
AcDbLine
 10
520.381908
 20
504.023398
 11
523.558088
 21
509.523152
  0
ARC
  5
24C
100
AcDbEntity
  8
M0
 62
     7
100
AcDbCircle
 10
518.650051
 20
505.023642
 40
1.999992
100
AcDbArc
 50
269.999545
 51
329.985534
  0
ARC
  5
24D
100
AcDbEntity
  8
M0
 62
     7
100
AcDbCircle
 10
501.431104
 20
509.025357
 40
1.999992
100
AcDbArc
 50
194.990982
 51
269.988179
  0
LINE
  5
24E
100
AcDbEntity
  8
M0
 62
     7
100
AcDbLine
 10
508.256252
 20
505.024622
 11
519.804836
 21
505.023398
  0
ARC
  5
24F
100
AcDbEntity
  8
M0
 62
     7
100
AcDbCircle
 10
519.804974
 20
507.023398
 40
1.999992
100
AcDbArc
 50
269.999545
 51
329.99312
  0
LINE
  5
250
100
AcDbEntity
  8
M0
 62
     7
100
AcDbLine
 10
484.057204
 20
514.027071
 11
487.056822
 21
512.026582
  0
LINE
  5
251
100
AcDbEntity
  8
M0
 62
     7
100
AcDbLine
 10
523.558088
 20
509.523152
 11
531.056623
 21
509.522418
  0
LINE
  5
252
100
AcDbEntity
  8
M0
 62
     7
100
AcDbLine
 10
505.25639
 20
507.025111
 11
508.256252
 21
505.024622
  0
LINE
  5
253
100
AcDbEntity
  8
M0
 62
     7
100
AcDbLine
 10
498.556776
 20
512.025358
 11
500.570812
 21
504.507535
  0
LINE
  5
254
100
AcDbEntity
  8
M0
 62
     7
100
AcDbLine
 10
484.056181
 20
510.026583
 11
484.055615
 21
505.526583
  0
LINE
  5
255
100
AcDbEntity
  8
M0
 62
     7
100
AcDbLine
 10
484.055615
 20
505.526583
 11
487.055462
 21
503.526338
  0
LINE
  5
256
100
AcDbEntity
  8
M0
 62
     7
100
AcDbLine
 10
494.055844
 20
505.525847
 11
494.055767
 21
504.525847
  0
LINE
  5
257
100
AcDbEntity
  8
M0
 62
     7
100
AcDbLine
 10
532.055173
 20
506.422076
 11
532.058957
 21
554.92232
  0
LINE
  5
258
100
AcDbEntity
  8
M0
 62
     7
100
AcDbLine
 10
531.055417
 20
506.42232
 11
532.054928
 21
506.422076
  0
LINE
  5
259
100
AcDbEntity
  8
M0
 62
     7
100
AcDbLine
 10
460.559915
 20
544.526834
 11
456.059426
 21
544.52708
  0
LINE
  5
25A
100
AcDbEntity
  8
M0
 62
     7
100
AcDbLine
 10
499.799768
 20
546.523404
 11
499.799707
 21
545.523648
  0
LINE
  5
25B
100
AcDbEntity
  8
M0
  6
DASHED
 62
     7
100
AcDbLine
 10
462.06151
 20
522.728006
 11
466.06151
 21
522.727516
  0
LINE
  5
25C
100
AcDbEntity
  8
M0
  6
DASHED
 62
     7
100
AcDbLine
 10
466.06151
 20
522.727516
 11
466.062721
 21
539.32737
  0
LINE
  5
25D
100
AcDbEntity
  8
M0
  6
DASHED
 62
     7
100
AcDbLine
 10
466.062721
 20
539.32737
 11
462.062721
 21
539.327859
  0
LINE
  5
25E
100
AcDbEntity
  8
M0
  6
DASHED
 62
     7
100
AcDbLine
 10
462.062721
 20
539.327859
 11
462.06151
 21
522.728006
  0
LINE
  5
25F
100
AcDbEntity
  8
M0
  6
DASHED
 62
     7
100
AcDbLine
 10
466.061602
 20
524.027321
 11
468.061602
 21
524.02732
  0
LINE
  5
260
100
AcDbEntity
  8
M0
  6
DASHED
 62
     7
100
AcDbLine
 10
468.062613
 20
538.02732
 11
466.062613
 21
538.027321
  0
LINE
  5
261
100
AcDbEntity
  8
M0
 62
     7
100
AcDbLine
 10
459.061634
 20
527.777811
 11
460.558704
 21
527.777811
  0
LINE
  5
262
100
AcDbEntity
  8
M0
  6
DASHED
 62
     7
100
AcDbLine
 10
462.062353
 20
534.27781
 11
460.559179
 21
534.277811
  0
ARC
  5
263
100
AcDbEntity
  8
M0
 62
     7
100
AcDbCircle
 10
459.062063
 20
533.777323
 40
0.5
100
AcDbArc
 50
90.0
 51
179.972006
  0
ARC
  5
264
100
AcDbEntity
  8
M0
 62
     7
100
AcDbCircle
 10
459.061664
 20
528.277811
 40
0.5
100
AcDbArc
 50
179.972006
 51
269.998233
  0
LINE
  5
265
100
AcDbEntity
  8
M0
  6
DASHDOT
 62
     7
100
AcDbLine
 10
453.620213
 20
531.028057
 11
471.439793
 21
531.026831
  0
LINE
  5
266
100
AcDbEntity
  8
M0
 62
     7
100
AcDbLine
 10
458.562307
 20
533.777567
 11
458.561908
 21
528.278056
  0
LINE
  5
267
100
AcDbEntity
  8
M0
 62
     7
100
AcDbLine
 10
531.058957
 20
554.92232
 11
532.058468
 21
554.92232
  0
LINE
  5
268
100
AcDbEntity
  8
M0
 62
     7
100
AcDbLine
 10
530.055753
 20
507.522418
 11
531.055753
 21
507.522418
  0
LINE
  5
269
100
AcDbEntity
  8
M0
 62
     7
100
AcDbLine
 10
457.058078
 20
526.02708
 11
457.059243
 21
542.02708
  0
LINE
  5
26A
100
AcDbEntity
  8
M0
 62
     7
100
AcDbLine
 10
456.057894
 20
523.529277
 11
456.058016
 21
525.02708
  0
LINE
  5
26B
100
AcDbEntity
  8
M0
 62
     7
100
AcDbLine
 10
456.059319
 20
543.02708
 11
456.059426
 21
544.529277
  0
ARC
  5
26C
100
AcDbEntity
  8
M0
 62
     7
100
AcDbCircle
 10
457.059319
 20
543.02708
 40
1.0
100
AcDbArc
 50
179.999982
 51
269.999108
  0
LINE
  5
26D
100
AcDbEntity
  8
M0
  6
DASHED
 62
     7
100
AcDbLine
 10
460.558704
 20
527.777811
 11
462.061878
 21
527.77781
  0
LINE
  5
26E
100
AcDbEntity
  8
M0
 62
     7
100
AcDbLine
 10
460.559179
 20
534.277811
 11
459.062109
 21
534.277811
  0
LINE
  5
26F
100
AcDbEntity
  8
M0
 62
     7
100
AcDbLine
 10
468.058415
 20
530.526344
 11
468.058921
 21
537.526344
  0
LINE
  5
270
100
AcDbEntity
  8
M0
  6
DASHED
 62
     7
100
AcDbLine
 10
468.058921
 20
537.526344
 11
468.059486
 21
538.528541
  0
LINE
  5
271
100
AcDbEntity
  8
M0
 62
     7
100
AcDbLine
 10
475.757385
 20
517.027806
 11
475.757845
 21
523.525609
  0
ARC
  5
272
100
AcDbEntity
  8
M0
 62
     7
100
AcDbCircle
 10
478.757385
 20
517.027805
 40
2.999989
100
AcDbArc
 50
179.999982
 51
269.999691
  0
LINE
  5
273
100
AcDbEntity
  8
M0
100
AcDbLine
 10
472.258257
 20
522.326147
 11
472.258349
 21
523.526098
  0
LINE
  5
274
100
AcDbEntity
  8
M0
100
AcDbLine
 10
472.259958
 20
545.726049
 11
456.760202
 21
545.727275
  0
LINE
  5
275
100
AcDbEntity
  8
M0
100
AcDbLine
 10
456.760202
 20
545.727275
 11
456.76011
 21
544.52708
  0
LINE
  5
276
100
AcDbEntity
  8
M0
100
AcDbLine
 10
456.758257
 20
522.327128
 11
472.258257
 21
522.326147
  0
LINE
  5
277
100
AcDbEntity
  8
M0
100
AcDbLine
 10
456.05765
 20
523.52708
 11
460.558153
 21
523.526834
  0
LINE
  5
278
100
AcDbEntity
  8
M0
100
AcDbLine
 10
529.559167
 20
544.521686
 11
468.559671
 21
544.526344
  0
LINE
  5
279
100
AcDbEntity
  8
M0
100
AcDbLine
 10
468.558397
 20
523.526344
 11
468.558903
 21
530.526344
  0
LINE
  5
27A
100
AcDbEntity
  8
M0
100
AcDbLine
 10
467.058903
 20
530.526344
 11
467.059409
 21
537.526344
  0
LINE
  5
27B
100
AcDbEntity
  8
M0
100
AcDbLine
 10
467.059409
 20
537.526344
 11
468.559409
 21
537.526344
  0
LINE
  5
27C
100
AcDbEntity
  8
M0
100
AcDbLine
 10
467.058903
 20
530.526344
 11
468.558903
 21
530.526344
  0
LINE
  5
27D
100
AcDbEntity
  8
M0
100
AcDbLine
 10
472.259637
 20
544.52561
 11
472.259698
 21
545.725805
  0
LINE
  5
27E
100
AcDbEntity
  8
M0
100
AcDbLine
 10
468.559409
 20
537.526344
 11
468.559915
 21
544.526344
  0
LINE
  5
27F
100
AcDbEntity
  8
M0
100
AcDbLine
 10
456.758333
 20
523.52708
 11
456.758257
 21
522.327128
  0
LINE
  5
280
100
AcDbEntity
  8
M0
  6
DASHED
100
AcDbLine
 10
468.057421
 20
523.526344
 11
468.557665
 21
523.526344
  0
LINE
  5
281
100
AcDbEntity
  8
M0
100
AcDbLine
 10
460.559915
 20
544.526834
 11
456.76011
 21
544.52708
  0
LINE
  5
282
100
AcDbEntity
  8
M0
100
AcDbLine
 10
469.258165
 20
521.026099
 11
469.258257
 21
522.326148
  0
LINE
  5
283
100
AcDbEntity
  8
M0
100
AcDbLine
 10
460.558214
 20
521.026834
 11
460.560007
 21
545.72703
  0
LINE
  5
284
100
AcDbEntity
  8
M0
100
AcDbLine
 10
460.558214
 20
521.026834
 11
469.258165
 21
521.026099
  0
LINE
  5
285
100
AcDbEntity
  8
M0
100
AcDbLine
 10
449.058826
 20
526.02757
 11
460.558337
 21
526.02659
  0
LINE
  5
286
100
AcDbEntity
  8
M0
100
AcDbLine
 10
457.059243
 20
542.02708
 11
460.559731
 21
542.026834
  0
ARC
  5
287
100
AcDbEntity
  8
M0
100
AcDbCircle
 10
457.058016
 20
525.02708
 40
1.0
100
AcDbArc
 50
90.0
 51
179.999982
  0
LINE
  5
288
100
AcDbEntity
  8
M0
100
AcDbLine
 10
468.557421
 20
523.526344
 11
475.757601
 21
523.525609
  0
LINE
  5
289
100
AcDbEntity
  8
M0
 62
     7
100
AcDbLine
 10
529.559503
 20
545.52193
 11
529.559396
 21
544.521442
  0
LINE
  5
28A
100
AcDbEntity
  8
M0
  6
DASHDOT
100
AcDbLine
 10
524.121333
 20
550.022908
 11
540.060054
 21
550.021682
  0
LINE
  5
28B
100
AcDbEntity
  8
M0
100
AcDbLine
 10
534.358303
 20
552.022172
 11
536.060207
 21
552.022172
  0
LINE
  5
28C
100
AcDbEntity
  8
M0
100
AcDbLine
 10
534.358011
 20
548.022172
 11
536.059916
 21
548.022172
  0
LINE
  5
28D
100
AcDbEntity
  8
M0
100
AcDbLine
 10
534.358272
 20
551.522172
 11
536.060176
 21
551.522172
  0
LINE
  5
28E
100
AcDbEntity
  8
M0
100
AcDbLine
 10
534.358042
 20
548.522172
 11
536.059946
 21
548.522172
  0
LINE
  5
28F
100
AcDbEntity
  8
M0
100
AcDbLine
 10
536.060207
 20
552.022172
 11
536.059916
 21
548.022172
  0
LINE
  5
290
100
AcDbEntity
  8
M0
 62
     7
100
AcDbLine
 10
530.055997
 20
507.522418
 11
531.055997
 21
507.522418
  0
LINE
  5
291
100
AcDbEntity
  8
M0
100
AcDbLine
 10
530.055997
 20
507.522418
 11
530.056135
 21
509.522662
  0
LINE
  5
292
100
AcDbEntity
  8
M0
  6
DASHDOT
100
AcDbLine
 10
525.53256
 20
511.022908
 11
540.056242
 21
511.021682
  0
LINE
  5
293
100
AcDbEntity
  8
M0
100
AcDbLine
 10
530.055997
 20
507.522174
 11
528.936368
 21
507.620319
  0
ARC
  5
294
100
AcDbEntity
  8
M0
100
AcDbCircle
 10
529.049985
 20
508.915485
 40
1.299992
100
AcDbArc
 50
220.171064
 51
264.98661
  0
LINE
  5
295
100
AcDbEntity
  8
M0
100
AcDbLine
 10
530.055997
 20
507.522418
 11
530.057462
 21
507.522418
  0
LINE
  5
296
100
AcDbEntity
  8
M0
100
AcDbLine
 10
534.355468
 20
513.022172
 11
536.056395
 21
513.022172
  0
LINE
  5
297
100
AcDbEntity
  8
M0
100
AcDbLine
 10
534.355176
 20
509.022172
 11
536.056104
 21
509.022172
  0
LINE
  5
298
100
AcDbEntity
  8
M0
100
AcDbLine
 10
534.355422
 20
512.522172
 11
536.056349
 21
512.522172
  0
LINE
  5
299
100
AcDbEntity
  8
M0
100
AcDbLine
 10
534.355207
 20
509.522172
 11
536.056135
 21
509.522172
  0
LINE
  5
29A
100
AcDbEntity
  8
M0
100
AcDbLine
 10
536.056395
 20
513.022172
 11
536.056104
 21
509.022172
  0
LINE
  5
29B
100
AcDbEntity
  8
M0
100
AcDbLine
 10
472.259698
 20
545.525366
 11
530.558267
 21
545.52193
  0
LINE
  5
29C
100
AcDbEntity
  8
M0
100
AcDbLine
 10
529.559472
 20
545.4211
 11
530.058267
 21
545.4211
  0
ARC
  5
29D
100
AcDbEntity
  8
M0
 62
     7
100
AcDbCircle
 10
530.058206
 20
544.4211
 40
1.0
100
AcDbArc
 50
359.985994
 51
450.0
  0
ARC
  5
29E
100
AcDbEntity
  8
M0
 62
     7
100
AcDbCircle
 10
530.558236
 20
545.02193
 40
0.5
100
AcDbArc
 50
359.972005
 51
450.0
  0
ARC
  5
29F
100
AcDbEntity
  8
M0
 62
     7
100
AcDbCircle
 10
502.502667
 20
505.025112
 40
2.0
100
AcDbArc
 50
195.004946
 51
269.999545
  0
LINE
  5
2A0
100
AcDbEntity
  8
M0
100
AcDbLine
 10
449.058703
 20
523.027326
 11
452.056185
 21
523.027325
  0
LINE
  5
2A1
100
AcDbEntity
  8
M0
100
AcDbLine
 10
463.657106
 20
520.423074
 11
460.056733
 21
520.423075
  0
LINE
  5
2A2
100
AcDbEntity
  8
M0
100
AcDbLine
 10
460.056918
 20
524.526834
 11
468.558016
 21
524.526588
  0
LINE
  5
2A3
100
AcDbEntity
  8
M0
100
AcDbLine
 10
463.49553
 20
521.026345
 11
467.052182
 21
507.750953
  0
LINE
  5
2A4
100
AcDbEntity
  8
M0
100
AcDbLine
 10
460.056581
 20
520.423807
 11
464.148159
 21
505.151101
  0
ARC
  5
2A5
100
AcDbEntity
  8
M0
100
AcDbCircle
 10
469.949964
 20
508.52732
 40
2.999996
100
AcDbArc
 50
195.002656
 51
269.999691
  0
LINE
  5
2A6
100
AcDbEntity
  8
M0
 62
     7
100
AcDbLine
 10
467.045925
 20
502.927467
 11
482.768215
 21
502.927218
  0
LINE
  5
2A7
100
AcDbEntity
  8
M0
100
AcDbLine
 10
486.780025
 20
503.709932
 11
486.560832
 21
502.892061
  0
ARC
  5
2A8
100
AcDbEntity
  8
M0
 62
     7
100
AcDbCircle
 10
482.697185
 20
503.927462
 40
3.999996
100
AcDbArc
 50
269.999763
 51
344.994735
  0
ARC
  5
2A9
100
AcDbEntity
  8
M0
100
AcDbCircle
 10
467.045971
 20
505.927467
 40
2.999996
100
AcDbArc
 50
194.998153
 51
269.999691
  0
ARC
  5
2AA
100
AcDbEntity
  8
M0
 62
     7
100
AcDbCircle
 10
482.768277
 20
505.927218
 40
2.999996
100
AcDbArc
 50
269.999691
 51
333.594056
  0
LINE
  5
2AB
100
AcDbEntity
  8
M0
 62
     7
100
AcDbLine
 10
467.429455
 20
505.427467
 11
482.768276
 21
505.426974
  0
LINE
  5
2AC
100
AcDbEntity
  8
M0
100
AcDbLine
 10
462.644807
 20
520.42283
 11
466.463589
 21
506.168678
  0
ARC
  5
2AD
100
AcDbEntity
  8
M0
100
AcDbCircle
 10
467.429455
 20
506.427467
 40
1.0
100
AcDbArc
 50
195.011588
 51
269.999108
  0
LINE
  5
2AE
100
AcDbEntity
  8
M0
 62
     7
100
AcDbLine
 10
452.05617
 20
523.027325
 11
452.05617
 21
526.027325
  0
LINE
  5
2AF
100
AcDbEntity
  8
M0
 62
     7
100
AcDbLine
 10
451.256228
 20
523.027081
 11
451.256228
 21
526.027326
  0
LINE
  5
2B0
100
AcDbEntity
  8
M0
 62
     7
100
AcDbLine
 10
450.05617
 20
523.027082
 11
450.05617
 21
526.027082
  0
LINE
  5
2B1
100
AcDbEntity
  8
M0
100
AcDbLine
 10
460.056596
 20
520.423563
 11
452.056185
 21
523.027081
  0
LINE
  5
2B2
100
AcDbEntity
  8
M0
 62
     7
100
AcDbLine
 10
466.903086
 20
547.526832
 11
453.060099
 21
547.528546
  0
LINE
  5
2B3
100
AcDbEntity
  8
M0
 62
     7
100
AcDbLine
 10
531.056135
 20
509.522174
 11
531.059885
 21
547.521929
  0
LINE
  5
2B4
100
AcDbEntity
  8
M0
 62
     7
100
AcDbLine
 10
531.059885
 20
547.521685
 11
531.060421
 21
554.92232
  0
LINE
  5
2B5
100
AcDbEntity
  8
M0
 62
     7
100
AcDbLine
 10
530.059809
 20
546.522418
 11
531.059809
 21
546.522418
  0
LINE
  5
2B6
100
AcDbEntity
  8
M0
100
AcDbLine
 10
530.059809
 20
546.522418
 11
530.060314
 21
553.522418
  0
LINE
  5
2B7
100
AcDbEntity
  8
M0
100
AcDbLine
 10
530.060314
 20
553.522174
 11
528.940685
 21
553.424274
  0
LINE
  5
2B8
100
AcDbEntity
  8
M0
100
AcDbLine
 10
530.059809
 20
546.522174
 11
528.94018
 21
546.620319
  0
LINE
  5
2B9
100
AcDbEntity
  8
M0
100
AcDbLine
 10
527.460246
 20
550.522663
 11
528.859904
 21
550.522662
  0
LINE
  5
2BA
100
AcDbEntity
  8
M0
100
AcDbLine
 10
527.46017
 20
549.522663
 11
528.859828
 21
549.522662
  0
ARC
  5
2BB
100
AcDbEntity
  8
M0
100
AcDbCircle
 10
536.4602
 20
550.021928
 40
8.999985
100
AcDbArc
 50
164.119622
 51
176.812123
  0
ARC
  5
2BC
100
AcDbEntity
  8
M0
100
AcDbCircle
 10
529.054103
 20
552.129352
 40
1.29999
100
AcDbArc
 50
95.006255
 51
164.141424
  0
ARC
  5
2BD
100
AcDbEntity
  8
M0
100
AcDbCircle
 10
529.053797
 20
547.915485
 40
1.29999
100
AcDbArc
 50
195.891061
 51
264.98661
  0
ARC
  5
2BE
100
AcDbEntity
  8
M0
100
AcDbCircle
 10
536.4602
 20
550.021928
 40
8.999985
100
AcDbArc
 50
183.180055
 51
195.878555
  0
LINE
  5
2BF
100
AcDbEntity
  8
M0
100
AcDbLine
 10
531.059809
 20
546.522418
 11
531.060314
 21
553.522418
  0
LINE
  5
2C0
100
AcDbEntity
  8
M0
100
AcDbLine
 10
530.060314
 20
553.522418
 11
531.060314
 21
553.522418
  0
LINE
  5
2C1
100
AcDbEntity
  8
M0
100
AcDbLine
 10
530.059809
 20
546.522418
 11
530.061273
 21
546.522418
  0
LINE
  5
2C2
100
AcDbEntity
  8
M0
100
AcDbLine
 10
531.060084
 20
550.272418
 11
530.060115
 21
550.849566
  0
LINE
  5
2C3
100
AcDbEntity
  8
M0
100
AcDbLine
 10
530.060038
 20
549.772418
 11
531.059992
 21
549.195025
  0
LINE
  5
2C4
100
AcDbEntity
  8
M0
100
AcDbLine
 10
528.859904
 20
550.522662
 11
528.859828
 21
549.522662
  0
LINE
  5
2C5
100
AcDbEntity
  8
M0
100
AcDbLine
 10
499.799783
 20
546.523404
 11
529.559519
 21
546.521442
  0
ARC
  5
2C6
100
AcDbEntity
  8
M0
 62
     7
100
AcDbCircle
 10
530.557443
 20
545.021197
 40
1.5
100
AcDbArc
 50
70.491856
 51
90.0
  0
LINE
  5
2C7
100
AcDbEntity
  8
M0
 62
     7
100
AcDbLine
 10
530.056134
 20
507.522418
 11
531.056134
 21
507.522418
  0
LINE
  5
2C8
100
AcDbEntity
  8
M0
100
AcDbLine
 10
530.056134
 20
507.522418
 11
530.056135
 21
509.52315
  0
LINE
  5
2C9
100
AcDbEntity
  8
M0
100
AcDbLine
 10
530.056134
 20
507.522174
 11
528.936505
 21
507.620319
  0
ARC
  5
2CA
100
AcDbEntity
  8
M0
100
AcDbCircle
 10
529.050123
 20
508.915485
 40
1.29999
100
AcDbArc
 50
195.891061
 51
264.98661
  0
ARC
  5
2CB
100
AcDbEntity
  8
M0
100
AcDbCircle
 10
536.456526
 20
511.021928
 40
8.999985
100
AcDbArc
 50
189.586182
 51
195.878555
  0
LINE
  5
2CC
100
AcDbEntity
  8
M0
100
AcDbLine
 10
531.056134
 20
507.522418
 11
531.05664
 21
514.522418
  0
LINE
  5
2CD
100
AcDbEntity
  8
M0
100
AcDbLine
 10
530.056134
 20
507.522418
 11
530.057599
 21
507.522418
  0
LINE
  5
2CE
100
AcDbEntity
  8
M0
100
AcDbLine
 10
465.810159
 20
545.726051
 11
471.310159
 21
545.72605
  0
LINE
  5
2CF
100
AcDbEntity
  8
M0
  6
DASHDOT
100
AcDbLine
 10
468.560158
 20
541.737037
 11
468.560161
 21
551.816138
  0
LINE
  5
2D0
100
AcDbEntity
  8
M0
100
AcDbLine
 10
465.809915
 20
545.726051
 11
465.88389
 21
546.572975
  0
LINE
  5
2D1
100
AcDbEntity
  8
M0
100
AcDbLine
 10
471.309915
 20
545.72605
 11
471.235941
 21
546.572974
  0
ARC
  5
2D2
100
AcDbEntity
  8
M0
100
AcDbCircle
 10
468.560158
 20
540.725806
 40
6.999995
100
AcDbArc
 50
73.746332
 51
106.263624
  0
ARC
  5
2D3
100
AcDbEntity
  8
M0
100
AcDbCircle
 10
470.239603
 20
546.48606
 40
1.0
100
AcDbArc
 50
4.972146
 51
73.75013
  0
ARC
  5
2D4
100
AcDbEntity
  8
M0
100
AcDbCircle
 10
466.879984
 20
546.485817
 40
1.0
100
AcDbArc
 50
106.275577
 51
174.999871
  0
LINE
  5
2D5
100
AcDbEntity
  8
M0
100
AcDbLine
 10
513.306101
 20
547.723595
 11
518.806101
 21
547.723593
  0
LINE
  5
2D6
100
AcDbEntity
  8
M0
  6
DASHDOT
100
AcDbLine
 10
516.056099
 20
541.41085
 11
516.056102
 21
552.251426
  0
LINE
  5
2D7
100
AcDbEntity
  8
M0
100
AcDbLine
 10
513.305857
 20
547.723595
 11
513.379832
 21
548.570519
  0
LINE
  5
2D8
100
AcDbEntity
  8
M0
100
AcDbLine
 10
518.805857
 20
547.723593
 11
518.731883
 21
548.570517
  0
ARC
  5
2D9
100
AcDbEntity
  8
M0
100
AcDbCircle
 10
516.056099
 20
542.72335
 40
6.999995
100
AcDbArc
 50
73.746332
 51
106.263624
  0
ARC
  5
2DA
100
AcDbEntity
  8
M0
100
AcDbCircle
 10
517.735545
 20
548.483603
 40
1.0
100
AcDbArc
 50
4.972146
 51
73.75013
  0
ARC
  5
2DB
100
AcDbEntity
  8
M0
100
AcDbCircle
 10
514.375925
 20
548.48336
 40
1.0
100
AcDbArc
 50
106.275577
 51
174.999871
  0
LINE
  5
2DC
100
AcDbEntity
  8
M0
100
AcDbLine
 10
513.056101
 20
547.0234
 11
519.056101
 21
547.023398
  0
LINE
  5
2DD
100
AcDbEntity
  8
M0
100
AcDbLine
 10
513.056101
 20
546.5234
 11
519.056101
 21
546.523398
  0
LINE
  5
2DE
100
AcDbEntity
  8
M0
100
AcDbLine
 10
519.056101
 20
547.023398
 11
519.056101
 21
546.523398
  0
LINE
  5
2DF
100
AcDbEntity
  8
M0
100
AcDbLine
 10
513.056101
 20
547.0234
 11
513.056101
 21
546.5234
  0
LINE
  5
2E0
100
AcDbEntity
  8
M0
100
AcDbLine
 10
513.306101
 20
547.723595
 11
513.306101
 21
547.0234
  0
LINE
  5
2E1
100
AcDbEntity
  8
M0
100
AcDbLine
 10
518.806101
 20
547.723593
 11
518.806101
 21
547.023398
  0
LINE
  5
2E2
100
AcDbEntity
  8
M0
 62
     7
100
AcDbLine
 10
139.608432
 20
586.52172
 11
143.932299
 21
586.52172
  0
LINE
  5
2E3
100
AcDbEntity
  8
M0
 62
     7
100
AcDbLine
 10
226.13219
 20
596.021689
 11
226.13219
 21
697.021415
  0
LINE
  5
2E4
100
AcDbEntity
  8
M0
 62
     7
100
AcDbLine
 10
106.132205
 20
703.52117
 11
106.132205
 21
596.021705
  0
LINE
  5
2E5
100
AcDbEntity
  8
M0
 62
     7
100
AcDbLine
 10
139.608767
 20
697.521659
 11
143.932299
 21
697.521659
  0
LINE
  5
2E6
100
AcDbEntity
  8
M0
 62
     7
100
AcDbLine
 10
224.13219
 20
699.021659
 11
213.373538
 21
699.021415
  0
LINE
  5
2E7
100
AcDbEntity
  8
M0
 62
     7
100
AcDbLine
 10
181.13219
 20
716.02117
 11
181.13219
 21
705.521415
  0
LINE
  5
2E8
100
AcDbEntity
  8
M0
 62
     7
100
AcDbLine
 10
151.132191
 20
716.02117
 11
151.132191
 21
705.521415
  0
ARC
  5
2E9
100
AcDbEntity
  8
M0
 62
     7
100
AcDbCircle
 10
224.13219
 20
697.021415
 40
2.0
100
AcDbArc
 50
0.0
 51
90.0
  0
LINE
  5
2EA
100
AcDbEntity
  8
M0
 62
     7
100
AcDbLine
 10
213.63219
 20
588.521705
 11
213.63219
 21
617.021705
  0
LINE
  5
2EB
100
AcDbEntity
  8
M0
 62
     7
100
AcDbLine
 10
118.63219
 20
588.52172
 11
118.63219
 21
617.02172
  0
ARC
  5
2EC
100
AcDbEntity
  8
M0
 62
     7
100
AcDbCircle
 10
211.63219
 20
695.521659
 40
2.0
100
AcDbArc
 50
0.0
 51
80.219747
  0
ARC
  5
2ED
100
AcDbEntity
  8
M0
 62
     7
100
AcDbCircle
 10
120.632205
 20
695.521659
 40
2.0
100
AcDbArc
 50
99.781115
 51
180.0
  0
ARC
  5
2EE
100
AcDbEntity
  8
M0
 62
     7
100
AcDbCircle
 10
120.632205
 20
588.52172
 40
2.0
100
AcDbArc
 50
179.999563
 51
260.210478
  0
ARC
  5
2EF
100
AcDbEntity
  8
M0
 62
     7
100
AcDbCircle
 10
211.63219
 20
588.52172
 40
2.0
100
AcDbArc
 50
279.786863
 51
360.0
  0
LINE
  5
2F0
100
AcDbEntity
  8
M0
 62
     7
100
AcDbLine
 10
224.13219
 20
594.02172
 11
214.63219
 21
594.021705
  0
ARC
  5
2F1
100
AcDbEntity
  8
M0
 62
     7
100
AcDbCircle
 10
108.132205
 20
596.021705
 40
2.0
100
AcDbArc
 50
179.999563
 51
270.0
  0
ARC
  5
2F2
100
AcDbEntity
  8
M0
 62
     7
100
AcDbCircle
 10
224.13219
 20
596.021705
 40
2.0
100
AcDbArc
 50
269.999563
 51
360.0
  0
LINE
  5
2F3
100
AcDbEntity
  8
M0
 62
     7
100
AcDbLine
 10
117.632205
 20
594.021705
 11
108.132205
 21
594.021705
  0
ARC
  5
2F4
100
AcDbEntity
  8
M0
 62
     7
100
AcDbCircle
 10
117.632205
 20
593.021689
 40
1.0
100
AcDbArc
 50
0.0
 51
89.999126
  0
ARC
  5
2F5
100
AcDbEntity
  8
M0
 62
     7
100
AcDbCircle
 10
214.63219
 20
593.021705
 40
1.0
100
AcDbArc
 50
90.0
 51
179.999126
  0
LINE
  5
2F6
100
AcDbEntity
  8
M0
 62
     7
100
AcDbLine
 10
173.63219
 20
594.02172
 11
173.63219
 21
595.522193
  0
LINE
  5
2F7
100
AcDbEntity
  8
M0
 62
     7
100
AcDbLine
 10
158.632191
 20
594.02172
 11
158.632191
 21
595.522208
  0
LINE
  5
2F8
100
AcDbEntity
  8
M0
 62
     7
100
AcDbLine
 10
127.932208
 20
596.521705
 11
121.132205
 21
596.521689
  0
LINE
  5
2F9
100
AcDbEntity
  8
M0
 62
     7
100
AcDbLine
 10
106.132205
 20
614.521705
 11
109.632205
 21
614.521705
  0
LINE
  5
2FA
100
AcDbEntity
  8
M0
 62
     7
100
AcDbLine
 10
114.132205
 20
644.77172
 11
114.132205
 21
639.27172
  0
LINE
  5
2FB
100
AcDbEntity
  8
M0
 62
     7
100
AcDbLine
 10
106.132205
 20
645.77172
 11
113.132205
 21
645.77172
  0
LINE
  5
2FC
100
AcDbEntity
  8
M0
 62
     7
100
AcDbLine
 10
106.132205
 20
638.27172
 11
113.132205
 21
638.27172
  0
ARC
  5
2FD
100
AcDbEntity
  8
M0
 62
     7
100
AcDbCircle
 10
113.132205
 20
639.27172
 40
1.0
100
AcDbArc
 50
270.0
 51
360.0
  0
ARC
  5
2FE
100
AcDbEntity
  8
M0
 62
     7
100
AcDbCircle
 10
113.132205
 20
644.77172
 40
1.0
100
AcDbArc
 50
0.0
 51
89.999126
  0
LINE
  5
2FF
100
AcDbEntity
  8
M0
 62
     7
100
AcDbLine
 10
106.632205
 20
644.77172
 11
110.132205
 21
644.77172
  0
LINE
  5
300
100
AcDbEntity
  8
M0
 62
     7
100
AcDbLine
 10
106.632205
 20
639.27172
 11
110.132205
 21
639.27172
  0
LINE
  5
301
100
AcDbEntity
  8
M0
 62
     7
100
AcDbLine
 10
110.132205
 20
645.77172
 11
110.132205
 21
644.77172
  0
LINE
  5
302
100
AcDbEntity
  8
M0
 62
     7
100
AcDbLine
 10
110.132205
 20
639.27172
 11
110.132205
 21
638.27172
  0
LINE
  5
303
100
AcDbEntity
  8
M0
 62
     7
100
AcDbLine
 10
106.632205
 20
645.77172
 11
106.632205
 21
644.77172
  0
LINE
  5
304
100
AcDbEntity
  8
M0
 62
     7
100
AcDbLine
 10
106.632205
 20
639.27172
 11
106.632205
 21
638.27172
  0
LINE
  5
305
100
AcDbEntity
  8
M0
 62
     7
100
AcDbLine
 10
106.632205
 20
659.521659
 11
109.632205
 21
659.521659
  0
LINE
  5
306
100
AcDbEntity
  8
M0
 62
     7
100
AcDbLine
 10
106.632205
 20
624.52172
 11
109.632205
 21
624.52172
  0
ARC
  5
307
100
AcDbEntity
  8
M0
 62
     7
100
AcDbCircle
 10
106.632205
 20
625.02172
 40
0.5
100
AcDbArc
 50
179.998251
 51
270.0
  0
ARC
  5
308
100
AcDbEntity
  8
M0
 62
     7
100
AcDbCircle
 10
106.632205
 20
659.021659
 40
0.5
100
AcDbArc
 50
89.998251
 51
180.0
  0
LINE
  5
309
100
AcDbEntity
  8
M0
 62
     7
100
AcDbLine
 10
106.632205
 20
669.521659
 11
109.632205
 21
669.521659
  0
LINE
  5
30A
100
AcDbEntity
  8
M0
 62
     7
100
AcDbLine
 10
106.132205
 20
612.021705
 11
116.63219
 21
612.021705
  0
ARC
  5
30B
100
AcDbEntity
  8
M0
 62
     7
100
AcDbCircle
 10
116.63219
 20
610.021705
 40
2.0
100
AcDbArc
 50
0.0
 51
89.999563
  0
LINE
  5
30C
100
AcDbEntity
  8
M0
 62
     7
100
AcDbLine
 10
110.132205
 20
615.021705
 11
110.132205
 21
635.321769
  0
LINE
  5
30D
100
AcDbEntity
  8
M0
 62
     7
100
AcDbLine
 10
118.132205
 20
648.72161
 11
118.132205
 21
666.521659
  0
ARC
  5
30E
100
AcDbEntity
  8
M0
 62
     7
100
AcDbCircle
 10
109.632205
 20
669.021659
 40
0.5
100
AcDbArc
 50
0.0
 51
89.998251
  0
ARC
  5
30F
100
AcDbEntity
  8
M0
 62
     7
100
AcDbCircle
 10
106.632205
 20
669.021659
 40
0.5
100
AcDbArc
 50
89.998251
 51
180.0
  0
ARC
  5
310
100
AcDbEntity
  8
M0
 62
     7
100
AcDbCircle
 10
109.632205
 20
659.021659
 40
0.5
100
AcDbArc
 50
0.0
 51
89.998251
  0
ARC
  5
311
100
AcDbEntity
  8
M0
 62
     7
100
AcDbCircle
 10
109.632205
 20
625.02172
 40
0.5
100
AcDbArc
 50
270.0
 51
360.0
  0
ARC
  5
312
100
AcDbEntity
  8
M0
 62
     7
100
AcDbCircle
 10
109.632205
 20
615.021705
 40
0.5
100
AcDbArc
 50
270.0
 51
360.0
  0
LINE
  5
313
100
AcDbEntity
  8
M0
 62
     7
100
AcDbLine
 10
110.132205
 20
667.021659
 11
118.632296
 21
667.021659
  0
LINE
  5
314
100
AcDbEntity
  8
M0
 62
     7
100
AcDbLine
 10
110.132205
 20
617.02172
 11
118.63219
 21
617.02172
  0
LINE
  5
315
100
AcDbEntity
  8
M0
 62
     7
100
AcDbLine
 10
118.63219
 20
667.021659
 11
118.632205
 21
695.521659
  0
LINE
  5
316
100
AcDbEntity
  8
M0
 62
     7
100
AcDbLine
 10
110.132205
 20
656.521659
 11
110.982196
 21
656.521659
  0
ARC
  5
317
100
AcDbEntity
  8
M0
  6
DASHED
 62
     7
100
AcDbCircle
 10
111.132205
 20
648.72161
 40
1.0
100
AcDbArc
 50
180.0
 51
270.0
  0
ARC
  5
318
100
AcDbEntity
  8
M0
 62
     7
100
AcDbCircle
 10
111.132205
 20
649.021659
 40
1.0
100
AcDbArc
 50
180.0
 51
270.0
  0
LINE
  5
319
100
AcDbEntity
  8
M0
 62
     7
100
AcDbLine
 10
110.132205
 20
650.021659
 11
110.632205
 21
650.021659
  0
LINE
  5
31A
100
AcDbEntity
  8
M0
 62
     7
100
AcDbLine
 10
110.132205
 20
666.121512
 11
110.732196
 21
666.121512
  0
ARC
  5
31B
100
AcDbEntity
  8
M0
 62
     7
100
AcDbCircle
 10
118.632205
 20
666.521659
 40
0.5
100
AcDbArc
 50
89.998251
 51
180.0
  0
LINE
  5
31C
100
AcDbEntity
  8
M0
 62
     7
100
AcDbLine
 10
117.632205
 20
648.521415
 11
117.632205
 21
650.021659
  0
LINE
  5
31D
100
AcDbEntity
  8
M0
 62
     7
100
AcDbLine
 10
110.632205
 20
648.521659
 11
110.632205
 21
650.021659
  0
LINE
  5
31E
100
AcDbEntity
  8
M0
 62
     7
100
AcDbLine
 10
110.132205
 20
651.521659
 11
110.632205
 21
650.021659
  0
LINE
  5
31F
100
AcDbEntity
  8
M0
 62
     7
100
AcDbLine
 10
118.132205
 20
651.521659
 11
117.632205
 21
650.021659
  0
ARC
  5
320
100
AcDbEntity
  8
M0
 62
     7
100
AcDbCircle
 10
111.132205
 20
648.521659
 40
0.5
100
AcDbArc
 50
180.0
 51
270.0
  0
LINE
  5
321
100
AcDbEntity
  8
M0
 62
     7
100
AcDbLine
 10
117.632205
 20
650.021659
 11
118.132205
 21
650.021659
  0
LINE
  5
322
100
AcDbEntity
  8
M0
 62
     7
100
AcDbLine
 10
110.882205
 20
656.821463
 11
110.982196
 21
656.821463
  0
LINE
  5
323
100
AcDbEntity
  8
M0
 62
     7
100
AcDbLine
 10
110.882205
 20
656.521659
 11
110.882205
 21
657.521415
  0
LINE
  5
324
100
AcDbEntity
  8
M0
 62
     7
100
AcDbLine
 10
117.382205
 20
657.521659
 11
117.382205
 21
656.521659
  0
ARC
  5
325
100
AcDbEntity
  8
M0
 62
     7
100
AcDbCircle
 10
110.382205
 20
657.521659
 40
0.5
100
AcDbArc
 50
359.971914
 51
449.998251
  0
ARC
  5
326
100
AcDbEntity
  8
M0
 62
     7
100
AcDbCircle
 10
117.882205
 20
657.521659
 40
0.5
100
AcDbArc
 50
89.998251
 51
180.0
  0
LINE
  5
327
100
AcDbEntity
  8
M0
 62
     7
100
AcDbLine
 10
110.132205
 20
658.021659
 11
110.632205
 21
658.021659
  0
LINE
  5
328
100
AcDbEntity
  8
M0
 62
     7
100
AcDbLine
 10
117.632205
 20
659.621512
 11
117.632205
 21
658.021659
  0
LINE
  5
329
100
AcDbEntity
  8
M0
 62
     7
100
AcDbLine
 10
110.632205
 20
659.621512
 11
110.632205
 21
658.021659
  0
LINE
  5
32A
100
AcDbEntity
  8
M0
 62
     7
100
AcDbLine
 10
110.132205
 20
659.621512
 11
110.632205
 21
659.621512
  0
LINE
  5
32B
100
AcDbEntity
  8
M0
 62
     7
100
AcDbLine
 10
110.132205
 20
661.121512
 11
110.632205
 21
659.621512
  0
LINE
  5
32C
100
AcDbEntity
  8
M0
 62
     7
100
AcDbLine
 10
118.132205
 20
661.121512
 11
117.632205
 21
659.621512
  0
LINE
  5
32D
100
AcDbEntity
  8
M0
 62
     7
100
AcDbLine
 10
117.632205
 20
659.621512
 11
118.132205
 21
659.621512
  0
LINE
  5
32E
100
AcDbEntity
  8
M0
 62
     7
100
AcDbLine
 10
110.132205
 20
648.72161
 11
110.132205
 21
669.021659
  0
ARC
  5
32F
100
AcDbEntity
  8
M0
 62
     7
100
AcDbCircle
 10
118.632205
 20
658.021659
 40
0.5
100
AcDbArc
 50
89.998251
 51
180.0
  0
ARC
  5
330
100
AcDbEntity
  8
M0
 62
     7
100
AcDbCircle
 10
121.13222
 20
685.021659
 40
2.5
100
AcDbArc
 50
89.99965
 51
180.0
  0
LINE
  5
331
100
AcDbEntity
  8
M0
 62
     7
100
AcDbLine
 10
127.932223
 20
687.521659
 11
121.13222
 21
687.521659
  0
LINE
  5
332
100
AcDbEntity
  8
M0
 62
     7
100
AcDbLine
 10
109.132205
 20
672.021415
 11
109.132205
 21
669.521659
  0
LINE
  5
333
100
AcDbEntity
  8
M0
 62
     7
100
AcDbLine
 10
106.132205
 20
672.021659
 11
109.132205
 21
672.021659
  0
LINE
  5
334
100
AcDbEntity
  8
M0
 62
     7
100
AcDbLine
 10
109.132205
 20
614.521705
 11
109.132205
 21
612.021705
  0
LINE
  5
335
100
AcDbEntity
  8
M0
 62
     7
100
AcDbLine
 10
213.63219
 20
667.021415
 11
213.63219
 21
695.521659
  0
LINE
  5
336
100
AcDbEntity
  8
M0
 62
     7
100
AcDbLine
 10
214.13222
 20
648.721366
 11
214.13222
 21
666.521415
  0
ARC
  5
337
100
AcDbEntity
  8
M0
 62
     7
100
AcDbCircle
 10
213.63222
 20
666.521415
 40
0.5
100
AcDbArc
 50
0.0
 51
90.0
  0
LINE
  5
338
100
AcDbEntity
  8
M0
 62
     7
100
AcDbLine
 10
156.132191
 20
697.521659
 11
156.245228
 21
697.182303
  0
LINE
  5
339
100
AcDbEntity
  8
M0
 62
     7
100
AcDbLine
 10
176.019107
 20
697.182303
 11
176.13219
 21
697.521659
  0
LINE
  5
33A
100
AcDbEntity
  8
M0
 62
     7
100
AcDbLine
 10
188.332171
 20
587.52172
 11
188.332171
 21
595.522193
  0
LINE
  5
33B
100
AcDbEntity
  8
M0
 62
     7
100
AcDbLine
 10
188.332171
 20
696.521659
 11
188.332171
 21
688.522147
  0
LINE
  5
33C
100
AcDbEntity
  8
M0
 62
     7
100
AcDbLine
 10
136.432208
 20
604.971702
 11
136.374057
 21
605.005011
  0
LINE
  5
33D
100
AcDbEntity
  8
M0
 62
     7
100
AcDbLine
 10
143.932193
 20
696.521415
 11
143.932193
 21
688.507499
  0
LINE
  5
33E
100
AcDbEntity
  8
M0
  6
DASHED
 62
     7
100
AcDbLine
 10
111.132205
 20
647.72161
 11
117.132205
 21
647.72161
  0
LINE
  5
33F
100
AcDbEntity
  8
M0
 62
     7
100
AcDbLine
 10
111.132205
 20
648.021659
 11
117.132205
 21
648.021659
  0
ARC
  5
340
100
AcDbEntity
  8
M0
 62
     7
100
AcDbCircle
 10
117.132205
 20
649.021659
 40
1.0
100
AcDbArc
 50
270.0
 51
360.0
  0
ARC
  5
341
100
AcDbEntity
  8
M0
  6
DASHED
 62
     7
100
AcDbCircle
 10
117.132205
 20
648.72161
 40
1.0
100
AcDbArc
 50
270.0
 51
360.0
  0
ARC
  5
342
100
AcDbEntity
  8
M0
 62
     7
100
AcDbCircle
 10
117.132205
 20
648.521659
 40
0.5
100
AcDbArc
 50
270.0
 51
359.971914
  0
LINE
  5
343
100
AcDbEntity
  8
M0
 62
     7
100
AcDbLine
 10
118.132205
 20
635.321769
 11
118.132205
 21
617.52172
  0
LINE
  5
344
100
AcDbEntity
  8
M0
 62
     7
100
AcDbLine
 10
110.132205
 20
627.52172
 11
110.982196
 21
627.52172
  0
ARC
  5
345
100
AcDbEntity
  8
M0
  6
DASHED
 62
     7
100
AcDbCircle
 10
111.132205
 20
635.321769
 40
1.0
100
AcDbArc
 50
89.999126
 51
179.999945
  0
ARC
  5
346
100
AcDbEntity
  8
M0
 62
     7
100
AcDbCircle
 10
111.132205
 20
635.02172
 40
1.0
100
AcDbArc
 50
89.999126
 51
179.999945
  0
LINE
  5
347
100
AcDbEntity
  8
M0
 62
     7
100
AcDbLine
 10
110.132205
 20
634.02172
 11
110.632205
 21
634.02172
  0
LINE
  5
348
100
AcDbEntity
  8
M0
 62
     7
100
AcDbLine
 10
110.132205
 20
617.921866
 11
110.982196
 21
617.921866
  0
ARC
  5
349
100
AcDbEntity
  8
M0
 62
     7
100
AcDbCircle
 10
118.632205
 20
617.52172
 40
0.5
100
AcDbArc
 50
179.998251
 51
270.0
  0
LINE
  5
34A
100
AcDbEntity
  8
M0
 62
     7
100
AcDbLine
 10
117.632205
 20
635.521964
 11
117.632205
 21
634.02172
  0
LINE
  5
34B
100
AcDbEntity
  8
M0
 62
     7
100
AcDbLine
 10
110.632205
 20
635.52172
 11
110.632205
 21
634.02172
  0
LINE
  5
34C
100
AcDbEntity
  8
M0
 62
     7
100
AcDbLine
 10
110.132205
 20
632.52172
 11
110.632205
 21
634.02172
  0
LINE
  5
34D
100
AcDbEntity
  8
M0
 62
     7
100
AcDbLine
 10
118.132205
 20
632.52172
 11
117.632205
 21
634.02172
  0
ARC
  5
34E
100
AcDbEntity
  8
M0
 62
     7
100
AcDbCircle
 10
111.132205
 20
635.52172
 40
0.5
100
AcDbArc
 50
89.998251
 51
179.999891
  0
LINE
  5
34F
100
AcDbEntity
  8
M0
 62
     7
100
AcDbLine
 10
117.632205
 20
634.02172
 11
118.132205
 21
634.02172
  0
LINE
  5
350
100
AcDbEntity
  8
M0
 62
     7
100
AcDbLine
 10
110.882205
 20
627.221915
 11
110.982196
 21
627.221915
  0
LINE
  5
351
100
AcDbEntity
  8
M0
 62
     7
100
AcDbLine
 10
110.132205
 20
626.02172
 11
110.632205
 21
626.02172
  0
LINE
  5
352
100
AcDbEntity
  8
M0
 62
     7
100
AcDbLine
 10
110.882205
 20
627.52172
 11
110.882205
 21
626.521964
  0
LINE
  5
353
100
AcDbEntity
  8
M0
 62
     7
100
AcDbLine
 10
117.382205
 20
626.52172
 11
117.382205
 21
627.52172
  0
ARC
  5
354
100
AcDbEntity
  8
M0
 62
     7
100
AcDbCircle
 10
110.382205
 20
626.52172
 40
0.5
100
AcDbArc
 50
-90.0
 51
0.028086
  0
ARC
  5
355
100
AcDbEntity
  8
M0
 62
     7
100
AcDbCircle
 10
117.882205
 20
626.52172
 40
0.5
100
AcDbArc
 50
180.027868
 51
270.0
  0
LINE
  5
356
100
AcDbEntity
  8
M0
 62
     7
100
AcDbLine
 10
117.632205
 20
626.02172
 11
118.132205
 21
626.02172
  0
LINE
  5
357
100
AcDbEntity
  8
M0
 62
     7
100
AcDbLine
 10
117.632205
 20
624.421866
 11
117.632205
 21
626.02172
  0
LINE
  5
358
100
AcDbEntity
  8
M0
 62
     7
100
AcDbLine
 10
110.632205
 20
624.421866
 11
110.632205
 21
626.02172
  0
LINE
  5
359
100
AcDbEntity
  8
M0
 62
     7
100
AcDbLine
 10
110.132205
 20
624.421866
 11
110.632205
 21
624.421866
  0
LINE
  5
35A
100
AcDbEntity
  8
M0
 62
     7
100
AcDbLine
 10
110.132205
 20
622.921866
 11
110.632205
 21
624.421866
  0
LINE
  5
35B
100
AcDbEntity
  8
M0
 62
     7
100
AcDbLine
 10
118.132205
 20
622.921866
 11
117.632205
 21
624.421866
  0
LINE
  5
35C
100
AcDbEntity
  8
M0
 62
     7
100
AcDbLine
 10
117.632205
 20
624.421866
 11
118.132205
 21
624.421866
  0
ARC
  5
35D
100
AcDbEntity
  8
M0
 62
     7
100
AcDbCircle
 10
118.632205
 20
626.02172
 40
0.5
100
AcDbArc
 50
180.026229
 51
270.0
  0
LINE
  5
35E
100
AcDbEntity
  8
M0
  6
DASHED
 62
     7
100
AcDbLine
 10
111.132205
 20
636.321769
 11
117.132205
 21
636.321769
  0
LINE
  5
35F
100
AcDbEntity
  8
M0
 62
     7
100
AcDbLine
 10
111.132205
 20
636.02172
 11
117.132205
 21
636.02172
  0
ARC
  5
360
100
AcDbEntity
  8
M0
 62
     7
100
AcDbCircle
 10
117.132205
 20
635.02172
 40
1.0
100
AcDbArc
 50
0.0
 51
89.999126
  0
ARC
  5
361
100
AcDbEntity
  8
M0
  6
DASHED
 62
     7
100
AcDbCircle
 10
117.132205
 20
635.321769
 40
1.0
100
AcDbArc
 50
0.0
 51
89.999126
  0
ARC
  5
362
100
AcDbEntity
  8
M0
 62
     7
100
AcDbCircle
 10
117.132205
 20
635.52172
 40
0.5
100
AcDbArc
 50
0.028086
 51
89.998251
  0
LINE
  5
363
100
AcDbEntity
  8
M0
 62
     7
100
AcDbLine
 10
214.13222
 20
635.321525
 11
214.13219
 21
617.521705
  0
ARC
  5
364
100
AcDbEntity
  8
M0
 62
     7
100
AcDbCircle
 10
213.63219
 20
617.521705
 40
0.5
100
AcDbArc
 50
269.998251
 51
360.0
  0
LINE
  5
365
100
AcDbEntity
  8
M0
 62
     7
100
AcDbLine
 10
204.332187
 20
596.521705
 11
211.13219
 21
596.521689
  0
ARC
  5
366
100
AcDbEntity
  8
M0
 62
     7
100
AcDbCircle
 10
211.13219
 20
599.021689
 40
2.5
100
AcDbArc
 50
-90.00035
 51
0.0
  0
LINE
  5
367
100
AcDbEntity
  8
M0
 62
     7
100
AcDbLine
 10
222.13219
 20
617.02172
 11
213.63219
 21
617.021705
  0
LINE
  5
368
100
AcDbEntity
  8
M0
 62
     7
100
AcDbLine
 10
204.332171
 20
687.521659
 11
211.63219
 21
687.521659
  0
LINE
  5
369
100
AcDbEntity
  8
M0
 62
     7
100
AcDbLine
 10
226.13219
 20
614.521705
 11
222.63219
 21
614.521705
  0
LINE
  5
36A
100
AcDbEntity
  8
M0
 62
     7
100
AcDbLine
 10
218.13219
 20
644.77172
 11
218.13219
 21
639.27172
  0
LINE
  5
36B
100
AcDbEntity
  8
M0
 62
     7
100
AcDbLine
 10
226.13219
 20
645.77172
 11
219.13219
 21
645.77172
  0
LINE
  5
36C
100
AcDbEntity
  8
M0
 62
     7
100
AcDbLine
 10
226.13219
 20
638.27172
 11
219.13219
 21
638.27172
  0
ARC
  5
36D
100
AcDbEntity
  8
M0
 62
     7
100
AcDbCircle
 10
219.13219
 20
639.27172
 40
1.0
100
AcDbArc
 50
179.999945
 51
269.999126
  0
ARC
  5
36E
100
AcDbEntity
  8
M0
 62
     7
100
AcDbCircle
 10
219.13219
 20
644.77172
 40
1.0
100
AcDbArc
 50
90.0
 51
180.0
  0
LINE
  5
36F
100
AcDbEntity
  8
M0
 62
     7
100
AcDbLine
 10
226.13219
 20
644.77146
 11
222.13219
 21
644.771705
  0
LINE
  5
370
100
AcDbEntity
  8
M0
 62
     7
100
AcDbLine
 10
226.13219
 20
639.27146
 11
222.13219
 21
639.271705
  0
LINE
  5
371
100
AcDbEntity
  8
M0
 62
     7
100
AcDbLine
 10
222.13219
 20
645.77172
 11
222.13219
 21
644.77172
  0
LINE
  5
372
100
AcDbEntity
  8
M0
 62
     7
100
AcDbLine
 10
222.13219
 20
639.27172
 11
222.13219
 21
638.27172
  0
LINE
  5
373
100
AcDbEntity
  8
M0
 62
     7
100
AcDbLine
 10
225.63219
 20
659.52146
 11
222.63219
 21
659.52146
  0
LINE
  5
374
100
AcDbEntity
  8
M0
 62
     7
100
AcDbLine
 10
225.63219
 20
624.521705
 11
222.63219
 21
624.521705
  0
LINE
  5
375
100
AcDbEntity
  8
M0
 62
     7
100
AcDbLine
 10
225.63219
 20
669.52146
 11
222.63219
 21
669.52146
  0
LINE
  5
376
100
AcDbEntity
  8
M0
 62
     7
100
AcDbLine
 10
226.13219
 20
612.021705
 11
215.632205
 21
612.021705
  0
ARC
  5
377
100
AcDbEntity
  8
M0
 62
     7
100
AcDbCircle
 10
215.632205
 20
610.021705
 40
2.0
100
AcDbArc
 50
90.0
 51
179.999563
  0
LINE
  5
378
100
AcDbEntity
  8
M0
 62
     7
100
AcDbLine
 10
222.13219
 20
615.021705
 11
222.13219
 21
635.321769
  0
ARC
  5
379
100
AcDbEntity
  8
M0
 62
     7
100
AcDbCircle
 10
222.63219
 20
669.021659
 40
0.5
100
AcDbArc
 50
90.0
 51
180.0
  0
ARC
  5
37A
100
AcDbEntity
  8
M0
 62
     7
100
AcDbCircle
 10
222.63219
 20
659.021659
 40
0.5
100
AcDbArc
 50
90.0
 51
180.0
  0
ARC
  5
37B
100
AcDbEntity
  8
M0
 62
     7
100
AcDbCircle
 10
222.63219
 20
625.02172
 40
0.5
100
AcDbArc
 50
179.998251
 51
269.998251
  0
ARC
  5
37C
100
AcDbEntity
  8
M0
 62
     7
100
AcDbCircle
 10
222.63219
 20
615.021705
 40
0.5
100
AcDbArc
 50
179.998251
 51
269.998251
  0
LINE
  5
37D
100
AcDbEntity
  8
M0
 62
     7
100
AcDbLine
 10
222.13219
 20
667.021659
 11
213.63219
 21
667.021415
  0
LINE
  5
37E
100
AcDbEntity
  8
M0
 62
     7
100
AcDbLine
 10
222.13219
 20
617.02172
 11
213.63219
 21
617.021705
  0
LINE
  5
37F
100
AcDbEntity
  8
M0
 62
     7
100
AcDbLine
 10
222.13219
 20
656.521659
 11
221.282183
 21
656.521415
  0
ARC
  5
380
100
AcDbEntity
  8
M0
  6
DASHED
 62
     7
100
AcDbCircle
 10
221.13219
 20
648.72161
 40
1.0
100
AcDbArc
 50
-90.000874
 51
0.0
  0
ARC
  5
381
100
AcDbEntity
  8
M0
 62
     7
100
AcDbCircle
 10
221.13219
 20
649.021659
 40
1.0
100
AcDbArc
 50
-90.000874
 51
0.0
  0
LINE
  5
382
100
AcDbEntity
  8
M0
 62
     7
100
AcDbLine
 10
222.13219
 20
650.021659
 11
221.63219
 21
650.021659
  0
LINE
  5
383
100
AcDbEntity
  8
M0
 62
     7
100
AcDbLine
 10
222.13219
 20
666.121512
 11
221.282183
 21
666.121268
  0
LINE
  5
384
100
AcDbEntity
  8
M0
 62
     7
100
AcDbLine
 10
214.63219
 20
648.521415
 11
214.63219
 21
650.021659
  0
LINE
  5
385
100
AcDbEntity
  8
M0
 62
     7
100
AcDbLine
 10
221.63219
 20
648.521659
 11
221.63219
 21
650.021659
  0
LINE
  5
386
100
AcDbEntity
  8
M0
 62
     7
100
AcDbLine
 10
222.13219
 20
651.521659
 11
221.63219
 21
650.021659
  0
LINE
  5
387
100
AcDbEntity
  8
M0
 62
     7
100
AcDbLine
 10
214.13219
 20
651.521659
 11
214.63219
 21
650.021659
  0
ARC
  5
388
100
AcDbEntity
  8
M0
 62
     7
100
AcDbCircle
 10
221.13219
 20
648.521659
 40
0.5
100
AcDbArc
 50
-90.001749
 51
0.0
  0
LINE
  5
389
100
AcDbEntity
  8
M0
 62
     7
100
AcDbLine
 10
214.63219
 20
650.021659
 11
214.13219
 21
650.021659
  0
LINE
  5
38A
100
AcDbEntity
  8
M0
 62
     7
100
AcDbLine
 10
221.38219
 20
656.821463
 11
221.282183
 21
656.821219
  0
LINE
  5
38B
100
AcDbEntity
  8
M0
 62
     7
100
AcDbLine
 10
222.13219
 20
658.021659
 11
221.63219
 21
658.021415
  0
LINE
  5
38C
100
AcDbEntity
  8
M0
 62
     7
100
AcDbLine
 10
221.38219
 20
656.521659
 11
221.38219
 21
657.521415
  0
LINE
  5
38D
100
AcDbEntity
  8
M0
 62
     7
100
AcDbLine
 10
214.88219
 20
657.521659
 11
214.88219
 21
656.521659
  0
ARC
  5
38E
100
AcDbEntity
  8
M0
 62
     7
100
AcDbCircle
 10
221.88219
 20
657.521659
 40
0.5
100
AcDbArc
 50
90.0
 51
180.055953
  0
ARC
  5
38F
100
AcDbEntity
  8
M0
 62
     7
100
AcDbCircle
 10
214.38219
 20
657.521659
 40
0.5
100
AcDbArc
 50
0.0
 51
90.0
  0
LINE
  5
390
100
AcDbEntity
  8
M0
 62
     7
100
AcDbLine
 10
214.63219
 20
658.021415
 11
214.13219
 21
658.021659
  0
LINE
  5
391
100
AcDbEntity
  8
M0
 62
     7
100
AcDbLine
 10
214.63219
 20
659.621512
 11
214.63219
 21
658.021659
  0
LINE
  5
392
100
AcDbEntity
  8
M0
 62
     7
100
AcDbLine
 10
221.63219
 20
659.621512
 11
221.63219
 21
658.021659
  0
LINE
  5
393
100
AcDbEntity
  8
M0
 62
     7
100
AcDbLine
 10
222.13219
 20
659.621512
 11
221.63219
 21
659.621512
  0
LINE
  5
394
100
AcDbEntity
  8
M0
 62
     7
100
AcDbLine
 10
222.13219
 20
661.121512
 11
221.63219
 21
659.621512
  0
LINE
  5
395
100
AcDbEntity
  8
M0
 62
     7
100
AcDbLine
 10
214.13219
 20
661.121512
 11
214.63219
 21
659.621512
  0
LINE
  5
396
100
AcDbEntity
  8
M0
 62
     7
100
AcDbLine
 10
214.63219
 20
659.621512
 11
214.13219
 21
659.621512
  0
LINE
  5
397
100
AcDbEntity
  8
M0
 62
     7
100
AcDbLine
 10
222.13219
 20
648.72161
 11
222.13219
 21
669.021659
  0
LINE
  5
398
100
AcDbEntity
  8
M0
 62
     7
100
AcDbLine
 10
223.13219
 20
672.021415
 11
223.13219
 21
669.521659
  0
LINE
  5
399
100
AcDbEntity
  8
M0
 62
     7
100
AcDbLine
 10
226.13219
 20
672.021659
 11
223.13219
 21
672.021659
  0
LINE
  5
39A
100
AcDbEntity
  8
M0
 62
     7
100
AcDbLine
 10
223.13219
 20
614.521705
 11
223.13219
 21
612.021705
  0
LINE
  5
39B
100
AcDbEntity
  8
M0
  6
DASHED
 62
     7
100
AcDbLine
 10
221.13219
 20
647.72161
 11
215.13219
 21
647.72161
  0
LINE
  5
39C
100
AcDbEntity
  8
M0
 62
     7
100
AcDbLine
 10
221.13219
 20
648.021659
 11
215.13219
 21
648.021659
  0
ARC
  5
39D
100
AcDbEntity
  8
M0
 62
     7
100
AcDbCircle
 10
215.13219
 20
649.021659
 40
1.0
100
AcDbArc
 50
180.0
 51
269.999126
  0
ARC
  5
39E
100
AcDbEntity
  8
M0
  6
DASHED
 62
     7
100
AcDbCircle
 10
215.13219
 20
648.72161
 40
1.0
100
AcDbArc
 50
180.0
 51
269.999126
  0
ARC
  5
39F
100
AcDbEntity
  8
M0
 62
     7
100
AcDbCircle
 10
215.13219
 20
648.521659
 40
0.5
100
AcDbArc
 50
180.055953
 51
269.998251
  0
LINE
  5
3A0
100
AcDbEntity
  8
M0
 62
     7
100
AcDbLine
 10
222.13219
 20
627.52172
 11
221.282183
 21
627.521705
  0
ARC
  5
3A1
100
AcDbEntity
  8
M0
  6
DASHED
 62
     7
100
AcDbCircle
 10
221.13219
 20
635.321769
 40
1.0
100
AcDbArc
 50
0.0
 51
90.0
  0
ARC
  5
3A2
100
AcDbEntity
  8
M0
 62
     7
100
AcDbCircle
 10
221.13219
 20
635.02172
 40
1.0
100
AcDbArc
 50
0.0
 51
90.0
  0
LINE
  5
3A3
100
AcDbEntity
  8
M0
 62
     7
100
AcDbLine
 10
222.13219
 20
634.02172
 11
221.63219
 21
634.02172
  0
LINE
  5
3A4
100
AcDbEntity
  8
M0
 62
     7
100
AcDbLine
 10
222.13219
 20
617.921866
 11
221.532183
 21
617.921851
  0
LINE
  5
3A5
100
AcDbEntity
  8
M0
 62
     7
100
AcDbLine
 10
214.63219
 20
635.521964
 11
214.63219
 21
634.02172
  0
LINE
  5
3A6
100
AcDbEntity
  8
M0
 62
     7
100
AcDbLine
 10
221.63219
 20
635.52172
 11
221.63219
 21
634.02172
  0
LINE
  5
3A7
100
AcDbEntity
  8
M0
 62
     7
100
AcDbLine
 10
222.13219
 20
632.52172
 11
221.63219
 21
634.02172
  0
LINE
  5
3A8
100
AcDbEntity
  8
M0
 62
     7
100
AcDbLine
 10
214.13219
 20
632.52172
 11
214.63219
 21
634.02172
  0
ARC
  5
3A9
100
AcDbEntity
  8
M0
 62
     7
100
AcDbCircle
 10
221.13219
 20
635.52172
 40
0.5
100
AcDbArc
 50
0.0
 51
90.0
  0
LINE
  5
3AA
100
AcDbEntity
  8
M0
 62
     7
100
AcDbLine
 10
214.63219
 20
634.02172
 11
214.13219
 21
634.02172
  0
LINE
  5
3AB
100
AcDbEntity
  8
M0
 62
     7
100
AcDbLine
 10
221.38219
 20
627.221915
 11
221.282183
 21
627.2219
  0
LINE
  5
3AC
100
AcDbEntity
  8
M0
 62
     7
100
AcDbLine
 10
222.13219
 20
626.02172
 11
221.63219
 21
626.021705
  0
LINE
  5
3AD
100
AcDbEntity
  8
M0
 62
     7
100
AcDbLine
 10
221.38219
 20
627.52172
 11
221.38219
 21
626.521964
  0
LINE
  5
3AE
100
AcDbEntity
  8
M0
 62
     7
100
AcDbLine
 10
214.88219
 20
626.52172
 11
214.88219
 21
627.52172
  0
ARC
  5
3AF
100
AcDbEntity
  8
M0
 62
     7
100
AcDbCircle
 10
221.88219
 20
626.52172
 40
0.5
100
AcDbArc
 50
179.971914
 51
269.998251
  0
ARC
  5
3B0
100
AcDbEntity
  8
M0
 62
     7
100
AcDbCircle
 10
214.38219
 20
626.52172
 40
0.5
100
AcDbArc
 50
269.998251
 51
359.972023
  0
LINE
  5
3B1
100
AcDbEntity
  8
M0
 62
     7
100
AcDbLine
 10
214.63219
 20
626.021705
 11
214.13219
 21
626.02172
  0
LINE
  5
3B2
100
AcDbEntity
  8
M0
 62
     7
100
AcDbLine
 10
214.63219
 20
624.421866
 11
214.63219
 21
626.02172
  0
LINE
  5
3B3
100
AcDbEntity
  8
M0
 62
     7
100
AcDbLine
 10
221.63219
 20
624.421866
 11
221.63219
 21
626.02172
  0
LINE
  5
3B4
100
AcDbEntity
  8
M0
 62
     7
100
AcDbLine
 10
222.13219
 20
624.421866
 11
221.63219
 21
624.421866
  0
LINE
  5
3B5
100
AcDbEntity
  8
M0
 62
     7
100
AcDbLine
 10
222.13219
 20
622.921866
 11
221.63219
 21
624.421866
  0
LINE
  5
3B6
100
AcDbEntity
  8
M0
 62
     7
100
AcDbLine
 10
214.13219
 20
622.921866
 11
214.63219
 21
624.421866
  0
LINE
  5
3B7
100
AcDbEntity
  8
M0
 62
     7
100
AcDbLine
 10
214.63219
 20
624.421866
 11
214.13219
 21
624.421866
  0
LINE
  5
3B8
100
AcDbEntity
  8
M0
  6
DASHED
 62
     7
100
AcDbLine
 10
221.13219
 20
636.321769
 11
215.13219
 21
636.321769
  0
LINE
  5
3B9
100
AcDbEntity
  8
M0
 62
     7
100
AcDbLine
 10
221.13219
 20
636.02172
 11
215.13219
 21
636.02172
  0
ARC
  5
3BA
100
AcDbEntity
  8
M0
 62
     7
100
AcDbCircle
 10
215.13219
 20
635.02172
 40
1.0
100
AcDbArc
 50
90.0
 51
179.999945
  0
ARC
  5
3BB
100
AcDbEntity
  8
M0
  6
DASHED
 62
     7
100
AcDbCircle
 10
215.13219
 20
635.321769
 40
1.0
100
AcDbArc
 50
90.0
 51
179.999945
  0
ARC
  5
3BC
100
AcDbEntity
  8
M0
 62
     7
100
AcDbCircle
 10
215.13219
 20
635.52172
 40
0.5
100
AcDbArc
 50
90.0
 51
179.999891
  0
ARC
  5
3BD
100
AcDbEntity
  8
M0
 62
     7
100
AcDbCircle
 10
211.63219
 20
685.521659
 40
2.0
100
AcDbArc
 50
0.0
 51
90.0
  0
ARC
  5
3BE
100
AcDbEntity
  8
M0
 62
     7
100
AcDbCircle
 10
155.771793
 20
587.02172
 40
0.5
100
AcDbArc
 50
270.0
 51
341.565224
  0
ARC
  5
3BF
100
AcDbEntity
  8
M0
 62
     7
100
AcDbCircle
 10
176.492556
 20
587.02172
 40
0.5
100
AcDbArc
 50
198.434672
 51
270.0
  0
LINE
  5
3C0
100
AcDbEntity
  8
M0
 62
     7
100
AcDbLine
 10
193.832156
 20
705.521415
 11
181.13219
 21
705.521415
  0
LINE
  5
3C1
100
AcDbEntity
  8
M0
 62
     7
100
AcDbLine
 10
180.13219
 20
717.021415
 11
176.132235
 21
717.02117
  0
ARC
  5
3C2
100
AcDbEntity
  8
M0
 62
     7
100
AcDbCircle
 10
108.132205
 20
703.521415
 40
2.0
100
AcDbArc
 50
89.999563
 51
180.006994
  0
ARC
  5
3C3
100
AcDbEntity
  8
M0
 62
     7
100
AcDbCircle
 10
180.13219
 20
716.02117
 40
1.0
100
AcDbArc
 50
0.0
 51
90.0
  0
ARC
  5
3C4
100
AcDbEntity
  8
M0
 62
     7
100
AcDbCircle
 10
152.132191
 20
716.02117
 40
1.0
100
AcDbArc
 50
90.0
 51
180.0
  0
LINE
  5
3C5
100
AcDbEntity
  8
M0
 62
     7
100
AcDbLine
 10
151.132191
 20
705.521415
 11
138.432254
 21
705.52117
  0
TEXT
  5
3C6
100
AcDbEntity
  8
M0
 62
     7
100
AcDbText
 10
153.38216
 20
711.020896
 40
4.0
  1
Ｃ
 41
0.625003
  7
STANDARD
100
AcDbText
  0
TEXT
  5
3C7
100
AcDbEntity
  8
M0
 62
     7
100
AcDbText
 10
174.38216
 20
711.020896
 40
4.0
  1
　１
 41
0.625003
  7
STANDARD
100
AcDbText
  0
LINE
  5
3C8
100
AcDbEntity
  8
M0
 62
     7
100
AcDbLine
 10
151.132191
 20
707.521415
 11
156.132297
 21
707.521415
  0
LINE
  5
3C9
100
AcDbEntity
  8
M0
 62
     7
100
AcDbLine
 10
166.19031
 20
605.005011
 11
166.13219
 21
604.971702
  0
LINE
  5
3CA
100
AcDbEntity
  8
M0
 62
     7
100
AcDbLine
 10
136.490329
 20
605.005011
 11
136.432208
 21
604.971702
  0
LINE
  5
3CB
100
AcDbEntity
  8
M0
 62
     7
100
AcDbLine
 10
188.332171
 20
697.521659
 11
192.655474
 21
697.521659
  0
LINE
  5
3CC
100
AcDbEntity
  8
M0
 62
     7
100
AcDbLine
 10
153.632282
 20
697.521659
 11
156.838245
 21
697.521659
  0
LINE
  5
3CD
100
AcDbEntity
  8
M0
 62
     7
100
AcDbLine
 10
188.332278
 20
586.52172
 11
192.655902
 21
586.52172
  0
LINE
  5
3CE
100
AcDbEntity
  8
M0
 62
     7
100
AcDbLine
 10
118.432254
 20
705.52117
 11
108.132205
 21
705.521415
  0
LINE
  5
3CF
100
AcDbEntity
  8
M0
 62
     7
100
AcDbLine
 10
175.426577
 20
697.521659
 11
178.632281
 21
697.521659
  0
LINE
  5
3D0
100
AcDbEntity
  8
M0
 62
     7
100
AcDbLine
 10
176.132235
 20
707.521415
 11
181.13219
 21
707.521415
  0
LINE
  5
3D1
100
AcDbEntity
  8
M0
 62
     7
100
AcDbLine
 10
156.132297
 20
717.02117
 11
152.132191
 21
717.021415
  0
LINE
  5
3D2
100
AcDbEntity
  8
M0
 62
     7
100
AcDbLine
 10
117.282199
 20
656.521659
 11
118.132205
 21
656.521659
  0
LINE
  5
3D3
100
AcDbEntity
  8
M0
 62
     7
100
AcDbLine
 10
117.282199
 20
656.821463
 11
117.382205
 21
656.821463
  0
LINE
  5
3D4
100
AcDbEntity
  8
M0
 62
     7
100
AcDbLine
 10
117.632205
 20
658.021659
 11
118.132205
 21
658.021659
  0
LINE
  5
3D5
100
AcDbEntity
  8
M0
 62
     7
100
AcDbLine
 10
117.282199
 20
666.121512
 11
118.132205
 21
666.121512
  0
LINE
  5
3D6
100
AcDbEntity
  8
M0
 62
     7
100
AcDbLine
 10
214.73218
 20
666.121268
 11
214.13219
 21
666.121512
  0
LINE
  5
3D7
100
AcDbEntity
  8
M0
 62
     7
100
AcDbLine
 10
214.98218
 20
656.821219
 11
214.88219
 21
656.821463
  0
LINE
  5
3D8
100
AcDbEntity
  8
M0
 62
     7
100
AcDbLine
 10
214.98218
 20
656.521415
 11
214.13219
 21
656.521659
  0
LINE
  5
3D9
100
AcDbEntity
  8
M0
 62
     7
100
AcDbLine
 10
214.98218
 20
627.521705
 11
214.13219
 21
627.52172
  0
LINE
  5
3DA
100
AcDbEntity
  8
M0
 62
     7
100
AcDbLine
 10
214.98218
 20
627.2219
 11
214.88219
 21
627.221915
  0
LINE
  5
3DB
100
AcDbEntity
  8
M0
 62
     7
100
AcDbLine
 10
214.98218
 20
617.921851
 11
214.13219
 21
617.921866
  0
LINE
  5
3DC
100
AcDbEntity
  8
M0
 62
     7
100
AcDbLine
 10
117.532199
 20
617.921866
 11
118.132205
 21
617.921866
  0
LINE
  5
3DD
100
AcDbEntity
  8
M0
 62
     7
100
AcDbLine
 10
117.282199
 20
627.221915
 11
117.382205
 21
627.221915
  0
LINE
  5
3DE
100
AcDbEntity
  8
M0
 62
     7
100
AcDbLine
 10
117.282199
 20
627.52172
 11
118.132205
 21
627.52172
  0
ARC
  5
3DF
100
AcDbEntity
  8
M0
 62
     7
100
AcDbCircle
 10
225.63219
 20
659.021216
 40
0.5
100
AcDbArc
 50
0.0
 51
90.0
  0
ARC
  5
3E0
100
AcDbEntity
  8
M0
 62
     7
100
AcDbCircle
 10
225.63219
 20
669.021216
 40
0.5
100
AcDbArc
 50
0.0
 51
90.0
  0
ARC
  5
3E1
100
AcDbEntity
  8
M0
 62
     7
100
AcDbCircle
 10
225.63219
 20
625.02146
 40
0.5
100
AcDbArc
 50
269.998251
 51
360.0
  0
LINE
  5
3E2
100
AcDbEntity
  8
M0
 62
     4
100
AcDbLine
 10
114.132602
 20
567.021277
 11
119.972903
 21
567.021277
  0
LINE
  5
3E3
100
AcDbEntity
  8
M0
 62
     4
100
AcDbLine
 10
226.132586
 20
575.021262
 11
226.132586
 21
709.020591
  0
LINE
  5
3E4
100
AcDbEntity
  8
M0
 62
     4
100
AcDbLine
 10
218.132571
 20
717.021079
 11
213.832049
 21
717.020621
  0
LINE
  5
3E5
100
AcDbEntity
  8
M0
 62
     4
100
AcDbLine
 10
106.132602
 20
709.020835
 11
106.132602
 21
575.021277
  0
ARC
  5
3E6
100
AcDbEntity
  8
M0
 62
     4
100
AcDbCircle
 10
114.132602
 20
709.020835
 40
8.0
100
AcDbArc
 50
89.999891
 51
180.0
  0
ARC
  5
3E7
100
AcDbEntity
  8
M0
 62
     4
100
AcDbCircle
 10
114.132602
 20
575.021277
 40
8.0
100
AcDbArc
 50
179.999891
 51
270.0
  0
ARC
  5
3E8
100
AcDbEntity
  8
M0
 62
     4
100
AcDbCircle
 10
218.132586
 20
575.021277
 40
8.0
100
AcDbArc
 50
269.999891
 51
360.0
  0
ARC
  5
3E9
100
AcDbEntity
  8
M0
 62
     4
100
AcDbCircle
 10
218.132586
 20
709.020835
 40
8.0
100
AcDbArc
 50
0.0
 51
90.0
  0
LINE
  5
3EA
100
AcDbEntity
  8
M0
 62
     4
100
AcDbLine
 10
118.632602
 20
588.521277
 11
118.632602
 21
593.021262
  0
ARC
  5
3EB
100
AcDbEntity
  8
M0
 62
     4
100
AcDbCircle
 10
120.632602
 20
588.521277
 40
2.0
100
AcDbArc
 50
179.999563
 51
260.210908
  0
LINE
  5
3EC
100
AcDbEntity
  8
M0
 62
     4
100
AcDbLine
 10
108.132602
 20
594.021277
 11
117.632602
 21
594.021277
  0
ARC
  5
3ED
100
AcDbEntity
  8
M0
 62
     4
100
AcDbCircle
 10
108.132602
 20
596.021277
 40
2.0
100
AcDbArc
 50
179.999563
 51
270.0
  0
ARC
  5
3EE
100
AcDbEntity
  8
M0
 62
     4
100
AcDbCircle
 10
117.632602
 20
593.021277
 40
1.0
100
AcDbArc
 50
0.0
 51
89.999126
  0
LINE
  5
3EF
100
AcDbEntity
  8
M0
 62
     4
100
AcDbLine
 10
189.132586
 20
705.520377
 11
189.132586
 21
714.520377
  0
LINE
  5
3F0
100
AcDbEntity
  8
M0
 62
     4
100
AcDbLine
 10
181.132586
 20
705.520865
 11
181.132586
 21
715.020133
  0
LINE
  5
3F1
100
AcDbEntity
  8
M0
 62
     4
100
AcDbLine
 10
193.132586
 20
708.520835
 11
193.132586
 21
716.020591
  0
ARC
  5
3F2
100
AcDbEntity
  8
M0
 62
     4
100
AcDbCircle
 10
196.132586
 20
708.520621
 40
3.0
100
AcDbArc
 50
180.0
 51
219.928703
  0
ARC
  5
3F3
100
AcDbEntity
  8
M0
 62
     4
100
AcDbCircle
 10
192.132586
 20
716.020835
 40
1.0
100
AcDbArc
 50
359.985137
 51
450.0
  0
ARC
  5
3F4
100
AcDbEntity
  8
M0
 62
     4
100
AcDbCircle
 10
192.632586
 20
714.520591
 40
0.5
100
AcDbArc
 50
359.970274
 51
450.0
  0
LINE
  5
3F5
100
AcDbEntity
  8
M0
 62
     4
100
AcDbLine
 10
213.632586
 20
588.521277
 11
213.632586
 21
593.021262
  0
ARC
  5
3F6
100
AcDbEntity
  8
M0
 62
     4
100
AcDbCircle
 10
211.632586
 20
588.521277
 40
2.0
100
AcDbArc
 50
-80.240662
 51
0.0
  0
LINE
  5
3F7
100
AcDbEntity
  8
M0
 62
     4
100
AcDbLine
 10
224.132586
 20
594.021277
 11
214.632586
 21
594.021277
  0
ARC
  5
3F8
100
AcDbEntity
  8
M0
 62
     4
100
AcDbCircle
 10
224.132586
 20
596.021277
 40
2.0
100
AcDbArc
 50
-90.000437
 51
0.0
  0
ARC
  5
3F9
100
AcDbEntity
  8
M0
 62
     4
100
AcDbCircle
 10
214.632586
 20
593.021277
 40
1.0
100
AcDbArc
 50
90.0
 51
179.999126
  0
LINE
  5
3FA
100
AcDbEntity
  8
M0
 62
     4
100
AcDbLine
 10
110.132602
 20
659.521079
 11
110.132602
 21
664.271079
  0
LINE
  5
3FB
100
AcDbEntity
  8
M0
 62
     4
100
AcDbLine
 10
193.832019
 20
705.520621
 11
192.632586
 21
705.520865
  0
LINE
  5
3FC
100
AcDbEntity
  8
M0
 62
     4
100
AcDbLine
 10
224.132586
 20
699.020865
 11
213.373629
 21
699.020621
  0
ARC
  5
3FD
100
AcDbEntity
  8
M0
 62
     4
100
AcDbCircle
 10
224.132586
 20
697.021079
 40
2.0
100
AcDbArc
 50
0.0
 51
90.0
  0
LINE
  5
3FE
100
AcDbEntity
  8
M0
 62
     4
100
AcDbLine
 10
181.132586
 20
705.521079
 11
189.132586
 21
705.521079
  0
LINE
  5
3FF
100
AcDbEntity
  8
M0
 62
     4
100
AcDbLine
 10
192.632586
 20
715.020835
 11
189.632586
 21
715.020835
  0
ARC
  5
400
100
AcDbEntity
  8
M0
 62
     4
100
AcDbCircle
 10
189.632586
 20
714.520591
 40
0.5
100
AcDbArc
 50
90.0
 51
180.0
  0
LINE
  5
401
100
AcDbEntity
  8
M0
 62
     4
100
AcDbLine
 10
143.132602
 20
705.520133
 11
143.132602
 21
714.520377
  0
LINE
  5
402
100
AcDbEntity
  8
M0
 62
     4
100
AcDbLine
 10
151.132587
 20
705.520621
 11
151.132587
 21
715.020133
  0
LINE
  5
403
100
AcDbEntity
  8
M0
 62
     4
100
AcDbLine
 10
139.132602
 20
708.520835
 11
139.132602
 21
716.020591
  0
ARC
  5
404
100
AcDbEntity
  8
M0
 62
     4
100
AcDbCircle
 10
136.132602
 20
708.520621
 40
3.0
100
AcDbArc
 50
-39.959523
 51
0.0
  0
ARC
  5
405
100
AcDbEntity
  8
M0
 62
     4
100
AcDbCircle
 10
140.132602
 20
716.020835
 40
1.0
100
AcDbArc
 50
89.999126
 51
180.027977
  0
ARC
  5
406
100
AcDbEntity
  8
M0
 62
     4
100
AcDbCircle
 10
139.632602
 20
714.520591
 40
0.5
100
AcDbArc
 50
89.998251
 51
180.055955
  0
LINE
  5
407
100
AcDbEntity
  8
M0
 62
     4
100
AcDbLine
 10
151.132587
 20
705.521079
 11
143.132602
 21
705.521079
  0
LINE
  5
408
100
AcDbEntity
  8
M0
 62
     4
100
AcDbLine
 10
139.632602
 20
715.020835
 11
142.632602
 21
715.020835
  0
ARC
  5
409
100
AcDbEntity
  8
M0
 62
     4
100
AcDbCircle
 10
142.632602
 20
714.520591
 40
0.5
100
AcDbArc
 50
0.0
 51
89.998251
  0
ARC
  5
40A
100
AcDbEntity
  8
M0
 62
     4
100
AcDbCircle
 10
110.632602
 20
714.520591
 40
0.5
100
AcDbArc
 50
0.0
 51
89.998251
  0
LINE
  5
40B
100
AcDbEntity
  8
M0
 62
     4
100
AcDbLine
 10
111.132602
 20
705.520865
 11
111.132602
 21
714.520377
  0
LINE
  5
40C
100
AcDbEntity
  8
M0
 62
     4
100
AcDbLine
 10
110.632602
 20
715.020835
 11
108.841098
 21
715.020835
  0
LINE
  5
40D
100
AcDbEntity
  8
M0
 62
     4
100
AcDbLine
 10
111.132602
 20
714.020865
 11
118.432116
 21
714.020865
  0
LINE
  5
40E
100
AcDbEntity
  8
M0
 62
     4
100
AcDbLine
 10
143.132602
 20
714.021079
 11
151.132587
 21
714.021079
  0
LINE
  5
40F
100
AcDbEntity
  8
M0
 62
     4
100
AcDbLine
 10
181.132586
 20
714.021079
 11
189.132586
 21
714.021079
  0
LINE
  5
410
100
AcDbEntity
  8
M0
 62
     4
100
AcDbLine
 10
118.432116
 20
717.020621
 11
114.132602
 21
717.020835
  0
LINE
  5
411
100
AcDbEntity
  8
M0
 62
     4
100
AcDbLine
 10
193.832019
 20
717.020621
 11
176.132098
 21
717.020377
  0
LINE
  5
412
100
AcDbEntity
  8
M0
 62
     4
100
AcDbLine
 10
213.832263
 20
567.021277
 11
218.132586
 21
567.021277
  0
LINE
  5
413
100
AcDbEntity
  8
M0
 62
     4
100
AcDbLine
 10
156.13216
 20
717.020377
 11
138.432116
 21
717.020621
  0
LINE
  5
414
100
AcDbEntity
  8
M0
 62
     4
100
AcDbLine
 10
176.132067
 20
567.021277
 11
191.402423
 21
567.021277
  0
LINE
  5
415
100
AcDbEntity
  8
M0
 62
     4
100
AcDbLine
 10
139.850573
 20
567.021277
 11
156.132099
 21
567.021277
  0
CIRCLE
  5
416
100
AcDbEntity
  8
M0
 62
     5
100
AcDbCircle
 10
203.832278
 20
574.520942
 40
3.999995
  0
CIRCLE
  5
417
100
AcDbEntity
  8
M0
 62
     5
100
AcDbCircle
 10
203.832278
 20
574.520942
 40
3.499995
  0
LINE
  5
418
100
AcDbEntity
  8
M0
 62
     5
100
AcDbLine
 10
193.832248
 20
584.520972
 11
193.832248
 21
576.178901
  0
LINE
  5
419
100
AcDbEntity
  8
M0
 62
     5
100
AcDbLine
 10
211.652942
 20
566.520713
 11
213.832217
 21
566.520697
  0
LINE
  5
41A
100
AcDbEntity
  8
M0
 62
     5
100
AcDbLine
 10
213.832263
 20
566.520697
 11
213.832232
 21
572.814063
  0
LINE
  5
41B
100
AcDbEntity
  8
M0
 62
     5
100
AcDbLine
 10
188.832034
 20
593.020484
 11
188.832034
 21
596.387137
  0
LINE
  5
41C
100
AcDbEntity
  8
M0
 62
     5
100
AcDbLine
 10
188.832049
 20
593.020713
 11
193.832278
 21
584.520713
  0
LINE
  5
41D
100
AcDbEntity
  8
M0
 62
     5
100
AcDbLine
 10
202.832049
 20
596.520697
 11
213.832034
 21
584.520697
  0
LINE
  5
41E
100
AcDbEntity
  8
M0
 62
     5
100
AcDbLine
 10
213.832232
 20
580.087211
 11
213.832034
 21
584.520697
  0
CIRCLE
  5
41F
100
AcDbEntity
  8
M0
 62
     5
100
AcDbCircle
 10
128.431765
 20
574.521003
 40
3.999995
  0
CIRCLE
  5
420
100
AcDbEntity
  8
M0
 62
     5
100
AcDbCircle
 10
128.431765
 20
574.521003
 40
3.499995
  0
LINE
  5
421
100
AcDbEntity
  8
M0
 62
     5
100
AcDbLine
 10
138.43175
 20
584.520972
 11
138.43175
 21
575.727775
  0
LINE
  5
422
100
AcDbEntity
  8
M0
 62
     5
100
AcDbLine
 10
120.095446
 20
566.520713
 11
118.43172
 21
566.520804
  0
LINE
  5
423
100
AcDbEntity
  8
M0
 62
     5
100
AcDbLine
 10
118.43175
 20
566.520789
 11
118.43172
 21
573.314704
  0
LINE
  5
424
100
AcDbEntity
  8
M0
 62
     5
100
AcDbLine
 10
143.43204
 20
593.020469
 11
143.43204
 21
596.387244
  0
LINE
  5
425
100
AcDbEntity
  8
M0
 62
     5
100
AcDbLine
 10
143.432055
 20
593.020713
 11
138.431781
 21
584.520728
  0
LINE
  5
426
100
AcDbEntity
  8
M0
 62
     5
100
AcDbLine
 10
129.432055
 20
596.520759
 11
118.432055
 21
584.520789
  0
LINE
  5
427
100
AcDbEntity
  8
M0
 62
     5
100
AcDbLine
 10
118.43172
 20
581.931769
 11
118.432055
 21
584.520789
  0
LINE
  5
428
100
AcDbEntity
  8
M0
 62
     5
100
AcDbLine
 10
156.132112
 20
584.520697
 11
156.132115
 21
574.727775
  0
LINE
  5
429
100
AcDbEntity
  8
M0
 62
     5
100
AcDbLine
 10
156.132118
 20
566.520713
 11
156.253288
 21
566.520713
  0
LINE
  5
42A
100
AcDbEntity
  8
M0
 62
     5
100
AcDbLine
 10
176.13207
 20
566.520713
 11
176.132083
 21
574.220969
  0
LINE
  5
42B
100
AcDbEntity
  8
M0
 62
     5
100
AcDbLine
 10
173.132061
 20
596.387259
 11
173.132062
 21
593.020972
  0
LINE
  5
42C
100
AcDbEntity
  8
M0
 62
     5
100
AcDbLine
 10
159.132108
 20
596.387168
 11
159.132109
 21
593.020942
  0
LINE
  5
42D
100
AcDbEntity
  8
M0
 62
     5
100
AcDbLine
 10
173.132062
 20
593.020713
 11
173.632154
 21
591.603675
  0
LINE
  5
42E
100
AcDbEntity
  8
M0
 62
     5
100
AcDbLine
 10
159.132109
 20
593.020697
 11
158.632155
 21
591.604148
  0
CIRCLE
  5
42F
100
AcDbEntity
  8
M0
 62
     5
100
AcDbCircle
 10
166.132114
 20
574.520713
 40
3.499995
  0
CIRCLE
  5
430
100
AcDbEntity
  8
M0
 62
     5
100
AcDbCircle
 10
166.132114
 20
574.520713
 40
3.999995
  0
LINE
  5
431
100
AcDbEntity
  8
M0
 62
     5
100
AcDbLine
 10
157.154115
 20
587.416373
 11
156.132112
 21
584.520697
  0
LINE
  5
432
100
AcDbEntity
  8
M0
 62
     5
100
AcDbLine
 10
175.109771
 20
587.416724
 11
176.13182
 21
584.520713
  0
LINE
  5
433
100
AcDbEntity
  8
M0
 62
     5
100
AcDbLine
 10
156.132118
 20
566.87464
 11
156.132118
 21
566.520713
  0
LINE
  5
434
100
AcDbEntity
  8
M0
 62
     5
100
AcDbLine
 10
175.597006
 20
566.520713
 11
176.13207
 21
566.520713
  0
LINE
  5
435
100
AcDbEntity
  8
M0
 62
     5
100
AcDbLine
 10
176.13208
 20
583.487433
 11
176.13182
 21
584.520713
  0
CIRCLE
  5
436
100
AcDbEntity
  8
M0
100
AcDbCircle
 10
219.132052
 20
692.020408
 40
3.499997
  0
LINE
  5
437
100
AcDbEntity
  8
M0
  6
DASHDOT
100
AcDbLine
 10
209.272204
 20
692.020408
 11
227.744601
 21
692.020408
  0
LINE
  5
438
100
AcDbEntity
  8
M0
  6
DASHDOT
100
AcDbLine
 10
219.132052
 20
683.488944
 11
219.132052
 21
705.520408
  0
CIRCLE
  5
439
100
AcDbEntity
  8
M0
100
AcDbCircle
 10
219.132052
 20
692.020408
 40
3.999995
  0
LINE
  5
43A
100
AcDbEntity
  8
M0
100
AcDbLine
 10
220.899722
 20
690.252097
 11
217.364383
 21
693.787986
  0
LINE
  5
43B
100
AcDbEntity
  8
M0
100
AcDbLine
 10
217.540927
 20
691.489402
 11
219.662295
 21
693.61074
  0
LINE
  5
43C
100
AcDbEntity
  8
M0
100
AcDbLine
 10
218.601519
 20
690.428855
 11
220.722903
 21
692.550193
  0
CIRCLE
  5
43D
100
AcDbEntity
  8
M0
100
AcDbCircle
 10
113.132067
 20
672.020408
 40
3.499997
  0
LINE
  5
43E
100
AcDbEntity
  8
M0
  6
DASHDOT
100
AcDbLine
 10
105.833789
 20
672.020408
 11
121.695758
 21
672.020408
  0
LINE
  5
43F
100
AcDbEntity
  8
M0
  6
DASHDOT
100
AcDbLine
 10
113.132067
 20
664.381812
 11
113.132067
 21
679.954017
  0
CIRCLE
  5
440
100
AcDbEntity
  8
M0
100
AcDbCircle
 10
113.132067
 20
672.020408
 40
3.999995
  0
LINE
  5
441
100
AcDbEntity
  8
M0
100
AcDbLine
 10
114.899737
 20
670.252097
 11
111.364398
 21
673.787986
  0
LINE
  5
442
100
AcDbEntity
  8
M0
100
AcDbLine
 10
111.540942
 20
671.489402
 11
113.66231
 21
673.61074
  0
LINE
  5
443
100
AcDbEntity
  8
M0
100
AcDbLine
 10
112.601535
 20
670.428855
 11
114.722918
 21
672.550193
  0
CIRCLE
  5
444
100
AcDbEntity
  8
M0
100
AcDbCircle
 10
113.132067
 20
602.020667
 40
3.499997
  0
LINE
  5
445
100
AcDbEntity
  8
M0
  6
DASHDOT
100
AcDbLine
 10
104.093509
 20
602.020667
 11
121.260669
 21
602.020667
  0
LINE
  5
446
100
AcDbEntity
  8
M0
  6
DASHDOT
100
AcDbLine
 10
113.132067
 20
592.794471
 11
113.132067
 21
610.2517
  0
CIRCLE
  5
447
100
AcDbEntity
  8
M0
100
AcDbCircle
 10
113.132067
 20
602.020667
 40
3.999995
  0
LINE
  5
448
100
AcDbEntity
  8
M0
100
AcDbLine
 10
114.899737
 20
600.252356
 11
111.364398
 21
603.788245
  0
LINE
  5
449
100
AcDbEntity
  8
M0
100
AcDbLine
 10
111.540942
 20
601.489661
 11
113.66231
 21
603.610999
  0
LINE
  5
44A
100
AcDbEntity
  8
M0
100
AcDbLine
 10
112.601535
 20
600.429114
 11
114.722918
 21
602.550452
  0
CIRCLE
  5
44B
100
AcDbEntity
  8
M0
100
AcDbCircle
 10
219.132052
 20
602.020621
 40
3.499997
  0
LINE
  5
44C
100
AcDbEntity
  8
M0
  6
DASHDOT
100
AcDbLine
 10
211.320666
 20
602.020621
 11
227.980258
 21
602.020621
  0
LINE
  5
44D
100
AcDbEntity
  8
M0
  6
DASHDOT
100
AcDbLine
 10
219.132052
 20
593.012
 11
219.132052
 21
610.759284
  0
CIRCLE
  5
44E
100
AcDbEntity
  8
M0
100
AcDbCircle
 10
219.132052
 20
602.020621
 40
3.999995
  0
LINE
  5
44F
100
AcDbEntity
  8
M0
100
AcDbLine
 10
220.899722
 20
600.252311
 11
217.364383
 21
603.788199
  0
LINE
  5
450
100
AcDbEntity
  8
M0
100
AcDbLine
 10
217.540927
 20
601.489615
 11
219.662295
 21
603.610953
  0
LINE
  5
451
100
AcDbEntity
  8
M0
100
AcDbLine
 10
218.601519
 20
600.429068
 11
220.722903
 21
602.550406
  0
CIRCLE
  5
452
100
AcDbEntity
  8
M0
100
AcDbCircle
 10
151.282047
 20
691.020408
 40
3.499997
  0
LINE
  5
453
100
AcDbEntity
  8
M0
  6
DASHDOT
100
AcDbLine
 10
143.141238
 20
691.020408
 11
159.583286
 21
691.020408
  0
LINE
  5
454
100
AcDbEntity
  8
M0
  6
DASHDOT
100
AcDbLine
 10
151.282047
 20
682.111258
 11
151.282047
 21
704.520408
  0
CIRCLE
  5
455
100
AcDbEntity
  8
M0
100
AcDbCircle
 10
151.282047
 20
691.020408
 40
3.999995
  0
LINE
  5
456
100
AcDbEntity
  8
M0
100
AcDbLine
 10
153.049717
 20
689.252097
 11
149.514392
 21
692.787986
  0
LINE
  5
457
100
AcDbEntity
  8
M0
100
AcDbLine
 10
149.690936
 20
690.489402
 11
151.81229
 21
692.61074
  0
LINE
  5
458
100
AcDbEntity
  8
M0
100
AcDbLine
 10
150.751514
 20
689.428855
 11
152.872898
 21
691.550193
  0
CIRCLE
  5
459
100
AcDbEntity
  8
M0
100
AcDbCircle
 10
180.982043
 20
593.020667
 40
3.499997
  0
LINE
  5
45A
100
AcDbEntity
  8
M0
  6
DASHDOT
100
AcDbLine
 10
173.197467
 20
593.020667
 11
188.986926
 21
593.020667
  0
LINE
  5
45B
100
AcDbEntity
  8
M0
  6
DASHDOT
100
AcDbLine
 10
180.982043
 20
583.186622
 11
180.982043
 21
601.749656
  0
CIRCLE
  5
45C
100
AcDbEntity
  8
M0
100
AcDbCircle
 10
180.982043
 20
593.020667
 40
3.999995
  0
LINE
  5
45D
100
AcDbEntity
  8
M0
100
AcDbLine
 10
182.749713
 20
591.252356
 11
179.214373
 21
594.788245
  0
LINE
  5
45E
100
AcDbEntity
  8
M0
100
AcDbLine
 10
179.390918
 20
592.489661
 11
181.512286
 21
594.610999
  0
LINE
  5
45F
100
AcDbEntity
  8
M0
100
AcDbLine
 10
180.45151
 20
591.429114
 11
182.572894
 21
593.550452
  0
LINE
  5
460
100
AcDbEntity
  8
M0
 62
     5
100
AcDbLine
 10
118.082614
 20
714.020392
 11
112.182605
 21
714.020408
  0
LINE
  5
461
100
AcDbEntity
  8
M0
 62
     5
100
AcDbLine
 10
111.182605
 20
713.020652
 11
111.182589
 21
706.220603
  0
LINE
  5
462
100
AcDbEntity
  8
M0
 62
     5
100
AcDbLine
 10
118.282595
 20
705.521125
 11
118.532595
 21
705.521125
  0
LINE
  5
463
100
AcDbEntity
  8
M0
 62
     5
100
AcDbLine
 10
111.982577
 20
705.519919
 11
111.982577
 21
705.721091
  0
LINE
  5
464
100
AcDbEntity
  8
M0
 62
     5
100
AcDbLine
 10
118.28258
 20
705.519904
 11
118.28258
 21
705.720832
  0
LINE
  5
465
100
AcDbEntity
  8
M0
 62
     5
100
AcDbLine
 10
111.182589
 20
706.220603
 11
111.482455
 21
706.220847
  0
ARC
  5
466
100
AcDbEntity
  8
M0
 62
     5
100
AcDbCircle
 10
111.482592
 20
705.721091
 40
0.5
100
AcDbArc
 50
0.0
 51
90.013989
  0
ARC
  5
467
100
AcDbEntity
  8
M0
 62
     5
100
AcDbCircle
 10
118.78258
 20
705.720832
 40
0.5
100
AcDbArc
 50
134.51656
 51
180.0
  0
ARC
  5
468
100
AcDbEntity
  8
M0
 62
     5
100
AcDbCircle
 10
118.082614
 20
713.020148
 40
1.0
100
AcDbArc
 50
69.53922
 51
89.999126
  0
ARC
  5
469
100
AcDbEntity
  8
M0
 62
     5
100
AcDbCircle
 10
112.182605
 20
713.020408
 40
1.0
100
AcDbArc
 50
89.999126
 51
179.986012
  0
LINE
  5
46A
100
AcDbEntity
  8
M0
 62
     5
100
AcDbLine
 10
150.082614
 20
714.020148
 11
144.182605
 21
714.020163
  0
LINE
  5
46B
100
AcDbEntity
  8
M0
 62
     5
100
AcDbLine
 10
143.182605
 20
713.020408
 11
143.182589
 21
706.220359
  0
LINE
  5
46C
100
AcDbEntity
  8
M0
 62
     5
100
AcDbLine
 10
151.082597
 20
706.220588
 11
151.082601
 21
713.020148
  0
LINE
  5
46D
100
AcDbEntity
  8
M0
 62
     5
100
AcDbLine
 10
150.282594
 20
705.520881
 11
150.532594
 21
705.520881
  0
LINE
  5
46E
100
AcDbEntity
  8
M0
 62
     5
100
AcDbLine
 10
143.982577
 20
705.520163
 11
143.982577
 21
705.720847
  0
LINE
  5
46F
100
AcDbEntity
  8
M0
 62
     5
100
AcDbLine
 10
150.282578
 20
705.520148
 11
150.282578
 21
705.720588
  0
LINE
  5
470
100
AcDbEntity
  8
M0
 62
     5
100
AcDbLine
 10
143.182589
 20
706.220359
 11
143.482455
 21
706.220603
  0
LINE
  5
471
100
AcDbEntity
  8
M0
 62
     5
100
AcDbLine
 10
150.782746
 20
706.220588
 11
151.082597
 21
706.220343
  0
ARC
  5
472
100
AcDbEntity
  8
M0
 62
     5
100
AcDbCircle
 10
143.482592
 20
705.720847
 40
0.5
100
AcDbArc
 50
0.0
 51
90.013989
  0
ARC
  5
473
100
AcDbEntity
  8
M0
 62
     5
100
AcDbCircle
 10
150.782594
 20
705.720832
 40
0.5
100
AcDbArc
 50
89.982405
 51
180.0
  0
ARC
  5
474
100
AcDbEntity
  8
M0
 62
     5
100
AcDbCircle
 10
150.082614
 20
713.020148
 40
1.0
100
AcDbArc
 50
0.0
 51
89.999126
  0
ARC
  5
475
100
AcDbEntity
  8
M0
 62
     5
100
AcDbCircle
 10
144.182605
 20
713.020163
 40
1.0
100
AcDbArc
 50
89.999126
 51
179.986012
  0
LINE
  5
476
100
AcDbEntity
  8
M0
 62
     5
100
AcDbLine
 10
188.082598
 20
714.020392
 11
182.182589
 21
714.020408
  0
LINE
  5
477
100
AcDbEntity
  8
M0
 62
     5
100
AcDbLine
 10
181.182591
 20
713.020652
 11
181.182587
 21
706.220603
  0
LINE
  5
478
100
AcDbEntity
  8
M0
 62
     5
100
AcDbLine
 10
189.082583
 20
706.220832
 11
189.082598
 21
713.020392
  0
LINE
  5
479
100
AcDbEntity
  8
M0
 62
     5
100
AcDbLine
 10
188.28258
 20
705.521125
 11
188.53258
 21
705.521125
  0
LINE
  5
47A
100
AcDbEntity
  8
M0
 62
     5
100
AcDbLine
 10
181.982574
 20
705.520163
 11
181.982574
 21
705.721091
  0
LINE
  5
47B
100
AcDbEntity
  8
M0
 62
     5
100
AcDbLine
 10
188.282565
 20
705.520148
 11
188.282565
 21
705.720832
  0
LINE
  5
47C
100
AcDbEntity
  8
M0
 62
     5
100
AcDbLine
 10
181.182587
 20
706.220603
 11
181.482453
 21
706.220847
  0
LINE
  5
47D
100
AcDbEntity
  8
M0
 62
     5
100
AcDbLine
 10
188.782733
 20
706.220832
 11
189.082583
 21
706.220588
  0
ARC
  5
47E
100
AcDbEntity
  8
M0
 62
     5
100
AcDbCircle
 10
181.48259
 20
705.721091
 40
0.5
100
AcDbArc
 50
0.0
 51
90.015628
  0
ARC
  5
47F
100
AcDbEntity
  8
M0
 62
     5
100
AcDbCircle
 10
188.78258
 20
705.721076
 40
0.5
100
AcDbArc
 50
89.982514
 51
180.0
  0
ARC
  5
480
100
AcDbEntity
  8
M0
 62
     5
100
AcDbCircle
 10
188.082598
 20
713.020392
 40
1.0
100
AcDbArc
 50
0.0
 51
90.0
  0
ARC
  5
481
100
AcDbEntity
  8
M0
 62
     5
100
AcDbCircle
 10
182.182589
 20
713.020408
 40
1.0
100
AcDbArc
 50
90.0
 51
179.986012
  0
LINE
  5
482
100
AcDbEntity
  8
M0
 62
     5
100
AcDbLine
 10
111.182055
 20
657.520896
 11
117.082064
 21
657.520896
  0
LINE
  5
483
100
AcDbEntity
  8
M0
 62
     5
100
AcDbLine
 10
118.082064
 20
660.970359
 11
118.082064
 21
665.320701
  0
LINE
  5
484
100
AcDbEntity
  8
M0
 62
     5
100
AcDbLine
 10
117.282061
 20
667.020652
 11
110.732058
 21
667.020652
  0
LINE
  5
485
100
AcDbEntity
  8
M0
 62
     5
100
AcDbLine
 10
110.182055
 20
665.320456
 11
110.182055
 21
660.970359
  0
LINE
  5
486
100
AcDbEntity
  8
M0
 62
     5
100
AcDbLine
 10
110.982058
 20
666.020163
 11
110.732058
 21
666.020163
  0
LINE
  5
487
100
AcDbEntity
  8
M0
 62
     5
100
AcDbLine
 10
117.282061
 20
667.020896
 11
117.282061
 21
665.820212
  0
LINE
  5
488
100
AcDbEntity
  8
M0
 62
     5
100
AcDbLine
 10
110.982058
 20
667.020896
 11
110.982058
 21
665.820212
  0
LINE
  5
489
100
AcDbEntity
  8
M0
 62
     5
100
AcDbLine
 10
118.082064
 20
665.320701
 11
117.782199
 21
665.320456
  0
LINE
  5
48A
100
AcDbEntity
  8
M0
 62
     5
100
AcDbLine
 10
110.481906
 20
665.320456
 11
110.182055
 21
665.320701
  0
ARC
  5
48B
100
AcDbEntity
  8
M0
 62
     5
100
AcDbCircle
 10
117.782061
 20
665.820212
 40
0.5
100
AcDbArc
 50
180.0
 51
270.017485
  0
ARC
  5
48C
100
AcDbEntity
  8
M0
 62
     5
100
AcDbCircle
 10
110.482058
 20
665.820212
 40
0.5
100
AcDbArc
 50
269.982515
 51
360.0
  0
LINE
  5
48D
100
AcDbEntity
  8
M0
 62
     5
100
AcDbLine
 10
110.732058
 20
667.020896
 11
110.732058
 21
666.020896
  0
ARC
  5
48E
100
AcDbEntity
  8
M0
 62
     5
100
AcDbCircle
 10
117.082064
 20
658.520896
 40
1.0
100
AcDbArc
 50
270.0
 51
287.588846
  0
ARC
  5
48F
100
AcDbEntity
  8
M0
 62
     5
100
AcDbCircle
 10
111.182055
 20
658.520896
 40
1.0
100
AcDbArc
 50
252.411988
 51
270.0
  0
LINE
  5
490
100
AcDbEntity
  8
M0
 62
     5
100
AcDbLine
 10
111.182055
 20
648.021109
 11
117.082064
 21
648.021109
  0
LINE
  5
491
100
AcDbEntity
  8
M0
 62
     5
100
AcDbLine
 10
118.082064
 20
651.370475
 11
118.082064
 21
655.820914
  0
LINE
  5
492
100
AcDbEntity
  8
M0
 62
     5
100
AcDbLine
 10
117.282061
 20
657.520865
 11
110.882067
 21
657.520621
  0
LINE
  5
493
100
AcDbEntity
  8
M0
 62
     5
100
AcDbLine
 10
110.182055
 20
655.82067
 11
110.182055
 21
651.370475
  0
LINE
  5
494
100
AcDbEntity
  8
M0
 62
     5
100
AcDbLine
 10
110.982058
 20
656.520377
 11
110.732058
 21
656.520377
  0
LINE
  5
495
100
AcDbEntity
  8
M0
 62
     5
100
AcDbLine
 10
117.282061
 20
657.521109
 11
117.282061
 21
656.320426
  0
LINE
  5
496
100
AcDbEntity
  8
M0
 62
     5
100
AcDbLine
 10
110.982058
 20
657.521109
 11
110.982058
 21
656.320426
  0
LINE
  5
497
100
AcDbEntity
  8
M0
 62
     5
100
AcDbLine
 10
118.082064
 20
655.820914
 11
117.782199
 21
655.82067
  0
LINE
  5
498
100
AcDbEntity
  8
M0
 62
     5
100
AcDbLine
 10
110.481906
 20
655.82067
 11
110.182055
 21
655.820914
  0
ARC
  5
499
100
AcDbEntity
  8
M0
 62
     5
100
AcDbCircle
 10
117.782061
 20
656.320426
 40
0.5
100
AcDbArc
 50
180.0
 51
270.017485
  0
ARC
  5
49A
100
AcDbEntity
  8
M0
 62
     5
100
AcDbCircle
 10
110.482058
 20
656.320426
 40
0.5
100
AcDbArc
 50
269.982515
 51
360.0
  0
LINE
  5
49B
100
AcDbEntity
  8
M0
 62
     5
100
AcDbLine
 10
215.18204
 20
657.520652
 11
221.082049
 21
657.520652
  0
LINE
  5
49C
100
AcDbEntity
  8
M0
 62
     5
100
AcDbLine
 10
222.082049
 20
660.970359
 11
222.082049
 21
665.320456
  0
LINE
  5
49D
100
AcDbEntity
  8
M0
 62
     5
100
AcDbLine
 10
221.282046
 20
667.020408
 11
214.732043
 21
667.020408
  0
LINE
  5
49E
100
AcDbEntity
  8
M0
 62
     5
100
AcDbLine
 10
214.18204
 20
665.320212
 11
214.18204
 21
660.970359
  0
LINE
  5
49F
100
AcDbEntity
  8
M0
 62
     5
100
AcDbLine
 10
214.982043
 20
666.019919
 11
214.732043
 21
666.019919
  0
LINE
  5
4A0
100
AcDbEntity
  8
M0
 62
     5
100
AcDbLine
 10
221.282046
 20
667.020652
 11
221.282046
 21
665.819968
  0
LINE
  5
4A1
100
AcDbEntity
  8
M0
 62
     5
100
AcDbLine
 10
214.982043
 20
667.020652
 11
214.982043
 21
665.819968
  0
LINE
  5
4A2
100
AcDbEntity
  8
M0
 62
     5
100
AcDbLine
 10
222.082049
 20
665.320456
 11
221.782183
 21
665.320212
  0
LINE
  5
4A3
100
AcDbEntity
  8
M0
 62
     5
100
AcDbLine
 10
214.48189
 20
665.320212
 11
214.18204
 21
665.320456
  0
ARC
  5
4A4
100
AcDbEntity
  8
M0
 62
     5
100
AcDbCircle
 10
221.782046
 20
665.819968
 40
0.5
100
AcDbArc
 50
180.0
 51
270.015737
  0
ARC
  5
4A5
100
AcDbEntity
  8
M0
 62
     5
100
AcDbCircle
 10
214.482043
 20
665.819968
 40
0.5
100
AcDbArc
 50
269.980766
 51
360.0
  0
LINE
  5
4A6
100
AcDbEntity
  8
M0
 62
     5
100
AcDbLine
 10
214.732043
 20
667.020652
 11
214.732043
 21
666.020652
  0
ARC
  5
4A7
100
AcDbEntity
  8
M0
 62
     5
100
AcDbCircle
 10
215.18204
 20
658.520652
 40
1.0
100
AcDbArc
 50
252.41297
 51
269.999126
  0
ARC
  5
4A8
100
AcDbEntity
  8
M0
 62
     5
100
AcDbCircle
 10
221.082049
 20
658.520652
 40
1.0
100
AcDbArc
 50
269.999126
 51
287.586197
  0
LINE
  5
4A9
100
AcDbEntity
  8
M0
 62
     5
100
AcDbLine
 10
215.18204
 20
648.020865
 11
221.082049
 21
648.020865
  0
LINE
  5
4AA
100
AcDbEntity
  8
M0
 62
     5
100
AcDbLine
 10
222.082049
 20
651.370475
 11
222.082049
 21
655.82067
  0
LINE
  5
4AB
100
AcDbEntity
  8
M0
 62
     5
100
AcDbLine
 10
221.282046
 20
657.520621
 11
214.882052
 21
657.520377
  0
LINE
  5
4AC
100
AcDbEntity
  8
M0
 62
     5
100
AcDbLine
 10
214.18204
 20
655.820426
 11
214.18204
 21
651.370475
  0
LINE
  5
4AD
100
AcDbEntity
  8
M0
 62
     5
100
AcDbLine
 10
214.982043
 20
656.520133
 11
214.732043
 21
656.520133
  0
LINE
  5
4AE
100
AcDbEntity
  8
M0
 62
     5
100
AcDbLine
 10
221.282046
 20
657.520865
 11
221.282046
 21
656.320182
  0
LINE
  5
4AF
100
AcDbEntity
  8
M0
 62
     5
100
AcDbLine
 10
214.982043
 20
657.520865
 11
214.982043
 21
656.320182
  0
LINE
  5
4B0
100
AcDbEntity
  8
M0
 62
     5
100
AcDbLine
 10
222.082049
 20
655.82067
 11
221.782183
 21
655.820426
  0
LINE
  5
4B1
100
AcDbEntity
  8
M0
 62
     5
100
AcDbLine
 10
214.48189
 20
655.820426
 11
214.18204
 21
655.82067
  0
ARC
  5
4B2
100
AcDbEntity
  8
M0
 62
     5
100
AcDbCircle
 10
221.782046
 20
656.320182
 40
0.5
100
AcDbArc
 50
180.0
 51
270.015737
  0
ARC
  5
4B3
100
AcDbEntity
  8
M0
 62
     5
100
AcDbCircle
 10
214.482043
 20
656.320182
 40
0.5
100
AcDbArc
 50
269.980766
 51
360.0
  0
LINE
  5
4B4
100
AcDbEntity
  8
M0
 62
     5
100
AcDbLine
 10
221.082064
 20
636.020177
 11
215.182055
 21
636.020181
  0
LINE
  5
4B5
100
AcDbEntity
  8
M0
 62
     5
100
AcDbLine
 10
214.182055
 20
632.670694
 11
214.182025
 21
628.220377
  0
LINE
  5
4B6
100
AcDbEntity
  8
M0
 62
     5
100
AcDbLine
 10
214.982028
 20
626.520426
 11
221.382037
 21
626.520422
  0
LINE
  5
4B7
100
AcDbEntity
  8
M0
 62
     5
100
AcDbLine
 10
222.082034
 20
628.220601
 11
222.082049
 21
632.670689
  0
LINE
  5
4B8
100
AcDbEntity
  8
M0
 62
     5
100
AcDbLine
 10
221.282046
 20
627.52091
 11
221.532046
 21
627.52091
  0
LINE
  5
4B9
100
AcDbEntity
  8
M0
 62
     5
100
AcDbLine
 10
214.982043
 20
626.520182
 11
214.982043
 21
627.720865
  0
LINE
  5
4BA
100
AcDbEntity
  8
M0
 62
     5
100
AcDbLine
 10
221.282046
 20
626.520178
 11
221.282046
 21
627.720861
  0
LINE
  5
4BB
100
AcDbEntity
  8
M0
 62
     5
100
AcDbLine
 10
214.18204
 20
628.220377
 11
214.481906
 21
628.220621
  0
LINE
  5
4BC
100
AcDbEntity
  8
M0
 62
     5
100
AcDbLine
 10
221.782199
 20
628.220616
 11
222.082049
 21
628.220372
  0
ARC
  5
4BD
100
AcDbEntity
  8
M0
 62
     5
100
AcDbCircle
 10
214.482043
 20
627.720865
 40
0.5
100
AcDbArc
 50
0.0
 51
90.015737
  0
ARC
  5
4BE
100
AcDbEntity
  8
M0
 62
     5
100
AcDbCircle
 10
221.782046
 20
627.72086
 40
0.5
100
AcDbArc
 50
89.982515
 51
179.999891
  0
LINE
  5
4BF
100
AcDbEntity
  8
M0
 62
     5
100
AcDbLine
 10
221.082064
 20
626.520421
 11
215.182055
 21
626.520425
  0
LINE
  5
4C0
100
AcDbEntity
  8
M0
 62
     5
100
AcDbLine
 10
214.182055
 20
623.070853
 11
214.182025
 21
618.720633
  0
LINE
  5
4C1
100
AcDbEntity
  8
M0
 62
     5
100
AcDbLine
 10
214.982043
 20
617.020682
 11
221.532046
 21
617.020667
  0
LINE
  5
4C2
100
AcDbEntity
  8
M0
 62
     5
100
AcDbLine
 10
222.082034
 20
618.720847
 11
222.082049
 21
623.070838
  0
LINE
  5
4C3
100
AcDbEntity
  8
M0
 62
     5
100
AcDbLine
 10
221.282046
 20
618.021155
 11
221.532046
 21
618.021155
  0
LINE
  5
4C4
100
AcDbEntity
  8
M0
 62
     5
100
AcDbLine
 10
214.982043
 20
617.020438
 11
214.982043
 21
618.221122
  0
LINE
  5
4C5
100
AcDbEntity
  8
M0
 62
     5
100
AcDbLine
 10
221.282046
 20
617.020423
 11
221.282046
 21
618.221106
  0
LINE
  5
4C6
100
AcDbEntity
  8
M0
 62
     5
100
AcDbLine
 10
214.18204
 20
618.720633
 11
214.481906
 21
618.720878
  0
LINE
  5
4C7
100
AcDbEntity
  8
M0
 62
     5
100
AcDbLine
 10
221.782199
 20
618.720862
 11
222.082049
 21
618.720618
  0
ARC
  5
4C8
100
AcDbEntity
  8
M0
 62
     5
100
AcDbCircle
 10
214.482043
 20
618.221122
 40
0.5
100
AcDbArc
 50
0.0
 51
90.015737
  0
ARC
  5
4C9
100
AcDbEntity
  8
M0
 62
     5
100
AcDbCircle
 10
221.782046
 20
618.221106
 40
0.5
100
AcDbArc
 50
89.982515
 51
179.998251
  0
LINE
  5
4CA
100
AcDbEntity
  8
M0
 62
     5
100
AcDbLine
 10
221.532046
 20
617.020423
 11
221.532046
 21
618.020423
  0
ARC
  5
4CB
100
AcDbEntity
  8
M0
 62
     5
100
AcDbCircle
 10
221.082064
 20
625.520408
 40
1.0
100
AcDbArc
 50
72.543117
 51
90.0
  0
ARC
  5
4CC
100
AcDbEntity
  8
M0
 62
     5
100
AcDbCircle
 10
215.182055
 20
625.520438
 40
1.0
100
AcDbArc
 50
90.0
 51
107.458633
  0
LINE
  5
4CD
100
AcDbEntity
  8
M0
 62
     5
100
AcDbLine
 10
117.08208
 20
636.020192
 11
111.182071
 21
636.020196
  0
LINE
  5
4CE
100
AcDbEntity
  8
M0
 62
     5
100
AcDbLine
 10
110.182071
 20
632.670694
 11
110.18204
 21
628.220392
  0
LINE
  5
4CF
100
AcDbEntity
  8
M0
 62
     5
100
AcDbLine
 10
110.982043
 20
626.520441
 11
117.382052
 21
626.520437
  0
LINE
  5
4D0
100
AcDbEntity
  8
M0
 62
     5
100
AcDbLine
 10
118.082049
 20
628.220616
 11
118.082064
 21
632.670689
  0
LINE
  5
4D1
100
AcDbEntity
  8
M0
 62
     5
100
AcDbLine
 10
117.282061
 20
627.520925
 11
117.532061
 21
627.520925
  0
LINE
  5
4D2
100
AcDbEntity
  8
M0
 62
     5
100
AcDbLine
 10
110.982058
 20
626.520197
 11
110.982058
 21
627.72088
  0
LINE
  5
4D3
100
AcDbEntity
  8
M0
 62
     5
100
AcDbLine
 10
117.282061
 20
626.520193
 11
117.282061
 21
627.720877
  0
LINE
  5
4D4
100
AcDbEntity
  8
M0
 62
     5
100
AcDbLine
 10
110.182055
 20
628.220392
 11
110.481921
 21
628.220636
  0
LINE
  5
4D5
100
AcDbEntity
  8
M0
 62
     5
100
AcDbLine
 10
117.782214
 20
628.220631
 11
118.082064
 21
628.220387
  0
ARC
  5
4D6
100
AcDbEntity
  8
M0
 62
     5
100
AcDbCircle
 10
110.482058
 20
627.72088
 40
0.5
100
AcDbArc
 50
0.0
 51
90.013988
  0
ARC
  5
4D7
100
AcDbEntity
  8
M0
 62
     5
100
AcDbCircle
 10
117.782061
 20
627.720876
 40
0.5
100
AcDbArc
 50
89.980766
 51
179.999891
  0
LINE
  5
4D8
100
AcDbEntity
  8
M0
 62
     5
100
AcDbLine
 10
117.08208
 20
626.520436
 11
111.182071
 21
626.52044
  0
LINE
  5
4D9
100
AcDbEntity
  8
M0
 62
     5
100
AcDbLine
 10
110.182071
 20
623.070853
 11
110.18204
 21
618.720649
  0
LINE
  5
4DA
100
AcDbEntity
  8
M0
 62
     5
100
AcDbLine
 10
110.982058
 20
617.020697
 11
117.532061
 21
617.020682
  0
LINE
  5
4DB
100
AcDbEntity
  8
M0
 62
     5
100
AcDbLine
 10
118.082049
 20
618.720862
 11
118.082064
 21
623.070838
  0
LINE
  5
4DC
100
AcDbEntity
  8
M0
 62
     5
100
AcDbLine
 10
117.282061
 20
618.02117
 11
117.532061
 21
618.02117
  0
LINE
  5
4DD
100
AcDbEntity
  8
M0
 62
     5
100
AcDbLine
 10
110.982058
 20
617.020453
 11
110.982058
 21
618.221137
  0
LINE
  5
4DE
100
AcDbEntity
  8
M0
 62
     5
100
AcDbLine
 10
117.282061
 20
617.020438
 11
117.282061
 21
618.221122
  0
LINE
  5
4DF
100
AcDbEntity
  8
M0
 62
     5
100
AcDbLine
 10
110.182055
 20
618.720649
 11
110.481921
 21
618.720893
  0
LINE
  5
4E0
100
AcDbEntity
  8
M0
 62
     5
100
AcDbLine
 10
117.782214
 20
618.720878
 11
118.082064
 21
618.720633
  0
ARC
  5
4E1
100
AcDbEntity
  8
M0
 62
     5
100
AcDbCircle
 10
110.482058
 20
618.221137
 40
0.5
100
AcDbArc
 50
0.0
 51
90.013988
  0
ARC
  5
4E2
100
AcDbEntity
  8
M0
 62
     5
100
AcDbCircle
 10
117.782061
 20
618.221122
 40
0.5
100
AcDbArc
 50
89.980766
 51
179.998251
  0
LINE
  5
4E3
100
AcDbEntity
  8
M0
 62
     5
100
AcDbLine
 10
117.532061
 20
617.020438
 11
117.532061
 21
618.020438
  0
ARC
  5
4E4
100
AcDbEntity
  8
M0
 62
     5
100
AcDbCircle
 10
117.08208
 20
625.520423
 40
1.0
100
AcDbArc
 50
72.542283
 51
89.999126
  0
ARC
  5
4E5
100
AcDbEntity
  8
M0
 62
     5
100
AcDbCircle
 10
111.182071
 20
625.520453
 40
1.0
100
AcDbArc
 50
89.999126
 51
107.457799
  0
ARC
  5
4E6
100
AcDbEntity
  8
M0
100
AcDbCircle
 10
195.831775
 20
690.020896
 40
3.499997
100
AcDbArc
 50
314.42065
 51
585.578818
  0
LINE
  5
4E7
100
AcDbEntity
  8
M0
  6
DASHDOT
100
AcDbLine
 10
188.53374
 20
690.020896
 11
204.468219
 21
690.020896
  0
LINE
  5
4E8
100
AcDbEntity
  8
M0
  6
DASHDOT
100
AcDbLine
 10
195.831775
 20
682.618827
 11
195.831775
 21
698.480857
  0
LINE
  5
4E9
100
AcDbEntity
  8
M0
100
AcDbLine
 10
197.599444
 20
688.252585
 11
194.064105
 21
691.788474
  0
LINE
  5
4EA
100
AcDbEntity
  8
M0
100
AcDbLine
 10
194.240649
 20
689.48989
 11
196.362017
 21
691.611228
  0
LINE
  5
4EB
100
AcDbEntity
  8
M0
100
AcDbLine
 10
195.301242
 20
688.429343
 11
197.422625
 21
690.550681
  0
ARC
  5
4EC
100
AcDbEntity
  8
M0
100
AcDbCircle
 10
166.132541
 20
690.020163
 40
3.499997
100
AcDbArc
 50
314.437828
 51
585.561885
  0
LINE
  5
4ED
100
AcDbEntity
  8
M0
  6
DASHDOT
100
AcDbLine
 10
158.640652
 20
690.020163
 11
173.559985
 21
690.020163
  0
LINE
  5
4EE
100
AcDbEntity
  8
M0
100
AcDbLine
 10
167.90021
 20
688.251853
 11
164.364872
 21
691.787742
  0
LINE
  5
4EF
100
AcDbEntity
  8
M0
100
AcDbLine
 10
164.541416
 20
689.489158
 11
166.662783
 21
691.610495
  0
LINE
  5
4F0
100
AcDbEntity
  8
M0
100
AcDbLine
 10
165.602008
 20
688.428611
 11
167.723391
 21
690.549949
  0
ARC
  5
4F1
100
AcDbEntity
  8
M0
100
AcDbCircle
 10
136.432101
 20
690.020408
 40
3.499997
100
AcDbArc
 50
314.43231
 51
585.567693
  0
LINE
  5
4F2
100
AcDbEntity
  8
M0
  6
DASHDOT
100
AcDbLine
 10
129.037616
 20
690.020408
 11
144.301379
 21
690.020408
  0
LINE
  5
4F3
100
AcDbEntity
  8
M0
  6
DASHDOT
100
AcDbLine
 10
136.432101
 20
682.183768
 11
136.432101
 21
698.045798
  0
LINE
  5
4F4
100
AcDbEntity
  8
M0
100
AcDbLine
 10
138.199771
 20
688.252097
 11
134.664431
 21
691.787986
  0
LINE
  5
4F5
100
AcDbEntity
  8
M0
100
AcDbLine
 10
134.840976
 20
689.489402
 11
136.962344
 21
691.61074
  0
LINE
  5
4F6
100
AcDbEntity
  8
M0
100
AcDbLine
 10
135.901568
 20
688.428855
 11
138.022952
 21
690.550193
  0
ARC
  5
4F7
100
AcDbEntity
  8
M0
100
AcDbCircle
 10
195.832064
 20
594.020697
 40
3.499997
100
AcDbArc
 50
134.404754
 51
405.595603
  0
LINE
  5
4F8
100
AcDbEntity
  8
M0
  6
DASHDOT
100
AcDbLine
 10
188.769427
 20
594.020697
 11
204.123812
 21
594.020697
  0
LINE
  5
4F9
100
AcDbEntity
  8
M0
  6
DASHDOT
100
AcDbLine
 10
195.832064
 20
586.087088
 11
195.832064
 21
601.459632
  0
LINE
  5
4FA
100
AcDbEntity
  8
M0
100
AcDbLine
 10
197.599734
 20
592.252387
 11
194.064395
 21
595.788276
  0
LINE
  5
4FB
100
AcDbEntity
  8
M0
100
AcDbLine
 10
194.240939
 20
593.489692
 11
196.362307
 21
595.61103
  0
LINE
  5
4FC
100
AcDbEntity
  8
M0
100
AcDbLine
 10
195.301532
 20
592.429145
 11
197.422915
 21
594.550483
  0
ARC
  5
4FD
100
AcDbEntity
  8
M0
100
AcDbCircle
 10
166.132098
 20
594.020697
 40
3.499997
100
AcDbArc
 50
134.404014
 51
405.596064
  0
LINE
  5
4FE
100
AcDbEntity
  8
M0
  6
DASHDOT
100
AcDbLine
 10
157.861164
 20
594.020697
 11
174.158206
 21
594.020697
  0
LINE
  5
4FF
100
AcDbEntity
  8
M0
100
AcDbLine
 10
167.899768
 20
592.252387
 11
164.364429
 21
595.788276
  0
LINE
  5
500
100
AcDbEntity
  8
M0
100
AcDbLine
 10
164.540973
 20
593.489692
 11
166.662341
 21
595.61103
  0
LINE
  5
501
100
AcDbEntity
  8
M0
100
AcDbLine
 10
165.601565
 20
592.429145
 11
167.722949
 21
594.550483
  0
ARC
  5
502
100
AcDbEntity
  8
M0
100
AcDbCircle
 10
136.432055
 20
594.020697
 40
3.499997
100
AcDbArc
 50
134.403869
 51
405.595952
  0
LINE
  5
503
100
AcDbEntity
  8
M0
  6
DASHDOT
100
AcDbLine
 10
127.36986
 20
594.020697
 11
144.392016
 21
594.020697
  0
LINE
  5
504
100
AcDbEntity
  8
M0
  6
DASHDOT
100
AcDbLine
 10
136.432055
 20
586.46778
 11
136.432055
 21
601.242103
  0
LINE
  5
505
100
AcDbEntity
  8
M0
100
AcDbLine
 10
138.199725
 20
592.252387
 11
134.664386
 21
595.788276
  0
LINE
  5
506
100
AcDbEntity
  8
M0
100
AcDbLine
 10
134.84093
 20
593.489692
 11
136.962298
 21
595.61103
  0
LINE
  5
507
100
AcDbEntity
  8
M0
100
AcDbLine
 10
135.901522
 20
592.429145
 11
138.022906
 21
594.550483
  0
LINE
  5
508
100
AcDbEntity
  8
M0
100
AcDbLine
 10
219.531955
 20
665.120017
 11
221.352023
 21
665.120017
  0
LINE
  5
509
100
AcDbEntity
  8
M0
100
AcDbLine
 10
216.731906
 20
665.120017
 11
214.911837
 21
665.120017
  0
LINE
  5
50A
100
AcDbEntity
  8
M0
100
AcDbLine
 10
220.612765
 20
666.320212
 11
215.651095
 21
666.319968
  0
ARC
  5
50B
100
AcDbEntity
  8
M0
100
AcDbCircle
 10
215.651095
 20
665.819968
 40
0.5
100
AcDbArc
 50
90.0
 51
162.856778
  0
ARC
  5
50C
100
AcDbEntity
  8
M0
100
AcDbCircle
 10
220.612765
 20
665.819968
 40
0.5
100
AcDbArc
 50
17.151452
 51
90.0
  0
CIRCLE
  5
50D
100
AcDbEntity
  8
M0
100
AcDbCircle
 10
218.132052
 20
662.020163
 40
2.999997
  0
LINE
  5
50E
100
AcDbEntity
  8
M0
100
AcDbLine
 10
215.173068
 20
665.967429
 11
214.356906
 21
663.320212
  0
LINE
  5
50F
100
AcDbEntity
  8
M0
100
AcDbLine
 10
215.173068
 20
658.072898
 11
214.356906
 21
660.720115
  0
LINE
  5
510
100
AcDbEntity
  8
M0
100
AcDbLine
 10
221.090548
 20
665.967429
 11
221.906955
 21
663.320212
  0
LINE
  5
511
100
AcDbEntity
  8
M0
100
AcDbLine
 10
221.090548
 20
658.072898
 11
221.906955
 21
660.720115
  0
LINE
  5
512
100
AcDbEntity
  8
M0
100
AcDbLine
 10
220.453585
 20
663.920066
 11
221.721896
 21
663.920066
  0
LINE
  5
513
100
AcDbEntity
  8
M0
100
AcDbLine
 10
220.453585
 20
660.120017
 11
221.721896
 21
660.120017
  0
LINE
  5
514
100
AcDbEntity
  8
M0
100
AcDbLine
 10
219.531955
 20
658.920066
 11
221.352023
 21
658.920066
  0
LINE
  5
515
100
AcDbEntity
  8
M0
100
AcDbLine
 10
215.810275
 20
663.920066
 11
214.541964
 21
663.920066
  0
LINE
  5
516
100
AcDbEntity
  8
M0
100
AcDbLine
 10
215.810275
 20
660.120017
 11
214.541964
 21
660.120017
  0
LINE
  5
517
100
AcDbEntity
  8
M0
100
AcDbLine
 10
216.731906
 20
658.920066
 11
214.911837
 21
658.920066
  0
LINE
  5
518
100
AcDbEntity
  8
M0
100
AcDbLine
 10
215.651095
 20
657.720115
 11
220.612765
 21
657.720115
  0
LINE
  5
519
100
AcDbEntity
  8
M0
100
AcDbLine
 10
221.906955
 20
660.720115
 11
221.906955
 21
663.320212
  0
LINE
  5
51A
100
AcDbEntity
  8
M0
100
AcDbLine
 10
214.356906
 20
663.320212
 11
214.356906
 21
660.720115
  0
LINE
  5
51B
100
AcDbEntity
  8
M0
  6
DASHDOT
100
AcDbLine
 10
211.856906
 20
662.020163
 11
224.406955
 21
662.020163
  0
LINE
  5
51C
100
AcDbEntity
  8
M0
100
AcDbLine
 10
219.531955
 20
658.920066
 11
219.531955
 21
659.366843
  0
LINE
  5
51D
100
AcDbEntity
  8
M0
100
AcDbLine
 10
219.531955
 20
664.673484
 11
219.531955
 21
665.120017
  0
LINE
  5
51E
100
AcDbEntity
  8
M0
100
AcDbLine
 10
216.731906
 20
664.673484
 11
216.731906
 21
665.120017
  0
LINE
  5
51F
100
AcDbEntity
  8
M0
100
AcDbLine
 10
216.731906
 20
658.920066
 11
216.731906
 21
659.366843
  0
LINE
  5
520
100
AcDbEntity
  8
M0
100
AcDbLine
 10
219.722628
 20
660.429343
 11
216.540988
 21
663.610984
  0
LINE
  5
521
100
AcDbEntity
  8
M0
100
AcDbLine
 10
218.485324
 20
663.434226
 11
216.717746
 21
661.666648
  0
LINE
  5
522
100
AcDbEntity
  8
M0
100
AcDbLine
 10
219.545871
 20
662.373679
 11
217.778292
 21
660.606101
  0
ARC
  5
523
100
AcDbEntity
  8
M0
100
AcDbCircle
 10
215.651095
 20
658.220115
 40
0.5
100
AcDbArc
 50
197.11777
 51
269.998251
  0
ARC
  5
524
100
AcDbEntity
  8
M0
100
AcDbCircle
 10
220.612765
 20
658.220115
 40
0.5
100
AcDbArc
 50
269.998251
 51
342.874517
  0
LINE
  5
525
100
AcDbEntity
  8
M0
  6
DASHDOT
100
AcDbLine
 10
218.132052
 20
655.65666
 11
218.132052
 21
668.820212
  0
LINE
  5
526
100
AcDbEntity
  8
M0
100
AcDbLine
 10
219.531955
 20
655.620475
 11
221.352023
 21
655.620475
  0
LINE
  5
527
100
AcDbEntity
  8
M0
100
AcDbLine
 10
216.731906
 20
655.620475
 11
214.911837
 21
655.620475
  0
LINE
  5
528
100
AcDbEntity
  8
M0
100
AcDbLine
 10
220.612765
 20
656.82067
 11
215.651095
 21
656.820426
  0
ARC
  5
529
100
AcDbEntity
  8
M0
100
AcDbCircle
 10
215.651095
 20
656.320426
 40
0.5
100
AcDbArc
 50
90.0
 51
162.856673
  0
ARC
  5
52A
100
AcDbEntity
  8
M0
100
AcDbCircle
 10
220.612765
 20
656.320426
 40
0.5
100
AcDbArc
 50
17.152392
 51
90.0
  0
CIRCLE
  5
52B
100
AcDbEntity
  8
M0
100
AcDbCircle
 10
218.132052
 20
652.520621
 40
2.999997
  0
LINE
  5
52C
100
AcDbEntity
  8
M0
100
AcDbLine
 10
215.173068
 20
656.467887
 11
214.356906
 21
653.82067
  0
LINE
  5
52D
100
AcDbEntity
  8
M0
100
AcDbLine
 10
215.173068
 20
648.573356
 11
214.356906
 21
651.220572
  0
LINE
  5
52E
100
AcDbEntity
  8
M0
100
AcDbLine
 10
221.090548
 20
656.467887
 11
221.906955
 21
653.82067
  0
LINE
  5
52F
100
AcDbEntity
  8
M0
100
AcDbLine
 10
221.090548
 20
648.573356
 11
221.906955
 21
651.220572
  0
LINE
  5
530
100
AcDbEntity
  8
M0
100
AcDbLine
 10
220.453585
 20
654.420524
 11
221.721896
 21
654.420524
  0
LINE
  5
531
100
AcDbEntity
  8
M0
100
AcDbLine
 10
220.453585
 20
650.620475
 11
221.721896
 21
650.620475
  0
LINE
  5
532
100
AcDbEntity
  8
M0
100
AcDbLine
 10
219.531955
 20
649.420524
 11
221.352023
 21
649.420524
  0
LINE
  5
533
100
AcDbEntity
  8
M0
100
AcDbLine
 10
215.810275
 20
654.420524
 11
214.541964
 21
654.420524
  0
LINE
  5
534
100
AcDbEntity
  8
M0
100
AcDbLine
 10
215.810275
 20
650.620475
 11
214.541964
 21
650.620475
  0
LINE
  5
535
100
AcDbEntity
  8
M0
100
AcDbLine
 10
216.731906
 20
649.420524
 11
214.911837
 21
649.420524
  0
LINE
  5
536
100
AcDbEntity
  8
M0
100
AcDbLine
 10
215.651095
 20
648.220572
 11
220.612765
 21
648.220572
  0
LINE
  5
537
100
AcDbEntity
  8
M0
100
AcDbLine
 10
221.906955
 20
651.220572
 11
221.906955
 21
653.82067
  0
LINE
  5
538
100
AcDbEntity
  8
M0
100
AcDbLine
 10
214.356906
 20
653.82067
 11
214.356906
 21
651.220572
  0
LINE
  5
539
100
AcDbEntity
  8
M0
  6
DASHDOT
100
AcDbLine
 10
211.856906
 20
652.520621
 11
224.406955
 21
652.520621
  0
LINE
  5
53A
100
AcDbEntity
  8
M0
100
AcDbLine
 10
219.531955
 20
649.420524
 11
219.531955
 21
649.867301
  0
LINE
  5
53B
100
AcDbEntity
  8
M0
100
AcDbLine
 10
219.531955
 20
655.173941
 11
219.531955
 21
655.620475
  0
LINE
  5
53C
100
AcDbEntity
  8
M0
100
AcDbLine
 10
216.731906
 20
655.173941
 11
216.731906
 21
655.620475
  0
LINE
  5
53D
100
AcDbEntity
  8
M0
100
AcDbLine
 10
216.731906
 20
649.420524
 11
216.731906
 21
649.867301
  0
LINE
  5
53E
100
AcDbEntity
  8
M0
100
AcDbLine
 10
219.722628
 20
650.929801
 11
216.540988
 21
654.111441
  0
LINE
  5
53F
100
AcDbEntity
  8
M0
100
AcDbLine
 10
218.485324
 20
653.934684
 11
216.717746
 21
652.167106
  0
LINE
  5
540
100
AcDbEntity
  8
M0
100
AcDbLine
 10
219.545871
 20
652.874137
 11
217.778292
 21
651.106559
  0
ARC
  5
541
100
AcDbEntity
  8
M0
100
AcDbCircle
 10
215.651095
 20
648.720572
 40
0.5
100
AcDbArc
 50
197.116934
 51
269.998251
  0
ARC
  5
542
100
AcDbEntity
  8
M0
100
AcDbCircle
 10
220.612765
 20
648.720572
 40
0.5
100
AcDbArc
 50
269.998251
 51
342.874517
  0
LINE
  5
543
100
AcDbEntity
  8
M0
  6
DASHDOT
100
AcDbLine
 10
218.132052
 20
646.157118
 11
218.132052
 21
659.32067
  0
LINE
  5
544
100
AcDbEntity
  8
M0
100
AcDbLine
 10
219.531955
 20
634.621573
 11
221.352023
 21
634.621573
  0
LINE
  5
545
100
AcDbEntity
  8
M0
100
AcDbLine
 10
216.731906
 20
634.621573
 11
214.911837
 21
634.621573
  0
LINE
  5
546
100
AcDbEntity
  8
M0
100
AcDbLine
 10
220.612765
 20
635.821769
 11
215.651095
 21
635.821525
  0
ARC
  5
547
100
AcDbEntity
  8
M0
100
AcDbCircle
 10
215.651095
 20
635.321525
 40
0.5
100
AcDbArc
 50
90.0
 51
162.856569
  0
ARC
  5
548
100
AcDbEntity
  8
M0
100
AcDbCircle
 10
220.612765
 20
635.321525
 40
0.5
100
AcDbArc
 50
17.152497
 51
90.0
  0
CIRCLE
  5
549
100
AcDbEntity
  8
M0
100
AcDbCircle
 10
218.132052
 20
631.52172
 40
2.999997
  0
LINE
  5
54A
100
AcDbEntity
  8
M0
100
AcDbLine
 10
215.173068
 20
635.468985
 11
214.356906
 21
632.821769
  0
LINE
  5
54B
100
AcDbEntity
  8
M0
100
AcDbLine
 10
215.173068
 20
627.574454
 11
214.356906
 21
630.221671
  0
LINE
  5
54C
100
AcDbEntity
  8
M0
100
AcDbLine
 10
221.090548
 20
635.468985
 11
221.906955
 21
632.821769
  0
LINE
  5
54D
100
AcDbEntity
  8
M0
100
AcDbLine
 10
221.090548
 20
627.574454
 11
221.906955
 21
630.221671
  0
LINE
  5
54E
100
AcDbEntity
  8
M0
100
AcDbLine
 10
220.453585
 20
633.421622
 11
221.721896
 21
633.421622
  0
LINE
  5
54F
100
AcDbEntity
  8
M0
100
AcDbLine
 10
220.453585
 20
629.621573
 11
221.721896
 21
629.621573
  0
LINE
  5
550
100
AcDbEntity
  8
M0
100
AcDbLine
 10
219.531955
 20
628.421622
 11
221.352023
 21
628.421622
  0
LINE
  5
551
100
AcDbEntity
  8
M0
100
AcDbLine
 10
215.810275
 20
633.421622
 11
214.541964
 21
633.421622
  0
LINE
  5
552
100
AcDbEntity
  8
M0
100
AcDbLine
 10
215.810275
 20
629.621573
 11
214.541964
 21
629.621573
  0
LINE
  5
553
100
AcDbEntity
  8
M0
100
AcDbLine
 10
216.731906
 20
628.421622
 11
214.911837
 21
628.421622
  0
LINE
  5
554
100
AcDbEntity
  8
M0
100
AcDbLine
 10
215.651095
 20
627.221671
 11
220.612765
 21
627.221671
  0
LINE
  5
555
100
AcDbEntity
  8
M0
100
AcDbLine
 10
221.906955
 20
630.221671
 11
221.906955
 21
632.821769
  0
LINE
  5
556
100
AcDbEntity
  8
M0
100
AcDbLine
 10
214.356906
 20
632.821769
 11
214.356906
 21
630.221671
  0
LINE
  5
557
100
AcDbEntity
  8
M0
  6
DASHDOT
100
AcDbLine
 10
211.856906
 20
631.52172
 11
224.406955
 21
631.52172
  0
LINE
  5
558
100
AcDbEntity
  8
M0
100
AcDbLine
 10
219.531955
 20
628.421622
 11
219.531955
 21
628.8684
  0
LINE
  5
559
100
AcDbEntity
  8
M0
100
AcDbLine
 10
219.531955
 20
634.17504
 11
219.531955
 21
634.621573
  0
LINE
  5
55A
100
AcDbEntity
  8
M0
100
AcDbLine
 10
216.731906
 20
634.17504
 11
216.731906
 21
634.621573
  0
LINE
  5
55B
100
AcDbEntity
  8
M0
100
AcDbLine
 10
216.731906
 20
628.421622
 11
216.731906
 21
628.8684
  0
LINE
  5
55C
100
AcDbEntity
  8
M0
100
AcDbLine
 10
219.722628
 20
629.9309
 11
216.540988
 21
633.11254
  0
LINE
  5
55D
100
AcDbEntity
  8
M0
100
AcDbLine
 10
218.485324
 20
632.935782
 11
216.717746
 21
631.168204
  0
LINE
  5
55E
100
AcDbEntity
  8
M0
100
AcDbLine
 10
219.545871
 20
631.875235
 11
217.778292
 21
630.107657
  0
ARC
  5
55F
100
AcDbEntity
  8
M0
100
AcDbCircle
 10
215.651095
 20
627.721671
 40
0.5
100
AcDbArc
 50
197.11683
 51
269.998251
  0
ARC
  5
560
100
AcDbEntity
  8
M0
100
AcDbCircle
 10
220.612765
 20
627.721671
 40
0.5
100
AcDbArc
 50
269.998251
 51
342.874621
  0
LINE
  5
561
100
AcDbEntity
  8
M0
  6
DASHDOT
100
AcDbLine
 10
218.132052
 20
625.158225
 11
218.132052
 21
638.321769
  0
LINE
  5
562
100
AcDbEntity
  8
M0
100
AcDbLine
 10
219.531955
 20
625.12052
 11
221.352023
 21
625.12052
  0
LINE
  5
563
100
AcDbEntity
  8
M0
100
AcDbLine
 10
216.731906
 20
625.12052
 11
214.911837
 21
625.12052
  0
LINE
  5
564
100
AcDbEntity
  8
M0
100
AcDbLine
 10
220.612765
 20
626.320716
 11
215.651095
 21
626.320472
  0
ARC
  5
565
100
AcDbEntity
  8
M0
100
AcDbCircle
 10
215.651095
 20
625.820472
 40
0.5
100
AcDbArc
 50
90.0
 51
162.855107
  0
ARC
  5
566
100
AcDbEntity
  8
M0
100
AcDbCircle
 10
220.612765
 20
625.820472
 40
0.5
100
AcDbArc
 50
17.153123
 51
90.0
  0
CIRCLE
  5
567
100
AcDbEntity
  8
M0
100
AcDbCircle
 10
218.132052
 20
622.020667
 40
2.999994
  0
LINE
  5
568
100
AcDbEntity
  8
M0
100
AcDbLine
 10
215.173068
 20
625.967933
 11
214.356906
 21
623.320716
  0
LINE
  5
569
100
AcDbEntity
  8
M0
100
AcDbLine
 10
215.173068
 20
618.073401
 11
214.356906
 21
620.720618
  0
LINE
  5
56A
100
AcDbEntity
  8
M0
100
AcDbLine
 10
221.090548
 20
625.967933
 11
221.906955
 21
623.320716
  0
LINE
  5
56B
100
AcDbEntity
  8
M0
100
AcDbLine
 10
221.090548
 20
618.073401
 11
221.906955
 21
620.720618
  0
LINE
  5
56C
100
AcDbEntity
  8
M0
100
AcDbLine
 10
220.453585
 20
623.920569
 11
221.721896
 21
623.920569
  0
LINE
  5
56D
100
AcDbEntity
  8
M0
100
AcDbLine
 10
220.453585
 20
620.12052
 11
221.721896
 21
620.12052
  0
LINE
  5
56E
100
AcDbEntity
  8
M0
100
AcDbLine
 10
219.531955
 20
618.920569
 11
221.352023
 21
618.920569
  0
LINE
  5
56F
100
AcDbEntity
  8
M0
100
AcDbLine
 10
215.810275
 20
623.920569
 11
214.541964
 21
623.920569
  0
LINE
  5
570
100
AcDbEntity
  8
M0
100
AcDbLine
 10
215.810275
 20
620.12052
 11
214.541964
 21
620.12052
  0
LINE
  5
571
100
AcDbEntity
  8
M0
100
AcDbLine
 10
216.731906
 20
618.920569
 11
214.911837
 21
618.920569
  0
LINE
  5
572
100
AcDbEntity
  8
M0
100
AcDbLine
 10
215.651095
 20
617.720618
 11
220.612765
 21
617.720618
  0
LINE
  5
573
100
AcDbEntity
  8
M0
100
AcDbLine
 10
221.906955
 20
620.720618
 11
221.906955
 21
623.320716
  0
LINE
  5
574
100
AcDbEntity
  8
M0
100
AcDbLine
 10
214.356906
 20
623.320716
 11
214.356906
 21
620.720618
  0
LINE
  5
575
100
AcDbEntity
  8
M0
  6
DASHDOT
100
AcDbLine
 10
211.856906
 20
622.020667
 11
224.406955
 21
622.020667
  0
LINE
  5
576
100
AcDbEntity
  8
M0
100
AcDbLine
 10
219.531955
 20
618.920569
 11
219.531955
 21
619.367347
  0
LINE
  5
577
100
AcDbEntity
  8
M0
100
AcDbLine
 10
219.531955
 20
624.673987
 11
219.531955
 21
625.12052
  0
LINE
  5
578
100
AcDbEntity
  8
M0
100
AcDbLine
 10
216.731906
 20
624.673987
 11
216.731906
 21
625.12052
  0
LINE
  5
579
100
AcDbEntity
  8
M0
100
AcDbLine
 10
216.731906
 20
618.920569
 11
216.731906
 21
619.367347
  0
LINE
  5
57A
100
AcDbEntity
  8
M0
100
AcDbLine
 10
219.722628
 20
620.429847
 11
216.540988
 21
623.611487
  0
LINE
  5
57B
100
AcDbEntity
  8
M0
100
AcDbLine
 10
218.485324
 20
623.434729
 11
216.717746
 21
621.667151
  0
LINE
  5
57C
100
AcDbEntity
  8
M0
100
AcDbLine
 10
219.545871
 20
622.374183
 11
217.778292
 21
620.606604
  0
ARC
  5
57D
100
AcDbEntity
  8
M0
100
AcDbCircle
 10
215.651095
 20
618.220618
 40
0.5
100
AcDbArc
 50
197.116099
 51
269.998251
  0
ARC
  5
57E
100
AcDbEntity
  8
M0
100
AcDbCircle
 10
220.612765
 20
618.220618
 40
0.5
100
AcDbArc
 50
269.998251
 51
342.876188
  0
LINE
  5
57F
100
AcDbEntity
  8
M0
  6
DASHDOT
100
AcDbLine
 10
218.132052
 20
615.657142
 11
218.132052
 21
628.820716
  0
LINE
  5
580
100
AcDbEntity
  8
M0
100
AcDbLine
 10
115.53197
 20
665.121238
 11
117.352038
 21
665.121238
  0
LINE
  5
581
100
AcDbEntity
  8
M0
100
AcDbLine
 10
112.731921
 20
665.121238
 11
110.911853
 21
665.121238
  0
LINE
  5
582
100
AcDbEntity
  8
M0
100
AcDbLine
 10
116.61278
 20
666.321433
 11
111.65111
 21
666.321189
  0
ARC
  5
583
100
AcDbEntity
  8
M0
100
AcDbCircle
 10
111.65111
 20
665.821189
 40
0.5
100
AcDbArc
 50
89.998251
 51
162.856262
  0
ARC
  5
584
100
AcDbEntity
  8
M0
100
AcDbCircle
 10
116.61278
 20
665.821189
 40
0.5
100
AcDbArc
 50
17.150937
 51
89.998251
  0
CIRCLE
  5
585
100
AcDbEntity
  8
M0
100
AcDbCircle
 10
114.132067
 20
662.021384
 40
2.999994
  0
LINE
  5
586
100
AcDbEntity
  8
M0
100
AcDbLine
 10
111.173083
 20
665.96865
 11
110.356921
 21
663.321433
  0
LINE
  5
587
100
AcDbEntity
  8
M0
100
AcDbLine
 10
111.173083
 20
658.074118
 11
110.356921
 21
660.721335
  0
LINE
  5
588
100
AcDbEntity
  8
M0
100
AcDbLine
 10
117.090564
 20
665.96865
 11
117.90697
 21
663.321433
  0
LINE
  5
589
100
AcDbEntity
  8
M0
100
AcDbLine
 10
117.090564
 20
658.074118
 11
117.90697
 21
660.721335
  0
LINE
  5
58A
100
AcDbEntity
  8
M0
100
AcDbLine
 10
116.453601
 20
663.921286
 11
117.721911
 21
663.921286
  0
LINE
  5
58B
100
AcDbEntity
  8
M0
100
AcDbLine
 10
116.453601
 20
660.121238
 11
117.721911
 21
660.121238
  0
LINE
  5
58C
100
AcDbEntity
  8
M0
100
AcDbLine
 10
115.53197
 20
658.921286
 11
117.352038
 21
658.921286
  0
LINE
  5
58D
100
AcDbEntity
  8
M0
100
AcDbLine
 10
111.81029
 20
663.921286
 11
110.54198
 21
663.921286
  0
LINE
  5
58E
100
AcDbEntity
  8
M0
100
AcDbLine
 10
111.81029
 20
660.121238
 11
110.54198
 21
660.121238
  0
LINE
  5
58F
100
AcDbEntity
  8
M0
100
AcDbLine
 10
112.731921
 20
658.921286
 11
110.911853
 21
658.921286
  0
LINE
  5
590
100
AcDbEntity
  8
M0
100
AcDbLine
 10
111.65111
 20
657.721335
 11
116.61278
 21
657.721335
  0
LINE
  5
591
100
AcDbEntity
  8
M0
100
AcDbLine
 10
117.90697
 20
660.721335
 11
117.90697
 21
663.321433
  0
LINE
  5
592
100
AcDbEntity
  8
M0
100
AcDbLine
 10
110.356921
 20
663.321433
 11
110.356921
 21
660.721335
  0
LINE
  5
593
100
AcDbEntity
  8
M0
  6
DASHDOT
100
AcDbLine
 10
107.856921
 20
662.021384
 11
120.40697
 21
662.021384
  0
LINE
  5
594
100
AcDbEntity
  8
M0
100
AcDbLine
 10
115.53197
 20
658.921286
 11
115.53197
 21
659.368064
  0
LINE
  5
595
100
AcDbEntity
  8
M0
100
AcDbLine
 10
115.53197
 20
664.674704
 11
115.53197
 21
665.121238
  0
LINE
  5
596
100
AcDbEntity
  8
M0
100
AcDbLine
 10
112.731921
 20
664.674704
 11
112.731921
 21
665.121238
  0
LINE
  5
597
100
AcDbEntity
  8
M0
100
AcDbLine
 10
112.731921
 20
658.921286
 11
112.731921
 21
659.368064
  0
LINE
  5
598
100
AcDbEntity
  8
M0
100
AcDbLine
 10
115.722644
 20
660.430564
 11
112.541003
 21
663.612204
  0
LINE
  5
599
100
AcDbEntity
  8
M0
100
AcDbLine
 10
114.485339
 20
663.435447
 11
112.717761
 21
661.667868
  0
LINE
  5
59A
100
AcDbEntity
  8
M0
100
AcDbLine
 10
115.545886
 20
662.3749
 11
113.778308
 21
660.607322
  0
ARC
  5
59B
100
AcDbEntity
  8
M0
100
AcDbCircle
 10
111.65111
 20
658.221335
 40
0.5
100
AcDbArc
 50
197.118284
 51
270.0
  0
ARC
  5
59C
100
AcDbEntity
  8
M0
100
AcDbCircle
 10
116.61278
 20
658.221335
 40
0.5
100
AcDbArc
 50
270.0
 51
342.875032
  0
LINE
  5
59D
100
AcDbEntity
  8
M0
  6
DASHDOT
100
AcDbLine
 10
114.132067
 20
655.657859
 11
114.132067
 21
668.821433
  0
LINE
  5
59E
100
AcDbEntity
  8
M0
100
AcDbLine
 10
115.53197
 20
655.620475
 11
117.352038
 21
655.620475
  0
LINE
  5
59F
100
AcDbEntity
  8
M0
100
AcDbLine
 10
112.731921
 20
655.620475
 11
110.911853
 21
655.620475
  0
LINE
  5
5A0
100
AcDbEntity
  8
M0
100
AcDbLine
 10
116.61278
 20
656.82067
 11
111.65111
 21
656.820426
  0
ARC
  5
5A1
100
AcDbEntity
  8
M0
100
AcDbCircle
 10
111.65111
 20
656.320426
 40
0.5
100
AcDbArc
 50
89.998251
 51
162.856158
  0
ARC
  5
5A2
100
AcDbEntity
  8
M0
100
AcDbCircle
 10
116.61278
 20
656.320426
 40
0.5
100
AcDbArc
 50
17.151876
 51
89.998251
  0
CIRCLE
  5
5A3
100
AcDbEntity
  8
M0
100
AcDbCircle
 10
114.132067
 20
652.520621
 40
2.999994
  0
LINE
  5
5A4
100
AcDbEntity
  8
M0
100
AcDbLine
 10
111.173083
 20
656.467887
 11
110.356921
 21
653.82067
  0
LINE
  5
5A5
100
AcDbEntity
  8
M0
100
AcDbLine
 10
111.173083
 20
648.573356
 11
110.356921
 21
651.220572
  0
LINE
  5
5A6
100
AcDbEntity
  8
M0
100
AcDbLine
 10
117.090564
 20
656.467887
 11
117.90697
 21
653.82067
  0
LINE
  5
5A7
100
AcDbEntity
  8
M0
100
AcDbLine
 10
117.090564
 20
648.573356
 11
117.90697
 21
651.220572
  0
LINE
  5
5A8
100
AcDbEntity
  8
M0
100
AcDbLine
 10
116.453601
 20
654.420524
 11
117.721911
 21
654.420524
  0
LINE
  5
5A9
100
AcDbEntity
  8
M0
100
AcDbLine
 10
116.453601
 20
650.620475
 11
117.721911
 21
650.620475
  0
LINE
  5
5AA
100
AcDbEntity
  8
M0
100
AcDbLine
 10
115.53197
 20
649.420524
 11
117.352038
 21
649.420524
  0
LINE
  5
5AB
100
AcDbEntity
  8
M0
100
AcDbLine
 10
111.81029
 20
654.420524
 11
110.54198
 21
654.420524
  0
LINE
  5
5AC
100
AcDbEntity
  8
M0
100
AcDbLine
 10
111.81029
 20
650.620475
 11
110.54198
 21
650.620475
  0
LINE
  5
5AD
100
AcDbEntity
  8
M0
100
AcDbLine
 10
112.731921
 20
649.420524
 11
110.911853
 21
649.420524
  0
LINE
  5
5AE
100
AcDbEntity
  8
M0
100
AcDbLine
 10
111.65111
 20
648.220572
 11
116.61278
 21
648.220572
  0
LINE
  5
5AF
100
AcDbEntity
  8
M0
100
AcDbLine
 10
117.90697
 20
651.220572
 11
117.90697
 21
653.82067
  0
LINE
  5
5B0
100
AcDbEntity
  8
M0
100
AcDbLine
 10
110.356921
 20
653.82067
 11
110.356921
 21
651.220572
  0
LINE
  5
5B1
100
AcDbEntity
  8
M0
  6
DASHDOT
100
AcDbLine
 10
107.856921
 20
652.520621
 11
120.40697
 21
652.520621
  0
LINE
  5
5B2
100
AcDbEntity
  8
M0
100
AcDbLine
 10
115.53197
 20
649.420524
 11
115.53197
 21
649.867301
  0
LINE
  5
5B3
100
AcDbEntity
  8
M0
100
AcDbLine
 10
115.53197
 20
655.173941
 11
115.53197
 21
655.620475
  0
LINE
  5
5B4
100
AcDbEntity
  8
M0
100
AcDbLine
 10
112.731921
 20
655.173941
 11
112.731921
 21
655.620475
  0
LINE
  5
5B5
100
AcDbEntity
  8
M0
100
AcDbLine
 10
112.731921
 20
649.420524
 11
112.731921
 21
649.867301
  0
LINE
  5
5B6
100
AcDbEntity
  8
M0
100
AcDbLine
 10
115.722644
 20
650.929801
 11
112.541003
 21
654.111441
  0
LINE
  5
5B7
100
AcDbEntity
  8
M0
100
AcDbLine
 10
114.485339
 20
653.934684
 11
112.717761
 21
652.167106
  0
LINE
  5
5B8
100
AcDbEntity
  8
M0
100
AcDbLine
 10
115.545886
 20
652.874137
 11
113.778308
 21
651.106559
  0
ARC
  5
5B9
100
AcDbEntity
  8
M0
100
AcDbCircle
 10
111.65111
 20
648.720572
 40
0.5
100
AcDbArc
 50
197.117449
 51
270.0
  0
ARC
  5
5BA
100
AcDbEntity
  8
M0
100
AcDbCircle
 10
116.61278
 20
648.720572
 40
0.5
100
AcDbArc
 50
270.0
 51
342.875032
  0
LINE
  5
5BB
100
AcDbEntity
  8
M0
  6
DASHDOT
100
AcDbLine
 10
114.132067
 20
646.157096
 11
114.132067
 21
659.32067
  0
LINE
  5
5BC
100
AcDbEntity
  8
M0
100
AcDbLine
 10
115.53197
 20
634.620292
 11
117.352038
 21
634.620292
  0
LINE
  5
5BD
100
AcDbEntity
  8
M0
100
AcDbLine
 10
112.731921
 20
634.620292
 11
110.911853
 21
634.620292
  0
LINE
  5
5BE
100
AcDbEntity
  8
M0
100
AcDbLine
 10
116.61278
 20
635.820487
 11
111.65111
 21
635.820243
  0
ARC
  5
5BF
100
AcDbEntity
  8
M0
100
AcDbCircle
 10
111.65111
 20
635.320243
 40
0.5
100
AcDbArc
 50
89.998251
 51
162.856053
  0
ARC
  5
5C0
100
AcDbEntity
  8
M0
100
AcDbCircle
 10
116.61278
 20
635.320243
 40
0.5
100
AcDbArc
 50
17.151981
 51
89.998251
  0
CIRCLE
  5
5C1
100
AcDbEntity
  8
M0
100
AcDbCircle
 10
114.132067
 20
631.520438
 40
2.999994
  0
LINE
  5
5C2
100
AcDbEntity
  8
M0
100
AcDbLine
 10
111.173083
 20
635.467704
 11
110.356921
 21
632.820487
  0
LINE
  5
5C3
100
AcDbEntity
  8
M0
100
AcDbLine
 10
111.173083
 20
627.573172
 11
110.356921
 21
630.220389
  0
LINE
  5
5C4
100
AcDbEntity
  8
M0
100
AcDbLine
 10
117.090564
 20
635.467704
 11
117.90697
 21
632.820487
  0
LINE
  5
5C5
100
AcDbEntity
  8
M0
100
AcDbLine
 10
117.090564
 20
627.573172
 11
117.90697
 21
630.220389
  0
LINE
  5
5C6
100
AcDbEntity
  8
M0
100
AcDbLine
 10
116.453601
 20
633.42034
 11
117.721911
 21
633.42034
  0
LINE
  5
5C7
100
AcDbEntity
  8
M0
100
AcDbLine
 10
116.453601
 20
629.620292
 11
117.721911
 21
629.620292
  0
LINE
  5
5C8
100
AcDbEntity
  8
M0
100
AcDbLine
 10
115.53197
 20
628.42034
 11
117.352038
 21
628.42034
  0
LINE
  5
5C9
100
AcDbEntity
  8
M0
100
AcDbLine
 10
111.81029
 20
633.42034
 11
110.54198
 21
633.42034
  0
LINE
  5
5CA
100
AcDbEntity
  8
M0
100
AcDbLine
 10
111.81029
 20
629.620292
 11
110.54198
 21
629.620292
  0
LINE
  5
5CB
100
AcDbEntity
  8
M0
100
AcDbLine
 10
112.731921
 20
628.42034
 11
110.911853
 21
628.42034
  0
LINE
  5
5CC
100
AcDbEntity
  8
M0
100
AcDbLine
 10
111.65111
 20
627.220389
 11
116.61278
 21
627.220389
  0
LINE
  5
5CD
100
AcDbEntity
  8
M0
100
AcDbLine
 10
117.90697
 20
630.220389
 11
117.90697
 21
632.820487
  0
LINE
  5
5CE
100
AcDbEntity
  8
M0
100
AcDbLine
 10
110.356921
 20
632.820487
 11
110.356921
 21
630.220389
  0
LINE
  5
5CF
100
AcDbEntity
  8
M0
  6
DASHDOT
100
AcDbLine
 10
107.856921
 20
631.520438
 11
120.40697
 21
631.520438
  0
LINE
  5
5D0
100
AcDbEntity
  8
M0
100
AcDbLine
 10
115.53197
 20
628.42034
 11
115.53197
 21
628.867118
  0
LINE
  5
5D1
100
AcDbEntity
  8
M0
100
AcDbLine
 10
115.53197
 20
634.173758
 11
115.53197
 21
634.620292
  0
LINE
  5
5D2
100
AcDbEntity
  8
M0
100
AcDbLine
 10
112.731921
 20
634.173758
 11
112.731921
 21
634.620292
  0
LINE
  5
5D3
100
AcDbEntity
  8
M0
100
AcDbLine
 10
112.731921
 20
628.42034
 11
112.731921
 21
628.867118
  0
LINE
  5
5D4
100
AcDbEntity
  8
M0
100
AcDbLine
 10
115.722644
 20
629.929618
 11
112.541003
 21
633.111258
  0
LINE
  5
5D5
100
AcDbEntity
  8
M0
100
AcDbLine
 10
114.485339
 20
632.934501
 11
112.717761
 21
631.166922
  0
LINE
  5
5D6
100
AcDbEntity
  8
M0
100
AcDbLine
 10
115.545886
 20
631.873954
 11
113.778308
 21
630.106376
  0
ARC
  5
5D7
100
AcDbEntity
  8
M0
100
AcDbCircle
 10
111.65111
 20
627.720389
 40
0.5
100
AcDbArc
 50
197.117344
 51
270.0
  0
ARC
  5
5D8
100
AcDbEntity
  8
M0
100
AcDbCircle
 10
116.61278
 20
627.720389
 40
0.5
100
AcDbArc
 50
270.0
 51
342.875136
  0
LINE
  5
5D9
100
AcDbEntity
  8
M0
  6
DASHDOT
100
AcDbLine
 10
114.132067
 20
625.156913
 11
114.132067
 21
638.320487
  0
LINE
  5
5DA
100
AcDbEntity
  8
M0
100
AcDbLine
 10
115.53197
 20
625.120536
 11
117.352038
 21
625.120536
  0
LINE
  5
5DB
100
AcDbEntity
  8
M0
100
AcDbLine
 10
112.731921
 20
625.120536
 11
110.911853
 21
625.120536
  0
LINE
  5
5DC
100
AcDbEntity
  8
M0
100
AcDbLine
 10
116.61278
 20
626.320731
 11
111.65111
 21
626.320487
  0
ARC
  5
5DD
100
AcDbEntity
  8
M0
100
AcDbCircle
 10
111.65111
 20
625.820487
 40
0.5
100
AcDbArc
 50
89.998251
 51
162.854591
  0
ARC
  5
5DE
100
AcDbEntity
  8
M0
100
AcDbCircle
 10
116.61278
 20
625.820487
 40
0.5
100
AcDbArc
 50
17.152607
 51
89.998251
  0
CIRCLE
  5
5DF
100
AcDbEntity
  8
M0
100
AcDbCircle
 10
114.132067
 20
622.020682
 40
2.999994
  0
LINE
  5
5E0
100
AcDbEntity
  8
M0
100
AcDbLine
 10
111.173083
 20
625.967948
 11
110.356921
 21
623.320731
  0
LINE
  5
5E1
100
AcDbEntity
  8
M0
100
AcDbLine
 10
111.173083
 20
618.073417
 11
110.356921
 21
620.720633
  0
LINE
  5
5E2
100
AcDbEntity
  8
M0
100
AcDbLine
 10
117.090564
 20
625.967948
 11
117.90697
 21
623.320731
  0
LINE
  5
5E3
100
AcDbEntity
  8
M0
100
AcDbLine
 10
117.090564
 20
618.073417
 11
117.90697
 21
620.720633
  0
LINE
  5
5E4
100
AcDbEntity
  8
M0
100
AcDbLine
 10
116.453601
 20
623.920585
 11
117.721911
 21
623.920585
  0
LINE
  5
5E5
100
AcDbEntity
  8
M0
100
AcDbLine
 10
116.453601
 20
620.120536
 11
117.721911
 21
620.120536
  0
LINE
  5
5E6
100
AcDbEntity
  8
M0
100
AcDbLine
 10
115.53197
 20
618.920585
 11
117.352038
 21
618.920585
  0
LINE
  5
5E7
100
AcDbEntity
  8
M0
100
AcDbLine
 10
111.81029
 20
623.920585
 11
110.54198
 21
623.920585
  0
LINE
  5
5E8
100
AcDbEntity
  8
M0
100
AcDbLine
 10
111.81029
 20
620.120536
 11
110.54198
 21
620.120536
  0
LINE
  5
5E9
100
AcDbEntity
  8
M0
100
AcDbLine
 10
112.731921
 20
618.920585
 11
110.911853
 21
618.920585
  0
LINE
  5
5EA
100
AcDbEntity
  8
M0
100
AcDbLine
 10
111.65111
 20
617.720633
 11
116.61278
 21
617.720633
  0
LINE
  5
5EB
100
AcDbEntity
  8
M0
100
AcDbLine
 10
117.90697
 20
620.720633
 11
117.90697
 21
623.320731
  0
LINE
  5
5EC
100
AcDbEntity
  8
M0
100
AcDbLine
 10
110.356921
 20
623.320731
 11
110.356921
 21
620.720633
  0
LINE
  5
5ED
100
AcDbEntity
  8
M0
  6
DASHDOT
100
AcDbLine
 10
107.856921
 20
622.020682
 11
120.40697
 21
622.020682
  0
LINE
  5
5EE
100
AcDbEntity
  8
M0
100
AcDbLine
 10
115.53197
 20
618.920585
 11
115.53197
 21
619.367362
  0
LINE
  5
5EF
100
AcDbEntity
  8
M0
100
AcDbLine
 10
115.53197
 20
624.674003
 11
115.53197
 21
625.120536
  0
LINE
  5
5F0
100
AcDbEntity
  8
M0
100
AcDbLine
 10
112.731921
 20
624.674003
 11
112.731921
 21
625.120536
  0
LINE
  5
5F1
100
AcDbEntity
  8
M0
100
AcDbLine
 10
112.731921
 20
618.920585
 11
112.731921
 21
619.367362
  0
LINE
  5
5F2
100
AcDbEntity
  8
M0
100
AcDbLine
 10
115.722644
 20
620.429862
 11
112.541003
 21
623.611503
  0
LINE
  5
5F3
100
AcDbEntity
  8
M0
100
AcDbLine
 10
114.485339
 20
623.434745
 11
112.717761
 21
621.667167
  0
LINE
  5
5F4
100
AcDbEntity
  8
M0
100
AcDbLine
 10
115.545886
 20
622.374198
 11
113.778308
 21
620.60662
  0
ARC
  5
5F5
100
AcDbEntity
  8
M0
100
AcDbCircle
 10
111.65111
 20
618.220633
 40
0.5
100
AcDbArc
 50
197.116613
 51
270.0
  0
ARC
  5
5F6
100
AcDbEntity
  8
M0
100
AcDbCircle
 10
116.61278
 20
618.220633
 40
0.5
100
AcDbArc
 50
270.0
 51
342.876703
  0
LINE
  5
5F7
100
AcDbEntity
  8
M0
  6
DASHDOT
100
AcDbLine
 10
114.132067
 20
615.657157
 11
114.132067
 21
628.820731
  0
LINE
  5
5F8
100
AcDbEntity
  8
M0
100
AcDbLine
 10
186.532489
 20
712.620749
 11
188.352557
 21
712.620749
  0
LINE
  5
5F9
100
AcDbEntity
  8
M0
100
AcDbLine
 10
183.73244
 20
712.620749
 11
181.912371
 21
712.620749
  0
LINE
  5
5FA
100
AcDbEntity
  8
M0
100
AcDbLine
 10
187.613299
 20
713.820945
 11
182.651629
 21
713.820701
  0
ARC
  5
5FB
100
AcDbEntity
  8
M0
100
AcDbCircle
 10
182.651629
 20
713.320701
 40
0.5
100
AcDbArc
 50
90.0
 51
162.856778
  0
ARC
  5
5FC
100
AcDbEntity
  8
M0
100
AcDbCircle
 10
187.613299
 20
713.320701
 40
0.5
100
AcDbArc
 50
17.151452
 51
90.0
  0
CIRCLE
  5
5FD
100
AcDbEntity
  8
M0
100
AcDbCircle
 10
185.132586
 20
709.520896
 40
2.999994
  0
LINE
  5
5FE
100
AcDbEntity
  8
M0
100
AcDbLine
 10
182.173602
 20
713.468161
 11
181.35744
 21
710.820945
  0
LINE
  5
5FF
100
AcDbEntity
  8
M0
100
AcDbLine
 10
182.173602
 20
705.57363
 11
181.35744
 21
708.220847
  0
LINE
  5
600
100
AcDbEntity
  8
M0
100
AcDbLine
 10
188.091082
 20
713.468161
 11
188.907489
 21
710.820945
  0
LINE
  5
601
100
AcDbEntity
  8
M0
100
AcDbLine
 10
188.091082
 20
705.57363
 11
188.907489
 21
708.220847
  0
LINE
  5
602
100
AcDbEntity
  8
M0
100
AcDbLine
 10
187.454119
 20
711.420798
 11
188.72243
 21
711.420798
  0
LINE
  5
603
100
AcDbEntity
  8
M0
100
AcDbLine
 10
187.454119
 20
707.620749
 11
188.72243
 21
707.620749
  0
LINE
  5
604
100
AcDbEntity
  8
M0
100
AcDbLine
 10
186.532489
 20
706.420798
 11
188.352557
 21
706.420798
  0
LINE
  5
605
100
AcDbEntity
  8
M0
100
AcDbLine
 10
182.810809
 20
711.420798
 11
181.542498
 21
711.420798
  0
LINE
  5
606
100
AcDbEntity
  8
M0
100
AcDbLine
 10
182.810809
 20
707.620749
 11
181.542498
 21
707.620749
  0
LINE
  5
607
100
AcDbEntity
  8
M0
100
AcDbLine
 10
183.73244
 20
706.420798
 11
181.912371
 21
706.420798
  0
LINE
  5
608
100
AcDbEntity
  8
M0
100
AcDbLine
 10
188.907489
 20
708.220847
 11
188.907489
 21
710.820945
  0
LINE
  5
609
100
AcDbEntity
  8
M0
100
AcDbLine
 10
181.35744
 20
710.820945
 11
181.35744
 21
708.220847
  0
LINE
  5
60A
100
AcDbEntity
  8
M0
  6
DASHDOT
100
AcDbLine
 10
178.85744
 20
709.520896
 11
191.407489
 21
709.520896
  0
LINE
  5
60B
100
AcDbEntity
  8
M0
100
AcDbLine
 10
186.532489
 20
706.420798
 11
186.532489
 21
706.867576
  0
LINE
  5
60C
100
AcDbEntity
  8
M0
100
AcDbLine
 10
186.532489
 20
712.174216
 11
186.532489
 21
712.620749
  0
LINE
  5
60D
100
AcDbEntity
  8
M0
100
AcDbLine
 10
183.73244
 20
712.174216
 11
183.73244
 21
712.620749
  0
LINE
  5
60E
100
AcDbEntity
  8
M0
100
AcDbLine
 10
183.73244
 20
706.420798
 11
183.73244
 21
706.867576
  0
LINE
  5
60F
100
AcDbEntity
  8
M0
100
AcDbLine
 10
186.723162
 20
707.930076
 11
183.541522
 21
711.111716
  0
LINE
  5
610
100
AcDbEntity
  8
M0
100
AcDbLine
 10
185.485858
 20
710.934958
 11
183.71828
 21
709.16738
  0
LINE
  5
611
100
AcDbEntity
  8
M0
100
AcDbLine
 10
186.546405
 20
709.874411
 11
184.778827
 21
708.106833
  0
ARC
  5
612
100
AcDbEntity
  8
M0
100
AcDbCircle
 10
182.651629
 20
705.720847
 40
0.5
100
AcDbArc
 50
197.11777
 51
203.510836
  0
ARC
  5
613
100
AcDbEntity
  8
M0
100
AcDbCircle
 10
187.613299
 20
705.720847
 40
0.5
100
AcDbArc
 50
336.486863
 51
342.874517
  0
LINE
  5
614
100
AcDbEntity
  8
M0
  6
DASHDOT
100
AcDbLine
 10
185.132586
 20
703.15737
 11
185.132586
 21
716.320945
  0
LINE
  5
615
100
AcDbEntity
  8
M0
100
AcDbLine
 10
148.532504
 20
712.620505
 11
150.352558
 21
712.620505
  0
LINE
  5
616
100
AcDbEntity
  8
M0
100
AcDbLine
 10
145.732455
 20
712.620505
 11
143.912387
 21
712.620505
  0
LINE
  5
617
100
AcDbEntity
  8
M0
100
AcDbLine
 10
149.613314
 20
713.820701
 11
144.651645
 21
713.820456
  0
ARC
  5
618
100
AcDbEntity
  8
M0
100
AcDbCircle
 10
144.651645
 20
713.320456
 40
0.5
100
AcDbArc
 50
89.998251
 51
162.856262
  0
ARC
  5
619
100
AcDbEntity
  8
M0
100
AcDbCircle
 10
149.613314
 20
713.320456
 40
0.5
100
AcDbArc
 50
17.150937
 51
89.998251
  0
CIRCLE
  5
61A
100
AcDbEntity
  8
M0
100
AcDbCircle
 10
147.132602
 20
709.520652
 40
2.999994
  0
LINE
  5
61B
100
AcDbEntity
  8
M0
100
AcDbLine
 10
144.173617
 20
713.467917
 11
143.357455
 21
710.820701
  0
LINE
  5
61C
100
AcDbEntity
  8
M0
100
AcDbLine
 10
144.173617
 20
705.573386
 11
143.357455
 21
708.220603
  0
LINE
  5
61D
100
AcDbEntity
  8
M0
100
AcDbLine
 10
150.091098
 20
713.467917
 11
150.90749
 21
710.820701
  0
LINE
  5
61E
100
AcDbEntity
  8
M0
100
AcDbLine
 10
150.091098
 20
705.573386
 11
150.90749
 21
708.220603
  0
LINE
  5
61F
100
AcDbEntity
  8
M0
100
AcDbLine
 10
149.454135
 20
711.420554
 11
150.722431
 21
711.420554
  0
LINE
  5
620
100
AcDbEntity
  8
M0
100
AcDbLine
 10
149.454135
 20
707.620505
 11
150.722431
 21
707.620505
  0
LINE
  5
621
100
AcDbEntity
  8
M0
100
AcDbLine
 10
148.532504
 20
706.420554
 11
150.352558
 21
706.420554
  0
LINE
  5
622
100
AcDbEntity
  8
M0
100
AcDbLine
 10
144.810824
 20
711.420554
 11
143.542514
 21
711.420554
  0
LINE
  5
623
100
AcDbEntity
  8
M0
100
AcDbLine
 10
144.810824
 20
707.620505
 11
143.542514
 21
707.620505
  0
LINE
  5
624
100
AcDbEntity
  8
M0
100
AcDbLine
 10
145.732455
 20
706.420554
 11
143.912387
 21
706.420554
  0
LINE
  5
625
100
AcDbEntity
  8
M0
100
AcDbLine
 10
150.90749
 20
708.220603
 11
150.90749
 21
710.820701
  0
LINE
  5
626
100
AcDbEntity
  8
M0
100
AcDbLine
 10
143.357455
 20
710.820701
 11
143.357455
 21
708.220603
  0
LINE
  5
627
100
AcDbEntity
  8
M0
  6
DASHDOT
100
AcDbLine
 10
140.857455
 20
709.520652
 11
153.40749
 21
709.520652
  0
LINE
  5
628
100
AcDbEntity
  8
M0
100
AcDbLine
 10
148.532504
 20
706.420554
 11
148.532504
 21
706.867331
  0
LINE
  5
629
100
AcDbEntity
  8
M0
100
AcDbLine
 10
148.532504
 20
712.173972
 11
148.532504
 21
712.620505
  0
LINE
  5
62A
100
AcDbEntity
  8
M0
100
AcDbLine
 10
145.732455
 20
712.173972
 11
145.732455
 21
712.620505
  0
LINE
  5
62B
100
AcDbEntity
  8
M0
100
AcDbLine
 10
145.732455
 20
706.420554
 11
145.732455
 21
706.867331
  0
LINE
  5
62C
100
AcDbEntity
  8
M0
100
AcDbLine
 10
148.723178
 20
707.929831
 11
145.541537
 21
711.111472
  0
LINE
  5
62D
100
AcDbEntity
  8
M0
100
AcDbLine
 10
147.485873
 20
710.934714
 11
145.718295
 21
709.167136
  0
LINE
  5
62E
100
AcDbEntity
  8
M0
100
AcDbLine
 10
148.54642
 20
709.874167
 11
146.778842
 21
708.106589
  0
ARC
  5
62F
100
AcDbEntity
  8
M0
100
AcDbCircle
 10
144.651645
 20
705.720603
 40
0.5
100
AcDbArc
 50
197.118284
 51
203.480996
  0
ARC
  5
630
100
AcDbEntity
  8
M0
100
AcDbCircle
 10
149.613314
 20
705.720603
 40
0.5
100
AcDbArc
 50
336.518097
 51
342.875032
  0
LINE
  5
631
100
AcDbEntity
  8
M0
  6
DASHDOT
100
AcDbLine
 10
147.132602
 20
703.157126
 11
147.132602
 21
716.320701
  0
LINE
  5
632
100
AcDbEntity
  8
M0
100
AcDbLine
 10
116.532504
 20
712.620749
 11
118.352572
 21
712.620749
  0
LINE
  5
633
100
AcDbEntity
  8
M0
100
AcDbLine
 10
113.732455
 20
712.620749
 11
111.912387
 21
712.620749
  0
LINE
  5
634
100
AcDbEntity
  8
M0
100
AcDbLine
 10
117.613314
 20
713.820945
 11
112.651645
 21
713.820701
  0
ARC
  5
635
100
AcDbEntity
  8
M0
100
AcDbCircle
 10
112.651645
 20
713.320701
 40
0.5
100
AcDbArc
 50
89.998251
 51
162.856262
  0
ARC
  5
636
100
AcDbEntity
  8
M0
100
AcDbCircle
 10
117.613314
 20
713.320701
 40
0.5
100
AcDbArc
 50
17.150937
 51
89.998251
  0
CIRCLE
  5
637
100
AcDbEntity
  8
M0
100
AcDbCircle
 10
115.132602
 20
709.520896
 40
2.999994
  0
LINE
  5
638
100
AcDbEntity
  8
M0
100
AcDbLine
 10
112.173617
 20
713.468161
 11
111.357455
 21
710.820945
  0
LINE
  5
639
100
AcDbEntity
  8
M0
100
AcDbLine
 10
112.173617
 20
705.57363
 11
111.357455
 21
708.220847
  0
LINE
  5
63A
100
AcDbEntity
  8
M0
100
AcDbLine
 10
118.091098
 20
713.468161
 11
118.432116
 21
712.362204
  0
LINE
  5
63B
100
AcDbEntity
  8
M0
100
AcDbLine
 10
118.091098
 20
705.57363
 11
118.432116
 21
706.679343
  0
LINE
  5
63C
100
AcDbEntity
  8
M0
100
AcDbLine
 10
117.454135
 20
711.420798
 11
118.432116
 21
711.420798
  0
LINE
  5
63D
100
AcDbEntity
  8
M0
100
AcDbLine
 10
117.454135
 20
707.620749
 11
118.432116
 21
707.620749
  0
LINE
  5
63E
100
AcDbEntity
  8
M0
100
AcDbLine
 10
116.532504
 20
706.420798
 11
118.352572
 21
706.420798
  0
LINE
  5
63F
100
AcDbEntity
  8
M0
100
AcDbLine
 10
112.810824
 20
711.420798
 11
111.542514
 21
711.420798
  0
LINE
  5
640
100
AcDbEntity
  8
M0
100
AcDbLine
 10
112.810824
 20
707.620749
 11
111.542514
 21
707.620749
  0
LINE
  5
641
100
AcDbEntity
  8
M0
100
AcDbLine
 10
113.732455
 20
706.420798
 11
111.912387
 21
706.420798
  0
LINE
  5
642
100
AcDbEntity
  8
M0
100
AcDbLine
 10
111.357455
 20
710.820945
 11
111.357455
 21
708.220847
  0
LINE
  5
643
100
AcDbEntity
  8
M0
  6
DASHDOT
100
AcDbLine
 10
108.857455
 20
709.520896
 11
121.407504
 21
709.520896
  0
LINE
  5
644
100
AcDbEntity
  8
M0
100
AcDbLine
 10
116.532504
 20
706.420798
 11
116.532504
 21
706.867576
  0
LINE
  5
645
100
AcDbEntity
  8
M0
100
AcDbLine
 10
116.532504
 20
712.174216
 11
116.532504
 21
712.620749
  0
LINE
  5
646
100
AcDbEntity
  8
M0
100
AcDbLine
 10
113.732455
 20
712.174216
 11
113.732455
 21
712.620749
  0
LINE
  5
647
100
AcDbEntity
  8
M0
100
AcDbLine
 10
113.732455
 20
706.420798
 11
113.732455
 21
706.867576
  0
LINE
  5
648
100
AcDbEntity
  8
M0
100
AcDbLine
 10
116.723178
 20
707.930076
 11
113.541537
 21
711.111716
  0
LINE
  5
649
100
AcDbEntity
  8
M0
100
AcDbLine
 10
115.485873
 20
710.934958
 11
113.718295
 21
709.16738
  0
LINE
  5
64A
100
AcDbEntity
  8
M0
100
AcDbLine
 10
116.54642
 20
709.874411
 11
114.778842
 21
708.106833
  0
ARC
  5
64B
100
AcDbEntity
  8
M0
100
AcDbCircle
 10
112.651645
 20
705.720847
 40
0.5
100
AcDbArc
 50
197.118284
 51
203.542071
  0
ARC
  5
64C
100
AcDbEntity
  8
M0
100
AcDbCircle
 10
117.613314
 20
705.720847
 40
0.5
100
AcDbArc
 50
336.457025
 51
342.875032
  0
LINE
  5
64D
100
AcDbEntity
  8
M0
  6
DASHDOT
100
AcDbLine
 10
115.132602
 20
703.15737
 11
115.132602
 21
716.320945
  0
LINE
  5
64E
100
AcDbEntity
  8
M0
100
AcDbLine
 10
158.133137
 20
636.321387
 11
158.283039
 21
636.321387
  0
LINE
  5
64F
100
AcDbEntity
  8
M0
100
AcDbLine
 10
158.283039
 20
631.721534
 11
158.283039
 21
636.321387
  0
ARC
  5
650
100
AcDbEntity
  8
M0
100
AcDbCircle
 10
158.133137
 20
639.321387
 40
2.999994
100
AcDbArc
 50
179.999964
 51
270.0
  0
LINE
  5
651
100
AcDbEntity
  8
M0
100
AcDbLine
 10
155.133137
 20
649.021293
 11
155.133137
 21
639.321387
  0
ARC
  5
652
100
AcDbEntity
  8
M0
100
AcDbCircle
 10
158.133137
 20
649.021293
 40
2.999994
100
AcDbArc
 50
90.0
 51
179.999982
  0
LINE
  5
653
100
AcDbEntity
  8
M0
100
AcDbLine
 10
158.283039
 20
631.721534
 11
173.982989
 21
631.721534
  0
LINE
  5
654
100
AcDbEntity
  8
M0
100
AcDbLine
 10
173.982989
 20
631.721534
 11
173.982989
 21
636.321387
  0
ARC
  5
655
100
AcDbEntity
  8
M0
100
AcDbCircle
 10
174.133136
 20
639.321387
 40
2.999992
100
AcDbArc
 50
270.0
 51
360.0
  0
LINE
  5
656
100
AcDbEntity
  8
M0
100
AcDbLine
 10
173.982989
 20
636.321387
 11
174.133136
 21
636.321387
  0
LINE
  5
657
100
AcDbEntity
  8
M0
100
AcDbLine
 10
169.883136
 20
653.52114
 11
162.383137
 21
653.52114
  0
LINE
  5
658
100
AcDbEntity
  8
M0
100
AcDbLine
 10
162.383137
 20
654.020911
 11
169.883136
 21
654.020911
  0
LINE
  5
659
100
AcDbEntity
  8
M0
100
AcDbLine
 10
163.382633
 20
655.020865
 11
163.883137
 21
655.020865
  0
LINE
  5
65A
100
AcDbEntity
  8
M0
100
AcDbLine
 10
163.883137
 20
655.721091
 11
168.383136
 21
655.721091
  0
LINE
  5
65B
100
AcDbEntity
  8
M0
100
AcDbLine
 10
168.383136
 20
655.720862
 11
168.383136
 21
654.020911
  0
LINE
  5
65C
100
AcDbEntity
  8
M0
100
AcDbLine
 10
163.883137
 20
655.720862
 11
163.883137
 21
654.020911
  0
LINE
  5
65D
100
AcDbEntity
  8
M0
100
AcDbLine
 10
177.133136
 20
639.321143
 11
177.133136
 21
649.021048
  0
LINE
  5
65E
100
AcDbEntity
  8
M0
100
AcDbLine
 10
174.132891
 20
652.021537
 11
169.883136
 21
652.021293
  0
ARC
  5
65F
100
AcDbEntity
  8
M0
100
AcDbCircle
 10
174.133136
 20
649.021293
 40
2.999992
100
AcDbArc
 50
0.0
 51
90.0
  0
LINE
  5
660
100
AcDbEntity
  8
M0
100
AcDbLine
 10
169.883136
 20
654.021354
 11
169.883136
 21
652.021354
  0
LINE
  5
661
100
AcDbEntity
  8
M0
100
AcDbLine
 10
162.383137
 20
654.020865
 11
162.383137
 21
652.021354
  0
LINE
  5
662
100
AcDbEntity
  8
M0
100
AcDbLine
 10
162.383137
 20
652.021293
 11
158.133137
 21
652.021537
  0
LINE
  5
663
100
AcDbEntity
  8
M0
100
AcDbLine
 10
163.133137
 20
642.021338
 11
169.133136
 21
642.021338
  0
LINE
  5
664
100
AcDbEntity
  8
M0
100
AcDbLine
 10
163.133137
 20
646.521338
 11
169.133136
 21
646.521338
  0
LINE
  5
665
100
AcDbEntity
  8
M0
100
AcDbLine
 10
169.133136
 20
646.521338
 11
169.133136
 21
642.021338
  0
LINE
  5
666
100
AcDbEntity
  8
M0
100
AcDbLine
 10
163.133137
 20
646.521338
 11
163.133137
 21
642.021338
  0
LINE
  5
667
100
AcDbEntity
  8
M0
100
AcDbLine
 10
168.383136
 20
655.020865
 11
168.882632
 21
655.020865
  0
LINE
  5
668
100
AcDbEntity
  8
M0
 62
     1
100
AcDbLine
 10
111.132403
 20
467.521872
 11
221.132388
 21
467.521872
  0
LINE
  5
669
100
AcDbEntity
  8
M0
 62
     1
100
AcDbLine
 10
226.132388
 20
472.521872
 11
226.132388
 21
727.521872
  0
LINE
  5
66A
100
AcDbEntity
  8
M0
 62
     1
100
AcDbLine
 10
221.132388
 20
732.521628
 11
111.132159
 21
732.521628
  0
LINE
  5
66B
100
AcDbEntity
  8
M0
 62
     1
100
AcDbLine
 10
106.132403
 20
727.521872
 11
106.132403
 21
472.521872
  0
LINE
  5
66C
100
AcDbEntity
  8
M0
  6
DASHDOT
 62
     1
100
AcDbLine
 10
166.132388
 20
462.38198
 11
166.132388
 21
739.975242
  0
LINE
  5
66D
100
AcDbEntity
  8
M0
 62
     1
100
AcDbLine
 10
111.132403
 20
732.521872
 11
106.132403
 21
727.521872
  0
LINE
  5
66E
100
AcDbEntity
  8
M0
 62
     1
100
AcDbLine
 10
221.132388
 20
732.521872
 11
226.132388
 21
727.521872
  0
LINE
  5
66F
100
AcDbEntity
  8
M0
 62
     1
100
AcDbLine
 10
221.132388
 20
467.521872
 11
226.132388
 21
472.521872
  0
LINE
  5
670
100
AcDbEntity
  8
M0
 62
     1
100
AcDbLine
 10
111.132403
 20
467.521872
 11
106.132403
 21
472.521872
  0
LINE
  5
671
100
AcDbEntity
  8
M0
  6
DASHDOT
 62
     1
100
AcDbLine
 10
181.214907
 20
725.021628
 11
150.651188
 21
725.021628
  0
LINE
  5
672
100
AcDbEntity
  8
M0
  6
DASHDOT
 62
     1
100
AcDbLine
 10
221.132388
 20
475.021628
 11
195.803088
 21
475.021628
  0
LINE
  5
673
100
AcDbEntity
  8
M0
 62
     1
100
AcDbLine
 10
226.132388
 20
490.021384
 11
199.130023
 21
490.021369
  0
LINE
  5
674
100
AcDbEntity
  8
M0
  6
DASHDOT
 62
     1
100
AcDbLine
 10
203.632388
 20
467.33071
 11
203.632388
 21
482.03237
  0
LINE
  5
675
100
AcDbEntity
  8
M0
  6
DASHDOT
 62
     1
100
AcDbLine
 10
216.132388
 20
467.185691
 11
216.132388
 21
482.17739
  0
LINE
  5
676
100
AcDbEntity
  8
M0
  6
DASHDOT
 62
     1
100
AcDbLine
 10
116.132403
 20
467.185691
 11
116.132403
 21
483.627585
  0
LINE
  5
677
100
AcDbEntity
  8
M0
 62
     1
100
AcDbLine
 10
181.132388
 20
717.020408
 11
181.132388
 21
732.521384
  0
LINE
  5
678
100
AcDbEntity
  8
M0
 62
     1
100
AcDbLine
 10
151.132389
 20
717.020163
 11
151.132389
 21
732.521384
  0
ARC
  5
679
100
AcDbEntity
  8
M0
 62
     1
100
AcDbCircle
 10
166.132388
 20
715.021384
 40
6.999995
100
AcDbArc
 50
120.000633
 51
159.085968
  0
ARC
  5
67A
100
AcDbEntity
  8
M0
 62
     1
100
AcDbCircle
 10
166.132388
 20
725.021384
 40
3.499994
100
AcDbArc
 50
0.0
 51
180.0
  0
LINE
  5
67B
100
AcDbEntity
  8
M0
 62
     1
100
AcDbLine
 10
169.632388
 20
725.021628
 11
169.632388
 21
721.083396
  0
LINE
  5
67C
100
AcDbEntity
  8
M0
 62
     1
100
AcDbLine
 10
162.632389
 20
725.021628
 11
162.632389
 21
721.083396
  0
CIRCLE
  5
67D
100
AcDbEntity
  8
M0
 62
     1
100
AcDbCircle
 10
216.132388
 20
475.021384
 40
3.499994
  0
CIRCLE
  5
67E
100
AcDbEntity
  8
M0
 62
     1
100
AcDbCircle
 10
203.632388
 20
475.021384
 40
3.499994
  0
ARC
  5
67F
100
AcDbEntity
  8
M0
 62
     1
100
AcDbCircle
 10
128.632403
 20
475.021384
 40
3.499994
100
AcDbArc
 50
98.27303
 51
261.72644
  0
CIRCLE
  5
680
100
AcDbEntity
  8
M0
 62
     1
100
AcDbCircle
 10
116.132403
 20
475.021384
 40
3.499994
  0
ARC
  5
681
100
AcDbEntity
  8
M0
 62
     1
100
AcDbCircle
 10
166.132388
 20
715.021384
 40
6.999995
100
AcDbArc
 50
20.914154
 51
59.999237
  0
LINE
  5
682
100
AcDbEntity
  8
M0
 62
     1
100
AcDbLine
 10
180.128512
 20
490.021369
 11
173.130038
 21
490.021354
  0
LINE
  5
683
100
AcDbEntity
  8
M0
 62
     1
100
AcDbLine
 10
155.126865
 20
490.021338
 11
148.128772
 21
490.021338
  0
LINE
  5
684
100
AcDbEntity
  8
M0
 62
     1
100
AcDbLine
 10
129.126864
 20
490.021323
 11
106.132403
 21
490.021384
  0
LINE
  5
685
100
AcDbEntity
  8
M0
  6
DASHDOT
 62
     1
100
AcDbLine
 10
132.953234
 20
475.021628
 11
111.132159
 21
475.021628
  0
LINE
  5
686
100
AcDbEntity
  8
M0
 62
     2
100
AcDbLine
 10
159.804745
 20
528.633155
 11
167.794499
 21
528.228415
  0
LINE
  5
687
100
AcDbEntity
  8
M0
 62
     2
100
AcDbLine
 10
175.759928
 20
566.874671
 11
176.518809
 21
581.855216
  0
LINE
  5
688
100
AcDbEntity
  8
M0
 62
     2
100
AcDbLine
 10
173.674454
 20
585.003638
 11
159.692385
 21
585.711936
  0
LINE
  5
689
100
AcDbEntity
  8
M0
 62
     2
100
AcDbLine
 10
156.544435
 20
582.867316
 11
155.785541
 21
567.886527
  0
LINE
  5
68A
100
AcDbEntity
  8
M0
 62
     2
100
AcDbLine
 10
171.161702
 20
555.166785
 11
169.893124
 21
530.124671
  0
LINE
  5
68B
100
AcDbEntity
  8
M0
 62
     2
100
AcDbLine
 10
159.177047
 20
555.773398
 11
157.908493
 21
530.731788
  0
LINE
  5
68C
100
AcDbEntity
  8
M0
 62
     2
100
AcDbLine
 10
158.65077
 20
559.518699
 11
155.785554
 21
567.886771
  0
LINE
  5
68D
100
AcDbEntity
  8
M0
 62
     2
100
AcDbLine
 10
172.06377
 20
558.839713
 11
175.75994
 21
566.874915
  0
LINE
  5
68E
100
AcDbEntity
  8
M0
 62
     2
100
AcDbLine
 10
159.539624
 20
543.165183
 11
169.526816
 21
542.659263
  0
LINE
  5
68F
100
AcDbEntity
  8
M0
 62
     2
100
AcDbLine
 10
159.944367
 20
551.154944
 11
169.931559
 21
550.649009
  0
ARC
  5
690
100
AcDbEntity
  8
M0
 62
     2
100
AcDbCircle
 10
173.522664
 20
582.007239
 40
2.999996
100
AcDbArc
 50
357.09532
 51
447.100008
  0
ARC
  5
691
100
AcDbEntity
  8
M0
 62
     2
100
AcDbCircle
 10
159.540594
 20
582.715537
 40
2.999996
100
AcDbArc
 50
87.09999
 51
177.099698
  0
ARC
  5
692
100
AcDbEntity
  8
M0
 62
     2
100
AcDbCircle
 10
159.905931
 20
530.630607
 40
2.0
100
AcDbArc
 50
177.099702
 51
267.100026
  0
ARC
  5
693
100
AcDbEntity
  8
M0
 62
     2
100
AcDbCircle
 10
167.895685
 20
530.225852
 40
2.0
100
AcDbArc
 50
267.099945
 51
357.100138
  0
ARC
  5
694
100
AcDbEntity
  8
M0
 62
     2
100
AcDbCircle
 10
181.148896
 20
554.660849
 40
9.999997
100
AcDbArc
 50
155.298985
 51
177.099876
  0
ARC
  5
695
100
AcDbEntity
  8
M0
 62
     2
100
AcDbCircle
 10
149.189868
 20
556.279334
 40
9.999997
100
AcDbArc
 50
357.099963
 51
378.90097
  0
LINE
  5
696
100
AcDbEntity
  8
M0
 62
     2
100
AcDbLine
 10
135.789706
 20
527.657599
 11
143.560107
 21
529.560447
  0
LINE
  5
697
100
AcDbEntity
  8
M0
 62
     2
100
AcDbLine
 10
140.111605
 20
568.868064
 11
136.543841
 21
583.437323
  0
LINE
  5
698
100
AcDbEntity
  8
M0
 62
     2
100
AcDbLine
 10
132.916247
 20
585.638144
 11
119.318042
 21
582.308158
  0
LINE
  5
699
100
AcDbEntity
  8
M0
 62
     2
100
AcDbLine
 10
117.11777
 20
578.680457
 11
120.685595
 21
564.110953
  0
LINE
  5
69A
100
AcDbEntity
  8
M0
 62
     2
100
AcDbLine
 10
139.06296
 20
556.33335
 11
145.026995
 21
531.978751
  0
LINE
  5
69B
100
AcDbEntity
  8
M0
 62
     2
100
AcDbLine
 10
127.407473
 20
553.478614
 11
133.371386
 21
529.124488
  0
LINE
  5
69C
100
AcDbEntity
  8
M0
 62
     2
100
AcDbLine
 10
125.829547
 20
556.915809
 11
120.685534
 21
564.111182
  0
LINE
  5
69D
100
AcDbEntity
  8
M0
 62
     2
100
AcDbLine
 10
138.874163
 20
560.110724
 11
140.111544
 21
568.868293
  0
LINE
  5
69E
100
AcDbEntity
  8
M0
 62
     2
100
AcDbLine
 10
131.369494
 20
541.503608
 11
141.082507
 21
543.882148
  0
LINE
  5
69F
100
AcDbEntity
  8
M0
 62
     2
100
AcDbLine
 10
129.466662
 20
549.274009
 11
139.17966
 21
551.652564
  0
ARC
  5
6A0
100
AcDbEntity
  8
M0
 62
     2
100
AcDbCircle
 10
133.62987
 20
582.724006
 40
2.999996
100
AcDbArc
 50
13.755078
 51
103.759884
  0
ARC
  5
6A1
100
AcDbEntity
  8
M0
 62
     2
100
AcDbCircle
 10
120.031665
 20
579.394019
 40
2.999996
100
AcDbArc
 50
103.759884
 51
193.75967
  0
ARC
  5
6A2
100
AcDbEntity
  8
M0
 62
     2
100
AcDbCircle
 10
135.313983
 20
529.600196
 40
2.0
100
AcDbArc
 50
193.759529
 51
283.760802
  0
ARC
  5
6A3
100
AcDbEntity
  8
M0
 62
     2
100
AcDbCircle
 10
143.084399
 20
531.503043
 40
2.0
100
AcDbArc
 50
283.760378
 51
373.760274
  0
ARC
  5
6A4
100
AcDbEntity
  8
M0
 62
     2
100
AcDbCircle
 10
148.775958
 20
558.711905
 40
9.999997
100
AcDbArc
 50
171.95898
 51
193.759932
  0
ARC
  5
6A5
100
AcDbEntity
  8
M0
 62
     2
100
AcDbCircle
 10
117.694461
 20
551.100058
 40
9.999997
100
AcDbArc
 50
13.759997
 51
35.56087
  0
LINE
  5
6A6
100
AcDbEntity
  8
M0
 62
     2
100
AcDbLine
 10
184.221743
 20
530.088904
 11
191.781329
 21
527.471167
  0
LINE
  5
6A7
100
AcDbEntity
  8
M0
 62
     2
100
AcDbLine
 10
210.212436
 20
562.360633
 11
215.120623
 21
576.534644
  0
LINE
  5
6A8
100
AcDbEntity
  8
M0
 62
     2
100
AcDbLine
 10
213.267581
 20
580.3516
 11
200.038302
 21
584.932654
  0
LINE
  5
6A9
100
AcDbEntity
  8
M0
 62
     2
100
AcDbLine
 10
196.221713
 20
583.079215
 11
191.313449
 21
568.90499
  0
LINE
  5
6AA
100
AcDbEntity
  8
M0
 62
     2
100
AcDbLine
 10
202.530398
 20
552.400473
 11
194.325671
 21
528.706626
  0
LINE
  5
6AB
100
AcDbEntity
  8
M0
 62
     2
100
AcDbLine
 10
191.190844
 20
556.326636
 11
182.98627
 21
532.633231
  0
LINE
  5
6AC
100
AcDbEntity
  8
M0
 62
     2
100
AcDbLine
 10
191.730365
 20
560.070029
 11
191.31354
 21
568.905219
  0
LINE
  5
6AD
100
AcDbEntity
  8
M0
 62
     2
100
AcDbLine
 10
204.421359
 20
555.67591
 11
210.212512
 21
562.360862
  0
LINE
  5
6AE
100
AcDbEntity
  8
M0
 62
     2
100
AcDbLine
 10
188.021441
 20
544.117881
 11
197.470935
 21
540.84571
  0
LINE
  5
6AF
100
AcDbEntity
  8
M0
 62
     2
100
AcDbLine
 10
190.639193
 20
551.677466
 11
200.088671
 21
548.405295
  0
ARC
  5
6B0
100
AcDbEntity
  8
M0
 62
     2
100
AcDbCircle
 10
212.285846
 20
577.516517
 40
2.999996
100
AcDbArc
 50
340.8958
 51
430.900227
  0
ARC
  5
6B1
100
AcDbEntity
  8
M0
 62
     2
100
AcDbCircle
 10
199.056567
 20
582.097571
 40
2.999996
100
AcDbArc
 50
70.900227
 51
160.900227
  0
ARC
  5
6B2
100
AcDbEntity
  8
M0
 62
     2
100
AcDbCircle
 10
184.876178
 20
531.978797
 40
2.0
100
AcDbArc
 50
160.900137
 51
250.899581
  0
ARC
  5
6B3
100
AcDbEntity
  8
M0
 62
     2
100
AcDbCircle
 10
192.435763
 20
529.36106
 40
2.0
100
AcDbArc
 50
250.899581
 51
340.900407
  0
ARC
  5
6B4
100
AcDbEntity
  8
M0
 62
     2
100
AcDbCircle
 10
211.979876
 20
549.128302
 40
9.999997
100
AcDbArc
 50
139.098993
 51
160.899969
  0
ARC
  5
6B5
100
AcDbEntity
  8
M0
 62
     2
100
AcDbCircle
 10
181.741361
 20
559.598807
 40
9.999997
100
AcDbArc
 50
340.900032
 51
362.700906
  0
CIRCLE
  5
6B6
100
AcDbEntity
  8
M0
100
AcDbCircle
 10
203.832309
 20
574.520697
 40
6.499996
  0
LINE
  5
6B7
100
AcDbEntity
  8
M0
  6
DASHDOT
100
AcDbLine
 10
187.332309
 20
574.520697
 11
220.332293
 21
574.520697
  0
LINE
  5
6B8
100
AcDbEntity
  8
M0
  6
DASHDOT
100
AcDbLine
 10
203.832309
 20
558.020697
 11
203.832309
 21
591.020697
  0
LINE
  5
6B9
100
AcDbEntity
  8
M0
100
AcDbLine
 10
210.332293
 20
570.762351
 11
210.332293
 21
578.278983
  0
LINE
  5
6BA
100
AcDbEntity
  8
M0
100
AcDbLine
 10
197.332309
 20
570.76232
 11
197.332309
 21
578.279014
  0
LINE
  5
6BB
100
AcDbEntity
  8
M0
100
AcDbLine
 10
203.832309
 20
582.020697
 11
197.332309
 21
578.279014
  0
LINE
  5
6BC
100
AcDbEntity
  8
M0
100
AcDbLine
 10
203.832309
 20
582.020697
 11
210.332293
 21
578.278998
  0
LINE
  5
6BD
100
AcDbEntity
  8
M0
100
AcDbLine
 10
203.832309
 20
567.020697
 11
197.332309
 21
570.762336
  0
LINE
  5
6BE
100
AcDbEntity
  8
M0
100
AcDbLine
 10
203.832309
 20
567.020697
 11
210.332293
 21
570.762351
  0
CIRCLE
  5
6BF
100
AcDbEntity
  8
M0
100
AcDbCircle
 10
166.132205
 20
574.520697
 40
6.499996
  0
LINE
  5
6C0
100
AcDbEntity
  8
M0
  6
DASHDOT
100
AcDbLine
 10
149.63222
 20
574.520697
 11
182.63219
 21
574.520697
  0
LINE
  5
6C1
100
AcDbEntity
  8
M0
100
AcDbLine
 10
172.63219
 20
570.762351
 11
172.63219
 21
578.278983
  0
LINE
  5
6C2
100
AcDbEntity
  8
M0
100
AcDbLine
 10
159.632206
 20
570.76232
 11
159.632206
 21
578.279014
  0
LINE
  5
6C3
100
AcDbEntity
  8
M0
100
AcDbLine
 10
166.132205
 20
582.020697
 11
159.632206
 21
578.279014
  0
LINE
  5
6C4
100
AcDbEntity
  8
M0
100
AcDbLine
 10
166.132205
 20
582.020697
 11
172.63219
 21
578.278998
  0
LINE
  5
6C5
100
AcDbEntity
  8
M0
100
AcDbLine
 10
166.132205
 20
567.020697
 11
159.632206
 21
570.762336
  0
LINE
  5
6C6
100
AcDbEntity
  8
M0
100
AcDbLine
 10
166.132205
 20
567.020697
 11
172.63219
 21
570.762351
  0
CIRCLE
  5
6C7
100
AcDbEntity
  8
M0
100
AcDbCircle
 10
128.432055
 20
574.520682
 40
6.499996
  0
LINE
  5
6C8
100
AcDbEntity
  8
M0
  6
DASHDOT
100
AcDbLine
 10
111.932055
 20
574.520682
 11
144.93204
 21
574.520682
  0
LINE
  5
6C9
100
AcDbEntity
  8
M0
  6
DASHDOT
100
AcDbLine
 10
128.432055
 20
558.020682
 11
128.432055
 21
591.020682
  0
LINE
  5
6CA
100
AcDbEntity
  8
M0
100
AcDbLine
 10
134.93204
 20
570.762336
 11
134.93204
 21
578.278968
  0
LINE
  5
6CB
100
AcDbEntity
  8
M0
100
AcDbLine
 10
121.932055
 20
570.762305
 11
121.932055
 21
578.278998
  0
LINE
  5
6CC
100
AcDbEntity
  8
M0
100
AcDbLine
 10
128.432055
 20
582.020682
 11
121.932055
 21
578.278998
  0
LINE
  5
6CD
100
AcDbEntity
  8
M0
100
AcDbLine
 10
128.432055
 20
582.020682
 11
134.93204
 21
578.278983
  0
LINE
  5
6CE
100
AcDbEntity
  8
M0
100
AcDbLine
 10
128.432055
 20
567.020682
 11
121.932055
 21
570.76232
  0
LINE
  5
6CF
100
AcDbEntity
  8
M0
100
AcDbLine
 10
128.432055
 20
567.020682
 11
134.93204
 21
570.762336
  0
CIRCLE
  5
6D0
100
AcDbEntity
  8
M0
 62
     5
100
AcDbCircle
 10
128.432116
 20
709.520408
 40
3.999992
  0
CIRCLE
  5
6D1
100
AcDbEntity
  8
M0
 62
     5
100
AcDbCircle
 10
128.432116
 20
709.520408
 40
3.499992
  0
LINE
  5
6D2
100
AcDbEntity
  8
M0
 62
     5
100
AcDbLine
 10
138.432116
 20
699.520408
 11
138.432116
 21
717.520652
  0
LINE
  5
6D3
100
AcDbEntity
  8
M0
 62
     5
100
AcDbLine
 10
138.432116
 20
717.520652
 11
118.432116
 21
717.520652
  0
LINE
  5
6D4
100
AcDbEntity
  8
M0
 62
     5
100
AcDbLine
 10
118.432116
 20
717.520652
 11
118.43236
 21
699.520652
  0
LINE
  5
6D5
100
AcDbEntity
  8
M0
  6
DASHDOT
 62
     5
100
AcDbLine
 10
128.432116
 20
717.520652
 11
128.43236
 21
699.520652
  0
LINE
  5
6D6
100
AcDbEntity
  8
M0
 62
     5
100
AcDbLine
 10
143.43236
 20
691.020896
 11
143.43236
 21
687.655173
  0
LINE
  5
6D7
100
AcDbEntity
  8
M0
 62
     5
100
AcDbLine
 10
143.43236
 20
691.020652
 11
138.432116
 21
699.520652
  0
LINE
  5
6D8
100
AcDbEntity
  8
M0
 62
     5
100
AcDbLine
 10
129.43236
 20
687.520652
 11
118.43236
 21
699.520652
  0
LINE
  5
6D9
100
AcDbEntity
  8
M0
  6
DASHDOT
 62
     5
100
AcDbLine
 10
138.432116
 20
709.520652
 11
118.432116
 21
709.520652
  0
LINE
  5
6DA
100
AcDbEntity
  8
M0
 62
     5
100
AcDbLine
 10
176.132144
 20
699.520163
 11
176.132159
 21
717.520163
  0
LINE
  5
6DB
100
AcDbEntity
  8
M0
 62
     5
100
AcDbLine
 10
176.132159
 20
717.520163
 11
156.132221
 21
717.520408
  0
LINE
  5
6DC
100
AcDbEntity
  8
M0
 62
     5
100
AcDbLine
 10
156.132221
 20
717.520408
 11
156.132435
 21
699.520408
  0
LINE
  5
6DD
100
AcDbEntity
  8
M0
 62
     5
100
AcDbLine
 10
159.132175
 20
687.654929
 11
159.132175
 21
691.020163
  0
LINE
  5
6DE
100
AcDbEntity
  8
M0
 62
     5
100
AcDbLine
 10
173.132129
 20
687.654685
 11
173.132129
 21
691.019675
  0
LINE
  5
6DF
100
AcDbEntity
  8
M0
 62
     5
100
AcDbLine
 10
159.132175
 20
691.020408
 11
158.632175
 21
692.437156
  0
LINE
  5
6E0
100
AcDbEntity
  8
M0
 62
     5
100
AcDbLine
 10
173.132129
 20
691.020163
 11
173.632174
 21
692.436667
  0
LINE
  5
6E1
100
AcDbEntity
  8
M0
 62
     5
100
AcDbLine
 10
175.110812
 20
696.62612
 11
176.132144
 21
699.520163
  0
LINE
  5
6E2
100
AcDbEntity
  8
M0
 62
     5
100
AcDbLine
 10
157.153843
 20
696.62612
 11
156.132435
 21
699.520408
  0
CIRCLE
  5
6E3
100
AcDbEntity
  8
M0
 62
     5
100
AcDbCircle
 10
166.132205
 20
709.519919
 40
3.999989
  0
CIRCLE
  5
6E4
100
AcDbEntity
  8
M0
 62
     5
100
AcDbCircle
 10
166.132205
 20
709.519919
 40
3.499989
  0
LINE
  5
6E5
100
AcDbEntity
  8
M0
  6
DASHDOT
 62
     5
100
AcDbLine
 10
176.132205
 20
709.520163
 11
156.132206
 21
709.520163
  0
LINE
  5
6E6
100
AcDbEntity
  8
M0
 62
     5
100
AcDbLine
 10
193.832019
 20
699.520652
 11
193.832049
 21
717.520896
  0
LINE
  5
6E7
100
AcDbEntity
  8
M0
 62
     5
100
AcDbLine
 10
193.832049
 20
717.520896
 11
213.832049
 21
717.520652
  0
LINE
  5
6E8
100
AcDbEntity
  8
M0
 62
     5
100
AcDbLine
 10
213.832049
 20
717.520652
 11
213.831744
 21
699.520652
  0
LINE
  5
6E9
100
AcDbEntity
  8
M0
 62
     5
100
AcDbLine
 10
188.831759
 20
691.02114
 11
188.831759
 21
687.655173
  0
LINE
  5
6EA
100
AcDbEntity
  8
M0
 62
     5
100
AcDbLine
 10
188.831759
 20
691.020896
 11
193.832019
 21
699.520896
  0
LINE
  5
6EB
100
AcDbEntity
  8
M0
 62
     5
100
AcDbLine
 10
202.831744
 20
687.520652
 11
213.831744
 21
699.520652
  0
CIRCLE
  5
6EC
100
AcDbEntity
  8
M0
 62
     5
100
AcDbCircle
 10
203.831775
 20
709.520652
 40
3.999989
  0
CIRCLE
  5
6ED
100
AcDbEntity
  8
M0
 62
     5
100
AcDbCircle
 10
203.831775
 20
709.520652
 40
3.499989
  0
LINE
  5
6EE
100
AcDbEntity
  8
M0
  6
DASHDOT
 62
     5
100
AcDbLine
 10
203.831775
 20
717.520896
 11
203.832019
 21
699.520896
  0
LINE
  5
6EF
100
AcDbEntity
  8
M0
  6
DASHDOT
 62
     5
100
AcDbLine
 10
213.831775
 20
709.520896
 11
193.831775
 21
709.520896
  0
LINE
  5
6F0
100
AcDbEntity
  8
M0
 62
     5
100
AcDbLine
 10
198.128222
 20
491.022941
 11
198.128466
 21
499.522452
  0
LINE
  5
6F1
100
AcDbEntity
  8
M0
 62
     5
100
AcDbLine
 10
130.129214
 20
499.523185
 11
130.129214
 21
491.023673
  0
LINE
  5
6F2
100
AcDbEntity
  8
M0
 62
     5
100
AcDbLine
 10
146.127993
 20
491.023917
 11
182.128955
 21
491.023917
  0
LINE
  5
6F3
100
AcDbEntity
  8
M0
 62
     5
100
AcDbLine
 10
150.128482
 20
494.023673
 11
155.128223
 21
494.023673
  0
LINE
  5
6F4
100
AcDbEntity
  8
M0
 62
     5
100
AcDbLine
 10
155.128467
 20
496.023429
 11
161.128956
 21
496.023429
  0
LINE
  5
6F5
100
AcDbEntity
  8
M0
 62
     5
100
AcDbLine
 10
167.128955
 20
502.522941
 11
167.128466
 21
496.022452
  0
LINE
  5
6F6
100
AcDbEntity
  8
M0
 62
     5
100
AcDbLine
 10
161.128956
 20
502.523185
 11
161.128712
 21
496.023185
  0
LINE
  5
6F7
100
AcDbEntity
  8
M0
 62
     5
100
AcDbLine
 10
176.628466
 20
494.022696
 11
176.628466
 21
491.022452
  0
LINE
  5
6F8
100
AcDbEntity
  8
M0
 62
     5
100
AcDbLine
 10
174.628466
 20
494.022696
 11
174.628466
 21
491.022696
  0
LINE
  5
6F9
100
AcDbEntity
  8
M0
 62
     5
100
AcDbLine
 10
153.628467
 20
494.022941
 11
153.628467
 21
491.022941
  0
LINE
  5
6FA
100
AcDbEntity
  8
M0
 62
     5
100
AcDbLine
 10
151.628467
 20
494.023185
 11
151.628467
 21
491.023185
  0
LINE
  5
6FB
100
AcDbEntity
  8
M0
 62
     5
100
AcDbLine
 10
178.128573
 20
499.523185
 11
178.127978
 21
494.021964
  0
LINE
  5
6FC
100
AcDbEntity
  8
M0
 62
     5
100
AcDbLine
 10
173.128466
 20
496.022696
 11
173.128466
 21
494.022696
  0
LINE
  5
6FD
100
AcDbEntity
  8
M0
 62
     5
100
AcDbLine
 10
155.128467
 20
496.022941
 11
155.128467
 21
494.022941
  0
LINE
  5
6FE
100
AcDbEntity
  8
M0
 62
     5
100
AcDbLine
 10
150.128833
 20
499.523429
 11
150.128238
 21
494.023185
  0
LINE
  5
6FF
100
AcDbEntity
  8
M0
 62
     5
100
AcDbLine
 10
130.129214
 20
499.523673
 11
130.628726
 21
499.523673
  0
LINE
  5
700
100
AcDbEntity
  8
M0
 62
     5
100
AcDbLine
 10
161.128956
 20
502.523185
 11
167.128711
 21
502.522941
  0
LINE
  5
701
100
AcDbEntity
  8
M0
 62
     5
100
AcDbLine
 10
167.128711
 20
499.523185
 11
182.628466
 21
499.523185
  0
LINE
  5
702
100
AcDbEntity
  8
M0
 62
     5
100
AcDbLine
 10
167.128222
 20
496.023185
 11
173.128222
 21
496.023185
  0
LINE
  5
703
100
AcDbEntity
  8
M0
 62
     5
100
AcDbLine
 10
173.127978
 20
494.023429
 11
178.127978
 21
494.023429
  0
LINE
  5
704
100
AcDbEntity
  8
M0
 62
     5
100
AcDbLine
 10
181.128222
 20
499.522941
 11
181.128222
 21
491.022452
  0
LINE
  5
705
100
AcDbEntity
  8
M0
 62
     5
100
AcDbLine
 10
147.128726
 20
499.523429
 11
147.128482
 21
491.023185
  0
LINE
  5
706
100
AcDbEntity
  8
M0
 62
     5
100
AcDbLine
 10
180.128466
 20
486.023185
 11
180.128466
 21
491.022208
  0
LINE
  5
707
100
AcDbEntity
  8
M0
 62
     5
100
AcDbLine
 10
148.128726
 20
491.023429
 11
148.128482
 21
486.023429
  0
LINE
  5
708
100
AcDbEntity
  8
M0
 62
     5
100
AcDbLine
 10
197.628222
 20
499.523185
 11
198.128466
 21
499.522941
  0
LINE
  5
709
100
AcDbEntity
  8
M0
 62
     5
100
AcDbLine
 10
180.128466
 20
489.022941
 11
180.128466
 21
467.522941
  0
LINE
  5
70A
100
AcDbEntity
  8
M0
 62
     5
100
AcDbLine
 10
180.128466
 20
467.522941
 11
200.128466
 21
467.522941
  0
LINE
  5
70B
100
AcDbEntity
  8
M0
 62
     5
100
AcDbLine
 10
200.128466
 20
467.522941
 11
200.128222
 21
489.022941
  0
LINE
  5
70C
100
AcDbEntity
  8
M0
  6
DASHDOT
 62
     5
100
AcDbLine
 10
190.128466
 20
487.295127
 11
190.128466
 21
466.365546
  0
LINE
  5
70D
100
AcDbEntity
  8
M0
  6
DASHDOT
 62
     5
100
AcDbLine
 10
200.128466
 20
477.522941
 11
180.128466
 21
477.522941
  0
LINE
  5
70E
100
AcDbEntity
  8
M0
 62
     5
100
AcDbLine
 10
182.628466
 20
520.421714
 11
182.628466
 21
491.522941
  0
LINE
  5
70F
100
AcDbEntity
  8
M0
 62
     5
100
AcDbLine
 10
197.628466
 20
520.421714
 11
197.628466
 21
491.522941
  0
LINE
  5
710
100
AcDbEntity
  8
M0
 62
     5
100
AcDbLine
 10
197.628466
 20
491.522941
 11
200.128466
 21
489.022941
  0
LINE
  5
711
100
AcDbEntity
  8
M0
 62
     5
100
AcDbLine
 10
182.628466
 20
491.522941
 11
180.128466
 21
489.022941
  0
CIRCLE
  5
712
100
AcDbEntity
  8
M0
 62
     5
100
AcDbCircle
 10
190.128466
 20
477.522941
 40
3.99999
  0
LINE
  5
713
100
AcDbEntity
  8
M0
 62
     5
100
AcDbLine
 10
197.628466
 20
500.822745
 11
182.628466
 21
500.822745
  0
CIRCLE
  5
714
100
AcDbEntity
  8
M0
 62
     5
100
AcDbCircle
 10
190.128466
 20
477.522941
 40
3.49999
  0
LINE
  5
715
100
AcDbEntity
  8
M0
 62
     5
100
AcDbLine
 10
128.128726
 20
489.023185
 11
128.128726
 21
467.523185
  0
LINE
  5
716
100
AcDbEntity
  8
M0
 62
     5
100
AcDbLine
 10
128.128726
 20
467.523185
 11
148.128726
 21
467.523185
  0
LINE
  5
717
100
AcDbEntity
  8
M0
 62
     5
100
AcDbLine
 10
148.128726
 20
467.523185
 11
148.128482
 21
489.023185
  0
LINE
  5
718
100
AcDbEntity
  8
M0
  6
DASHDOT
 62
     5
100
AcDbLine
 10
138.128726
 20
487.802726
 11
138.128726
 21
466.510566
  0
LINE
  5
719
100
AcDbEntity
  8
M0
  6
DASHDOT
 62
     5
100
AcDbLine
 10
148.128726
 20
477.523185
 11
128.128726
 21
477.523185
  0
LINE
  5
71A
100
AcDbEntity
  8
M0
 62
     5
100
AcDbLine
 10
130.628726
 20
520.421744
 11
130.628726
 21
491.523185
  0
LINE
  5
71B
100
AcDbEntity
  8
M0
 62
     5
100
AcDbLine
 10
145.628726
 20
520.421744
 11
145.628726
 21
491.523185
  0
LINE
  5
71C
100
AcDbEntity
  8
M0
 62
     5
100
AcDbLine
 10
145.628726
 20
491.523185
 11
148.128726
 21
489.023185
  0
LINE
  5
71D
100
AcDbEntity
  8
M0
 62
     5
100
AcDbLine
 10
130.628726
 20
491.523185
 11
128.128726
 21
489.023185
  0
CIRCLE
  5
71E
100
AcDbEntity
  8
M0
 62
     5
100
AcDbCircle
 10
138.128726
 20
477.523185
 40
3.99999
  0
LINE
  5
71F
100
AcDbEntity
  8
M0
 62
     5
100
AcDbLine
 10
145.628726
 20
500.822989
 11
130.628726
 21
500.822989
  0
CIRCLE
  5
720
100
AcDbEntity
  8
M0
 62
     5
100
AcDbCircle
 10
138.128726
 20
477.523185
 40
3.49999
  0
LINE
  5
721
100
AcDbEntity
  8
M0
 62
     5
100
AcDbLine
 10
154.128467
 20
489.022941
 11
154.128467
 21
467.522941
  0
LINE
  5
722
100
AcDbEntity
  8
M0
 62
     5
100
AcDbLine
 10
154.128467
 20
467.522941
 11
174.128466
 21
467.522941
  0
LINE
  5
723
100
AcDbEntity
  8
M0
 62
     5
100
AcDbLine
 10
174.128466
 20
467.522941
 11
174.128222
 21
489.022941
  0
LINE
  5
724
100
AcDbEntity
  8
M0
  6
DASHDOT
 62
     5
100
AcDbLine
 10
164.128467
 20
487.838981
 11
164.128467
 21
466.945639
  0
LINE
  5
725
100
AcDbEntity
  8
M0
  6
DASHDOT
 62
     5
100
AcDbLine
 10
174.128466
 20
477.522941
 11
154.128467
 21
477.522941
  0
LINE
  5
726
100
AcDbEntity
  8
M0
 62
     5
100
AcDbLine
 10
156.628467
 20
520.421729
 11
156.628467
 21
499.523429
  0
LINE
  5
727
100
AcDbEntity
  8
M0
 62
     5
100
AcDbLine
 10
171.628466
 20
520.421729
 11
171.628466
 21
499.523185
  0
LINE
  5
728
100
AcDbEntity
  8
M0
 62
     5
100
AcDbLine
 10
172.12749
 20
491.023917
 11
174.128466
 21
489.022941
  0
LINE
  5
729
100
AcDbEntity
  8
M0
 62
     5
100
AcDbLine
 10
156.129444
 20
491.023917
 11
154.128467
 21
489.022941
  0
CIRCLE
  5
72A
100
AcDbEntity
  8
M0
 62
     5
100
AcDbCircle
 10
164.128467
 20
477.522941
 40
3.99999
  0
CIRCLE
  5
72B
100
AcDbEntity
  8
M0
 62
     5
100
AcDbCircle
 10
164.128467
 20
477.522941
 40
3.49999
  0
LINE
  5
72C
100
AcDbEntity
  8
M0
 62
     5
100
AcDbLine
 10
145.628726
 20
499.523429
 11
161.128956
 21
499.523429
  0
CIRCLE
  5
72D
100
AcDbEntity
  8
M0
100
AcDbCircle
 10
128.432055
 20
574.520682
 40
9.0
  0
CIRCLE
  5
72E
100
AcDbEntity
  8
M0
100
AcDbCircle
 10
166.132388
 20
574.520697
 40
9.0
  0
CIRCLE
  5
72F
100
AcDbEntity
  8
M0
100
AcDbCircle
 10
203.832309
 20
574.520697
 40
9.0
  0
CIRCLE
  5
730
100
AcDbEntity
  8
M0
100
AcDbCircle
 10
203.832309
 20
574.520697
 40
7.7
  0
CIRCLE
  5
731
100
AcDbEntity
  8
M0
100
AcDbCircle
 10
166.132388
 20
574.520697
 40
7.7
  0
CIRCLE
  5
732
100
AcDbEntity
  8
M0
100
AcDbCircle
 10
128.432055
 20
574.520682
 40
9.0
  0
ARC
  5
733
100
AcDbEntity
  8
M0
100
AcDbCircle
 10
216.132617
 20
707.020652
 40
5.249997
100
AcDbArc
 50
244.011303
 51
475.989887
  0
LINE
  5
734
100
AcDbEntity
  8
M0
  6
DASHDOT
100
AcDbLine
 10
208.293292
 20
707.020652
 11
227.36391
 21
707.020652
  0
LINE
  5
735
100
AcDbEntity
  8
M0
  6
DASHDOT
100
AcDbLine
 10
216.132617
 20
696.650031
 11
216.132617
 21
719.581977
  0
ARC
  5
736
100
AcDbEntity
  8
M0
100
AcDbCircle
 10
216.132617
 20
707.020652
 40
5.749994
100
AcDbArc
 50
246.415851
 51
473.585229
  0
LINE
  5
737
100
AcDbEntity
  8
M0
100
AcDbLine
 10
213.832049
 20
709.320945
 11
218.960849
 21
704.192038
  0
LINE
  5
738
100
AcDbEntity
  8
M0
100
AcDbLine
 10
215.425433
 20
704.899299
 11
218.253817
 21
707.727713
  0
LINE
  5
739
100
AcDbEntity
  8
M0
100
AcDbLine
 10
214.011218
 20
706.313529
 11
216.839511
 21
709.141974
  0
ARC
  5
73A
100
AcDbEntity
  8
M0
100
AcDbCircle
 10
116.132602
 20
577.021277
 40
5.249997
100
AcDbArc
 50
66.034721
 51
298.677881
  0
LINE
  5
73B
100
AcDbEntity
  8
M0
  6
DASHDOT
100
AcDbLine
 10
105.525622
 20
577.021277
 11
124.451205
 21
577.021277
  0
LINE
  5
73C
100
AcDbEntity
  8
M0
  6
DASHDOT
100
AcDbLine
 10
116.132602
 20
566.146277
 11
116.132602
 21
587.0297
  0
ARC
  5
73D
100
AcDbEntity
  8
M0
100
AcDbCircle
 10
116.132602
 20
577.021277
 40
5.749994
100
AcDbArc
 50
63.338801
 51
297.354523
  0
LINE
  5
73E
100
AcDbEntity
  8
M0
100
AcDbLine
 10
113.304095
 20
579.849723
 11
117.975375
 21
575.178321
  0
LINE
  5
73F
100
AcDbEntity
  8
M0
100
AcDbLine
 10
115.425418
 20
574.899924
 11
117.528521
 21
577.003058
  0
LINE
  5
740
100
AcDbEntity
  8
M0
100
AcDbLine
 10
114.011203
 20
576.314155
 11
116.839495
 21
579.1426
  0
CIRCLE
  5
741
100
AcDbEntity
  8
M0
100
AcDbCircle
 10
190.128497
 20
511.422217
 40
5.249997
  0
LINE
  5
742
100
AcDbEntity
  8
M0
  6
DASHDOT
100
AcDbLine
 10
180.503039
 20
511.422217
 11
199.26549
 21
511.422217
  0
LINE
  5
743
100
AcDbEntity
  8
M0
  6
DASHDOT
100
AcDbLine
 10
190.128497
 20
501.592429
 11
190.128497
 21
520.590537
  0
CIRCLE
  5
744
100
AcDbEntity
  8
M0
100
AcDbCircle
 10
190.128497
 20
511.422217
 40
5.749994
  0
LINE
  5
745
100
AcDbEntity
  8
M0
100
AcDbLine
 10
187.29999
 20
514.250663
 11
192.956729
 21
508.593787
  0
LINE
  5
746
100
AcDbEntity
  8
M0
100
AcDbLine
 10
189.421313
 20
509.300864
 11
192.249697
 21
512.129279
  0
LINE
  5
747
100
AcDbEntity
  8
M0
100
AcDbLine
 10
188.007098
 20
510.715094
 11
190.835391
 21
513.54354
  0
CIRCLE
  5
748
100
AcDbEntity
  8
M0
100
AcDbCircle
 10
164.128498
 20
511.422461
 40
5.249997
  0
LINE
  5
749
100
AcDbEntity
  8
M0
  6
DASHDOT
100
AcDbLine
 10
154.308079
 20
511.422461
 11
174.230716
 21
511.422461
  0
LINE
  5
74A
100
AcDbEntity
  8
M0
  6
DASHDOT
100
AcDbLine
 10
164.128498
 20
502.535087
 11
164.128498
 21
520.735572
  0
CIRCLE
  5
74B
100
AcDbEntity
  8
M0
100
AcDbCircle
 10
164.128498
 20
511.422461
 40
5.749994
  0
LINE
  5
74C
100
AcDbEntity
  8
M0
100
AcDbLine
 10
161.299991
 20
514.250907
 11
166.956729
 21
508.594031
  0
LINE
  5
74D
100
AcDbEntity
  8
M0
100
AcDbLine
 10
163.421314
 20
509.301108
 11
166.249697
 21
512.129523
  0
LINE
  5
74E
100
AcDbEntity
  8
M0
100
AcDbLine
 10
162.007099
 20
510.715339
 11
164.835392
 21
513.543784
  0
CIRCLE
  5
74F
100
AcDbEntity
  8
M0
100
AcDbCircle
 10
138.128756
 20
511.422461
 40
5.249997
  0
LINE
  5
750
100
AcDbEntity
  8
M0
  6
DASHDOT
100
AcDbLine
 10
128.54819
 20
511.422461
 11
148.053881
 21
511.422461
  0
LINE
  5
751
100
AcDbEntity
  8
M0
  6
DASHDOT
100
AcDbLine
 10
138.128756
 20
501.44741
 11
138.128756
 21
521.243155
  0
CIRCLE
  5
752
100
AcDbEntity
  8
M0
100
AcDbCircle
 10
138.128756
 20
511.422461
 40
5.749994
  0
LINE
  5
753
100
AcDbEntity
  8
M0
100
AcDbLine
 10
135.30025
 20
514.250907
 11
140.956988
 21
508.594031
  0
LINE
  5
754
100
AcDbEntity
  8
M0
100
AcDbLine
 10
137.421572
 20
509.301108
 11
140.249957
 21
512.129523
  0
LINE
  5
755
100
AcDbEntity
  8
M0
100
AcDbLine
 10
136.007357
 20
510.715339
 11
138.83565
 21
513.543784
  0
CIRCLE
  5
756
100
AcDbEntity
  8
M0
100
AcDbCircle
 10
190.128512
 20
534.922217
 40
5.249997
  0
LINE
  5
757
100
AcDbEntity
  8
M0
  6
DASHDOT
100
AcDbLine
 10
180.213
 20
534.922217
 11
205.378375
 21
534.922217
  0
LINE
  5
758
100
AcDbEntity
  8
M0
  6
DASHDOT
100
AcDbLine
 10
190.128512
 20
525.176978
 11
190.128512
 21
544.755195
  0
CIRCLE
  5
759
100
AcDbEntity
  8
M0
100
AcDbCircle
 10
190.128512
 20
534.922217
 40
5.749994
  0
LINE
  5
75A
100
AcDbEntity
  8
M0
100
AcDbLine
 10
187.300006
 20
537.750663
 11
192.956744
 21
532.093787
  0
LINE
  5
75B
100
AcDbEntity
  8
M0
100
AcDbLine
 10
189.421328
 20
532.800864
 11
192.249713
 21
535.629279
  0
LINE
  5
75C
100
AcDbEntity
  8
M0
100
AcDbLine
 10
188.007113
 20
534.215094
 11
190.835406
 21
537.04354
  0
CIRCLE
  5
75D
100
AcDbEntity
  8
M0
100
AcDbCircle
 10
164.128513
 20
534.922461
 40
5.249997
  0
LINE
  5
75E
100
AcDbEntity
  8
M0
  6
DASHDOT
100
AcDbLine
 10
128.040622
 20
534.922461
 11
148.198901
 21
534.922461
  0
LINE
  5
75F
100
AcDbEntity
  8
M0
  6
DASHDOT
100
AcDbLine
 10
164.128513
 20
525.612052
 11
164.128513
 21
544.827704
  0
CIRCLE
  5
760
100
AcDbEntity
  8
M0
100
AcDbCircle
 10
164.128513
 20
534.922461
 40
5.749994
  0
LINE
  5
761
100
AcDbEntity
  8
M0
100
AcDbLine
 10
161.300007
 20
537.750907
 11
166.956744
 21
532.094031
  0
LINE
  5
762
100
AcDbEntity
  8
M0
100
AcDbLine
 10
163.421329
 20
532.801108
 11
166.249713
 21
535.629523
  0
LINE
  5
763
100
AcDbEntity
  8
M0
100
AcDbLine
 10
162.007114
 20
534.215339
 11
164.835407
 21
537.043784
  0
LINE
  5
764
100
AcDbEntity
  8
M0
  6
DASHDOT
100
AcDbLine
 10
154.743152
 20
534.922461
 11
173.723132
 21
534.922461
  0
CIRCLE
  5
765
100
AcDbEntity
  8
M0
100
AcDbCircle
 10
138.128772
 20
534.922461
 40
5.249997
  0
LINE
  5
766
100
AcDbEntity
  8
M0
  6
DASHDOT
100
AcDbLine
 10
138.128772
 20
525.249503
 11
138.128772
 21
545.770362
  0
CIRCLE
  5
767
100
AcDbEntity
  8
M0
100
AcDbCircle
 10
138.128772
 20
534.922461
 40
5.749994
  0
LINE
  5
768
100
AcDbEntity
  8
M0
100
AcDbLine
 10
135.300265
 20
537.750907
 11
140.957003
 21
532.094031
  0
LINE
  5
769
100
AcDbEntity
  8
M0
100
AcDbLine
 10
137.421588
 20
532.801108
 11
140.249972
 21
535.629523
  0
LINE
  5
76A
100
AcDbEntity
  8
M0
100
AcDbLine
 10
136.007373
 20
534.215339
 11
138.835666
 21
537.043784
  0
LINE
  5
76B
100
AcDbEntity
  8
M0
  6
DASHDOT
100
AcDbLine
 10
212.132418
 20
555.986304
 11
212.132418
 21
543.623053
  0
LINE
  5
76C
100
AcDbEntity
  8
M0
 62
     6
100
AcDbLine
 10
144.432223
 20
584.021796
 11
150.632206
 21
584.021796
  0
LINE
  5
76D
100
AcDbEntity
  8
M0
 62
     6
100
AcDbLine
 10
118.63222
 20
685.521598
 11
118.63222
 21
598.521796
  0
LINE
  5
76E
100
AcDbEntity
  8
M0
 62
     6
100
AcDbLine
 10
153.632206
 20
584.521781
 11
153.632206
 21
586.021796
  0
LINE
  5
76F
100
AcDbEntity
  8
M0
 62
     6
100
AcDbLine
 10
150.13222
 20
584.521796
 11
150.13222
 21
586.021781
  0
LINE
  5
770
100
AcDbEntity
  8
M0
 62
     6
100
AcDbLine
 10
147.13222
 20
584.521781
 11
147.13222
 21
586.021796
  0
LINE
  5
771
100
AcDbEntity
  8
M0
 62
     6
100
AcDbLine
 10
143.932223
 20
584.521796
 11
143.932223
 21
595.521781
  0
LINE
  5
772
100
AcDbEntity
  8
M0
 62
     6
100
AcDbLine
 10
120.63222
 20
596.521796
 11
142.932223
 21
596.521796
  0
LINE
  5
773
100
AcDbEntity
  8
M0
 62
     6
100
AcDbLine
 10
158.632206
 20
595.521796
 11
158.632206
 21
590.521796
  0
LINE
  5
774
100
AcDbEntity
  8
M0
 62
     6
100
AcDbLine
 10
159.632206
 20
596.521796
 11
172.632205
 21
596.521796
  0
ARC
  5
775
100
AcDbEntity
  8
M0
 62
     6
100
AcDbCircle
 10
154.632206
 20
590.521796
 40
3.999996
100
AcDbArc
 50
270.0
 51
360.0
  0
LINE
  5
776
100
AcDbEntity
  8
M0
 62
     6
100
AcDbLine
 10
150.632206
 20
584.021796
 11
153.132206
 21
584.021796
  0
ARC
  5
777
100
AcDbEntity
  8
M0
 62
     6
100
AcDbCircle
 10
144.432223
 20
584.521796
 40
0.5
100
AcDbArc
 50
179.998251
 51
270.0
  0
ARC
  5
778
100
AcDbEntity
  8
M0
 62
     6
100
AcDbCircle
 10
146.63222
 20
584.521796
 40
0.5
100
AcDbArc
 50
270.0
 51
360.0
  0
ARC
  5
779
100
AcDbEntity
  8
M0
 62
     6
100
AcDbCircle
 10
150.632206
 20
584.521796
 40
0.5
100
AcDbArc
 50
179.998251
 51
270.0
  0
ARC
  5
77A
100
AcDbEntity
  8
M0
 62
     6
100
AcDbCircle
 10
153.132206
 20
584.521796
 40
0.5
100
AcDbArc
 50
270.0
 51
360.0
  0
ARC
  5
77B
100
AcDbEntity
  8
M0
 62
     6
100
AcDbCircle
 10
142.932223
 20
595.521796
 40
1.0
100
AcDbArc
 50
0.0
 51
89.999126
  0
LINE
  5
77C
100
AcDbEntity
  8
M0
 62
     6
100
AcDbLine
 10
143.632159
 20
586.521796
 11
143.932223
 21
586.521796
  0
LINE
  5
77D
100
AcDbEntity
  8
M0
 62
     6
100
AcDbLine
 10
154.132206
 20
586.521796
 11
154.632206
 21
586.521796
  0
ARC
  5
77E
100
AcDbEntity
  8
M0
 62
     6
100
AcDbCircle
 10
120.63222
 20
598.521796
 40
2.0
100
AcDbArc
 50
179.999563
 51
270.0
  0
LINE
  5
77F
100
AcDbEntity
  8
M0
 62
     6
100
AcDbLine
 10
130.432223
 20
600.021796
 11
142.432223
 21
600.021796
  0
LINE
  5
780
100
AcDbEntity
  8
M0
 62
     6
100
AcDbLine
 10
142.432223
 20
600.021796
 11
142.432223
 21
597.021796
  0
LINE
  5
781
100
AcDbEntity
  8
M0
 62
     6
100
AcDbLine
 10
130.432223
 20
600.021796
 11
130.432223
 21
597.021796
  0
LINE
  5
782
100
AcDbEntity
  8
M0
 62
     6
100
AcDbLine
 10
160.132206
 20
597.021781
 11
160.132206
 21
600.021796
  0
LINE
  5
783
100
AcDbEntity
  8
M0
 62
     6
100
AcDbLine
 10
160.132206
 20
600.021796
 11
172.132205
 21
600.021766
  0
ARC
  5
784
100
AcDbEntity
  8
M0
 62
     6
100
AcDbCircle
 10
159.632206
 20
595.521796
 40
1.0
100
AcDbArc
 50
90.0
 51
179.999126
  0
ARC
  5
785
100
AcDbEntity
  8
M0
 62
     6
100
AcDbCircle
 10
159.632206
 20
597.021796
 40
0.5
100
AcDbArc
 50
270.0
 51
360.0
  0
LINE
  5
786
100
AcDbEntity
  8
M0
 62
     6
100
AcDbLine
 10
187.832202
 20
584.021781
 11
185.632205
 21
584.021796
  0
LINE
  5
787
100
AcDbEntity
  8
M0
 62
     6
100
AcDbLine
 10
213.632205
 20
685.521598
 11
213.632205
 21
598.521766
  0
LINE
  5
788
100
AcDbEntity
  8
M0
 62
     6
100
AcDbLine
 10
178.632205
 20
584.521781
 11
178.632205
 21
586.021766
  0
LINE
  5
789
100
AcDbEntity
  8
M0
 62
     6
100
AcDbLine
 10
182.132205
 20
584.521796
 11
182.132205
 21
586.021781
  0
LINE
  5
78A
100
AcDbEntity
  8
M0
 62
     6
100
AcDbLine
 10
185.132205
 20
584.521781
 11
185.132205
 21
586.021766
  0
LINE
  5
78B
100
AcDbEntity
  8
M0
 62
     6
100
AcDbLine
 10
188.332202
 20
584.521781
 11
188.332202
 21
595.521766
  0
LINE
  5
78C
100
AcDbEntity
  8
M0
 62
     6
100
AcDbLine
 10
211.632205
 20
596.521781
 11
189.332202
 21
596.521781
  0
LINE
  5
78D
100
AcDbEntity
  8
M0
 62
     6
100
AcDbLine
 10
173.632205
 20
595.521796
 11
173.632205
 21
590.521796
  0
ARC
  5
78E
100
AcDbEntity
  8
M0
 62
     6
100
AcDbCircle
 10
177.632205
 20
590.521796
 40
3.999996
100
AcDbArc
 50
179.999781
 51
270.0
  0
LINE
  5
78F
100
AcDbEntity
  8
M0
 62
     6
100
AcDbLine
 10
185.632205
 20
584.021796
 11
179.132205
 21
584.021796
  0
ARC
  5
790
100
AcDbEntity
  8
M0
 62
     6
100
AcDbCircle
 10
187.832202
 20
584.521781
 40
0.5
100
AcDbArc
 50
-90.001749
 51
0.0
  0
ARC
  5
791
100
AcDbEntity
  8
M0
 62
     6
100
AcDbCircle
 10
185.632205
 20
584.521796
 40
0.5
100
AcDbArc
 50
179.998251
 51
269.998251
  0
ARC
  5
792
100
AcDbEntity
  8
M0
 62
     6
100
AcDbCircle
 10
181.632205
 20
584.521796
 40
0.5
100
AcDbArc
 50
-90.0
 51
0.0
  0
ARC
  5
793
100
AcDbEntity
  8
M0
 62
     6
100
AcDbCircle
 10
179.132205
 20
584.521796
 40
0.5
100
AcDbArc
 50
179.998251
 51
270.0
  0
ARC
  5
794
100
AcDbEntity
  8
M0
 62
     6
100
AcDbCircle
 10
189.332202
 20
595.521781
 40
1.0
100
AcDbArc
 50
90.0
 51
179.999126
  0
LINE
  5
795
100
AcDbEntity
  8
M0
 62
     6
100
AcDbLine
 10
188.632129
 20
586.521796
 11
188.332202
 21
586.521781
  0
LINE
  5
796
100
AcDbEntity
  8
M0
 62
     6
100
AcDbLine
 10
178.132205
 20
586.521796
 11
177.632205
 21
586.521796
  0
ARC
  5
797
100
AcDbEntity
  8
M0
 62
     6
100
AcDbCircle
 10
211.632205
 20
598.521766
 40
2.0
100
AcDbArc
 50
-90.000437
 51
0.0
  0
LINE
  5
798
100
AcDbEntity
  8
M0
 62
     6
100
AcDbLine
 10
201.832202
 20
600.021766
 11
189.832202
 21
600.021766
  0
LINE
  5
799
100
AcDbEntity
  8
M0
 62
     6
100
AcDbLine
 10
189.832202
 20
600.021766
 11
189.832202
 21
597.021766
  0
LINE
  5
79A
100
AcDbEntity
  8
M0
 62
     6
100
AcDbLine
 10
201.832202
 20
600.021766
 11
201.832202
 21
597.021766
  0
LINE
  5
79B
100
AcDbEntity
  8
M0
 62
     6
100
AcDbLine
 10
172.132205
 20
597.021781
 11
172.132205
 21
600.021766
  0
ARC
  5
79C
100
AcDbEntity
  8
M0
 62
     6
100
AcDbCircle
 10
172.632205
 20
595.521796
 40
1.0
100
AcDbArc
 50
0.0
 51
90.0
  0
ARC
  5
79D
100
AcDbEntity
  8
M0
 62
     6
100
AcDbCircle
 10
172.632205
 20
597.021796
 40
0.5
100
AcDbArc
 50
179.998251
 51
270.0
  0
LINE
  5
79E
100
AcDbEntity
  8
M0
 62
     6
100
AcDbLine
 10
144.432223
 20
700.021598
 11
150.632206
 21
700.021598
  0
LINE
  5
79F
100
AcDbEntity
  8
M0
 62
     6
100
AcDbLine
 10
153.632206
 20
699.521598
 11
153.632206
 21
697.521598
  0
LINE
  5
7A0
100
AcDbEntity
  8
M0
 62
     6
100
AcDbLine
 10
150.13222
 20
699.521598
 11
150.13222
 21
697.521598
  0
LINE
  5
7A1
100
AcDbEntity
  8
M0
 62
     6
100
AcDbLine
 10
147.13222
 20
699.521598
 11
147.13222
 21
697.521598
  0
LINE
  5
7A2
100
AcDbEntity
  8
M0
 62
     6
100
AcDbLine
 10
143.932223
 20
699.521598
 11
143.932223
 21
688.521598
  0
LINE
  5
7A3
100
AcDbEntity
  8
M0
 62
     6
100
AcDbLine
 10
120.63222
 20
687.521598
 11
142.932223
 21
687.521598
  0
LINE
  5
7A4
100
AcDbEntity
  8
M0
 62
     6
100
AcDbLine
 10
158.632206
 20
688.521598
 11
158.632206
 21
693.521598
  0
LINE
  5
7A5
100
AcDbEntity
  8
M0
 62
     6
100
AcDbLine
 10
159.632206
 20
687.521598
 11
172.632205
 21
687.521598
  0
ARC
  5
7A6
100
AcDbEntity
  8
M0
 62
     6
100
AcDbCircle
 10
154.632206
 20
693.521598
 40
3.999996
100
AcDbArc
 50
0.0
 51
90.0
  0
LINE
  5
7A7
100
AcDbEntity
  8
M0
 62
     6
100
AcDbLine
 10
150.632206
 20
700.021598
 11
153.132206
 21
700.021598
  0
ARC
  5
7A8
100
AcDbEntity
  8
M0
 62
     6
100
AcDbCircle
 10
144.432223
 20
699.521598
 40
0.5
100
AcDbArc
 50
89.998251
 51
180.0
  0
ARC
  5
7A9
100
AcDbEntity
  8
M0
 62
     6
100
AcDbCircle
 10
146.63222
 20
699.521598
 40
0.5
100
AcDbArc
 50
0.0
 51
89.998251
  0
ARC
  5
7AA
100
AcDbEntity
  8
M0
 62
     6
100
AcDbCircle
 10
150.632206
 20
699.521598
 40
0.5
100
AcDbArc
 50
90.0
 51
180.0
  0
ARC
  5
7AB
100
AcDbEntity
  8
M0
 62
     6
100
AcDbCircle
 10
153.132206
 20
699.521598
 40
0.5
100
AcDbArc
 50
0.0
 51
90.0
  0
ARC
  5
7AC
100
AcDbEntity
  8
M0
 62
     6
100
AcDbCircle
 10
142.932223
 20
688.521598
 40
1.0
100
AcDbArc
 50
-90.0
 51
0.0
  0
LINE
  5
7AD
100
AcDbEntity
  8
M0
 62
     6
100
AcDbLine
 10
143.632159
 20
697.521598
 11
143.932223
 21
697.521598
  0
LINE
  5
7AE
100
AcDbEntity
  8
M0
 62
     6
100
AcDbLine
 10
153.632206
 20
697.521598
 11
154.632206
 21
697.521598
  0
ARC
  5
7AF
100
AcDbEntity
  8
M0
 62
     6
100
AcDbCircle
 10
120.63222
 20
685.521598
 40
2.0
100
AcDbArc
 50
89.999563
 51
180.0
  0
LINE
  5
7B0
100
AcDbEntity
  8
M0
 62
     6
100
AcDbLine
 10
130.432223
 20
684.021598
 11
142.432223
 21
684.021598
  0
LINE
  5
7B1
100
AcDbEntity
  8
M0
 62
     6
100
AcDbLine
 10
142.432223
 20
684.021598
 11
142.432223
 21
687.521598
  0
LINE
  5
7B2
100
AcDbEntity
  8
M0
 62
     6
100
AcDbLine
 10
130.432223
 20
684.021598
 11
130.432223
 21
687.521598
  0
LINE
  5
7B3
100
AcDbEntity
  8
M0
 62
     6
100
AcDbLine
 10
160.132206
 20
687.021598
 11
160.132206
 21
684.021598
  0
LINE
  5
7B4
100
AcDbEntity
  8
M0
 62
     6
100
AcDbLine
 10
160.132206
 20
684.021598
 11
172.132205
 21
684.021598
  0
ARC
  5
7B5
100
AcDbEntity
  8
M0
 62
     6
100
AcDbCircle
 10
159.632206
 20
688.521598
 40
1.0
100
AcDbArc
 50
180.0
 51
270.0
  0
ARC
  5
7B6
100
AcDbEntity
  8
M0
 62
     6
100
AcDbCircle
 10
159.632206
 20
687.021598
 40
0.5
100
AcDbArc
 50
0.0
 51
90.0
  0
LINE
  5
7B7
100
AcDbEntity
  8
M0
 62
     6
100
AcDbLine
 10
187.832202
 20
700.021598
 11
181.632205
 21
700.021598
  0
LINE
  5
7B8
100
AcDbEntity
  8
M0
 62
     6
100
AcDbLine
 10
178.632205
 20
699.521598
 11
178.632205
 21
697.521598
  0
LINE
  5
7B9
100
AcDbEntity
  8
M0
 62
     6
100
AcDbLine
 10
182.132205
 20
699.521598
 11
182.132205
 21
697.521598
  0
LINE
  5
7BA
100
AcDbEntity
  8
M0
 62
     6
100
AcDbLine
 10
185.132205
 20
699.521598
 11
185.132205
 21
697.521598
  0
LINE
  5
7BB
100
AcDbEntity
  8
M0
 62
     6
100
AcDbLine
 10
188.332202
 20
699.521598
 11
188.332202
 21
688.521598
  0
LINE
  5
7BC
100
AcDbEntity
  8
M0
 62
     6
100
AcDbLine
 10
211.632205
 20
687.521598
 11
189.332202
 21
687.521598
  0
LINE
  5
7BD
100
AcDbEntity
  8
M0
 62
     6
100
AcDbLine
 10
173.632205
 20
688.521598
 11
173.632205
 21
693.521598
  0
ARC
  5
7BE
100
AcDbEntity
  8
M0
 62
     6
100
AcDbCircle
 10
177.632205
 20
693.521598
 40
3.999996
100
AcDbArc
 50
90.0
 51
180.0
  0
LINE
  5
7BF
100
AcDbEntity
  8
M0
 62
     6
100
AcDbLine
 10
181.632205
 20
700.021598
 11
179.132205
 21
700.021598
  0
ARC
  5
7C0
100
AcDbEntity
  8
M0
 62
     6
100
AcDbCircle
 10
187.832202
 20
699.521598
 40
0.5
100
AcDbArc
 50
0.0
 51
90.0
  0
ARC
  5
7C1
100
AcDbEntity
  8
M0
 62
     6
100
AcDbCircle
 10
185.632205
 20
699.521598
 40
0.5
100
AcDbArc
 50
90.0
 51
180.0
  0
ARC
  5
7C2
100
AcDbEntity
  8
M0
 62
     6
100
AcDbCircle
 10
181.632205
 20
699.521598
 40
0.5
100
AcDbArc
 50
0.0
 51
90.0
  0
ARC
  5
7C3
100
AcDbEntity
  8
M0
 62
     6
100
AcDbCircle
 10
179.132205
 20
699.521598
 40
0.5
100
AcDbArc
 50
90.0
 51
180.0
  0
ARC
  5
7C4
100
AcDbEntity
  8
M0
 62
     6
100
AcDbCircle
 10
189.332202
 20
688.521598
 40
1.0
100
AcDbArc
 50
180.0
 51
269.999126
  0
LINE
  5
7C5
100
AcDbEntity
  8
M0
 62
     6
100
AcDbLine
 10
188.632144
 20
697.521598
 11
188.332202
 21
697.521598
  0
LINE
  5
7C6
100
AcDbEntity
  8
M0
 62
     6
100
AcDbLine
 10
178.632205
 20
697.521598
 11
177.632205
 21
697.521598
  0
ARC
  5
7C7
100
AcDbEntity
  8
M0
 62
     6
100
AcDbCircle
 10
211.632205
 20
685.521598
 40
2.0
100
AcDbArc
 50
0.0
 51
90.0
  0
LINE
  5
7C8
100
AcDbEntity
  8
M0
 62
     6
100
AcDbLine
 10
201.832202
 20
684.021598
 11
189.832202
 21
684.021598
  0
LINE
  5
7C9
100
AcDbEntity
  8
M0
 62
     6
100
AcDbLine
 10
189.832202
 20
684.021598
 11
189.832202
 21
687.521598
  0
LINE
  5
7CA
100
AcDbEntity
  8
M0
 62
     6
100
AcDbLine
 10
201.832202
 20
684.021598
 11
201.832202
 21
687.521598
  0
LINE
  5
7CB
100
AcDbEntity
  8
M0
 62
     6
100
AcDbLine
 10
172.132205
 20
687.021598
 11
172.132205
 21
684.021598
  0
ARC
  5
7CC
100
AcDbEntity
  8
M0
 62
     6
100
AcDbCircle
 10
172.632205
 20
688.521598
 40
1.0
100
AcDbArc
 50
270.0
 51
360.0
  0
ARC
  5
7CD
100
AcDbEntity
  8
M0
 62
     6
100
AcDbCircle
 10
172.632205
 20
687.021598
 40
0.5
100
AcDbArc
 50
90.0
 51
180.0
  0
CIRCLE
  5
7CE
100
AcDbEntity
  8
M0
 62
     6
100
AcDbCircle
 10
151.282139
 20
691.021598
 40
4.499997
  0
CIRCLE
  5
7CF
100
AcDbEntity
  8
M0
 62
     6
100
AcDbCircle
 10
180.982135
 20
593.02175
 40
4.499997
  0
CIRCLE
  5
7D0
100
AcDbEntity
  8
M0
 62
     6
100
AcDbCircle
 10
123.632159
 20
603.77175
 40
1.859998
  0
LINE
  5
7D1
100
AcDbEntity
  8
M0
  6
DASHDOT
 62
     6
100
AcDbLine
 10
116.772158
 20
603.77175
 11
130.492144
 21
603.77175
  0
LINE
  5
7D2
100
AcDbEntity
  8
M0
  6
DASHDOT
 62
     6
100
AcDbLine
 10
123.632159
 20
596.91175
 11
123.632159
 21
610.631736
  0
CIRCLE
  5
7D3
100
AcDbEntity
  8
M0
 62
     6
100
AcDbCircle
 10
123.632159
 20
680.271598
 40
1.859998
  0
LINE
  5
7D4
100
AcDbEntity
  8
M0
  6
DASHDOT
 62
     6
100
AcDbLine
 10
116.772158
 20
680.271598
 11
130.492144
 21
680.271598
  0
LINE
  5
7D5
100
AcDbEntity
  8
M0
  6
DASHDOT
 62
     6
100
AcDbLine
 10
123.632159
 20
673.411734
 11
123.632159
 21
687.131705
  0
CIRCLE
  5
7D6
100
AcDbEntity
  8
M0
 62
     6
100
AcDbCircle
 10
208.632144
 20
680.271598
 40
1.859998
  0
LINE
  5
7D7
100
AcDbEntity
  8
M0
  6
DASHDOT
 62
     6
100
AcDbLine
 10
201.772143
 20
680.271598
 11
215.492129
 21
680.271598
  0
LINE
  5
7D8
100
AcDbEntity
  8
M0
  6
DASHDOT
 62
     6
100
AcDbLine
 10
208.632144
 20
673.411734
 11
208.632144
 21
687.131705
  0
CIRCLE
  5
7D9
100
AcDbEntity
  8
M0
 62
     6
100
AcDbCircle
 10
208.632144
 20
603.77175
 40
1.859998
  0
LINE
  5
7DA
100
AcDbEntity
  8
M0
  6
DASHDOT
 62
     6
100
AcDbLine
 10
201.772143
 20
603.77175
 11
215.492129
 21
603.77175
  0
LINE
  5
7DB
100
AcDbEntity
  8
M0
  6
DASHDOT
 62
     6
100
AcDbLine
 10
208.632144
 20
596.91175
 11
208.632144
 21
610.631736
  0
CIRCLE
  5
7DC
100
AcDbEntity
  8
M0
 62
     6
100
AcDbCircle
 10
123.632159
 20
680.271598
 40
1.359998
  0
CIRCLE
  5
7DD
100
AcDbEntity
  8
M0
 62
     6
100
AcDbCircle
 10
123.632159
 20
603.77175
 40
1.359998
  0
CIRCLE
  5
7DE
100
AcDbEntity
  8
M0
 62
     6
100
AcDbCircle
 10
208.632144
 20
603.77175
 40
1.359998
  0
CIRCLE
  5
7DF
100
AcDbEntity
  8
M0
 62
     6
100
AcDbCircle
 10
208.632144
 20
680.271598
 40
1.359998
  0
LINE
  5
7E0
100
AcDbEntity
  8
M0
  6
DASHDOT
 62
     6
100
AcDbLine
 10
89.246783
 20
642.021735
 11
242.845111
 21
642.021735
  0
ARC
  5
7E1
100
AcDbEntity
  8
M0
 62
     6
100
AcDbCircle
 10
129.932223
 20
597.021796
 40
0.5
100
AcDbArc
 50
270.0
 51
360.0
  0
ARC
  5
7E2
100
AcDbEntity
  8
M0
 62
     6
100
AcDbCircle
 10
142.932223
 20
597.021796
 40
0.5
100
AcDbArc
 50
179.998251
 51
270.0
  0
ARC
  5
7E3
100
AcDbEntity
  8
M0
 62
     6
100
AcDbCircle
 10
202.332202
 20
597.021766
 40
0.5
100
AcDbArc
 50
179.998251
 51
269.998251
  0
ARC
  5
7E4
100
AcDbEntity
  8
M0
 62
     6
100
AcDbCircle
 10
189.332202
 20
597.021766
 40
0.5
100
AcDbArc
 50
269.998251
 51
360.0
  0
ARC
  5
7E5
100
AcDbEntity
  8
M0
 62
     6
100
AcDbCircle
 10
184.632205
 20
586.021781
 40
0.5
100
AcDbArc
 50
0.0
 51
90.0
  0
ARC
  5
7E6
100
AcDbEntity
  8
M0
 62
     6
100
AcDbCircle
 10
182.632205
 20
586.021781
 40
0.5
100
AcDbArc
 50
90.0
 51
179.998251
  0
ARC
  5
7E7
100
AcDbEntity
  8
M0
 62
     6
100
AcDbCircle
 10
149.63222
 20
586.021796
 40
0.5
100
AcDbArc
 50
0.0
 51
89.998251
  0
ARC
  5
7E8
100
AcDbEntity
  8
M0
 62
     6
100
AcDbCircle
 10
147.63222
 20
586.021796
 40
0.5
100
AcDbArc
 50
89.998251
 51
179.998251
  0
ARC
  5
7E9
100
AcDbEntity
  8
M0
 62
     6
100
AcDbCircle
 10
154.132206
 20
586.021796
 40
0.5
100
AcDbArc
 50
90.0
 51
179.998251
  0
ARC
  5
7EA
100
AcDbEntity
  8
M0
 62
     6
100
AcDbCircle
 10
178.132205
 20
586.021781
 40
0.5
100
AcDbArc
 50
0.0
 51
90.0
  0
LINE
  5
7EB
100
AcDbEntity
  8
M0
 62
     6
100
AcDbLine
 10
144.632159
 20
578.521796
 11
151.632129
 21
578.521796
  0
LINE
  5
7EC
100
AcDbEntity
  8
M0
 62
     6
100
AcDbLine
 10
185.132144
 20
581.521796
 11
185.132144
 21
578.521796
  0
LINE
  5
7ED
100
AcDbEntity
  8
M0
 62
     6
100
AcDbLine
 10
183.132144
 20
581.521796
 11
183.132144
 21
578.521796
  0
LINE
  5
7EE
100
AcDbEntity
  8
M0
 62
     6
100
AcDbLine
 10
149.132159
 20
581.521796
 11
149.132159
 21
578.521796
  0
LINE
  5
7EF
100
AcDbEntity
  8
M0
 62
     6
100
AcDbLine
 10
147.132159
 20
581.521796
 11
147.132159
 21
578.521796
  0
LINE
  5
7F0
100
AcDbEntity
  8
M0
 62
     6
100
AcDbLine
 10
150.632145
 20
584.021796
 11
150.632145
 21
581.521796
  0
LINE
  5
7F1
100
AcDbEntity
  8
M0
 62
     6
100
AcDbLine
 10
145.632159
 20
584.021796
 11
145.632159
 21
581.521796
  0
LINE
  5
7F2
100
AcDbEntity
  8
M0
 62
     6
100
AcDbLine
 10
186.632144
 20
584.021781
 11
186.632144
 21
581.521796
  0
LINE
  5
7F3
100
AcDbEntity
  8
M0
 62
     6
100
AcDbLine
 10
181.632144
 20
584.021796
 11
181.632144
 21
581.521796
  0
LINE
  5
7F4
100
AcDbEntity
  8
M0
 62
     6
100
AcDbLine
 10
153.632145
 20
584.513984
 11
153.632145
 21
581.521796
  0
LINE
  5
7F5
100
AcDbEntity
  8
M0
 62
     6
100
AcDbLine
 10
142.632159
 20
585.521796
 11
142.632159
 21
580.521796
  0
LINE
  5
7F6
100
AcDbEntity
  8
M0
 62
     6
100
AcDbLine
 10
189.632144
 20
585.521781
 11
189.632144
 21
580.521796
  0
LINE
  5
7F7
100
AcDbEntity
  8
M0
 62
     6
100
AcDbLine
 10
178.632144
 20
584.521781
 11
178.632144
 21
581.521781
  0
LINE
  5
7F8
100
AcDbEntity
  8
M0
 62
     6
100
AcDbLine
 10
145.632159
 20
581.521796
 11
147.132159
 21
581.521796
  0
LINE
  5
7F9
100
AcDbEntity
  8
M0
 62
     6
100
AcDbLine
 10
178.632144
 20
581.521796
 11
180.632144
 21
578.521796
  0
LINE
  5
7FA
100
AcDbEntity
  8
M0
 62
     6
100
AcDbLine
 10
153.632145
 20
581.521796
 11
151.632145
 21
578.521796
  0
LINE
  5
7FB
100
AcDbEntity
  8
M0
 62
     6
100
AcDbLine
 10
180.632129
 20
578.521796
 11
187.632144
 21
578.521796
  0
LINE
  5
7FC
100
AcDbEntity
  8
M0
 62
     6
100
AcDbLine
 10
181.632144
 20
581.521796
 11
183.132144
 21
581.521796
  0
LINE
  5
7FD
100
AcDbEntity
  8
M0
 62
     6
100
AcDbLine
 10
149.132159
 20
581.521796
 11
150.632145
 21
581.521796
  0
LINE
  5
7FE
100
AcDbEntity
  8
M0
 62
     6
100
AcDbLine
 10
185.132144
 20
581.521796
 11
186.632144
 21
581.521796
  0
ARC
  5
7FF
100
AcDbEntity
  8
M0
 62
     6
100
AcDbCircle
 10
188.632144
 20
585.521781
 40
1.0
100
AcDbArc
 50
0.0
 51
90.0
  0
ARC
  5
800
100
AcDbEntity
  8
M0
 62
     6
100
AcDbCircle
 10
143.632159
 20
585.521796
 40
1.0
100
AcDbArc
 50
89.999126
 51
179.999126
  0
LINE
  5
801
100
AcDbEntity
  8
M0
 62
     6
100
AcDbLine
 10
147.63222
 20
586.521796
 11
149.63222
 21
586.521796
  0
LINE
  5
802
100
AcDbEntity
  8
M0
 62
     6
100
AcDbLine
 10
184.632205
 20
586.521781
 11
182.632205
 21
586.521796
  0
ARC
  5
803
100
AcDbEntity
  8
M0
 62
     6
100
AcDbCircle
 10
144.632159
 20
580.521796
 40
2.0
100
AcDbArc
 50
179.999563
 51
270.0
  0
ARC
  5
804
100
AcDbEntity
  8
M0
 62
     6
100
AcDbCircle
 10
187.632144
 20
580.521796
 40
2.0
100
AcDbArc
 50
269.999563
 51
360.0
  0
LINE
  5
805
100
AcDbEntity
  8
M0
 62
     6
100
AcDbLine
 10
144.632159
 20
705.521598
 11
151.632129
 21
705.521598
  0
LINE
  5
806
100
AcDbEntity
  8
M0
 62
     6
100
AcDbLine
 10
145.632159
 20
702.521598
 11
147.132159
 21
702.521598
  0
LINE
  5
807
100
AcDbEntity
  8
M0
 62
     6
100
AcDbLine
 10
149.132159
 20
705.521598
 11
149.132159
 21
702.521598
  0
LINE
  5
808
100
AcDbEntity
  8
M0
 62
     6
100
AcDbLine
 10
183.132144
 20
705.521598
 11
183.132144
 21
702.521598
  0
LINE
  5
809
100
AcDbEntity
  8
M0
 62
     6
100
AcDbLine
 10
147.132159
 20
705.521598
 11
147.132159
 21
702.521598
  0
LINE
  5
80A
100
AcDbEntity
  8
M0
 62
     6
100
AcDbLine
 10
185.132144
 20
705.521598
 11
185.132144
 21
702.521598
  0
LINE
  5
80B
100
AcDbEntity
  8
M0
 62
     6
100
AcDbLine
 10
150.632145
 20
702.521598
 11
150.632145
 21
700.021598
  0
LINE
  5
80C
100
AcDbEntity
  8
M0
 62
     6
100
AcDbLine
 10
145.632159
 20
702.521598
 11
145.632159
 21
700.021598
  0
LINE
  5
80D
100
AcDbEntity
  8
M0
 62
     6
100
AcDbLine
 10
186.632144
 20
702.521598
 11
186.632144
 21
700.021598
  0
LINE
  5
80E
100
AcDbEntity
  8
M0
 62
     6
100
AcDbLine
 10
181.632144
 20
702.521598
 11
181.632144
 21
700.021598
  0
LINE
  5
80F
100
AcDbEntity
  8
M0
 62
     6
100
AcDbLine
 10
153.632145
 20
699.52941
 11
153.632145
 21
702.521598
  0
LINE
  5
810
100
AcDbEntity
  8
M0
 62
     6
100
AcDbLine
 10
142.632159
 20
698.521598
 11
142.632159
 21
703.521598
  0
LINE
  5
811
100
AcDbEntity
  8
M0
 62
     6
100
AcDbLine
 10
178.632144
 20
699.521598
 11
178.632144
 21
702.521598
  0
LINE
  5
812
100
AcDbEntity
  8
M0
 62
     6
100
AcDbLine
 10
189.632144
 20
698.521598
 11
189.632144
 21
703.521598
  0
ARC
  5
813
100
AcDbEntity
  8
M0
 62
     6
100
AcDbCircle
 10
187.632144
 20
703.521598
 40
2.0
100
AcDbArc
 50
0.0
 51
90.0
  0
ARC
  5
814
100
AcDbEntity
  8
M0
 62
     6
100
AcDbCircle
 10
144.632159
 20
703.521598
 40
2.0
100
AcDbArc
 50
89.999563
 51
180.0
  0
LINE
  5
815
100
AcDbEntity
  8
M0
 62
     6
100
AcDbLine
 10
151.632145
 20
705.521598
 11
153.632145
 21
702.521598
  0
LINE
  5
816
100
AcDbEntity
  8
M0
 62
     6
100
AcDbLine
 10
180.632144
 20
705.521598
 11
178.632144
 21
702.521598
  0
LINE
  5
817
100
AcDbEntity
  8
M0
 62
     6
100
AcDbLine
 10
181.632144
 20
702.521598
 11
183.132144
 21
702.521598
  0
LINE
  5
818
100
AcDbEntity
  8
M0
 62
     6
100
AcDbLine
 10
149.132159
 20
702.521598
 11
150.632145
 21
702.521598
  0
LINE
  5
819
100
AcDbEntity
  8
M0
 62
     6
100
AcDbLine
 10
185.132144
 20
702.521598
 11
186.632144
 21
702.521598
  0
ARC
  5
81A
100
AcDbEntity
  8
M0
 62
     6
100
AcDbCircle
 10
143.632159
 20
698.521598
 40
1.0
100
AcDbArc
 50
180.0
 51
270.0
  0
ARC
  5
81B
100
AcDbEntity
  8
M0
 62
     6
100
AcDbCircle
 10
188.632144
 20
698.521598
 40
1.0
100
AcDbArc
 50
269.999126
 51
360.0
  0
LINE
  5
81C
100
AcDbEntity
  8
M0
 62
     6
100
AcDbLine
 10
147.13222
 20
697.521598
 11
150.13222
 21
697.521598
  0
LINE
  5
81D
100
AcDbEntity
  8
M0
 62
     6
100
AcDbLine
 10
185.132205
 20
697.521598
 11
182.132205
 21
697.521598
  0
LINE
  5
81E
100
AcDbEntity
  8
M0
 62
     6
100
AcDbLine
 10
180.632129
 20
705.521598
 11
187.632144
 21
705.521598
  0
LINE
  5
81F
100
AcDbEntity
  8
M0
 62
     6
100
AcDbLine
 10
157.832157
 20
632.021811
 11
158.282566
 21
632.021811
  0
LINE
  5
820
100
AcDbEntity
  8
M0
 62
     6
100
AcDbLine
 10
157.832157
 20
636.021811
 11
158.13216
 21
636.021811
  0
LINE
  5
821
100
AcDbEntity
  8
M0
 62
     6
100
AcDbLine
 10
174.132159
 20
636.021811
 11
174.132159
 21
632.021811
  0
LINE
  5
822
100
AcDbEntity
  8
M0
 62
     6
100
AcDbLine
 10
158.13216
 20
636.021811
 11
158.13216
 21
632.021811
  0
LINE
  5
823
100
AcDbEntity
  8
M0
 62
     6
100
AcDbLine
 10
157.832157
 20
652.321647
 11
162.13216
 21
652.321647
  0
LINE
  5
824
100
AcDbEntity
  8
M0
 62
     6
100
AcDbLine
 10
170.132159
 20
654.321647
 11
170.132159
 21
652.021354
  0
LINE
  5
825
100
AcDbEntity
  8
M0
 62
     6
100
AcDbLine
 10
162.13216
 20
654.321647
 11
162.13216
 21
652.021109
  0
ARC
  5
826
100
AcDbEntity
  8
M0
 62
     6
100
AcDbCircle
 10
173.632159
 20
651.821647
 40
0.5
100
AcDbArc
 50
23.484478
 51
90.0
  0
ARC
  5
827
100
AcDbEntity
  8
M0
 62
     6
100
AcDbCircle
 10
158.63216
 20
651.821647
 40
0.5
100
AcDbArc
 50
90.0
 51
156.458653
  0
LINE
  5
828
100
AcDbEntity
  8
M0
 62
     6
100
AcDbLine
 10
174.932147
 20
636.430152
 11
174.932147
 21
636.085318
  0
LINE
  5
829
100
AcDbEntity
  8
M0
 62
     6
100
AcDbLine
 10
157.332157
 20
636.430426
 11
157.332157
 21
636.085318
  0
LINE
  5
82A
100
AcDbEntity
  8
M0
 62
     6
100
AcDbLine
 10
174.132159
 20
636.021811
 11
174.432147
 21
636.021811
  0
LINE
  5
82B
100
AcDbEntity
  8
M0
 62
     6
100
AcDbLine
 10
158.13216
 20
635.021811
 11
158.282566
 21
635.021811
  0
LINE
  5
82C
100
AcDbEntity
  8
M0
 62
     6
100
AcDbLine
 10
173.982516
 20
633.021811
 11
174.132159
 21
633.021811
  0
LINE
  5
82D
100
AcDbEntity
  8
M0
 62
     6
100
AcDbLine
 10
173.982516
 20
635.021811
 11
174.132159
 21
635.021811
  0
LINE
  5
82E
100
AcDbEntity
  8
M0
 62
     6
100
AcDbLine
 10
155.596088
 20
631.021811
 11
176.6682
 21
631.021811
  0
LINE
  5
82F
100
AcDbEntity
  8
M0
 62
     6
100
AcDbLine
 10
155.332157
 20
626.021811
 11
176.932147
 21
626.021811
  0
LINE
  5
830
100
AcDbEntity
  8
M0
 62
     6
100
AcDbLine
 10
167.882159
 20
658.021598
 11
164.38216
 21
658.021598
  0
LINE
  5
831
100
AcDbEntity
  8
M0
 62
     6
100
AcDbLine
 10
162.13216
 20
654.021598
 11
163.38216
 21
654.021598
  0
LINE
  5
832
100
AcDbEntity
  8
M0
 62
     6
100
AcDbLine
 10
168.882159
 20
654.021598
 11
170.132159
 21
654.021598
  0
LINE
  5
833
100
AcDbEntity
  8
M0
 62
     6
100
AcDbLine
 10
170.132159
 20
652.321647
 11
174.432147
 21
652.321647
  0
ARC
  5
834
100
AcDbEntity
  8
M0
 62
     6
100
AcDbCircle
 10
158.332157
 20
632.821799
 40
0.2
100
AcDbArc
 50
90.0
 51
179.999727
  0
LINE
  5
835
100
AcDbEntity
  8
M0
 62
     6
100
AcDbLine
 10
162.13216
 20
654.321647
 11
163.38216
 21
654.321647
  0
LINE
  5
836
100
AcDbEntity
  8
M0
 62
     6
100
AcDbLine
 10
168.882159
 20
654.321647
 11
170.132159
 21
654.321647
  0
LINE
  5
837
100
AcDbEntity
  8
M0
 62
     6
100
AcDbLine
 10
154.832157
 20
649.321647
 11
154.832157
 21
639.021811
  0
LINE
  5
838
100
AcDbEntity
  8
M0
 62
     6
100
AcDbLine
 10
177.432147
 20
639.021796
 11
177.432147
 21
649.321647
  0
LINE
  5
839
100
AcDbEntity
  8
M0
 62
     6
100
AcDbLine
 10
154.832157
 20
629.021811
 11
154.832157
 21
626.521811
  0
LINE
  5
83A
100
AcDbEntity
  8
M0
 62
     6
100
AcDbLine
 10
177.432147
 20
626.521811
 11
177.432147
 21
629.021796
  0
ARC
  5
83B
100
AcDbEntity
  8
M0
 62
     6
100
AcDbCircle
 10
155.332157
 20
626.521811
 40
0.5
100
AcDbArc
 50
179.999891
 51
270.0
  0
ARC
  5
83C
100
AcDbEntity
  8
M0
 62
     6
100
AcDbCircle
 10
176.932147
 20
626.521811
 40
0.5
100
AcDbArc
 50
270.0
 51
360.0
  0
ARC
  5
83D
100
AcDbEntity
  8
M0
 62
     6
100
AcDbCircle
 10
176.932147
 20
649.021598
 40
0.5
100
AcDbArc
 50
0.0
 51
70.973332
  0
ARC
  5
83E
100
AcDbEntity
  8
M0
 62
     6
100
AcDbCircle
 10
155.332157
 20
640.021811
 40
0.5
100
AcDbArc
 50
179.999891
 51
246.485229
  0
ARC
  5
83F
100
AcDbEntity
  8
M0
 62
     6
100
AcDbCircle
 10
176.932147
 20
640.021811
 40
0.5
100
AcDbArc
 50
293.642356
 51
360.0
  0
ARC
  5
840
100
AcDbEntity
  8
M0
 62
     6
100
AcDbCircle
 10
155.332157
 20
649.021598
 40
0.5
100
AcDbArc
 50
108.901733
 51
180.0
  0
ARC
  5
841
100
AcDbEntity
  8
M0
 62
     6
100
AcDbCircle
 10
155.332157
 20
649.521598
 40
0.5
100
AcDbArc
 50
90.0
 51
180.0
  0
ARC
  5
842
100
AcDbEntity
  8
M0
 62
     6
100
AcDbCircle
 10
176.932147
 20
649.521598
 40
0.5
100
AcDbArc
 50
0.0
 51
90.0
  0
ARC
  5
843
100
AcDbEntity
  8
M0
 62
     6
100
AcDbCircle
 10
174.432147
 20
649.321647
 40
2.999996
100
AcDbArc
 50
0.0
 51
90.0
  0
ARC
  5
844
100
AcDbEntity
  8
M0
 62
     6
100
AcDbCircle
 10
157.832157
 20
649.321647
 40
2.999996
100
AcDbArc
 50
90.0
 51
179.999982
  0
ARC
  5
845
100
AcDbEntity
  8
M0
 62
     6
100
AcDbCircle
 10
157.832157
 20
639.021811
 40
2.999996
100
AcDbArc
 50
179.999964
 51
270.0
  0
ARC
  5
846
100
AcDbEntity
  8
M0
 62
     6
100
AcDbCircle
 10
174.432147
 20
639.021811
 40
2.999996
100
AcDbArc
 50
270.0
 51
360.0
  0
ARC
  5
847
100
AcDbEntity
  8
M0
 62
     6
100
AcDbCircle
 10
174.432147
 20
629.021811
 40
2.999996
100
AcDbArc
 50
0.0
 51
90.0
  0
ARC
  5
848
100
AcDbEntity
  8
M0
 62
     6
100
AcDbCircle
 10
157.832157
 20
629.021811
 40
2.999996
100
AcDbArc
 50
90.0
 51
179.999964
  0
LINE
  5
849
100
AcDbEntity
  8
M0
 62
     6
100
AcDbLine
 10
168.882159
 20
657.021598
 11
168.882159
 21
654.021598
  0
LINE
  5
84A
100
AcDbEntity
  8
M0
 62
     6
100
AcDbLine
 10
163.38216
 20
657.021598
 11
163.38216
 21
654.021598
  0
ARC
  5
84B
100
AcDbEntity
  8
M0
 62
     6
100
AcDbCircle
 10
167.882159
 20
657.021598
 40
1.0
100
AcDbArc
 50
0.0
 51
90.0
  0
ARC
  5
84C
100
AcDbEntity
  8
M0
 62
     6
100
AcDbCircle
 10
164.38216
 20
657.021598
 40
1.0
100
AcDbArc
 50
90.0
 51
180.0
  0
LINE
  5
84D
100
AcDbEntity
  8
M0
 62
     6
100
AcDbLine
 10
173.982516
 20
632.021811
 11
174.432147
 21
632.021811
  0
CIRCLE
  5
84E
100
AcDbEntity
  8
M0
100
AcDbCircle
 10
128.432055
 20
574.520682
 40
7.7
  0
LINE
  5
84F
100
AcDbEntity
  8
M0
 62
     7
100
AcDbLine
 10
123.132739
 20
546.92179
 11
123.132708
 21
508.521888
  0
LINE
  5
850
100
AcDbEntity
  8
M0
 62
     7
100
AcDbLine
 10
226.132693
 20
505.021582
 11
226.132708
 21
545.421729
  0
LINE
  5
851
100
AcDbEntity
  8
M0
 62
     7
100
AcDbLine
 10
149.132739
 20
547.521872
 11
149.132724
 21
525.921775
  0
LINE
  5
852
100
AcDbEntity
  8
M0
 62
     7
100
AcDbLine
 10
127.132739
 20
545.92179
 11
127.132708
 21
511.42179
  0
LINE
  5
853
100
AcDbEntity
  8
M0
 62
     7
100
AcDbLine
 10
153.132726
 20
547.521628
 11
153.132713
 21
525.921775
  0
LINE
  5
854
100
AcDbEntity
  8
M0
 62
     7
100
AcDbLine
 10
175.132724
 20
547.521857
 11
175.13271
 21
525.921759
  0
LINE
  5
855
100
AcDbEntity
  8
M0
 62
     7
100
AcDbLine
 10
179.132724
 20
547.521613
 11
179.13271
 21
525.921759
  0
LINE
  5
856
100
AcDbEntity
  8
M0
 62
     7
100
AcDbLine
 10
199.132708
 20
525.921744
 11
174.13271
 21
525.921759
  0
LINE
  5
857
100
AcDbEntity
  8
M0
 62
     7
100
AcDbLine
 10
197.632693
 20
522.921744
 11
174.132708
 21
522.921759
  0
LINE
  5
858
100
AcDbEntity
  8
M0
 62
     7
100
AcDbLine
 10
200.132693
 20
520.421744
 11
180.132706
 21
520.421759
  0
LINE
  5
859
100
AcDbEntity
  8
M0
 62
     7
100
AcDbLine
 10
150.132697
 20
499.922019
 11
152.132697
 21
499.922019
  0
LINE
  5
85A
100
AcDbEntity
  8
M0
 62
     7
100
AcDbLine
 10
176.132694
 20
499.922248
 11
178.132694
 21
499.922248
  0
LINE
  5
85B
100
AcDbEntity
  8
M0
 62
     7
100
AcDbLine
 10
148.132724
 20
520.421775
 11
128.132724
 21
520.42179
  0
LINE
  5
85C
100
AcDbEntity
  8
M0
 62
     7
100
AcDbLine
 10
148.132724
 20
522.921775
 11
128.132724
 21
522.92179
  0
LINE
  5
85D
100
AcDbEntity
  8
M0
 62
     7
100
AcDbLine
 10
148.132724
 20
525.921775
 11
128.132724
 21
525.92179
  0
LINE
  5
85E
100
AcDbEntity
  8
M0
 62
     7
100
AcDbLine
 10
174.132707
 20
520.421759
 11
154.132709
 21
520.421775
  0
LINE
  5
85F
100
AcDbEntity
  8
M0
 62
     7
100
AcDbLine
 10
174.132708
 20
522.921759
 11
148.132724
 21
522.921775
  0
LINE
  5
860
100
AcDbEntity
  8
M0
 62
     7
100
AcDbLine
 10
174.13271
 20
525.921759
 11
148.132724
 21
525.921775
  0
ARC
  5
861
100
AcDbEntity
  8
M0
 62
     7
100
AcDbCircle
 10
148.132724
 20
519.421775
 40
1.0
100
AcDbArc
 50
0.0
 51
89.999126
  0
ARC
  5
862
100
AcDbEntity
  8
M0
 62
     7
100
AcDbCircle
 10
148.132724
 20
521.921775
 40
1.0
100
AcDbArc
 50
0.0
 51
89.999126
  0
ARC
  5
863
100
AcDbEntity
  8
M0
 62
     7
100
AcDbCircle
 10
174.132706
 20
519.421759
 40
1.0
100
AcDbArc
 50
0.0
 51
90.0
  0
ARC
  5
864
100
AcDbEntity
  8
M0
 62
     7
100
AcDbCircle
 10
174.132708
 20
521.921759
 40
1.0
100
AcDbArc
 50
0.0
 51
90.0
  0
ARC
  5
865
100
AcDbEntity
  8
M0
 62
     7
100
AcDbCircle
 10
128.132724
 20
526.92179
 40
1.0
100
AcDbArc
 50
179.999126
 51
270.0
  0
ARC
  5
866
100
AcDbEntity
  8
M0
 62
     7
100
AcDbCircle
 10
154.132713
 20
526.921775
 40
1.0
100
AcDbArc
 50
179.999126
 51
270.0
  0
ARC
  5
867
100
AcDbEntity
  8
M0
 62
     7
100
AcDbCircle
 10
128.132724
 20
519.42179
 40
1.0
100
AcDbArc
 50
89.999126
 51
179.999126
  0
ARC
  5
868
100
AcDbEntity
  8
M0
 62
     7
100
AcDbCircle
 10
128.132724
 20
521.92179
 40
1.0
100
AcDbArc
 50
89.999126
 51
179.999126
  0
ARC
  5
869
100
AcDbEntity
  8
M0
 62
     7
100
AcDbCircle
 10
148.132724
 20
526.921775
 40
1.0
100
AcDbArc
 50
270.0
 51
360.0
  0
ARC
  5
86A
100
AcDbEntity
  8
M0
 62
     7
100
AcDbCircle
 10
154.132708
 20
519.421775
 40
1.0
100
AcDbArc
 50
90.0
 51
179.999126
  0
ARC
  5
86B
100
AcDbEntity
  8
M0
 62
     7
100
AcDbCircle
 10
154.13271
 20
521.921775
 40
1.0
100
AcDbArc
 50
90.0
 51
179.999126
  0
ARC
  5
86C
100
AcDbEntity
  8
M0
 62
     7
100
AcDbCircle
 10
174.132711
 20
526.921759
 40
1.0
100
AcDbArc
 50
270.0
 51
360.0
  0
LINE
  5
86D
100
AcDbEntity
  8
M0
 62
     7
100
AcDbLine
 10
200.132708
 20
544.521598
 11
200.132708
 21
526.921744
  0
ARC
  5
86E
100
AcDbEntity
  8
M0
 62
     7
100
AcDbCircle
 10
180.132706
 20
519.421759
 40
1.0
100
AcDbArc
 50
90.0
 51
179.999126
  0
ARC
  5
86F
100
AcDbEntity
  8
M0
 62
     7
100
AcDbCircle
 10
180.132707
 20
521.921759
 40
1.0
100
AcDbArc
 50
90.0
 51
179.999126
  0
ARC
  5
870
100
AcDbEntity
  8
M0
 62
     7
100
AcDbCircle
 10
199.132708
 20
526.921744
 40
1.0
100
AcDbArc
 50
269.999126
 51
360.0
  0
ARC
  5
871
100
AcDbEntity
  8
M0
 62
     7
100
AcDbCircle
 10
180.132711
 20
526.921759
 40
1.0
100
AcDbArc
 50
179.999126
 51
270.0
  0
ARC
  5
872
100
AcDbEntity
  8
M0
 62
     7
100
AcDbCircle
 10
150.132697
 20
500.922263
 40
1.0
100
AcDbArc
 50
179.999126
 51
270.0
  0
ARC
  5
873
100
AcDbEntity
  8
M0
 62
     7
100
AcDbCircle
 10
152.132697
 20
500.922263
 40
1.0
100
AcDbArc
 50
270.0
 51
360.0
  0
ARC
  5
874
100
AcDbEntity
  8
M0
 62
     7
100
AcDbCircle
 10
176.132695
 20
500.922492
 40
1.0
100
AcDbArc
 50
179.999126
 51
270.0
  0
ARC
  5
875
100
AcDbEntity
  8
M0
 62
     7
100
AcDbCircle
 10
178.132695
 20
500.922492
 40
1.0
100
AcDbArc
 50
270.0
 51
360.0
  0
LINE
  5
876
100
AcDbEntity
  8
M0
 62
     7
100
AcDbLine
 10
129.632739
 20
544.521644
 11
129.632724
 21
526.92179
  0
LINE
  5
877
100
AcDbEntity
  8
M0
 62
     7
100
AcDbLine
 10
146.632739
 20
544.521628
 11
146.632724
 21
526.921775
  0
LINE
  5
878
100
AcDbEntity
  8
M0
 62
     7
100
AcDbLine
 10
155.632725
 20
544.521628
 11
155.632713
 21
526.921775
  0
LINE
  5
879
100
AcDbEntity
  8
M0
 62
     7
100
AcDbLine
 10
172.632723
 20
544.521613
 11
172.632711
 21
526.921759
  0
LINE
  5
87A
100
AcDbEntity
  8
M0
 62
     7
100
AcDbLine
 10
181.632722
 20
544.521613
 11
181.63271
 21
526.921759
  0
LINE
  5
87B
100
AcDbEntity
  8
M0
 62
     7
100
AcDbLine
 10
198.632708
 20
541.144599
 11
198.632708
 21
526.921729
  0
LINE
  5
87C
100
AcDbEntity
  8
M0
 62
     7
100
AcDbLine
 10
149.132708
 20
502.921775
 11
146.632708
 21
505.421775
  0
LINE
  5
87D
100
AcDbEntity
  8
M0
 62
     7
100
AcDbLine
 10
175.132696
 20
502.921759
 11
172.632698
 21
505.421759
  0
LINE
  5
87E
100
AcDbEntity
  8
M0
 62
     7
100
AcDbLine
 10
175.132722
 20
544.521613
 11
172.632721
 21
542.021613
  0
LINE
  5
87F
100
AcDbEntity
  8
M0
 62
     7
100
AcDbLine
 10
153.132698
 20
502.921775
 11
155.6327
 21
505.421775
  0
LINE
  5
880
100
AcDbEntity
  8
M0
 62
     7
100
AcDbLine
 10
149.132739
 20
544.521628
 11
146.632724
 21
542.021628
  0
LINE
  5
881
100
AcDbEntity
  8
M0
 62
     7
100
AcDbLine
 10
179.132696
 20
502.921759
 11
181.632697
 21
505.421759
  0
LINE
  5
882
100
AcDbEntity
  8
M0
 62
     7
100
AcDbLine
 10
179.132722
 20
544.521613
 11
181.63272
 21
542.021613
  0
LINE
  5
883
100
AcDbEntity
  8
M0
 62
     7
100
AcDbLine
 10
153.132725
 20
544.521628
 11
155.632723
 21
542.021628
  0
LINE
  5
884
100
AcDbEntity
  8
M0
 62
     7
100
AcDbLine
 10
127.132739
 20
544.521644
 11
129.632739
 21
542.021644
  0
LINE
  5
885
100
AcDbEntity
  8
M0
 62
     7
100
AcDbLine
 10
226.132708
 20
545.421729
 11
225.991076
 21
545.421729
  0
LINE
  5
886
100
AcDbEntity
  8
M0
 62
     7
100
AcDbLine
 10
126.132739
 20
546.92179
 11
123.132739
 21
546.92179
  0
LINE
  5
887
100
AcDbEntity
  8
M0
 62
     7
100
AcDbLine
 10
223.132693
 20
505.021582
 11
223.132693
 21
522.521582
  0
LINE
  5
888
100
AcDbEntity
  8
M0
 62
     7
100
AcDbLine
 10
215.132693
 20
504.021598
 11
215.132693
 21
521.02233
  0
LINE
  5
889
100
AcDbEntity
  8
M0
 62
     7
100
AcDbLine
 10
212.132693
 20
511.021598
 11
212.132693
 21
521.02233
  0
LINE
  5
88A
100
AcDbEntity
  8
M0
 62
     7
100
AcDbLine
 10
212.132693
 20
511.021598
 11
212.132693
 21
521.02233
  0
LINE
  5
88B
100
AcDbEntity
  8
M0
 62
     7
100
AcDbLine
 10
204.132678
 20
522.321875
 11
204.132678
 21
506.521598
  0
ARC
  5
88C
100
AcDbEntity
  8
M0
 62
     7
100
AcDbCircle
 10
221.632693
 20
522.021582
 40
1.5
100
AcDbArc
 50
0.0
 51
11.54849
  0
LINE
  5
88D
100
AcDbEntity
  8
M0
 62
     7
100
AcDbLine
 10
226.132693
 20
505.021582
 11
223.132693
 21
505.021582
  0
LINE
  5
88E
100
AcDbEntity
  8
M0
 62
     7
100
AcDbLine
 10
225.632693
 20
507.021582
 11
224.132693
 21
507.021582
  0
LINE
  5
88F
100
AcDbEntity
  8
M0
 62
     7
100
AcDbLine
 10
225.632693
 20
514.021582
 11
224.132693
 21
514.021582
  0
LINE
  5
890
100
AcDbEntity
  8
M0
 62
     7
100
AcDbLine
 10
226.132693
 20
512.021582
 11
223.132693
 21
512.021582
  0
ARC
  5
891
100
AcDbEntity
  8
M0
 62
     7
100
AcDbCircle
 10
224.132693
 20
508.021582
 40
1.0
100
AcDbArc
 50
179.999126
 51
269.999126
  0
ARC
  5
892
100
AcDbEntity
  8
M0
 62
     7
100
AcDbCircle
 10
224.132693
 20
515.021582
 40
1.0
100
AcDbArc
 50
179.999126
 51
269.999126
  0
ARC
  5
893
100
AcDbEntity
  8
M0
 62
     7
100
AcDbCircle
 10
225.632693
 20
507.521582
 40
0.5
100
AcDbArc
 50
269.998251
 51
360.0
  0
ARC
  5
894
100
AcDbEntity
  8
M0
 62
     7
100
AcDbCircle
 10
225.632693
 20
514.521582
 40
0.5
100
AcDbArc
 50
269.998251
 51
360.0
  0
LINE
  5
895
100
AcDbEntity
  8
M0
 62
     7
100
AcDbLine
 10
214.132693
 20
510.021598
 11
213.132693
 21
510.021598
  0
ARC
  5
896
100
AcDbEntity
  8
M0
 62
     7
100
AcDbCircle
 10
214.132693
 20
511.021598
 40
1.0
100
AcDbArc
 50
269.999126
 51
360.0
  0
ARC
  5
897
100
AcDbEntity
  8
M0
 62
     7
100
AcDbCircle
 10
213.132693
 20
511.021598
 40
1.0
100
AcDbArc
 50
179.999126
 51
269.999126
  0
LINE
  5
898
100
AcDbEntity
  8
M0
 62
     7
100
AcDbLine
 10
213.132693
 20
504.021598
 11
213.132693
 21
510.021598
  0
ARC
  5
899
100
AcDbEntity
  8
M0
 62
     7
100
AcDbCircle
 10
214.132693
 20
504.021598
 40
1.0
100
AcDbArc
 50
179.999126
 51
269.999126
  0
ARC
  5
89A
100
AcDbEntity
  8
M0
 62
     7
100
AcDbCircle
 10
214.132693
 20
504.021598
 40
1.0
100
AcDbArc
 50
269.999126
 51
360.0
  0
LINE
  5
89B
100
AcDbEntity
  8
M0
 62
     7
100
AcDbLine
 10
205.132693
 20
503.521598
 11
201.132693
 21
503.521598
  0
ARC
  5
89C
100
AcDbEntity
  8
M0
 62
     7
100
AcDbCircle
 10
202.132693
 20
506.521598
 40
1.0
100
AcDbArc
 50
179.999126
 51
269.999126
  0
LINE
  5
89D
100
AcDbEntity
  8
M0
 62
     7
100
AcDbLine
 10
205.132693
 20
522.322379
 11
205.132693
 21
503.521598
  0
LINE
  5
89E
100
AcDbEntity
  8
M0
 62
     7
100
AcDbLine
 10
203.132693
 20
505.521598
 11
202.132693
 21
505.521598
  0
ARC
  5
89F
100
AcDbEntity
  8
M0
 62
     7
100
AcDbCircle
 10
203.132693
 20
506.521598
 40
1.0
100
AcDbArc
 50
269.999126
 51
360.0
  0
LINE
  5
8A0
100
AcDbEntity
  8
M0
 62
     7
100
AcDbLine
 10
129.632739
 20
544.521644
 11
127.132739
 21
544.521644
  0
LINE
  5
8A1
100
AcDbEntity
  8
M0
 62
     7
100
AcDbLine
 10
155.632725
 20
544.521628
 11
153.132725
 21
544.521628
  0
LINE
  5
8A2
100
AcDbEntity
  8
M0
 62
     7
100
AcDbLine
 10
181.632722
 20
544.521613
 11
179.132722
 21
544.521613
  0
LINE
  5
8A3
100
AcDbEntity
  8
M0
 62
     7
100
AcDbLine
 10
180.132722
 20
544.521613
 11
180.132723
 21
545.421759
  0
LINE
  5
8A4
100
AcDbEntity
  8
M0
 62
     7
100
AcDbLine
 10
174.132722
 20
544.521613
 11
174.132723
 21
545.421759
  0
LINE
  5
8A5
100
AcDbEntity
  8
M0
 62
     7
100
AcDbLine
 10
180.132708
 20
522.921759
 11
180.13271
 21
525.921759
  0
LINE
  5
8A6
100
AcDbEntity
  8
M0
 62
     7
100
AcDbLine
 10
174.132708
 20
522.921759
 11
174.13271
 21
525.921759
  0
LINE
  5
8A7
100
AcDbEntity
  8
M0
 62
     7
100
AcDbLine
 10
154.132711
 20
522.921775
 11
154.132713
 21
525.921775
  0
LINE
  5
8A8
100
AcDbEntity
  8
M0
 62
     7
100
AcDbLine
 10
148.132724
 20
522.921775
 11
148.132724
 21
525.921775
  0
LINE
  5
8A9
100
AcDbEntity
  8
M0
 62
     7
100
AcDbLine
 10
179.132708
 20
522.921759
 11
179.132694
 21
500.922492
  0
LINE
  5
8AA
100
AcDbEntity
  8
M0
 62
     7
100
AcDbLine
 10
175.132708
 20
522.921759
 11
175.132695
 21
500.922492
  0
LINE
  5
8AB
100
AcDbEntity
  8
M0
 62
     7
100
AcDbLine
 10
153.132711
 20
522.921775
 11
153.132697
 21
500.922263
  0
LINE
  5
8AC
100
AcDbEntity
  8
M0
 62
     7
100
AcDbLine
 10
149.132724
 20
522.921775
 11
149.132708
 21
500.922263
  0
LINE
  5
8AD
100
AcDbEntity
  8
M0
 62
     7
100
AcDbLine
 10
129.632724
 20
519.422034
 11
129.632708
 21
514.42179
  0
LINE
  5
8AE
100
AcDbEntity
  8
M0
 62
     7
100
AcDbLine
 10
146.632724
 20
519.421775
 11
146.632708
 21
505.421775
  0
ARC
  5
8AF
100
AcDbEntity
  8
M0
 62
     7
100
AcDbCircle
 10
145.632724
 20
519.421775
 40
1.0
100
AcDbArc
 50
0.0
 51
89.999126
  0
ARC
  5
8B0
100
AcDbEntity
  8
M0
 62
     7
100
AcDbCircle
 10
130.632724
 20
526.92179
 40
1.0
100
AcDbArc
 50
179.999126
 51
270.0
  0
ARC
  5
8B1
100
AcDbEntity
  8
M0
 62
     7
100
AcDbCircle
 10
145.632724
 20
526.921775
 40
1.0
100
AcDbArc
 50
270.0
 51
360.0
  0
ARC
  5
8B2
100
AcDbEntity
  8
M0
 62
     7
100
AcDbCircle
 10
130.632724
 20
519.42179
 40
1.0
100
AcDbArc
 50
89.999126
 51
179.985137
  0
LINE
  5
8B3
100
AcDbEntity
  8
M0
 62
     7
100
AcDbLine
 10
172.632706
 20
519.421759
 11
172.632698
 21
505.421759
  0
LINE
  5
8B4
100
AcDbEntity
  8
M0
 62
     7
100
AcDbLine
 10
155.632708
 20
519.422019
 11
155.6327
 21
505.421775
  0
ARC
  5
8B5
100
AcDbEntity
  8
M0
 62
     7
100
AcDbCircle
 10
156.632708
 20
519.421775
 40
1.0
100
AcDbArc
 50
90.0
 51
179.985137
  0
ARC
  5
8B6
100
AcDbEntity
  8
M0
 62
     7
100
AcDbCircle
 10
171.632711
 20
526.921759
 40
1.0
100
AcDbArc
 50
270.0
 51
360.0
  0
ARC
  5
8B7
100
AcDbEntity
  8
M0
 62
     7
100
AcDbCircle
 10
171.632706
 20
519.421759
 40
1.0
100
AcDbArc
 50
0.0
 51
90.0
  0
ARC
  5
8B8
100
AcDbEntity
  8
M0
 62
     7
100
AcDbCircle
 10
156.632713
 20
526.921775
 40
1.0
100
AcDbArc
 50
179.999126
 51
270.0
  0
LINE
  5
8B9
100
AcDbEntity
  8
M0
 62
     7
100
AcDbLine
 10
198.632693
 20
519.421744
 11
198.632693
 21
509.021842
  0
LINE
  5
8BA
100
AcDbEntity
  8
M0
 62
     7
100
AcDbLine
 10
181.632706
 20
519.422004
 11
181.632697
 21
505.421759
  0
ARC
  5
8BB
100
AcDbEntity
  8
M0
 62
     7
100
AcDbCircle
 10
197.632693
 20
519.421744
 40
1.0
100
AcDbArc
 50
0.0
 51
90.0
  0
ARC
  5
8BC
100
AcDbEntity
  8
M0
 62
     7
100
AcDbCircle
 10
182.632708
 20
526.921759
 40
1.0
100
AcDbArc
 50
179.999126
 51
269.999126
  0
ARC
  5
8BD
100
AcDbEntity
  8
M0
 62
     7
100
AcDbCircle
 10
197.632708
 20
526.921744
 40
1.0
100
AcDbArc
 50
269.999126
 51
360.0
  0
ARC
  5
8BE
100
AcDbEntity
  8
M0
 62
     7
100
AcDbCircle
 10
182.632693
 20
519.421759
 40
1.0
100
AcDbArc
 50
90.0
 51
179.985138
  0
LINE
  5
8BF
100
AcDbEntity
  8
M0
 62
     7
100
AcDbLine
 10
152.132727
 20
548.521628
 11
150.132727
 21
548.521628
  0
LINE
  5
8C0
100
AcDbEntity
  8
M0
 62
     7
100
AcDbLine
 10
178.132725
 20
548.521613
 11
176.132725
 21
548.521613
  0
LINE
  5
8C1
100
AcDbEntity
  8
M0
 62
     7
100
AcDbLine
 10
175.132722
 20
544.521613
 11
170.622438
 21
544.521598
  0
LINE
  5
8C2
100
AcDbEntity
  8
M0
 62
     7
100
AcDbLine
 10
149.132739
 20
544.521628
 11
141.955462
 21
544.521628
  0
ARC
  5
8C3
100
AcDbEntity
  8
M0
 62
     7
100
AcDbCircle
 10
178.132724
 20
547.521613
 40
1.0
100
AcDbArc
 50
0.0
 51
90.0
  0
ARC
  5
8C4
100
AcDbEntity
  8
M0
 62
     7
100
AcDbCircle
 10
176.132724
 20
547.521613
 40
1.0
100
AcDbArc
 50
90.0
 51
179.985138
  0
ARC
  5
8C5
100
AcDbEntity
  8
M0
 62
     7
100
AcDbCircle
 10
152.132726
 20
547.521628
 40
1.0
100
AcDbArc
 50
0.0
 51
90.0
  0
ARC
  5
8C6
100
AcDbEntity
  8
M0
 62
     7
100
AcDbCircle
 10
150.132726
 20
547.521628
 40
1.0
100
AcDbArc
 50
90.0
 51
179.985137
  0
LINE
  5
8C7
100
AcDbEntity
  8
M0
 62
     7
100
AcDbLine
 10
175.132723
 20
545.421759
 11
174.132723
 21
545.421759
  0
ARC
  5
8C8
100
AcDbEntity
  8
M0
 62
     7
100
AcDbCircle
 10
200.132693
 20
519.421744
 40
1.0
100
AcDbArc
 50
0.0
 51
90.0
  0
LINE
  5
8C9
100
AcDbEntity
  8
M0
 62
     7
100
AcDbLine
 10
197.632693
 20
520.421744
 11
197.632708
 21
525.921744
  0
LINE
  5
8CA
100
AcDbEntity
  8
M0
 62
     7
100
AcDbLine
 10
199.532702
 20
508.121695
 11
199.532702
 21
504.822135
  0
LINE
  5
8CB
100
AcDbEntity
  8
M0
 62
     7
100
AcDbLine
 10
126.132708
 20
510.42179
 11
123.632708
 21
510.42179
  0
ARC
  5
8CC
100
AcDbEntity
  8
M0
 62
     7
100
AcDbCircle
 10
126.132708
 20
511.42179
 40
1.0
100
AcDbArc
 50
270.0
 51
360.0
  0
ARC
  5
8CD
100
AcDbEntity
  8
M0
 62
     7
100
AcDbCircle
 10
123.632708
 20
510.92179
 40
0.5
100
AcDbArc
 50
179.998251
 51
270.0
  0
LINE
  5
8CE
100
AcDbEntity
  8
M0
 62
     7
100
AcDbLine
 10
127.132708
 20
511.92179
 11
129.632708
 21
514.42179
  0
LINE
  5
8CF
100
AcDbEntity
  8
M0
 62
     7
100
AcDbLine
 10
128.732806
 20
513.521888
 11
128.732806
 21
504.822425
  0
LINE
  5
8D0
100
AcDbEntity
  8
M0
 62
     7
100
AcDbLine
 10
205.132693
 20
505.521598
 11
201.132693
 21
505.521598
  0
LINE
  5
8D1
100
AcDbEntity
  8
M0
 62
     7
100
AcDbLine
 10
201.132693
 20
506.521842
 11
198.632693
 21
509.021598
  0
LINE
  5
8D2
100
AcDbEntity
  8
M0
 62
     7
100
AcDbLine
 10
206.482714
 20
543.12194
 11
206.482714
 21
544.521598
  0
LINE
  5
8D3
100
AcDbEntity
  8
M0
 62
     7
100
AcDbLine
 10
205.782702
 20
523.521598
 11
205.782718
 21
526.021598
  0
LINE
  5
8D4
100
AcDbEntity
  8
M0
 62
     7
100
AcDbLine
 10
203.982714
 20
526.021598
 11
203.982714
 21
542.021598
  0
LINE
  5
8D5
100
AcDbEntity
  8
M0
 62
     7
100
AcDbLine
 10
206.482714
 20
544.521598
 11
199.802081
 21
544.521567
  0
LINE
  5
8D6
100
AcDbEntity
  8
M0
 62
     7
100
AcDbLine
 10
203.982714
 20
527.621695
 11
201.132708
 21
527.621695
  0
LINE
  5
8D7
100
AcDbEntity
  8
M0
 62
     7
100
AcDbLine
 10
203.982714
 20
534.421744
 11
201.132708
 21
534.421744
  0
LINE
  5
8D8
100
AcDbEntity
  8
M0
 62
     7
100
AcDbLine
 10
204.332583
 20
540.921744
 11
203.982714
 21
540.921744
  0
ARC
  5
8D9
100
AcDbEntity
  8
M0
 62
     7
100
AcDbCircle
 10
213.982714
 20
531.021598
 40
13.299991
100
AcDbArc
 50
165.187825
 51
194.811027
  0
LINE
  5
8DA
100
AcDbEntity
  8
M0
 62
     7
100
AcDbLine
 10
201.132693
 20
503.521598
 11
201.132678
 21
522.321875
  0
LINE
  5
8DB
100
AcDbEntity
  8
M0
 62
     7
100
AcDbLine
 10
205.782718
 20
526.021598
 11
201.132708
 21
526.021598
  0
LINE
  5
8DC
100
AcDbEntity
  8
M0
 62
     7
100
AcDbLine
 10
205.782718
 20
541.853873
 11
205.782718
 21
544.521598
  0
LINE
  5
8DD
100
AcDbEntity
  8
M0
 62
     7
100
AcDbLine
 10
205.282718
 20
542.021598
 11
200.132708
 21
542.021598
  0
ARC
  5
8DE
100
AcDbEntity
  8
M0
 62
     7
100
AcDbCircle
 10
205.282718
 20
542.521598
 40
0.5
100
AcDbArc
 50
269.998251
 51
360.0
  0
LINE
  5
8DF
100
AcDbEntity
  8
M0
 62
     7
100
AcDbLine
 10
201.632724
 20
529.521598
 11
201.632724
 21
532.521598
  0
LINE
  5
8E0
100
AcDbEntity
  8
M0
 62
     7
100
AcDbLine
 10
202.482394
 20
529.521598
 11
201.632724
 21
529.521598
  0
LINE
  5
8E1
100
AcDbEntity
  8
M0
 62
     7
100
AcDbLine
 10
202.482791
 20
532.521598
 11
201.632724
 21
532.521598
  0
LINE
  5
8E2
100
AcDbEntity
  8
M0
 62
     7
100
AcDbLine
 10
203.982714
 20
531.021598
 11
202.482638
 21
529.521842
  0
LINE
  5
8E3
100
AcDbEntity
  8
M0
 62
     7
100
AcDbLine
 10
203.98273
 20
531.021598
 11
202.482791
 21
532.521598
  0
LINE
  5
8E4
100
AcDbEntity
  8
M0
 62
     7
100
AcDbLine
 10
180.132723
 20
545.421759
 11
179.132723
 21
545.421759
  0
LINE
  5
8E5
100
AcDbEntity
  8
M0
 62
     7
100
AcDbLine
 10
127.132739
 20
545.521888
 11
129.35596
 21
545.521918
  0
LINE
  5
8E6
100
AcDbEntity
  8
M0
 62
     7
100
AcDbLine
 10
128.783862
 20
546.521644
 11
129.111132
 21
546.521674
  0
LINE
  5
8E7
100
AcDbEntity
  8
M0
 62
     7
100
AcDbLine
 10
153.132725
 20
545.521872
 11
158.657718
 21
545.521888
  0
LINE
  5
8E8
100
AcDbEntity
  8
M0
 62
     7
100
AcDbLine
 10
175.132724
 20
546.521857
 11
170.723773
 21
546.521842
  0
LINE
  5
8E9
100
AcDbEntity
  8
M0
 62
     7
100
AcDbLine
 10
153.132725
 20
545.521872
 11
158.657718
 21
545.521888
  0
LINE
  5
8EA
100
AcDbEntity
  8
M0
 62
     7
100
AcDbLine
 10
153.132726
 20
546.521872
 11
158.708379
 21
546.521888
  0
LINE
  5
8EB
100
AcDbEntity
  8
M0
 62
     7
100
AcDbLine
 10
179.132723
 20
545.522101
 11
187.449435
 21
545.522101
  0
LINE
  5
8EC
100
AcDbEntity
  8
M0
 62
     7
100
AcDbLine
 10
179.132739
 20
546.522101
 11
187.795718
 21
546.522101
  0
LINE
  5
8ED
100
AcDbEntity
  8
M0
 62
     7
100
AcDbLine
 10
148.632739
 20
544.521628
 11
148.632739
 21
545.521872
  0
LINE
  5
8EE
100
AcDbEntity
  8
M0
 62
     7
100
AcDbLine
 10
153.632725
 20
544.521628
 11
153.632725
 21
545.521872
  0
LINE
  5
8EF
100
AcDbEntity
  8
M0
 62
     7
100
AcDbLine
 10
226.132724
 20
552.521827
 11
226.132693
 21
525.921729
  0
LINE
  5
8F0
100
AcDbEntity
  8
M0
  6
DASHDOT
 62
     7
100
AcDbLine
 10
218.598422
 20
550.021827
 11
207.132724
 21
550.021842
  0
LINE
  5
8F1
100
AcDbEntity
  8
M0
 62
     7
100
AcDbLine
 10
223.632724
 20
555.021827
 11
212.132724
 21
555.021842
  0
LINE
  5
8F2
100
AcDbEntity
  8
M0
 62
     7
100
AcDbLine
 10
207.132708
 20
545.722037
 11
207.132724
 21
550.021842
  0
ARC
  5
8F3
100
AcDbEntity
  8
M0
 62
     7
100
AcDbCircle
 10
223.632724
 20
552.521827
 40
2.499997
100
AcDbArc
 50
0.0
 51
90.0
  0
ARC
  5
8F4
100
AcDbEntity
  8
M0
 62
     7
100
AcDbCircle
 10
212.132724
 20
550.021842
 40
4.999997
100
AcDbArc
 50
90.0
 51
179.999825
  0
LINE
  5
8F5
100
AcDbEntity
  8
M0
 62
     7
100
AcDbLine
 10
128.732806
 20
506.021888
 11
125.632708
 21
506.021888
  0
ARC
  5
8F6
100
AcDbEntity
  8
M0
 62
     7
100
AcDbCircle
 10
125.632708
 20
508.521888
 40
2.499997
100
AcDbArc
 50
179.99965
 51
270.0
  0
LINE
  5
8F7
100
AcDbEntity
  8
M0
  6
DASHDOT
 62
     7
100
AcDbLine
 10
128.732806
 20
511.021888
 11
123.132708
 21
511.021888
  0
LINE
  5
8F8
100
AcDbEntity
  8
M0
  6
DASHDOT
 62
     7
100
AcDbLine
 10
128.132708
 20
506.021888
 11
128.132708
 21
512.92179
  0
ARC
  5
8F9
100
AcDbEntity
  8
M0
 62
     7
100
AcDbCircle
 10
126.132739
 20
545.92179
 40
1.0
100
AcDbArc
 50
0.0
 51
89.999126
  0
LINE
  5
8FA
100
AcDbEntity
  8
M0
 62
     7
100
AcDbLine
 10
182.432742
 20
503.121467
 11
182.628497
 21
503.121482
  0
LINE
  5
8FB
100
AcDbEntity
  8
M0
 62
     7
100
AcDbLine
 10
186.929843
 20
544.021582
 11
182.182757
 21
544.021613
  0
LINE
  5
8FC
100
AcDbEntity
  8
M0
 62
     7
100
AcDbLine
 10
198.632708
 20
540.421973
 11
198.382464
 21
540.421958
  0
LINE
  5
8FD
100
AcDbEntity
  8
M0
 62
     7
100
AcDbLine
 10
182.382952
 20
544.021613
 11
182.382952
 21
540.422004
  0
LINE
  5
8FE
100
AcDbEntity
  8
M0
 62
     7
100
AcDbLine
 10
182.182757
 20
544.021613
 11
182.182757
 21
541.721808
  0
LINE
  5
8FF
100
AcDbEntity
  8
M0
 62
     7
100
AcDbLine
 10
182.382952
 20
540.422248
 11
181.632719
 21
540.422248
  0
LINE
  5
900
100
AcDbEntity
  8
M0
 62
     7
100
AcDbLine
 10
198.532626
 20
540.421988
 11
198.532626
 21
527.221793
  0
LINE
  5
901
100
AcDbEntity
  8
M0
 62
     7
100
AcDbLine
 10
181.732816
 20
540.422004
 11
181.732809
 21
527.221808
  0
LINE
  5
902
100
AcDbEntity
  8
M0
 62
     7
100
AcDbLine
 10
183.033099
 20
525.921759
 11
181.732809
 21
527.222052
  0
LINE
  5
903
100
AcDbEntity
  8
M0
 62
     7
100
AcDbLine
 10
197.232577
 20
525.921744
 11
198.532626
 21
527.221793
  0
LINE
  5
904
100
AcDbEntity
  8
M0
 62
     7
100
AcDbLine
 10
182.432742
 20
503.121955
 11
180.883185
 21
504.672248
  0
LINE
  5
905
100
AcDbEntity
  8
M0
 62
     7
100
AcDbLine
 10
199.532702
 20
504.821891
 11
197.832415
 21
503.121451
  0
LINE
  5
906
100
AcDbEntity
  8
M0
 62
     7
100
AcDbLine
 10
182.382952
 20
541.721808
 11
182.182757
 21
541.721808
  0
LINE
  5
907
100
AcDbEntity
  8
M0
 62
     7
100
AcDbLine
 10
156.432503
 20
503.121238
 11
156.628502
 21
503.121268
  0
LINE
  5
908
100
AcDbEntity
  8
M0
 62
     7
100
AcDbLine
 10
172.082673
 20
544.021369
 11
170.597108
 21
544.021354
  0
LINE
  5
909
100
AcDbEntity
  8
M0
 62
     7
100
AcDbLine
 10
172.63272
 20
540.421759
 11
171.882964
 21
540.421759
  0
LINE
  5
90A
100
AcDbEntity
  8
M0
 62
     7
100
AcDbLine
 10
171.882722
 20
544.021369
 11
171.88272
 21
540.421759
  0
LINE
  5
90B
100
AcDbEntity
  8
M0
 62
     7
100
AcDbLine
 10
156.382724
 20
544.021384
 11
156.382722
 21
540.421775
  0
LINE
  5
90C
100
AcDbEntity
  8
M0
 62
     7
100
AcDbLine
 10
172.082672
 20
541.721564
 11
171.882965
 21
541.721564
  0
LINE
  5
90D
100
AcDbEntity
  8
M0
 62
     7
100
AcDbLine
 10
156.182528
 20
544.021384
 11
156.182527
 21
541.721579
  0
LINE
  5
90E
100
AcDbEntity
  8
M0
 62
     7
100
AcDbLine
 10
172.082673
 20
544.021369
 11
172.082672
 21
541.721564
  0
LINE
  5
90F
100
AcDbEntity
  8
M0
 62
     7
100
AcDbLine
 10
156.382966
 20
540.422019
 11
155.632722
 21
540.422019
  0
LINE
  5
910
100
AcDbEntity
  8
M0
 62
     7
100
AcDbLine
 10
172.532622
 20
540.421759
 11
172.532614
 21
527.221564
  0
LINE
  5
911
100
AcDbEntity
  8
M0
 62
     7
100
AcDbLine
 10
155.732575
 20
540.421775
 11
155.732567
 21
527.221579
  0
LINE
  5
912
100
AcDbEntity
  8
M0
 62
     7
100
AcDbLine
 10
157.032615
 20
525.921775
 11
155.732567
 21
527.221824
  0
LINE
  5
913
100
AcDbEntity
  8
M0
 62
     7
100
AcDbLine
 10
171.232808
 20
525.921759
 11
172.532614
 21
527.221564
  0
LINE
  5
914
100
AcDbEntity
  8
M0
 62
     7
100
AcDbLine
 10
156.432503
 20
503.121726
 11
154.882943
 21
504.672019
  0
LINE
  5
915
100
AcDbEntity
  8
M0
 62
     7
100
AcDbLine
 10
173.382941
 20
504.671759
 11
171.832403
 21
503.121222
  0
LINE
  5
916
100
AcDbEntity
  8
M0
 62
     7
100
AcDbLine
 10
156.382967
 20
541.721579
 11
156.182527
 21
541.721579
  0
LINE
  5
917
100
AcDbEntity
  8
M0
 62
     7
100
AcDbLine
 10
130.432513
 20
503.121253
 11
130.628756
 21
503.121299
  0
LINE
  5
918
100
AcDbEntity
  8
M0
 62
     7
100
AcDbLine
 10
146.082705
 20
544.021399
 11
142.07796
 21
544.021384
  0
LINE
  5
919
100
AcDbEntity
  8
M0
 62
     7
100
AcDbLine
 10
146.632724
 20
540.421775
 11
145.882968
 21
540.421775
  0
LINE
  5
91A
100
AcDbEntity
  8
M0
 62
     7
100
AcDbLine
 10
145.882739
 20
544.021384
 11
145.882724
 21
540.421775
  0
LINE
  5
91B
100
AcDbEntity
  8
M0
 62
     7
100
AcDbLine
 10
130.382739
 20
541.32891
 11
130.382739
 21
540.421821
  0
LINE
  5
91C
100
AcDbEntity
  8
M0
 62
     7
100
AcDbLine
 10
146.082675
 20
541.721579
 11
145.882968
 21
541.721579
  0
LINE
  5
91D
100
AcDbEntity
  8
M0
 62
     7
100
AcDbLine
 10
130.182559
 20
542.14643
 11
130.182544
 21
541.721625
  0
LINE
  5
91E
100
AcDbEntity
  8
M0
 62
     7
100
AcDbLine
 10
146.08269
 20
544.021384
 11
146.082675
 21
541.721579
  0
LINE
  5
91F
100
AcDbEntity
  8
M0
 62
     7
100
AcDbLine
 10
130.382968
 20
540.422034
 11
129.632724
 21
540.422034
  0
LINE
  5
920
100
AcDbEntity
  8
M0
 62
     7
100
AcDbLine
 10
146.532626
 20
540.421775
 11
146.532626
 21
527.221579
  0
LINE
  5
921
100
AcDbEntity
  8
M0
 62
     7
100
AcDbLine
 10
129.732577
 20
540.42179
 11
129.732577
 21
527.221595
  0
LINE
  5
922
100
AcDbEntity
  8
M0
 62
     7
100
AcDbLine
 10
131.032626
 20
525.92179
 11
129.732577
 21
527.221839
  0
LINE
  5
923
100
AcDbEntity
  8
M0
 62
     7
100
AcDbLine
 10
145.232821
 20
525.921775
 11
146.532626
 21
527.221579
  0
LINE
  5
924
100
AcDbEntity
  8
M0
 62
     7
100
AcDbLine
 10
130.432513
 20
503.121741
 11
128.732806
 21
504.822181
  0
LINE
  5
925
100
AcDbEntity
  8
M0
 62
     7
100
AcDbLine
 10
147.382952
 20
504.671775
 11
145.832415
 21
503.121238
  0
LINE
  5
926
100
AcDbEntity
  8
M0
 62
     7
100
AcDbLine
 10
130.286563
 20
541.72161
 11
130.182544
 21
541.721625
  0
LINE
  5
927
100
AcDbEntity
  8
M0
 62
     7
100
AcDbLine
 10
212.082705
 20
509.022086
 11
212.082705
 21
518.021842
  0
LINE
  5
928
100
AcDbEntity
  8
M0
 62
     7
100
AcDbLine
 10
212.082705
 20
509.021842
 11
211.082705
 21
508.021842
  0
LINE
  5
929
100
AcDbEntity
  8
M0
 62
     7
100
AcDbLine
 10
205.182696
 20
508.021842
 11
205.132693
 21
508.071891
  0
LINE
  5
92A
100
AcDbEntity
  8
M0
 62
     7
100
AcDbLine
 10
212.082721
 20
516.021842
 11
212.082721
 21
521.02233
  0
LINE
  5
92B
100
AcDbEntity
  8
M0
 62
     7
100
AcDbLine
 10
212.082721
 20
516.021598
 11
211.082721
 21
515.021598
  0
LINE
  5
92C
100
AcDbEntity
  8
M0
 62
     7
100
AcDbLine
 10
205.182711
 20
515.021598
 11
205.132693
 21
515.071647
  0
LINE
  5
92D
100
AcDbEntity
  8
M0
 62
     7
100
AcDbLine
 10
215.182696
 20
517.022086
 11
215.182696
 21
509.022086
  0
LINE
  5
92E
100
AcDbEntity
  8
M0
 62
     7
100
AcDbLine
 10
223.082705
 20
509.022071
 11
223.082705
 21
517.022071
  0
LINE
  5
92F
100
AcDbEntity
  8
M0
 62
     7
100
AcDbLine
 10
223.082705
 20
509.021827
 11
222.082705
 21
508.021827
  0
LINE
  5
930
100
AcDbEntity
  8
M0
 62
     7
100
AcDbLine
 10
216.182696
 20
508.021842
 11
215.182696
 21
509.021842
  0
LINE
  5
931
100
AcDbEntity
  8
M0
 62
     7
100
AcDbLine
 10
215.182711
 20
521.02233
 11
215.182711
 21
516.021598
  0
LINE
  5
932
100
AcDbEntity
  8
M0
 62
     7
100
AcDbLine
 10
223.082721
 20
516.021582
 11
223.082721
 21
522.405616
  0
LINE
  5
933
100
AcDbEntity
  8
M0
 62
     7
100
AcDbLine
 10
223.082721
 20
516.021338
 11
222.082721
 21
515.021338
  0
LINE
  5
934
100
AcDbEntity
  8
M0
 62
     7
100
AcDbLine
 10
216.182711
 20
515.021354
 11
215.182711
 21
516.021354
  0
CIRCLE
  5
935
100
AcDbEntity
  8
M0
  6
DASHED
 62
     7
100
AcDbCircle
 10
213.98273
 20
531.021842
 40
7.699985
  0
LINE
  5
936
100
AcDbEntity
  8
M0
 62
     7
100
AcDbLine
 10
225.532779
 20
545.721778
 11
201.033023
 21
545.722037
  0
LINE
  5
937
100
AcDbEntity
  8
M0
 62
     7
100
AcDbLine
 10
201.033023
 20
545.722037
 11
201.033023
 21
544.522086
  0
LINE
  5
938
100
AcDbEntity
  8
M0
 62
     7
100
AcDbLine
 10
201.032763
 20
522.321891
 11
210.532763
 21
522.321891
  0
LINE
  5
939
100
AcDbEntity
  8
M0
 62
     7
100
AcDbLine
 10
226.032519
 20
522.821631
 11
226.032779
 21
545.221778
  0
LINE
  5
93A
100
AcDbEntity
  8
M0
 62
     7
100
AcDbLine
 10
211.832568
 20
521.021842
 11
215.832568
 21
521.021842
  0
LINE
  5
93B
100
AcDbEntity
  8
M0
  6
DASHDOT
 62
     7
100
AcDbLine
 10
213.98247
 20
519.659049
 11
213.98273
 21
541.485221
  0
LINE
  5
93C
100
AcDbEntity
  8
M0
 62
     7
100
AcDbLine
 10
210.533023
 20
544.521842
 11
201.033023
 21
544.522086
  0
LINE
  5
93D
100
AcDbEntity
  8
M0
  6
DASHDOT
 62
     7
100
AcDbLine
 10
226.032779
 20
531.021827
 11
201.032779
 21
531.022086
  0
LINE
  5
93E
100
AcDbEntity
  8
M0
 62
     7
100
AcDbLine
 10
206.532519
 20
523.521842
 11
206.532534
 21
525.222037
  0
LINE
  5
93F
100
AcDbEntity
  8
M0
 62
     7
100
AcDbLine
 10
210.533023
 20
544.521842
 11
210.533023
 21
545.721793
  0
LINE
  5
940
100
AcDbEntity
  8
M0
 62
     7
100
AcDbLine
 10
205.532779
 20
541.821891
 11
204.332827
 21
541.821891
  0
LINE
  5
941
100
AcDbEntity
  8
M0
 62
     7
100
AcDbLine
 10
204.332583
 20
526.222037
 11
204.332827
 21
541.821891
  0
LINE
  5
942
100
AcDbEntity
  8
M0
 62
     7
100
AcDbLine
 10
201.032763
 20
523.522086
 11
210.532763
 21
523.521842
  0
LINE
  5
943
100
AcDbEntity
  8
M0
 62
     7
100
AcDbLine
 10
210.532763
 20
522.321891
 11
210.532763
 21
523.521842
  0
LINE
  5
944
100
AcDbEntity
  8
M0
 62
     7
100
AcDbLine
 10
206.532779
 20
542.821891
 11
206.532779
 21
544.521842
  0
LINE
  5
945
100
AcDbEntity
  8
M0
 62
     7
100
AcDbLine
 10
204.332583
 20
526.222037
 11
205.532534
 21
526.222037
  0
LINE
  5
946
100
AcDbEntity
  8
M0
 62
     7
100
AcDbLine
 10
201.032763
 20
523.522086
 11
201.032763
 21
522.321891
  0
LINE
  5
947
100
AcDbEntity
  8
M0
 62
     7
100
AcDbLine
 10
218.332568
 20
522.321875
 11
215.832568
 21
521.021842
  0
LINE
  5
948
100
AcDbEntity
  8
M0
 62
     7
100
AcDbLine
 10
211.832568
 20
521.021842
 11
209.332568
 21
522.321891
  0
LINE
  5
949
100
AcDbEntity
  8
M0
 62
     7
100
AcDbLine
 10
218.332568
 20
522.321875
 11
225.532519
 21
522.321875
  0
ARC
  5
94A
100
AcDbEntity
  8
M0
 62
     7
100
AcDbCircle
 10
205.532534
 20
525.222037
 40
1.0
100
AcDbArc
 50
0.0
 51
90.0
  0
ARC
  5
94B
100
AcDbEntity
  8
M0
 62
     7
100
AcDbCircle
 10
205.532779
 20
542.821891
 40
1.0
100
AcDbArc
 50
269.999126
 51
360.0
  0
ARC
  5
94C
100
AcDbEntity
  8
M0
 62
     7
100
AcDbCircle
 10
225.532519
 20
522.821875
 40
0.5
100
AcDbArc
 50
269.998251
 51
359.972023
  0
ARC
  5
94D
100
AcDbEntity
  8
M0
 62
     7
100
AcDbCircle
 10
225.532794
 20
545.221778
 40
0.5
100
AcDbArc
 50
0.0
 51
90.0
  0
CIRCLE
  5
94E
100
AcDbEntity
  8
M0
 62
     7
100
AcDbCircle
 10
213.982486
 20
531.021842
 40
4.249986
  0
CIRCLE
  5
94F
100
AcDbEntity
  8
M0
 62
     7
100
AcDbCircle
 10
213.982486
 20
531.021842
 40
3.749985
  0
LINE
  5
950
100
AcDbEntity
  8
M0
 62
     7
100
AcDbLine
 10
214.582583
 20
533.521598
 11
213.382632
 21
533.521598
  0
LINE
  5
951
100
AcDbEntity
  8
M0
 62
     7
100
AcDbLine
 10
213.382632
 20
528.522086
 11
214.582583
 21
528.522086
  0
LINE
  5
952
100
AcDbEntity
  8
M0
 62
     7
100
AcDbLine
 10
214.582583
 20
533.521598
 11
214.582583
 21
528.521842
  0
LINE
  5
953
100
AcDbEntity
  8
M0
 62
     7
100
AcDbLine
 10
213.382632
 20
533.521598
 11
213.382632
 21
528.521842
  0
LINE
  5
954
100
AcDbEntity
  8
M0
  6
DASHED
 62
     7
100
AcDbLine
 10
218.332583
 20
540.87168
 11
218.332583
 21
543.671729
  0
LINE
  5
955
100
AcDbEntity
  8
M0
  6
DASHED
 62
     7
100
AcDbLine
 10
214.332583
 20
540.87168
 11
214.332583
 21
543.671729
  0
LINE
  5
956
100
AcDbEntity
  8
M0
  6
DASHED
 62
     7
100
AcDbLine
 10
214.332583
 20
540.87168
 11
218.332583
 21
540.87168
  0
LINE
  5
957
100
AcDbEntity
  8
M0
  6
DASHED
 62
     7
100
AcDbLine
 10
214.332583
 20
543.671729
 11
218.332583
 21
543.671729
  0
LINE
  5
958
100
AcDbEntity
  8
M0
 62
     7
100
AcDbLine
 10
206.533023
 20
544.521842
 11
206.533023
 21
545.721793
  0
LINE
  5
959
100
AcDbEntity
  8
M0
 62
     7
100
AcDbLine
 10
206.532763
 20
522.321891
 11
206.532763
 21
523.521842
  0
LINE
  5
95A
100
AcDbEntity
  8
M0
 62
     7
100
AcDbLine
 10
207.532779
 20
541.721793
 11
207.532779
 21
544.221793
  0
LINE
  5
95B
100
AcDbEntity
  8
M0
 62
     7
100
AcDbLine
 10
209.532779
 20
541.721793
 11
207.532779
 21
541.721793
  0
LINE
  5
95C
100
AcDbEntity
  8
M0
 62
     7
100
AcDbLine
 10
209.532779
 20
541.721793
 11
209.532779
 21
544.221793
  0
LINE
  5
95D
100
AcDbEntity
  8
M0
 62
     7
100
AcDbLine
 10
209.532779
 20
544.221793
 11
207.532779
 21
544.221793
  0
LINE
  5
95E
100
AcDbEntity
  8
M0
 62
     7
100
AcDbLine
 10
179.882724
 20
547.722052
 11
179.11246
 21
547.722052
  0
LINE
  5
95F
100
AcDbEntity
  8
M0
 62
     7
100
AcDbLine
 10
179.882968
 20
547.722052
 11
179.80875
 21
548.569465
  0
LINE
  5
960
100
AcDbEntity
  8
M0
 62
     7
100
AcDbLine
 10
174.382969
 20
547.722052
 11
174.456943
 21
548.569465
  0
ARC
  5
961
100
AcDbEntity
  8
M0
 62
     7
100
AcDbCircle
 10
177.132721
 20
542.722052
 40
6.999995
100
AcDbArc
 50
73.743048
 51
90.0
  0
ARC
  5
962
100
AcDbEntity
  8
M0
 62
     7
100
AcDbCircle
 10
178.812412
 20
548.482306
 40
1.0
100
AcDbArc
 50
5.00014
 51
73.741684
  0
ARC
  5
963
100
AcDbEntity
  8
M0
 62
     7
100
AcDbCircle
 10
175.453281
 20
548.482306
 40
1.0
100
AcDbArc
 50
106.258264
 51
174.999865
  0
ARC
  5
964
100
AcDbEntity
  8
M0
 62
     7
100
AcDbCircle
 10
177.132721
 20
542.722052
 40
6.999995
100
AcDbArc
 50
90.0
 51
106.254942
  0
LINE
  5
965
100
AcDbEntity
  8
M0
 62
     7
100
AcDbLine
 10
179.882724
 20
547.022101
 11
179.882724
 21
547.722052
  0
LINE
  5
966
100
AcDbEntity
  8
M0
 62
     7
100
AcDbLine
 10
174.382724
 20
547.022101
 11
174.382725
 21
547.722052
  0
LINE
  5
967
100
AcDbEntity
  8
M0
 62
     7
100
AcDbLine
 10
175.13248
 20
547.722052
 11
174.382725
 21
547.722052
  0
LINE
  5
968
100
AcDbEntity
  8
M0
 62
     7
100
AcDbLine
 10
180.132724
 20
547.022101
 11
179.132724
 21
547.022101
  0
LINE
  5
969
100
AcDbEntity
  8
M0
 62
     7
100
AcDbLine
 10
180.132723
 20
546.522101
 11
179.132724
 21
546.522101
  0
LINE
  5
96A
100
AcDbEntity
  8
M0
 62
     7
100
AcDbLine
 10
174.132724
 20
546.522101
 11
174.132724
 21
547.022101
  0
LINE
  5
96B
100
AcDbEntity
  8
M0
 62
     7
100
AcDbLine
 10
180.132723
 20
546.522101
 11
180.132724
 21
547.022101
  0
LINE
  5
96C
100
AcDbEntity
  8
M0
 62
     7
100
AcDbLine
 10
175.132724
 20
546.522101
 11
174.132724
 21
546.522101
  0
LINE
  5
96D
100
AcDbEntity
  8
M0
 62
     7
100
AcDbLine
 10
175.132724
 20
547.022101
 11
174.132724
 21
547.022101
  0
LINE
  5
96E
100
AcDbEntity
  8
M0
 62
     7
100
AcDbLine
 10
175.153232
 20
547.722052
 11
174.382725
 21
547.722052
  0
LINE
  5
96F
100
AcDbEntity
  8
M0
 62
     7
100
AcDbLine
 10
204.065234
 20
545.721793
 11
204.008563
 21
546.369498
  0
ARC
  5
970
100
AcDbEntity
  8
M0
 62
     7
100
AcDbCircle
 10
201.33269
 20
540.522086
 40
6.999995
100
AcDbArc
 50
73.743108
 51
90.0
  0
ARC
  5
971
100
AcDbEntity
  8
M0
 62
     7
100
AcDbCircle
 10
203.012378
 20
546.28234
 40
1.0
100
AcDbArc
 50
5.001058
 51
73.746335
  0
ARC
  5
972
100
AcDbEntity
  8
M0
 62
     7
100
AcDbCircle
 10
201.33269
 20
540.522071
 40
6.999995
100
AcDbArc
 50
90.0
 51
94.07751
  0
LINE
  5
973
100
AcDbEntity
  8
M0
 62
     7
100
AcDbLine
 10
128.883227
 20
545.522132
 11
128.809008
 21
546.369544
  0
ARC
  5
974
100
AcDbEntity
  8
M0
 62
     7
100
AcDbCircle
 10
126.132968
 20
540.522132
 40
6.999995
100
AcDbArc
 50
73.742868
 51
89.999875
  0
ARC
  5
975
100
AcDbEntity
  8
M0
 62
     7
100
AcDbCircle
 10
127.812671
 20
546.282386
 40
1.0
100
AcDbArc
 50
5.000111
 51
73.741054
  0
ARC
  5
976
100
AcDbEntity
  8
M0
 62
     7
100
AcDbCircle
 10
124.45354
 20
546.282386
 40
1.0
100
AcDbArc
 50
106.258106
 51
140.249055
  0
ARC
  5
977
100
AcDbEntity
  8
M0
 62
     7
100
AcDbCircle
 10
126.132968
 20
540.522132
 40
6.999995
100
AcDbArc
 50
89.999875
 51
106.254799
  0
LINE
  5
978
100
AcDbEntity
  8
M0
 62
     7
100
AcDbLine
 10
201.132678
 20
523.522071
 11
201.132708
 21
526.021598
  0
LINE
  5
979
100
AcDbEntity
  8
M0
 62
     7
100
AcDbLine
 10
197.628497
 20
503.121467
 11
197.832415
 21
503.121451
  0
LINE
  5
97A
100
AcDbEntity
  8
M0
 62
     7
100
AcDbLine
 10
200.148532
 20
545.522086
 11
201.033038
 21
545.521842
  0
LINE
  5
97B
100
AcDbEntity
  8
M0
 62
     7
100
AcDbLine
 10
187.102984
 20
544.521582
 11
181.632722
 21
544.521613
  0
LINE
  5
97C
100
AcDbEntity
  8
M0
 62
     7
100
AcDbLine
 10
158.708379
 20
546.521857
 11
153.132726
 21
546.521872
  0
LINE
  5
97D
100
AcDbEntity
  8
M0
 62
     7
100
AcDbLine
 10
170.673113
 20
545.521872
 11
175.132723
 21
545.522101
  0
LINE
  5
97E
100
AcDbEntity
  8
M0
 62
     7
100
AcDbLine
 10
158.607043
 20
544.521613
 11
155.632725
 21
544.521628
  0
LINE
  5
97F
100
AcDbEntity
  8
M0
 62
     7
100
AcDbLine
 10
158.581713
 20
544.021369
 11
156.182528
 21
544.021384
  0
LINE
  5
980
100
AcDbEntity
  8
M0
 62
     7
100
AcDbLine
 10
170.723773
 20
546.521872
 11
175.132724
 21
546.522101
  0
LINE
  5
981
100
AcDbEntity
  8
M0
 62
     7
100
AcDbLine
 10
170.673113
 20
545.521872
 11
175.132723
 21
545.521857
  0
LINE
  5
982
100
AcDbEntity
  8
M0
 62
     7
100
AcDbLine
 10
171.6285
 20
503.121253
 11
171.832403
 21
503.121222
  0
LINE
  5
983
100
AcDbEntity
  8
M0
 62
     7
100
AcDbLine
 10
145.628756
 20
503.121283
 11
145.832415
 21
503.121238
  0
LINE
  5
984
100
AcDbEntity
  8
M0
 62
     7
100
AcDbLine
 10
141.465701
 20
546.521659
 11
149.132739
 21
546.521872
  0
LINE
  5
985
100
AcDbEntity
  8
M0
 62
     7
100
AcDbLine
 10
141.710513
 20
545.521903
 11
149.132739
 21
545.521872
  0
LINE
  5
986
100
AcDbEntity
  8
M0
100
AcDbLine
 10
220.532855
 20
515.921485
 11
222.352923
 21
515.921485
  0
LINE
  5
987
100
AcDbEntity
  8
M0
100
AcDbLine
 10
217.732806
 20
515.921485
 11
215.912738
 21
515.921485
  0
LINE
  5
988
100
AcDbEntity
  8
M0
100
AcDbLine
 10
216.651995
 20
514.721534
 11
221.613665
 21
514.721534
  0
LINE
  5
989
100
AcDbEntity
  8
M0
100
AcDbLine
 10
220.532855
 20
515.921485
 11
220.532855
 21
516.368262
  0
LINE
  5
98A
100
AcDbEntity
  8
M0
100
AcDbLine
 10
217.732806
 20
515.921485
 11
217.732806
 21
516.368262
  0
ARC
  5
98B
100
AcDbEntity
  8
M0
100
AcDbCircle
 10
216.651995
 20
515.221534
 40
0.5
100
AcDbArc
 50
197.116099
 51
269.998251
  0
ARC
  5
98C
100
AcDbEntity
  8
M0
100
AcDbCircle
 10
221.613665
 20
515.221534
 40
0.5
100
AcDbArc
 50
269.998251
 51
342.876188
  0
LINE
  5
98D
100
AcDbEntity
  8
M0
  6
DASHDOT
100
AcDbLine
 10
212.808978
 20
519.021582
 11
225.244769
 21
519.021582
  0
CIRCLE
  5
98E
100
AcDbEntity
  8
M0
100
AcDbCircle
 10
219.132952
 20
519.021582
 40
2.999996
  0
LINE
  5
98F
100
AcDbEntity
  8
M0
100
AcDbLine
 10
215.573672
 20
521.021827
 11
215.357806
 21
520.321631
  0
LINE
  5
990
100
AcDbEntity
  8
M0
100
AcDbLine
 10
216.173968
 20
515.074317
 11
215.357806
 21
517.721534
  0
LINE
  5
991
100
AcDbEntity
  8
M0
100
AcDbLine
 10
222.290973
 20
522.32186
 11
222.907855
 21
520.321631
  0
LINE
  5
992
100
AcDbEntity
  8
M0
100
AcDbLine
 10
222.091449
 20
515.074317
 11
222.907855
 21
517.721534
  0
LINE
  5
993
100
AcDbEntity
  8
M0
100
AcDbLine
 10
220.532855
 20
522.121436
 11
222.352923
 21
522.121436
  0
LINE
  5
994
100
AcDbEntity
  8
M0
100
AcDbLine
 10
221.454486
 20
520.921485
 11
222.722796
 21
520.921485
  0
LINE
  5
995
100
AcDbEntity
  8
M0
100
AcDbLine
 10
221.454486
 20
517.121436
 11
222.722796
 21
517.121436
  0
LINE
  5
996
100
AcDbEntity
  8
M0
100
AcDbLine
 10
216.811175
 20
520.921485
 11
215.542865
 21
520.921485
  0
LINE
  5
997
100
AcDbEntity
  8
M0
100
AcDbLine
 10
216.811175
 20
517.121436
 11
215.542865
 21
517.121436
  0
LINE
  5
998
100
AcDbEntity
  8
M0
100
AcDbLine
 10
222.907855
 20
517.721534
 11
222.907855
 21
520.321631
  0
LINE
  5
999
100
AcDbEntity
  8
M0
100
AcDbLine
 10
215.357806
 20
520.321631
 11
215.357806
 21
517.721534
  0
LINE
  5
99A
100
AcDbEntity
  8
M0
100
AcDbLine
 10
220.532855
 20
521.674903
 11
220.532855
 21
522.121436
  0
LINE
  5
99B
100
AcDbEntity
  8
M0
100
AcDbLine
 10
217.732806
 20
521.674903
 11
217.732806
 21
522.009971
  0
LINE
  5
99C
100
AcDbEntity
  8
M0
100
AcDbLine
 10
220.723529
 20
517.430762
 11
217.541888
 21
520.612403
  0
LINE
  5
99D
100
AcDbEntity
  8
M0
100
AcDbLine
 10
219.486224
 20
520.435645
 11
217.718646
 21
518.668067
  0
LINE
  5
99E
100
AcDbEntity
  8
M0
100
AcDbLine
 10
220.546771
 20
519.375098
 11
218.779193
 21
517.60752
  0
LINE
  5
99F
100
AcDbEntity
  8
M0
  6
DASHDOT
100
AcDbLine
 10
219.132708
 20
503.081397
 11
219.132708
 21
526.322364
  0
LINE
  5
9A0
100
AcDbEntity
  8
M0
  6
DASHDOT
100
AcDbLine
 10
208.132708
 20
503.081397
 11
208.132708
 21
526.322364
  0
LINE
  5
9A1
100
AcDbEntity
  8
M0
100
AcDbLine
 10
220.532855
 20
508.921744
 11
222.352923
 21
508.921744
  0
LINE
  5
9A2
100
AcDbEntity
  8
M0
100
AcDbLine
 10
217.732806
 20
508.921744
 11
215.912738
 21
508.921744
  0
LINE
  5
9A3
100
AcDbEntity
  8
M0
100
AcDbLine
 10
216.651995
 20
507.721793
 11
221.613665
 21
507.721793
  0
LINE
  5
9A4
100
AcDbEntity
  8
M0
100
AcDbLine
 10
220.532855
 20
508.921744
 11
220.532855
 21
509.368522
  0
LINE
  5
9A5
100
AcDbEntity
  8
M0
100
AcDbLine
 10
217.732806
 20
508.921744
 11
217.732806
 21
509.368522
  0
ARC
  5
9A6
100
AcDbEntity
  8
M0
100
AcDbCircle
 10
216.651995
 20
508.221793
 40
0.5
100
AcDbArc
 50
197.116099
 51
269.998251
  0
ARC
  5
9A7
100
AcDbEntity
  8
M0
100
AcDbCircle
 10
221.613665
 20
508.221793
 40
0.5
100
AcDbArc
 50
269.998251
 51
342.876188
  0
LINE
  5
9A8
100
AcDbEntity
  8
M0
  6
DASHDOT
100
AcDbLine
 10
212.808978
 20
512.021842
 11
225.244769
 21
512.021842
  0
ARC
  5
9A9
100
AcDbEntity
  8
M0
100
AcDbCircle
 10
219.132952
 20
512.021842
 40
2.999996
100
AcDbArc
 50
115.855399
 51
424.14499
  0
LINE
  5
9AA
100
AcDbEntity
  8
M0
100
AcDbLine
 10
215.95267
 20
515.251365
 11
215.357806
 21
513.321891
  0
LINE
  5
9AB
100
AcDbEntity
  8
M0
100
AcDbLine
 10
216.173968
 20
508.074576
 11
215.357806
 21
510.721793
  0
LINE
  5
9AC
100
AcDbEntity
  8
M0
100
AcDbLine
 10
222.312777
 20
515.25138
 11
222.907855
 21
513.321891
  0
LINE
  5
9AD
100
AcDbEntity
  8
M0
100
AcDbLine
 10
222.091449
 20
508.074576
 11
222.907855
 21
510.721793
  0
LINE
  5
9AE
100
AcDbEntity
  8
M0
100
AcDbLine
 10
215.912692
 20
515.121695
 11
216.082354
 21
515.121695
  0
LINE
  5
9AF
100
AcDbEntity
  8
M0
100
AcDbLine
 10
221.454486
 20
513.921744
 11
222.722796
 21
513.921744
  0
LINE
  5
9B0
100
AcDbEntity
  8
M0
100
AcDbLine
 10
221.454486
 20
510.121695
 11
222.722796
 21
510.121695
  0
LINE
  5
9B1
100
AcDbEntity
  8
M0
100
AcDbLine
 10
216.811175
 20
513.921744
 11
215.542865
 21
513.921744
  0
LINE
  5
9B2
100
AcDbEntity
  8
M0
100
AcDbLine
 10
216.811175
 20
510.121695
 11
215.542865
 21
510.121695
  0
LINE
  5
9B3
100
AcDbEntity
  8
M0
100
AcDbLine
 10
222.907855
 20
510.721793
 11
222.907855
 21
513.321891
  0
LINE
  5
9B4
100
AcDbEntity
  8
M0
100
AcDbLine
 10
215.357806
 20
513.321891
 11
215.357806
 21
510.721793
  0
LINE
  5
9B5
100
AcDbEntity
  8
M0
100
AcDbLine
 10
220.723529
 20
510.431022
 11
217.541888
 21
513.612662
  0
LINE
  5
9B6
100
AcDbEntity
  8
M0
100
AcDbLine
 10
219.486224
 20
513.435904
 11
217.718646
 21
511.668326
  0
LINE
  5
9B7
100
AcDbEntity
  8
M0
100
AcDbLine
 10
220.546771
 20
512.375358
 11
218.779193
 21
510.607779
  0
LINE
  5
9B8
100
AcDbEntity
  8
M0
100
AcDbLine
 10
222.183093
 20
515.121695
 11
222.352923
 21
515.121695
  0
LINE
  5
9B9
100
AcDbEntity
  8
M0
100
AcDbLine
 10
209.532855
 20
508.921744
 11
211.352923
 21
508.921744
  0
LINE
  5
9BA
100
AcDbEntity
  8
M0
100
AcDbLine
 10
206.732806
 20
508.921744
 11
205.132693
 21
508.921729
  0
LINE
  5
9BB
100
AcDbEntity
  8
M0
100
AcDbLine
 10
205.651995
 20
507.721793
 11
210.613665
 21
507.721793
  0
LINE
  5
9BC
100
AcDbEntity
  8
M0
100
AcDbLine
 10
209.532855
 20
508.921744
 11
209.532855
 21
509.368522
  0
LINE
  5
9BD
100
AcDbEntity
  8
M0
100
AcDbLine
 10
206.732806
 20
508.921744
 11
206.732806
 21
509.368522
  0
ARC
  5
9BE
100
AcDbEntity
  8
M0
100
AcDbCircle
 10
205.651995
 20
508.221793
 40
0.5
100
AcDbArc
 50
197.116099
 51
269.998251
  0
ARC
  5
9BF
100
AcDbEntity
  8
M0
100
AcDbCircle
 10
210.613665
 20
508.221793
 40
0.5
100
AcDbArc
 50
269.998251
 51
342.876188
  0
LINE
  5
9C0
100
AcDbEntity
  8
M0
  6
DASHDOT
100
AcDbLine
 10
201.808978
 20
512.021842
 11
214.244769
 21
512.021842
  0
ARC
  5
9C1
100
AcDbEntity
  8
M0
100
AcDbCircle
 10
208.132952
 20
512.021842
 40
2.999996
100
AcDbArc
 50
115.855399
 51
424.14499
  0
LINE
  5
9C2
100
AcDbEntity
  8
M0
100
AcDbLine
 10
205.173968
 20
508.074576
 11
205.132693
 21
508.208442
  0
LINE
  5
9C3
100
AcDbEntity
  8
M0
100
AcDbLine
 10
211.312716
 20
515.251578
 11
211.907855
 21
513.321891
  0
LINE
  5
9C4
100
AcDbEntity
  8
M0
100
AcDbLine
 10
211.091449
 20
508.074576
 11
211.907855
 21
510.721793
  0
LINE
  5
9C5
100
AcDbEntity
  8
M0
100
AcDbLine
 10
210.454486
 20
513.921744
 11
211.722796
 21
513.921744
  0
LINE
  5
9C6
100
AcDbEntity
  8
M0
100
AcDbLine
 10
210.454486
 20
510.121695
 11
211.722796
 21
510.121695
  0
LINE
  5
9C7
100
AcDbEntity
  8
M0
100
AcDbLine
 10
205.811175
 20
513.921744
 11
205.132693
 21
513.921729
  0
LINE
  5
9C8
100
AcDbEntity
  8
M0
100
AcDbLine
 10
205.811175
 20
510.121695
 11
205.132693
 21
510.12168
  0
LINE
  5
9C9
100
AcDbEntity
  8
M0
100
AcDbLine
 10
211.907855
 20
510.721793
 11
211.907855
 21
513.321891
  0
LINE
  5
9CA
100
AcDbEntity
  8
M0
100
AcDbLine
 10
209.532855
 20
514.675162
 11
209.532855
 21
516.368476
  0
LINE
  5
9CB
100
AcDbEntity
  8
M0
100
AcDbLine
 10
206.732806
 20
514.675162
 11
206.732806
 21
516.368598
  0
LINE
  5
9CC
100
AcDbEntity
  8
M0
100
AcDbLine
 10
209.723529
 20
510.431022
 11
206.541888
 21
513.612662
  0
LINE
  5
9CD
100
AcDbEntity
  8
M0
100
AcDbLine
 10
208.486224
 20
513.435904
 11
206.718646
 21
511.668326
  0
LINE
  5
9CE
100
AcDbEntity
  8
M0
100
AcDbLine
 10
209.546771
 20
512.375358
 11
207.779193
 21
510.607779
  0
LINE
  5
9CF
100
AcDbEntity
  8
M0
100
AcDbLine
 10
209.53284
 20
515.921485
 11
211.352908
 21
515.921485
  0
LINE
  5
9D0
100
AcDbEntity
  8
M0
100
AcDbLine
 10
206.732791
 20
515.921485
 11
205.132693
 21
515.92147
  0
LINE
  5
9D1
100
AcDbEntity
  8
M0
100
AcDbLine
 10
205.65198
 20
514.721534
 11
210.61365
 21
514.721534
  0
LINE
  5
9D2
100
AcDbEntity
  8
M0
100
AcDbLine
 10
209.53284
 20
515.921485
 11
209.53284
 21
516.368262
  0
LINE
  5
9D3
100
AcDbEntity
  8
M0
100
AcDbLine
 10
206.732791
 20
515.921485
 11
206.732791
 21
516.368262
  0
ARC
  5
9D4
100
AcDbEntity
  8
M0
100
AcDbCircle
 10
205.65198
 20
515.221534
 40
0.5
100
AcDbArc
 50
197.116099
 51
269.998251
  0
ARC
  5
9D5
100
AcDbEntity
  8
M0
100
AcDbCircle
 10
210.61365
 20
515.221534
 40
0.5
100
AcDbArc
 50
269.998251
 51
342.876188
  0
LINE
  5
9D6
100
AcDbEntity
  8
M0
  6
DASHDOT
100
AcDbLine
 10
201.808963
 20
519.021582
 11
214.244754
 21
519.021582
  0
CIRCLE
  5
9D7
100
AcDbEntity
  8
M0
100
AcDbCircle
 10
208.132937
 20
519.021582
 40
2.999996
  0
LINE
  5
9D8
100
AcDbEntity
  8
M0
100
AcDbLine
 10
211.665011
 20
521.108954
 11
211.90784
 21
520.321631
  0
LINE
  5
9D9
100
AcDbEntity
  8
M0
100
AcDbLine
 10
211.091433
 20
515.074317
 11
211.90784
 21
517.721534
  0
LINE
  5
9DA
100
AcDbEntity
  8
M0
100
AcDbLine
 10
210.45447
 20
520.921485
 11
211.722781
 21
520.921485
  0
LINE
  5
9DB
100
AcDbEntity
  8
M0
100
AcDbLine
 10
210.45447
 20
517.121436
 11
211.722781
 21
517.121436
  0
LINE
  5
9DC
100
AcDbEntity
  8
M0
100
AcDbLine
 10
205.81116
 20
520.921485
 11
205.132693
 21
520.92147
  0
LINE
  5
9DD
100
AcDbEntity
  8
M0
100
AcDbLine
 10
205.81116
 20
517.121436
 11
205.132693
 21
517.121421
  0
LINE
  5
9DE
100
AcDbEntity
  8
M0
100
AcDbLine
 10
211.90784
 20
517.721534
 11
211.90784
 21
520.321631
  0
LINE
  5
9DF
100
AcDbEntity
  8
M0
100
AcDbLine
 10
209.53284
 20
521.674903
 11
209.53284
 21
522.217719
  0
LINE
  5
9E0
100
AcDbEntity
  8
M0
100
AcDbLine
 10
206.732791
 20
521.674903
 11
206.732791
 21
522.321875
  0
LINE
  5
9E1
100
AcDbEntity
  8
M0
100
AcDbLine
 10
209.723513
 20
517.430762
 11
206.541873
 21
520.612403
  0
LINE
  5
9E2
100
AcDbEntity
  8
M0
100
AcDbLine
 10
208.486209
 20
520.435645
 11
206.718631
 21
518.668067
  0
LINE
  5
9E3
100
AcDbEntity
  8
M0
100
AcDbLine
 10
209.546756
 20
519.375098
 11
207.779177
 21
517.60752
  0
LINE
  5
9E4
100
AcDbEntity
  8
M0
  6
DIVIDE
100
AcDbLine
 10
238.132388
 20
607.021689
 11
238.132388
 21
677.021689
  0
LINE
  5
9E5
100
AcDbEntity
  8
M0
  6
DIVIDE
100
AcDbLine
 10
226.132388
 20
677.021689
 11
238.132388
 21
677.021689
  0
LINE
  5
9E6
100
AcDbEntity
  8
M0
  6
DIVIDE
100
AcDbLine
 10
226.132388
 20
607.021689
 11
238.132388
 21
607.021689
  0
LINE
  5
9E7
100
AcDbEntity
  8
M0
  6
DIVIDE
100
AcDbLine
 10
94.132357
 20
677.021705
 11
94.132357
 21
607.021705
  0
LINE
  5
9E8
100
AcDbEntity
  8
M0
  6
DIVIDE
100
AcDbLine
 10
94.132357
 20
677.021705
 11
106.132357
 21
677.021705
  0
LINE
  5
9E9
100
AcDbEntity
  8
M0
  6
DIVIDE
100
AcDbLine
 10
94.132357
 20
607.021705
 11
106.132357
 21
607.021705
  0
CIRCLE
  5
9EA
100
AcDbEntity
  8
M0
100
AcDbCircle
 10
212.132479
 20
550.021598
 40
3.499992
  0
LINE
  5
9EB
100
AcDbEntity
  8
M0
100
AcDbLine
 10
213.900149
 20
548.253287
 11
210.36481
 21
551.789176
  0
LINE
  5
9EC
100
AcDbEntity
  8
M0
100
AcDbLine
 10
211.601947
 20
548.430045
 11
213.72333
 21
550.551383
  0
LINE
  5
9ED
100
AcDbEntity
  8
M0
100
AcDbLine
 10
210.541354
 20
549.490592
 11
212.662722
 21
551.61193
  0
ARC
  5
9EE
100
AcDbEntity
  8
M0
100
AcDbCircle
 10
128.132785
 20
511.238761
 40
3.499992
100
AcDbArc
 50
193.498619
 51
279.871542
  0
LINE
  5
9EF
100
AcDbEntity
  8
M0
100
AcDbLine
 10
128.732821
 20
510.638251
 11
127.132739
 21
512.238578
  0
LINE
  5
9F0
100
AcDbEntity
  8
M0
100
AcDbLine
 10
127.602252
 20
509.647208
 11
128.732821
 21
510.777747
  0
LINE
  5
9F1
100
AcDbEntity
  8
M0
100
AcDbLine
 10
127.124011
 20
511.290107
 11
128.663028
 21
512.829093
  0
LINE
  5
9F2
100
AcDbEntity
  8
M0
 62
     7
100
AcDbLine
 10
160.632389
 20
631.77172
 11
171.632388
 21
631.77172
  0
LINE
  5
9F3
100
AcDbEntity
  8
M0
 62
     7
100
AcDbLine
 10
175.132388
 20
638.770987
 11
175.132388
 21
649.771232
  0
LINE
  5
9F4
100
AcDbEntity
  8
M0
 62
     7
100
AcDbLine
 10
173.632388
 20
651.27172
 11
158.632389
 21
651.27172
  0
LINE
  5
9F5
100
AcDbEntity
  8
M0
 62
     7
100
AcDbLine
 10
157.132389
 20
649.771476
 11
157.132389
 21
638.771232
  0
LINE
  5
9F6
100
AcDbEntity
  8
M0
 62
     7
100
AcDbLine
 10
173.632556
 20
637.271476
 11
173.132388
 21
637.271476
  0
LINE
  5
9F7
100
AcDbEntity
  8
M0
 62
     7
100
AcDbLine
 10
169.632388
 20
641.27172
 11
169.632388
 21
647.27172
  0
LINE
  5
9F8
100
AcDbEntity
  8
M0
 62
     7
100
AcDbLine
 10
162.632389
 20
641.27172
 11
162.632389
 21
647.27172
  0
LINE
  5
9F9
100
AcDbEntity
  8
M0
 62
     7
100
AcDbLine
 10
162.632389
 20
641.27172
 11
169.632388
 21
641.27172
  0
LINE
  5
9FA
100
AcDbEntity
  8
M0
 62
     7
100
AcDbLine
 10
162.632389
 20
647.27172
 11
169.632388
 21
647.27172
  0
LINE
  5
9FB
100
AcDbEntity
  8
M0
 62
     7
100
AcDbLine
 10
173.132388
 20
637.27172
 11
173.132388
 21
633.27172
  0
LINE
  5
9FC
100
AcDbEntity
  8
M0
 62
     7
100
AcDbLine
 10
159.132389
 20
637.27172
 11
159.132389
 21
633.27172
  0
LINE
  5
9FD
100
AcDbEntity
  8
M0
 62
     7
100
AcDbLine
 10
158.632007
 20
637.271476
 11
159.132389
 21
637.271232
  0
ARC
  5
9FE
100
AcDbEntity
  8
M0
 62
     7
100
AcDbCircle
 10
158.632389
 20
638.771232
 40
1.499998
100
AcDbArc
 50
179.999964
 51
269.985429
  0
ARC
  5
9FF
100
AcDbEntity
  8
M0
 62
     7
100
AcDbCircle
 10
173.632388
 20
638.771232
 40
1.499998
100
AcDbArc
 50
270.006375
 51
359.990674
  0
ARC
  5
A00
100
AcDbEntity
  8
M0
 62
     7
100
AcDbCircle
 10
173.632388
 20
649.771476
 40
1.499998
100
AcDbArc
 50
359.990638
 51
450.0
  0
ARC
  5
A01
100
AcDbEntity
  8
M0
 62
     7
100
AcDbCircle
 10
158.632389
 20
649.771476
 40
1.499998
100
AcDbArc
 50
90.0
 51
180.0
  0
ARC
  5
A02
100
AcDbEntity
  8
M0
 62
     7
100
AcDbCircle
 10
160.632389
 20
633.27172
 40
1.5
100
AcDbArc
 50
179.999964
 51
270.0
  0
ARC
  5
A03
100
AcDbEntity
  8
M0
 62
     7
100
AcDbCircle
 10
171.632388
 20
633.27172
 40
1.5
100
AcDbArc
 50
270.0
 51
360.0
  0
LINE
  5
A04
100
AcDbEntity
  8
M0
100
AcDbLine
 10
166.132205
 20
702.022773
 11
172.63219
 21
705.764472
  0
LINE
  5
A05
100
AcDbEntity
  8
M0
100
AcDbLine
 10
172.63219
 20
713.281119
 11
172.63219
 21
705.764487
  0
LINE
  5
A06
100
AcDbEntity
  8
M0
100
AcDbLine
 10
166.132205
 20
717.022773
 11
172.63219
 21
713.281119
  0
LINE
  5
A07
100
AcDbEntity
  8
M0
100
AcDbLine
 10
166.132205
 20
717.022773
 11
159.632206
 21
713.281134
  0
LINE
  5
A08
100
AcDbEntity
  8
M0
100
AcDbLine
 10
159.632206
 20
713.28115
 11
159.632206
 21
705.764457
  0
LINE
  5
A09
100
AcDbEntity
  8
M0
100
AcDbLine
 10
166.132205
 20
702.022773
 11
159.632206
 21
705.764457
  0
CIRCLE
  5
A0A
100
AcDbEntity
  8
M0
100
AcDbCircle
 10
166.132205
 20
709.522773
 40
6.499996
  0
CIRCLE
  5
A0B
100
AcDbEntity
  8
M0
100
AcDbCircle
 10
166.132388
 20
709.522773
 40
7.7
  0
LINE
  5
A0C
100
AcDbEntity
  8
M0
100
AcDbLine
 10
134.932025
 20
713.281592
 11
134.932025
 21
705.76496
  0
CIRCLE
  5
A0D
100
AcDbEntity
  8
M0
100
AcDbCircle
 10
128.43204
 20
709.523246
 40
6.499996
  0
LINE
  5
A0E
100
AcDbEntity
  8
M0
100
AcDbLine
 10
128.43204
 20
717.023246
 11
134.932025
 21
713.281592
  0
CIRCLE
  5
A0F
100
AcDbEntity
  8
M0
100
AcDbCircle
 10
128.432223
 20
709.523246
 40
7.7
  0
LINE
  5
A10
100
AcDbEntity
  8
M0
100
AcDbLine
 10
128.43204
 20
717.023246
 11
121.93204
 21
713.281608
  0
LINE
  5
A11
100
AcDbEntity
  8
M0
100
AcDbLine
 10
121.93204
 20
713.281623
 11
121.93204
 21
705.76493
  0
LINE
  5
A12
100
AcDbEntity
  8
M0
100
AcDbLine
 10
128.43204
 20
702.023246
 11
121.93204
 21
705.76493
  0
LINE
  5
A13
100
AcDbEntity
  8
M0
100
AcDbLine
 10
128.43204
 20
702.023246
 11
134.932025
 21
705.764945
  0
CIRCLE
  5
A14
100
AcDbEntity
  8
M0
100
AcDbCircle
 10
203.831698
 20
709.52349
 40
6.499996
  0
LINE
  5
A15
100
AcDbEntity
  8
M0
100
AcDbLine
 10
203.831698
 20
702.02349
 11
210.331683
 21
705.765189
  0
LINE
  5
A16
100
AcDbEntity
  8
M0
100
AcDbLine
 10
210.331683
 20
713.281836
 11
210.331683
 21
705.765204
  0
LINE
  5
A17
100
AcDbEntity
  8
M0
100
AcDbLine
 10
203.831698
 20
717.02349
 11
210.331683
 21
713.281836
  0
LINE
  5
A18
100
AcDbEntity
  8
M0
100
AcDbLine
 10
203.831698
 20
717.02349
 11
197.331698
 21
713.281852
  0
LINE
  5
A19
100
AcDbEntity
  8
M0
100
AcDbLine
 10
197.331698
 20
713.281867
 11
197.331698
 21
705.765174
  0
LINE
  5
A1A
100
AcDbEntity
  8
M0
100
AcDbLine
 10
203.831698
 20
702.02349
 11
197.331698
 21
705.765174
  0
CIRCLE
  5
A1B
100
AcDbEntity
  8
M0
100
AcDbCircle
 10
203.831881
 20
709.52349
 40
7.7
  0
LINE
  5
A1C
100
AcDbEntity
  8
M0
 62
     6
100
AcDbLine
 10
138.128711
 20
485.028556
 11
144.63016
 21
481.275962
  0
LINE
  5
A1D
100
AcDbEntity
  8
M0
 62
     6
100
AcDbLine
 10
144.63016
 20
481.275962
 11
144.63016
 21
473.770316
  0
LINE
  5
A1E
100
AcDbEntity
  8
M0
 62
     6
100
AcDbLine
 10
144.63016
 20
473.770316
 11
138.128711
 21
470.017569
  0
LINE
  5
A1F
100
AcDbEntity
  8
M0
 62
     6
100
AcDbLine
 10
138.128711
 20
470.017569
 11
131.629687
 21
473.770316
  0
LINE
  5
A20
100
AcDbEntity
  8
M0
 62
     6
100
AcDbLine
 10
131.629687
 20
473.770316
 11
131.629687
 21
481.275962
  0
LINE
  5
A21
100
AcDbEntity
  8
M0
 62
     6
100
AcDbLine
 10
131.629687
 20
481.275962
 11
138.128711
 21
485.028556
  0
CIRCLE
  5
A22
100
AcDbEntity
  8
M0
 62
     6
100
AcDbCircle
 10
138.128711
 20
477.523215
 40
4.0
  0
LINE
  5
A23
100
AcDbEntity
  8
M0
  6
DASHDOT
 62
     6
100
AcDbLine
 10
148.281039
 20
477.523215
 11
127.976382
 21
477.523215
  0
LINE
  5
A24
100
AcDbEntity
  8
M0
  6
DASHDOT
 62
     6
100
AcDbLine
 10
138.128695
 20
487.675544
 11
138.128711
 21
467.370887
  0
LINE
  5
A25
100
AcDbEntity
  8
M0
 62
     6
100
AcDbLine
 10
164.128466
 20
485.028312
 11
170.629916
 21
481.275718
  0
LINE
  5
A26
100
AcDbEntity
  8
M0
 62
     6
100
AcDbLine
 10
170.629916
 20
481.275718
 11
170.629916
 21
473.770072
  0
LINE
  5
A27
100
AcDbEntity
  8
M0
 62
     6
100
AcDbLine
 10
170.629916
 20
473.770072
 11
164.128466
 21
470.017325
  0
LINE
  5
A28
100
AcDbEntity
  8
M0
 62
     6
100
AcDbLine
 10
164.128466
 20
470.017325
 11
157.629443
 21
473.770072
  0
LINE
  5
A29
100
AcDbEntity
  8
M0
 62
     6
100
AcDbLine
 10
157.629443
 20
473.770072
 11
157.629443
 21
481.275718
  0
LINE
  5
A2A
100
AcDbEntity
  8
M0
 62
     6
100
AcDbLine
 10
157.629443
 20
481.275718
 11
164.128466
 21
485.028312
  0
CIRCLE
  5
A2B
100
AcDbEntity
  8
M0
 62
     6
100
AcDbCircle
 10
164.128466
 20
477.522971
 40
4.0
  0
LINE
  5
A2C
100
AcDbEntity
  8
M0
  6
DASHDOT
 62
     6
100
AcDbLine
 10
174.280795
 20
477.522971
 11
153.976138
 21
477.522971
  0
LINE
  5
A2D
100
AcDbEntity
  8
M0
  6
DASHDOT
 62
     6
100
AcDbLine
 10
164.128451
 20
487.6753
 11
164.128466
 21
467.370643
  0
LINE
  5
A2E
100
AcDbEntity
  8
M0
 62
     6
100
AcDbLine
 10
190.128466
 20
485.028312
 11
196.629916
 21
481.275718
  0
LINE
  5
A2F
100
AcDbEntity
  8
M0
 62
     6
100
AcDbLine
 10
196.629916
 20
481.275718
 11
196.629916
 21
473.770072
  0
LINE
  5
A30
100
AcDbEntity
  8
M0
 62
     6
100
AcDbLine
 10
196.629916
 20
473.770072
 11
190.128466
 21
470.017325
  0
LINE
  5
A31
100
AcDbEntity
  8
M0
 62
     6
100
AcDbLine
 10
190.128466
 20
470.017325
 11
183.629443
 21
473.770072
  0
LINE
  5
A32
100
AcDbEntity
  8
M0
 62
     6
100
AcDbLine
 10
183.629443
 20
473.770072
 11
183.629443
 21
481.275718
  0
LINE
  5
A33
100
AcDbEntity
  8
M0
 62
     6
100
AcDbLine
 10
183.629443
 20
481.275718
 11
190.128466
 21
485.028312
  0
CIRCLE
  5
A34
100
AcDbEntity
  8
M0
 62
     6
100
AcDbCircle
 10
190.128466
 20
477.522971
 40
4.0
  0
LINE
  5
A35
100
AcDbEntity
  8
M0
  6
DASHDOT
 62
     6
100
AcDbLine
 10
200.280795
 20
477.522971
 11
179.976138
 21
477.522971
  0
LINE
  5
A36
100
AcDbEntity
  8
M0
  6
DASHDOT
 62
     6
100
AcDbLine
 10
190.128451
 20
487.6753
 11
190.128466
 21
467.370643
  0
LINE
  5
A37
100
AcDbEntity
  8
M0
100
AcDbLine
 10
432.25864
 20
717.222539
 11
434.25864
 21
717.22254
  0
LINE
  5
A38
100
AcDbEntity
  8
M0
100
AcDbLine
 10
434.25864
 20
717.22254
 11
434.25865
 21
701.822394
  0
LINE
  5
A39
100
AcDbEntity
  8
M0
100
AcDbLine
 10
434.25865
 20
701.822394
 11
432.25865
 21
701.822392
  0
LINE
  5
A3A
100
AcDbEntity
  8
M0
100
AcDbLine
 10
432.25865
 20
701.822392
 11
432.25864
 21
717.222539
  0
LINE
  5
A3B
100
AcDbEntity
  8
M0
100
AcDbLine
 10
434.258646
 20
709.022345
 11
432.258646
 21
708.486455
  0
LINE
  5
A3C
100
AcDbEntity
  8
M0
100
AcDbLine
 10
432.258645
 20
710.022344
 11
434.258645
 21
710.558478
  0
LINE
  5
A3D
100
AcDbEntity
  8
M0
100
AcDbLine
 10
434.258395
 20
718.522589
 11
435.858249
 21
718.52259
  0
LINE
  5
A3E
100
AcDbEntity
  8
M0
100
AcDbLine
 10
435.858249
 20
718.52259
 11
435.85826
 21
700.52259
  0
LINE
  5
A3F
100
AcDbEntity
  8
M0
100
AcDbLine
 10
435.85826
 20
700.52259
 11
434.258407
 21
700.522589
  0
LINE
  5
A40
100
AcDbEntity
  8
M0
100
AcDbLine
 10
434.258407
 20
700.522589
 11
434.258395
 21
718.522589
  0
LINE
  5
A41
100
AcDbEntity
  8
M0
100
AcDbLine
 10
426.479588
 20
717.02234
 11
432.258396
 21
717.022344
  0
LINE
  5
A42
100
AcDbEntity
  8
M0
100
AcDbLine
 10
432.258396
 20
717.022344
 11
432.258406
 21
702.022344
  0
LINE
  5
A43
100
AcDbEntity
  8
M0
100
AcDbLine
 10
432.258406
 20
702.022344
 11
426.480086
 21
702.022584
  0
LINE
  5
A44
100
AcDbEntity
  8
M0
100
AcDbLine
 10
425.758405
 20
703.272339
 11
425.758397
 21
715.772339
  0
LINE
  5
A45
100
AcDbEntity
  8
M0
100
AcDbLine
 10
426.478374
 20
705.762574
 11
432.258403
 21
705.762578
  0
LINE
  5
A46
100
AcDbEntity
  8
M0
100
AcDbLine
 10
426.478369
 20
713.28235
 11
432.258399
 21
713.282353
  0
LINE
  5
A47
100
AcDbEntity
  8
M0
100
AcDbLine
 10
425.758161
 20
703.272339
 11
426.480086
 21
702.022584
  0
LINE
  5
A48
100
AcDbEntity
  8
M0
100
AcDbLine
 10
426.479832
 20
717.02234
 11
425.758153
 21
715.772339
  0
ARC
  5
A49
100
AcDbEntity
  8
M0
100
AcDbCircle
 10
435.93638
 20
709.52259
 40
10.178164
100
AcDbArc
 50
158.320424
 51
201.67853
  0
ARC
  5
A4A
100
AcDbEntity
  8
M0
100
AcDbCircle
 10
430.424177
 20
703.272586
 40
4.665769
100
AcDbArc
 50
147.746638
 51
180.003034
  0
ARC
  5
A4B
100
AcDbEntity
  8
M0
100
AcDbCircle
 10
430.424169
 20
715.772586
 40
4.665769
100
AcDbArc
 50
180.000036
 51
212.254634
  0
LINE
  5
A4C
100
AcDbEntity
  8
M0
100
AcDbLine
 10
445.458377
 20
469.72132
 11
447.458377
 21
469.72132
  0
LINE
  5
A4D
100
AcDbEntity
  8
M0
100
AcDbLine
 10
447.458377
 20
469.72132
 11
447.458377
 21
485.121467
  0
LINE
  5
A4E
100
AcDbEntity
  8
M0
100
AcDbLine
 10
447.458377
 20
485.121467
 11
445.458377
 21
485.121467
  0
LINE
  5
A4F
100
AcDbEntity
  8
M0
100
AcDbLine
 10
445.458377
 20
485.121467
 11
445.458377
 21
469.72132
  0
LINE
  5
A50
100
AcDbEntity
  8
M0
100
AcDbLine
 10
447.458377
 20
477.921515
 11
445.458377
 21
478.457404
  0
LINE
  5
A51
100
AcDbEntity
  8
M0
100
AcDbLine
 10
445.458377
 20
476.921515
 11
447.458377
 21
476.385383
  0
LINE
  5
A52
100
AcDbEntity
  8
M0
100
AcDbLine
 10
447.458133
 20
468.421271
 11
449.057986
 21
468.421271
  0
LINE
  5
A53
100
AcDbEntity
  8
M0
100
AcDbLine
 10
449.057986
 20
468.421271
 11
449.057986
 21
486.421271
  0
LINE
  5
A54
100
AcDbEntity
  8
M0
100
AcDbLine
 10
449.057986
 20
486.421271
 11
447.458133
 21
486.421271
  0
LINE
  5
A55
100
AcDbEntity
  8
M0
100
AcDbLine
 10
447.458133
 20
486.421271
 11
447.458133
 21
468.421271
  0
LINE
  5
A56
100
AcDbEntity
  8
M0
100
AcDbLine
 10
439.679324
 20
469.921515
 11
445.458133
 21
469.921515
  0
LINE
  5
A57
100
AcDbEntity
  8
M0
100
AcDbLine
 10
445.458133
 20
469.921515
 11
445.458133
 21
484.921515
  0
LINE
  5
A58
100
AcDbEntity
  8
M0
100
AcDbLine
 10
445.458133
 20
484.921515
 11
439.679812
 21
484.921271
  0
LINE
  5
A59
100
AcDbEntity
  8
M0
100
AcDbLine
 10
438.958133
 20
483.671515
 11
438.958133
 21
471.171515
  0
LINE
  5
A5A
100
AcDbEntity
  8
M0
100
AcDbLine
 10
439.678103
 20
481.181281
 11
445.458133
 21
481.181281
  0
LINE
  5
A5B
100
AcDbEntity
  8
M0
100
AcDbLine
 10
439.678103
 20
473.661506
 11
445.458133
 21
473.661506
  0
LINE
  5
A5C
100
AcDbEntity
  8
M0
100
AcDbLine
 10
438.957888
 20
483.671515
 11
439.679812
 21
484.921271
  0
LINE
  5
A5D
100
AcDbEntity
  8
M0
100
AcDbLine
 10
439.679568
 20
469.921515
 11
438.957888
 21
471.171515
  0
ARC
  5
A5E
100
AcDbEntity
  8
M0
100
AcDbCircle
 10
449.136111
 20
477.421271
 40
10.178164
100
AcDbArc
 50
158.321506
 51
201.679581
  0
ARC
  5
A5F
100
AcDbEntity
  8
M0
100
AcDbCircle
 10
443.623904
 20
483.671271
 40
4.665769
100
AcDbArc
 50
179.994004
 51
212.253398
  0
ARC
  5
A60
100
AcDbEntity
  8
M0
100
AcDbCircle
 10
443.623904
 20
471.171271
 40
4.665769
100
AcDbArc
 50
147.745402
 51
180.0
  0
LINE
  5
A61
100
AcDbEntity
  8
M0
100
AcDbLine
 10
484.859011
 20
469.72132
 11
486.859011
 21
469.72132
  0
LINE
  5
A62
100
AcDbEntity
  8
M0
100
AcDbLine
 10
486.859011
 20
469.72132
 11
486.859011
 21
485.121467
  0
LINE
  5
A63
100
AcDbEntity
  8
M0
100
AcDbLine
 10
486.859011
 20
485.121467
 11
484.859011
 21
485.121467
  0
LINE
  5
A64
100
AcDbEntity
  8
M0
100
AcDbLine
 10
484.859011
 20
485.121467
 11
484.859011
 21
469.72132
  0
LINE
  5
A65
100
AcDbEntity
  8
M0
100
AcDbLine
 10
486.859011
 20
477.921515
 11
484.859011
 21
478.457404
  0
LINE
  5
A66
100
AcDbEntity
  8
M0
100
AcDbLine
 10
484.859011
 20
476.921515
 11
486.859011
 21
476.385383
  0
LINE
  5
A67
100
AcDbEntity
  8
M0
100
AcDbLine
 10
486.858767
 20
468.421271
 11
488.458621
 21
468.421271
  0
LINE
  5
A68
100
AcDbEntity
  8
M0
100
AcDbLine
 10
488.458621
 20
468.421271
 11
488.458621
 21
486.421271
  0
LINE
  5
A69
100
AcDbEntity
  8
M0
100
AcDbLine
 10
488.458621
 20
486.421271
 11
486.858767
 21
486.421271
  0
LINE
  5
A6A
100
AcDbEntity
  8
M0
100
AcDbLine
 10
486.858767
 20
486.421271
 11
486.858767
 21
468.421271
  0
LINE
  5
A6B
100
AcDbEntity
  8
M0
100
AcDbLine
 10
479.079959
 20
469.921515
 11
484.858767
 21
469.921515
  0
LINE
  5
A6C
100
AcDbEntity
  8
M0
100
AcDbLine
 10
484.858767
 20
469.921515
 11
484.858767
 21
484.921515
  0
LINE
  5
A6D
100
AcDbEntity
  8
M0
100
AcDbLine
 10
484.858767
 20
484.921515
 11
479.080447
 21
484.921271
  0
LINE
  5
A6E
100
AcDbEntity
  8
M0
100
AcDbLine
 10
478.358767
 20
483.671515
 11
478.358767
 21
471.171515
  0
LINE
  5
A6F
100
AcDbEntity
  8
M0
100
AcDbLine
 10
479.078738
 20
481.181281
 11
484.858767
 21
481.181281
  0
LINE
  5
A70
100
AcDbEntity
  8
M0
100
AcDbLine
 10
479.078738
 20
473.661506
 11
484.858767
 21
473.661506
  0
LINE
  5
A71
100
AcDbEntity
  8
M0
100
AcDbLine
 10
478.358523
 20
483.671515
 11
479.080447
 21
484.921271
  0
LINE
  5
A72
100
AcDbEntity
  8
M0
100
AcDbLine
 10
479.080203
 20
469.921515
 11
478.358523
 21
471.171515
  0
ARC
  5
A73
100
AcDbEntity
  8
M0
100
AcDbCircle
 10
488.536746
 20
477.421271
 40
10.178164
100
AcDbArc
 50
158.321506
 51
201.679581
  0
ARC
  5
A74
100
AcDbEntity
  8
M0
100
AcDbCircle
 10
483.024539
 20
483.671271
 40
4.665769
100
AcDbArc
 50
179.994004
 51
212.253398
  0
ARC
  5
A75
100
AcDbEntity
  8
M0
100
AcDbCircle
 10
483.024539
 20
471.171271
 40
4.665769
100
AcDbArc
 50
147.745402
 51
180.0
  0
LINE
  5
A76
100
AcDbEntity
  8
M0
  6
DIVIDE
100
AcDbLine
 10
106.13186
 20
395.340856
 11
226.131989
 21
395.340856
  0
LINE
  5
A77
100
AcDbEntity
  8
M0
  6
DIVIDE
100
AcDbLine
 10
226.131989
 20
395.340856
 11
226.131989
 21
130.34106
  0
LINE
  5
A78
100
AcDbEntity
  8
M0
  6
DIVIDE
100
AcDbLine
 10
226.131989
 20
130.34106
 11
106.13186
 21
130.34106
  0
LINE
  5
A79
100
AcDbEntity
  8
M0
  6
DIVIDE
100
AcDbLine
 10
106.13186
 20
130.34106
 11
106.13186
 21
395.340856
  0
LINE
  5
A7A
100
AcDbEntity
  8
M0
  6
DASHDOT
100
AcDbLine
 10
166.131924
 20
410.979355
 11
166.131924
 21
119.696122
  0
LINE
  5
A7B
100
AcDbEntity
  8
M0
  6
DASHDOT
100
AcDbLine
 10
82.111434
 20
262.840958
 11
244.918587
 21
262.840958
  0
CIRCLE
  5
A7C
100
AcDbEntity
  8
M0
100
AcDbCircle
 10
216.132008
 20
137.840549
 40
3.000003
  0
LINE
  5
A7D
100
AcDbEntity
  8
M0
  6
DASHDOT
100
AcDbLine
 10
188.131978
 20
137.840549
 11
244.132038
 21
137.840549
  0
LINE
  5
A7E
100
AcDbEntity
  8
M0
  6
DASHDOT
100
AcDbLine
 10
216.132008
 20
109.840519
 11
216.132008
 21
165.840579
  0
CIRCLE
  5
A7F
100
AcDbEntity
  8
M0
100
AcDbCircle
 10
216.132008
 20
137.840549
 40
2.250002
  0
CIRCLE
  5
A80
100
AcDbEntity
  8
M0
100
AcDbCircle
 10
116.131916
 20
137.840549
 40
2.250002
  0
CIRCLE
  5
A81
100
AcDbEntity
  8
M0
100
AcDbCircle
 10
166.13197
 20
387.840604
 40
2.250002
  0
CIRCLE
  5
A82
100
AcDbEntity
  8
M0
100
AcDbCircle
 10
116.132008
 20
137.840549
 40
3.000003
  0
LINE
  5
A83
100
AcDbEntity
  8
M0
  6
DASHDOT
100
AcDbLine
 10
88.131978
 20
137.840549
 11
144.132038
 21
137.840549
  0
LINE
  5
A84
100
AcDbEntity
  8
M0
  6
DASHDOT
100
AcDbLine
 10
116.132008
 20
109.840519
 11
116.132008
 21
165.840579
  0
CIRCLE
  5
A85
100
AcDbEntity
  8
M0
100
AcDbCircle
 10
166.131955
 20
387.840818
 40
3.000003
  0
LINE
  5
A86
100
AcDbEntity
  8
M0
  6
DASHDOT
100
AcDbLine
 10
138.131925
 20
387.840818
 11
194.131985
 21
387.840818
  0
LINE
  5
A87
100
AcDbEntity
  8
M1
 62
     2
100
AcDbLine
 10
30.303029
 20
30.303029
 11
30.303029
 21
863.636329
  0
LINE
  5
A88
100
AcDbEntity
  8
M1
 62
     2
100
AcDbLine
 10
30.303029
 20
863.636329
 11
606.060582
 21
863.636329
  0
LINE
  5
A89
100
AcDbEntity
  8
M1
 62
     2
100
AcDbLine
 10
606.060582
 20
863.636329
 11
606.060582
 21
30.303029
  0
LINE
  5
A8A
100
AcDbEntity
  8
M1
 62
     2
100
AcDbLine
 10
606.060582
 20
30.303029
 11
30.303029
 21
30.303029
  0
LINE
  5
A8B
100
AcDbEntity
  8
M1
 62
     2
100
AcDbLine
 10
606.060582
 20
60.606058
 11
303.030291
 21
60.606058
  0
LINE
  5
A8C
100
AcDbEntity
  8
M1
 62
     2
100
AcDbLine
 10
606.060582
 20
90.909087
 11
303.030291
 21
90.909087
  0
LINE
  5
A8D
100
AcDbEntity
  8
M1
 62
     2
100
AcDbLine
 10
606.060582
 20
121.212116
 11
303.030291
 21
121.212116
  0
LINE
  5
A8E
100
AcDbEntity
  8
M1
 62
     2
100
AcDbLine
 10
303.030291
 20
30.303029
 11
303.030291
 21
121.212116
  0
TEXT
  5
A8F
100
AcDbEntity
  8
M1
 62
     2
100
AcDbText
 10
310.606048
 20
37.878786
 40
15.151515
  1
適　用；
  7
STANDARD
100
AcDbText
  0
TEXT
  5
A90
100
AcDbEntity
  8
M1
 62
     2
100
AcDbText
 10
310.606048
 20
98.484845
 40
15.151515
  1
登録名：
  7
STANDARD
100
AcDbText
  0
TEXT
  5
A91
100
AcDbEntity
  8
M1
 62
     2
100
AcDbText
 10
383.333318
 20
98.484845
 40
15.151515
  1
ＤＭＨ１５０ＣＴＲ００
 41
0.5
  7
STANDARD
100
AcDbText
  0
TEXT
  5
A92
100
AcDbEntity
  8
M1
 62
     2
100
AcDbText
 10
310.606048
 20
68.181815
 40
15.151515
  1
形　式；
  7
STANDARD
100
AcDbText
  0
TEXT
  5
A93
100
AcDbEntity
  8
M1
 62
     2
100
AcDbText
 10
383.333318
 20
68.181815
 40
15.151515
  1
Ｈ１５０Ｃ－Ｔ，Ｈ１５０Ｃ－ＴＫ
 41
0.5
  7
STANDARD
100
AcDbText
  0
LINE
  5
A94
100
AcDbEntity
  8
DN0
100
AcDbLine
 10
138.492361
 20
65.327153
 11
193.825694
 21
65.327153
  0
TEXT
  5
A95
100
AcDbEntity
  8
DN0
100
AcDbText
 10
140.022664
 20
66.690789
 40
13.636363
  1
せん孔図
 41
0.833333
  7
STANDARD
100
AcDbText
  0
LINE
  5
A96
100
AcDbEntity
  8
DN0
100
AcDbLine
 10
105.667314
 20
794.968274
 11
220.4552
 21
794.968274
  0
TEXT
  5
A97
100
AcDbEntity
  8
DN0
100
AcDbText
 10
106.695092
 20
795.92282
 40
9.545454
  1
※補助接点４ａ４ｂ付の場合　１４４
 41
0.584656
  7
STANDARD
100
AcDbText
  0
ENDSEC
  0
SECTION
  2
OBJECTS
  0
DICTIONARY
  5
C
100
AcDbDictionary
  3
ACAD_GROUP
350
D
  3
ACAD_MLINESTYLE
350
E
  0
DICTIONARY
  5
D
102
{ACAD_REACTORS
330
C
102
}
100
AcDbDictionary
  0
DICTIONARY
  5
E
102
{ACAD_REACTORS
330
C
102
}
100
AcDbDictionary
  3
STANDARD
350
13
  0
MLINESTYLE
  5
13
102
{ACAD_REACTORS
330
E
102
}
100
AcDbMlineStyle
  2
STANDARD
 70
     0
  3

 62
     0
 51
90.0
 52
90.0
 71
     2
 49
0.5
 62
   256
  6
BYLAYER
 49
-0.5
 62
   256
  6
BYLAYER
  0
ENDSEC
  0
EOF
