 0
SECTION
 2
HEADER
 9
$ACADVER
 1
AC1009
 9
$EXTMIN
 10
144.219
 20
58.439
 9
$EXTMAX
 10
476.302
 20
802.481
 9
$LIMMIN
 10
0.0
 20
0.0
 9
$LIMMAX
 10
210.0
 20
297.0
 9
$DIMSTYLE
 2
STANDARD
 9
$DIMBLK
 1
_OPEN
 9
$DIMBLK1
 1
_OPEN
 9
$DIMBLK2
 1
_OPEN
 9
$DIMSCALE
 40
1.0
 9
$DIMASZ
 40
10.0
 9
$DIMEXO
 40
1.0
 9
$DIMDLI
 40
6.0
 9
$DIMEXE
 40
1.0
 9
$DIMDLE
 40
0.0
 9
$DIMTIH
 70
1
 9
$DIMTOH
 70
1
 9
$DIMSD1
 70
0
 9
$DIMSD2
 70
0
 9
$DIMTAD
 70
1
 9
$DIMZIN
 70
12
 9
$DIMTXT
 40
8.333
 9
$DIMGAP
 40
0.6
 9
$DIMSAH
 70
1
 9
$DIMSOXD
 70
0
 9
$LTSCALE
 40
1.0
 0
ENDSEC
 0
SECTION
 2
TABLES
 0
TABLE
 2
APPID
 70
1
 0
ENDTAB
 0
TABLE
 2
LTYPE
 70
7
 0
LTYPE
 2
BYBLOCK
 70
64
 3

 72
65
 73
0
 40
0.0
 0
LTYPE
 2
BYLAYER
 70
64
 3

 72
65
 73
0
 40
0.0
 0
LTYPE
 2
CONTINUOUS
 70
64
 3
Solid_line
 72
65
 73
0
 40
0.0
 0
LTYPE
 2
DASHED
 70
64
 3
_______________________________________________
 72
65
 73
2
 40
0.75
 49
0.5
 49
-0.25
 0
LTYPE
 2
DASHDOT
 70
64
 3
___.____.____.____.____.____.____.____.____.___
 72
65
 73
4
 40
1.0
 49
0.5
 49
-0.25
 49
0.0
 49
-0.25
 0
LTYPE
 2
DIVIDE
 70
64
 3
_____._.______._.______._.______._.______._.___
 72
65
 73
6
 40
1.25
 49
0.5
 49
-0.25
 49
0.0
 49
-0.25
 49
0.0
 49
-0.25
 0
LTYPE
 2
DOT
 70
64
 3
._._._._._._._._._._._._._._._._._._._._._._._.
 72
65
 73
2
 40
0.25
 49
0.0
 49
-0.25
 0
ENDTAB
 0
TABLE
 2
STYLE
 70
1
 0
STYLE
 2
STANDARD
 70
64
 40
0.0
 41
1.0
 50
0.0
 71
0
 42
0.0
 3
txt
 4
BIGFONT
 0
ENDTAB
 0
TABLE
 2
DIMSTYLE
 70
2
 0
DIMSTYLE
 2
STANDARD
 70
64
 3

 4

 5
_OPEN
 6

 7

 40
1.0
 41
10.0
 42
1.0
 43
6.0
 44
1.0
 45
0.0
 46
0.0
 47
0.0
 48
0.0
 140
8.333
 141
0.09
 142
0.0
 143
25.4
 144
1.0
 145
0.0
 146
1.0
 147
0.6
 71
0
 72
0
 73
1
 74
1
 75
0
 76
0
 77
1
 78
12
 170
0
 171
2
 172
0
 173
0
 174
0
 175
0
 176
0
 177
0
 178
0
 0
DIMSTYLE
 2
LEADSTYL
 70
64
 3

 4

 5
_OPEN
 6

 7

 40
1.0
 41
10.0
 42
0.063
 43
0.38
 44
0.18
 45
0.0
 46
0.0
 47
0.0
 48
0.0
 140
10.5
 141
0.09
 142
0.0
 143
25.4
 144
1.0
 145
0.0
 146
1.0
 147
0.6
 71
0
 72
0
 73
1
 74
1
 75
0
 76
0
 77
0
 78
12
 170
0
 171
2
 172
0
 173
0
 174
0
 175
0
 176
0
 177
0
 178
0
 0
ENDTAB
 0
TABLE
 2
LAYER
 70
4
 0
LAYER
 2
0
 70
64
 62
7
 6
CONTINUOUS
 0
LAYER
 2
DEFPOINTS
 70
64
 62
7
 6
CONTINUOUS
 0
LAYER
 2
M0
 70
64
 62
3
 6
CONTINUOUS
 0
LAYER
 2
DT0
 70
64
 62
7
 6
CONTINUOUS
 0
ENDTAB
 0
TABLE
 2
UCS
 70
0
 0
ENDTAB
 0
TABLE
 2
VIEW
 70
0
 0
ENDTAB
 0
TABLE
 2
VPORT
 70
0
 0
ENDTAB
 0
ENDSEC
 0
SECTION
 2
BLOCKS
 0
BLOCK
 8
0
 2
*MODEL_SPACE
 70
0
 10
0.0
 20
0.0
 30
0.0
 3
*MODEL_SPACE
 0
ENDBLK
 8
0
 0
BLOCK
 8
0
 2
*PAPER_SPACE
 70
0
 10
0.0
 20
0.0
 30
0.0
 3
*PAPER_SPACE
 0
ENDBLK
 8
0
 0
BLOCK
 8
0
 2
_NONE
 70
0
 10
0.0
 20
0.0
 30
0.0
 3
_NONE
 0
CIRCLE
 8
0
 62
0
 10
0.0
 20
0.0
 30
0.0
 40
0.25
 0
ENDBLK
 8
0
 0
BLOCK
 8
0
 2
_OPEN
 70
0
 10
0.0
 20
0.0
 30
0.0
 3
_OPEN
 0
LINE
 8
0
 62
0
 10
-0.966
 20
0.259
 30
0.0
 11
0.0
 21
0.0
 31
0.0
 0
LINE
 8
0
 62
0
 10
0.0
 20
0.0
 30
0.0
 11
-0.966
 21
-0.259
 31
0.0
 0
LINE
 8
0
 62
0
 10
0.0
 20
0.0
 30
0.0
 11
-1.0
 21
0.0
 31
0.0
 0
ENDBLK
 8
0
 0
BLOCK
 8
0
 2
_CLOSED
 70
0
 10
0.0
 20
0.0
 30
0.0
 3
_CLOSED
 0
LINE
 8
0
 62
0
 10
-0.966
 20
0.259
 30
0.0
 11
0.0
 21
0.0
 31
0.0
 0
LINE
 8
0
 62
0
 10
0.0
 20
0.0
 30
0.0
 11
-0.966
 21
-0.259
 31
0.0
 0
LINE
 8
0
 62
0
 10
-0.966
 20
0.259
 30
0.0
 11
-0.966
 21
-0.259
 31
0.0
 0
LINE
 8
0
 62
0
 10
0.0
 20
0.0
 30
0.0
 11
-1.0
 21
0.0
 31
0.0
 0
ENDBLK
 8
0
 0
BLOCK
 8
0
 2
_ORIGIN
 70
0
 10
0.0
 20
0.0
 30
0.0
 3
_ORIGIN
 0
CIRCLE
 8
0
 62
0
 10
0.0
 20
0.0
 30
0.0
 40
0.5
 0
LINE
 8
0
 62
0
 10
0.0
 20
0.0
 30
0.0
 11
-1.0
 21
0.0
 31
0.0
 0
ENDBLK
 8
0
 0
BLOCK
 8
0
 2
_DOT
 70
0
 10
0.0
 20
0.0
 30
0.0
 3
_DOT
 0
POLYLINE
 8
0
 62
0
 66
1
 10
0.0
 20
0.0
 30
0.0
 40
0.5
 41
0.5
 70
1
 0
VERTEX
 8
0
 10
-0.25
 20
0.0
 30
0.0
 40
0.5
 41
0.5
 42
1.0
 0
VERTEX
 8
0
 10
0.25
 20
0.0
 30
0.0
 40
0.5
 41
0.5
 42
1.0
 0
SEQEND
 8
0
 0
LINE
 8
0
 62
0
 10
-0.5
 20
0.0
 30
0.0
 11
-1.0
 21
0.0
 31
0.0
 0
ENDBLK
 8
0
 0
BLOCK
 8
0
 2
_OBLIQUE
 70
0
 10
0.0
 20
0.0
 30
0.0
 3
_OBLIQUE
 0
LINE
 8
0
 62
0
 10
-0.354
 20
-0.354
 30
0.0
 11
0.354
 21
0.354
 31
0.0
 0
ENDBLK
 8
0
 0
BLOCK
 8
DT0
 2
LIST0
 70
0
 10
0.0
 20
0.0
 30
0.0
 3
LIST0
 0
LINE
 8
DT0
 10
430.384
 20
113.439
 30
0.0
 11
430.384
 21
58.439
 31
0.0
 0
LINE
 8
DT0
 10
157.051
 20
113.439
 30
0.0
 11
157.051
 21
58.439
 31
0.0
 0
LINE
 8
DT0
 10
157.051
 20
58.439
 30
0.0
 11
430.384
 21
58.439
 31
0.0
 0
LINE
 8
DT0
 10
157.051
 20
113.439
 30
0.0
 11
430.384
 21
113.439
 31
0.0
 0
LINE
 8
DT0
 10
367.051
 20
95.106
 30
0.0
 11
367.051
 21
113.439
 31
0.0
 0
LINE
 8
DT0
 10
197.051
 20
95.106
 30
0.0
 11
367.051
 21
95.106
 31
0.0
 0
TEXT
 8
DT0
 10
201.078
 20
100.106
 30
0.0
 40
8.333
 1
Ｓｘｋ２２５３Ｐ
 7
STANDARD
 41
0.833333
 0
LINE
 8
DT0
 10
397.051
 20
95.106
 30
0.0
 11
397.051
 21
113.439
 31
0.0
 0
LINE
 8
DT0
 10
367.051
 20
95.106
 30
0.0
 11
397.051
 21
95.106
 31
0.0
 0
TEXT
 8
DT0
 10
370.956
 20
100.106
 30
0.0
 40
8.333
 1
ＲＥＶ．：
 7
STANDARD
 41
0.666667
 0
LINE
 8
DT0
 10
430.384
 20
95.106
 30
0.0
 11
430.384
 21
113.439
 31
0.0
 0
LINE
 8
DT0
 10
397.051
 20
95.106
 30
0.0
 11
430.384
 21
95.106
 31
0.0
 0
TEXT
 8
DT0
 10
411.078
 20
100.106
 30
0.0
 40
8.333
 1
００
 7
STANDARD
 41
0.833333
 0
LINE
 8
DT0
 10
197.051
 20
95.106
 30
0.0
 11
197.051
 21
113.439
 31
0.0
 0
LINE
 8
DT0
 10
157.051
 20
95.106
 30
0.0
 11
197.051
 21
95.106
 31
0.0
 0
TEXT
 8
DT0
 10
161.078
 20
100.106
 30
0.0
 40
8.333
 1
登録名：
 7
STANDARD
 41
0.833333
 0
LINE
 8
DT0
 10
430.384
 20
76.773
 30
0.0
 11
430.384
 21
95.106
 31
0.0
 0
LINE
 8
DT0
 10
397.051
 20
76.773
 30
0.0
 11
430.384
 21
76.773
 31
0.0
 0
LINE
 8
DT0
 10
397.051
 20
76.773
 30
0.0
 11
397.051
 21
95.106
 31
0.0
 0
LINE
 8
DT0
 10
197.051
 20
76.773
 30
0.0
 11
397.051
 21
76.773
 31
0.0
 0
TEXT
 8
DT0
 10
201.078
 20
81.773
 30
0.0
 40
8.333
 1
表面形
 7
STANDARD
 41
0.833333
 0
LINE
 8
DT0
 10
197.051
 20
76.773
 30
0.0
 11
197.051
 21
95.106
 31
0.0
 0
LINE
 8
DT0
 10
157.051
 20
76.773
 30
0.0
 11
197.051
 21
76.773
 31
0.0
 0
TEXT
 8
DT0
 10
159.342
 20
81.773
 30
0.0
 40
8.333
 1
接続方式：
 7
STANDARD
 41
0.75
 0
LINE
 8
DT0
 10
430.384
 20
58.439
 30
0.0
 11
430.384
 21
76.773
 31
0.0
 0
LINE
 8
DT0
 10
397.051
 20
58.439
 30
0.0
 11
430.384
 21
58.439
 31
0.0
 0
LINE
 8
DT0
 10
397.051
 20
58.439
 30
0.0
 11
397.051
 21
76.773
 31
0.0
 0
LINE
 8
DT0
 10
197.051
 20
58.439
 30
0.0
 11
397.051
 21
58.439
 31
0.0
 0
TEXT
 8
DT0
 10
201.009
 20
63.439
 30
0.0
 40
8.333
 1
ＳＸＫ２２５
 7
STANDARD
 41
0.75
 0
LINE
 8
DT0
 10
197.051
 20
58.439
 30
0.0
 11
197.051
 21
76.773
 31
0.0
 0
LINE
 8
DT0
 10
157.051
 20
58.439
 30
0.0
 11
197.051
 21
58.439
 31
0.0
 0
TEXT
 8
DT0
 10
159.342
 20
63.439
 30
0.0
 40
8.333
 1
適用形式：
 7
STANDARD
 41
0.75
 0
ENDBLK
 8
DT0
 0
ENDSEC
 0
SECTION
 2
ENTITIES
 0
LINE
 8
M0
 62
4
 10
468.216
 20
624.323
 30
0.0
 11
431.216
 21
624.323
 31
0.0
 0
LINE
 8
M0
 62
4
 10
431.216
 20
789.323
 30
0.0
 11
468.216
 21
789.323
 31
0.0
 0
LINE
 8
M0
 62
4
 10
468.216
 20
624.323
 30
0.0
 11
468.216
 21
789.323
 31
0.0
 0
LINE
 8
M0
 62
4
 10
392.216
 20
719.155
 30
0.0
 11
379.875
 21
722.138
 31
0.0
 0
LINE
 8
M0
 6
DASHED
 62
4
 10
444.216
 20
624.322
 30
0.0
 11
447.415
 21
624.322
 31
0.0
 0
LINE
 8
M0
 62
4
 10
396.216
 20
681.823
 30
0.0
 11
396.216
 21
731.823
 31
0.0
 0
LINE
 8
M0
 62
4
 10
396.216
 20
681.823
 30
0.0
 11
406.216
 21
681.823
 31
0.0
 0
LINE
 8
M0
 62
4
 10
396.216
 20
731.823
 30
0.0
 11
400.216
 21
731.823
 31
0.0
 0
LINE
 8
M0
 62
4
 10
406.216
 20
765.323
 30
0.0
 11
406.216
 21
681.823
 31
0.0
 0
LINE
 8
M0
 62
4
 10
403.216
 20
765.323
 30
0.0
 11
406.216
 21
765.323
 31
0.0
 0
ARC
 8
M0
 62
4
 10
403.216
 20
762.323
 30
0.0
 40
3.0
 50
90.0
 51
180.0
 0
LINE
 8
M0
 62
4
 10
400.216
 20
681.823
 30
0.0
 11
400.216
 21
762.323
 31
0.0
 0
LINE
 8
M0
 62
4
 10
379.108
 20
723.326
 30
0.0
 11
380.161
 21
728.214
 31
0.0
 0
ARC
 8
M0
 62
4
 10
381.138
 20
728.003
 30
0.0
 40
1.0
 50
77.84742
 51
167.84742
 0
LINE
 8
M0
 62
4
 10
392.216
 20
726.315
 30
0.0
 11
381.339
 21
728.983
 31
0.0
 0
ARC
 8
M0
 62
4
 10
380.086
 20
723.115
 30
0.0
 40
1.0
 50
167.84742
 51
257.84742
 0
LINE
 8
M0
 62
4
 10
431.216
 20
789.323
 30
0.0
 11
410.216
 21
789.323
 31
0.0
 0
LINE
 8
M0
 62
4
 10
431.216
 20
624.323
 30
0.0
 11
410.216
 21
624.323
 31
0.0
 0
LINE
 8
M0
 62
4
 10
400.216
 20
762.323
 30
0.0
 11
400.216
 21
731.823
 31
0.0
 0
LINE
 8
M0
 62
4
 10
392.216
 20
731.823
 30
0.0
 11
400.216
 21
731.823
 31
0.0
 0
LINE
 8
M0
 62
4
 10
392.216
 20
681.823
 30
0.0
 11
400.216
 21
681.823
 31
0.0
 0
LINE
 8
M0
 62
4
 10
407.216
 20
786.323
 30
0.0
 11
407.216
 21
765.323
 31
0.0
 0
ARC
 8
M0
 62
4
 10
410.216
 20
786.323
 30
0.0
 40
3.0
 50
90.0
 51
180.0
 0
LINE
 8
M0
 62
4
 10
403.216
 20
648.323
 30
0.0
 11
407.216
 21
648.323
 31
0.0
 0
LINE
 8
M0
 62
4
 10
392.216
 20
681.823
 30
0.0
 11
392.216
 21
731.823
 31
0.0
 0
LINE
 8
M0
 6
DASHDOT
 62
4
 10
471.216
 20
706.823
 30
0.0
 11
372.51
 21
706.823
 31
0.0
 0
LINE
 8
M0
 62
4
 10
403.216
 20
765.323
 30
0.0
 11
407.216
 21
765.323
 31
0.0
 0
ARC
 8
M0
 62
4
 10
403.216
 20
762.323
 30
0.0
 40
3.0
 50
90.0
 51
180.0
 0
LINE
 8
M0
 62
4
 10
400.216
 20
681.823
 30
0.0
 11
400.216
 21
651.323
 31
0.0
 0
ARC
 8
M0
 62
4
 10
403.216
 20
651.323
 30
0.0
 40
3.0
 50
180.0
 51
270.0
 0
LINE
 8
M0
 62
4
 10
407.216
 20
627.323
 30
0.0
 11
407.216
 21
648.323
 31
0.0
 0
ARC
 8
M0
 62
4
 10
410.216
 20
627.323
 30
0.0
 40
3.0
 50
180.0
 51
270.0
 0
LINE
 8
M0
 62
7
 10
365.716
 20
364.292
 30
0.0
 11
365.716
 21
318.292
 31
0.0
 0
ARC
 8
M0
 62
7
 10
462.716
 20
364.292
 30
0.0
 40
3.0
 50
0.0
 51
90.0
 0
LINE
 8
M0
 62
7
 10
368.716
 20
367.292
 30
0.0
 11
462.716
 21
367.292
 31
0.0
 0
ARC
 8
M0
 62
7
 10
368.716
 20
364.292
 30
0.0
 40
3.0
 50
90.0
 51
180.0
 0
ARC
 8
M0
 62
7
 10
462.716
 20
318.292
 30
0.0
 40
3.0
 50
270.0
 51
0.0
 0
LINE
 8
M0
 62
7
 10
465.716
 20
364.292
 30
0.0
 11
465.716
 21
318.292
 31
0.0
 0
ARC
 8
M0
 62
7
 10
368.716
 20
318.292
 30
0.0
 40
3.0
 50
180.0
 51
270.0
 0
LINE
 8
M0
 62
7
 10
368.716
 20
315.292
 30
0.0
 11
462.716
 21
315.292
 31
0.0
 0
CIRCLE
 8
M0
 10
227.377
 20
278.292
 30
0.0
 40
2.5
 0
CIRCLE
 8
M0
 10
192.377
 20
404.292
 30
0.0
 40
2.5
 0
LINE
 8
M0
 6
DASHDOT
 10
219.614
 20
278.292
 30
0.0
 11
235.14
 21
278.292
 31
0.0
 0
LINE
 8
M0
 6
DASHDOT
 10
227.377
 20
270.529
 30
0.0
 11
227.377
 21
286.055
 31
0.0
 0
LINE
 8
M0
 6
DASHDOT
 10
184.614
 20
404.292
 30
0.0
 11
200.14
 21
404.292
 31
0.0
 0
LINE
 8
M0
 6
DASHDOT
 10
192.377
 20
396.529
 30
0.0
 11
192.377
 21
412.055
 31
0.0
 0
CIRCLE
 8
M0
 10
192.377
 20
769.823
 30
0.0
 40
2.5
 0
LINE
 8
M0
 6
DASHDOT
 10
184.614
 20
769.823
 30
0.0
 11
200.14
 21
769.823
 31
0.0
 0
LINE
 8
M0
 6
DASHDOT
 10
192.377
 20
762.06
 30
0.0
 11
192.377
 21
777.586
 31
0.0
 0
CIRCLE
 8
M0
 10
227.377
 20
643.823
 30
0.0
 40
2.5
 0
LINE
 8
M0
 6
DASHDOT
 10
219.614
 20
643.823
 30
0.0
 11
235.14
 21
643.823
 31
0.0
 0
LINE
 8
M0
 6
DASHDOT
 10
227.377
 20
636.06
 30
0.0
 11
227.377
 21
651.586
 31
0.0
 0
LINE
 8
M0
 6
DASHDOT
 62
2
 10
165.364
 20
778.823
 30
0.0
 11
184.39
 21
778.823
 31
0.0
 0
LINE
 8
M0
 6
DASHDOT
 62
2
 10
174.877
 20
769.31
 30
0.0
 11
174.877
 21
788.336
 31
0.0
 0
LINE
 8
M0
 6
DASHDOT
 62
2
 10
209.877
 20
769.31
 30
0.0
 11
209.877
 21
788.336
 31
0.0
 0
LINE
 8
M0
 6
DASHDOT
 62
2
 10
200.364
 20
778.823
 30
0.0
 11
219.39
 21
778.823
 31
0.0
 0
LINE
 8
M0
 6
DASHDOT
 62
2
 10
254.39
 20
778.823
 30
0.0
 11
235.364
 21
778.823
 31
0.0
 0
LINE
 8
M0
 6
DASHDOT
 62
2
 10
244.877
 20
769.31
 30
0.0
 11
244.877
 21
788.336
 31
0.0
 0
LINE
 8
M0
 6
DASHDOT
 62
2
 10
244.877
 20
644.336
 30
0.0
 11
244.877
 21
625.31
 31
0.0
 0
LINE
 8
M0
 6
DASHDOT
 62
2
 10
254.39
 20
634.823
 30
0.0
 11
235.364
 21
634.823
 31
0.0
 0
LINE
 8
M0
 6
DASHDOT
 62
2
 10
209.877
 20
644.336
 30
0.0
 11
209.877
 21
625.31
 31
0.0
 0
LINE
 8
M0
 6
DASHDOT
 62
2
 10
200.364
 20
634.823
 30
0.0
 11
219.39
 21
634.823
 31
0.0
 0
LINE
 8
M0
 6
DASHDOT
 62
2
 10
174.877
 20
644.336
 30
0.0
 11
174.877
 21
625.31
 31
0.0
 0
LINE
 8
M0
 6
DASHDOT
 62
2
 10
165.364
 20
634.823
 30
0.0
 11
184.39
 21
634.823
 31
0.0
 0
LINE
 8
M0
 6
DASHDOT
 62
2
 10
431.216
 20
778.823
 30
0.0
 11
460.427
 21
778.823
 31
0.0
 0
LINE
 8
M0
 6
DASHED
 62
2
 10
444.216
 20
789.323
 30
0.0
 11
444.216
 21
770.416
 31
0.0
 0
LINE
 8
M0
 6
DASHDOT
 62
2
 10
431.216
 20
634.823
 30
0.0
 11
460.427
 21
634.823
 31
0.0
 0
LINE
 8
M0
 6
DASHED
 62
2
 10
444.216
 20
624.323
 30
0.0
 11
444.216
 21
643.23
 31
0.0
 0
LINE
 8
M0
 6
DASHED
 10
443.216
 20
774.073
 30
0.0
 11
443.216
 21
765.573
 31
0.0
 0
LINE
 8
M0
 6
DASHDOT
 10
436.82
 20
769.823
 30
0.0
 11
468.216
 21
769.823
 31
0.0
 0
LINE
 8
M0
 6
DASHED
 10
443.216
 20
639.573
 30
0.0
 11
443.216
 21
648.073
 31
0.0
 0
LINE
 8
M0
 6
DASHDOT
 10
436.82
 20
643.823
 30
0.0
 11
468.216
 21
643.823
 31
0.0
 0
LINE
 8
M0
 62
4
 10
202.377
 20
696.618
 30
0.0
 11
217.377
 21
696.618
 31
0.0
 0
LINE
 8
M0
 62
4
 10
217.377
 20
730.323
 30
0.0
 11
202.377
 21
730.323
 31
0.0
 0
LINE
 8
M0
 62
4
 10
202.377
 20
730.323
 30
0.0
 11
202.377
 21
696.618
 31
0.0
 0
LINE
 8
M0
 62
4
 10
217.377
 20
730.323
 30
0.0
 11
217.377
 21
696.618
 31
0.0
 0
LINE
 8
M0
 62
4
 10
217.377
 20
722.821
 30
0.0
 11
202.377
 21
722.821
 31
0.0
 0
LINE
 8
M0
 62
4
 10
262.377
 20
624.323
 30
0.0
 11
262.377
 21
789.323
 31
0.0
 0
LINE
 8
M0
 62
4
 10
262.377
 20
789.323
 30
0.0
 11
157.377
 21
789.323
 31
0.0
 0
LINE
 8
M0
 62
4
 10
157.377
 20
789.323
 30
0.0
 11
157.377
 21
624.323
 31
0.0
 0
LINE
 8
M0
 62
4
 10
157.377
 20
624.323
 30
0.0
 11
262.377
 21
624.323
 31
0.0
 0
LINE
 8
M0
 6
DASHDOT
 62
4
 10
144.219
 20
706.823
 30
0.0
 11
275.535
 21
706.823
 31
0.0
 0
LINE
 8
M0
 6
DASHDOT
 62
4
 10
209.877
 20
611.165
 30
0.0
 11
209.877
 21
802.481
 31
0.0
 0
LINE
 8
M0
 62
4
 10
201.127
 20
767.323
 30
0.0
 11
218.627
 21
767.323
 31
0.0
 0
LINE
 8
M0
 62
4
 10
221.627
 20
789.323
 30
0.0
 11
221.627
 21
770.323
 31
0.0
 0
LINE
 8
M0
 62
4
 10
198.127
 20
789.323
 30
0.0
 11
198.127
 21
770.323
 31
0.0
 0
ARC
 8
M0
 62
4
 10
201.127
 20
770.323
 30
0.0
 40
3.0
 50
180.0
 51
270.0
 0
ARC
 8
M0
 62
4
 10
218.627
 20
770.323
 30
0.0
 40
3.0
 50
270.0
 51
0.0
 0
LINE
 8
M0
 62
4
 10
253.627
 20
646.323
 30
0.0
 11
236.127
 21
646.323
 31
0.0
 0
LINE
 8
M0
 62
4
 10
233.127
 20
624.323
 30
0.0
 11
233.127
 21
643.323
 31
0.0
 0
LINE
 8
M0
 62
4
 10
256.627
 20
624.323
 30
0.0
 11
256.627
 21
643.323
 31
0.0
 0
ARC
 8
M0
 62
4
 10
253.627
 20
643.323
 30
0.0
 40
3.0
 50
0.0
 51
90.0
 0
ARC
 8
M0
 62
4
 10
236.127
 20
643.323
 30
0.0
 40
3.0
 50
90.0
 51
180.0
 0
LINE
 8
M0
 62
4
 10
201.127
 20
646.323
 30
0.0
 11
218.627
 21
646.323
 31
0.0
 0
LINE
 8
M0
 62
4
 10
221.627
 20
624.323
 30
0.0
 11
221.627
 21
643.323
 31
0.0
 0
LINE
 8
M0
 62
4
 10
198.127
 20
624.323
 30
0.0
 11
198.127
 21
643.323
 31
0.0
 0
ARC
 8
M0
 62
4
 10
201.127
 20
643.323
 30
0.0
 40
3.0
 50
90.0
 51
180.0
 0
ARC
 8
M0
 62
4
 10
218.627
 20
643.323
 30
0.0
 40
3.0
 50
0.0
 51
90.0
 0
LINE
 8
M0
 62
4
 10
166.127
 20
646.323
 30
0.0
 11
183.627
 21
646.323
 31
0.0
 0
LINE
 8
M0
 62
4
 10
186.627
 20
624.323
 30
0.0
 11
186.627
 21
643.323
 31
0.0
 0
LINE
 8
M0
 62
4
 10
163.127
 20
624.323
 30
0.0
 11
163.127
 21
643.323
 31
0.0
 0
ARC
 8
M0
 62
4
 10
166.127
 20
643.323
 30
0.0
 40
3.0
 50
90.0
 51
180.0
 0
ARC
 8
M0
 62
4
 10
183.627
 20
643.323
 30
0.0
 40
3.0
 50
0.0
 51
90.0
 0
LINE
 8
M0
 62
4
 10
258.877
 20
683.823
 30
0.0
 11
258.877
 21
729.823
 31
0.0
 0
LINE
 8
M0
 62
4
 10
256.877
 20
731.823
 30
0.0
 11
162.877
 21
731.823
 31
0.0
 0
LINE
 8
M0
 62
4
 10
160.877
 20
729.823
 30
0.0
 11
160.877
 21
683.823
 31
0.0
 0
LINE
 8
M0
 62
4
 10
162.877
 20
681.823
 30
0.0
 11
256.877
 21
681.823
 31
0.0
 0
ARC
 8
M0
 62
4
 10
256.877
 20
729.823
 30
0.0
 40
2.0
 50
0.0
 51
90.0
 0
ARC
 8
M0
 62
4
 10
162.877
 20
729.823
 30
0.0
 40
2.0
 50
90.0
 51
180.0
 0
ARC
 8
M0
 62
4
 10
162.877
 20
683.823
 30
0.0
 40
2.0
 50
180.0
 51
270.0
 0
ARC
 8
M0
 62
4
 10
256.877
 20
683.823
 30
0.0
 40
2.0
 50
270.0
 51
0.0
 0
ARC
 8
M0
 62
4
 10
218.877
 20
683.823
 30
0.0
 40
2.0
 50
270.0
 51
0.0
 0
ARC
 8
M0
 62
4
 10
200.877
 20
729.823
 30
0.0
 40
2.0
 50
90.0
 51
180.0
 0
ARC
 8
M0
 62
4
 10
218.877
 20
729.823
 30
0.0
 40
2.0
 50
0.0
 51
90.0
 0
LINE
 8
M0
 62
4
 10
220.877
 20
729.823
 30
0.0
 11
220.877
 21
683.823
 31
0.0
 0
LINE
 8
M0
 62
4
 10
198.877
 20
729.823
 30
0.0
 11
198.877
 21
683.823
 31
0.0
 0
ARC
 8
M0
 62
4
 10
200.877
 20
683.823
 30
0.0
 40
2.0
 50
180.0
 51
270.0
 0
LINE
 8
M0
 62
4
 10
166.127
 20
767.323
 30
0.0
 11
183.627
 21
767.323
 31
0.0
 0
LINE
 8
M0
 62
4
 10
186.627
 20
789.323
 30
0.0
 11
186.627
 21
770.323
 31
0.0
 0
LINE
 8
M0
 62
4
 10
163.127
 20
789.323
 30
0.0
 11
163.127
 21
770.323
 31
0.0
 0
ARC
 8
M0
 62
4
 10
166.127
 20
770.323
 30
0.0
 40
3.0
 50
180.0
 51
270.0
 0
ARC
 8
M0
 62
4
 10
183.627
 20
770.323
 30
0.0
 40
3.0
 50
270.0
 51
0.0
 0
LINE
 8
M0
 62
4
 10
253.627
 20
767.323
 30
0.0
 11
236.127
 21
767.323
 31
0.0
 0
LINE
 8
M0
 62
4
 10
233.127
 20
789.323
 30
0.0
 11
233.127
 21
770.323
 31
0.0
 0
LINE
 8
M0
 62
4
 10
256.627
 20
789.323
 30
0.0
 11
256.627
 21
770.323
 31
0.0
 0
ARC
 8
M0
 62
4
 10
253.627
 20
770.323
 30
0.0
 40
3.0
 50
270.0
 51
0.0
 0
ARC
 8
M0
 62
4
 10
236.127
 20
770.323
 30
0.0
 40
3.0
 50
180.0
 51
270.0
 0
CIRCLE
 8
M0
 62
4
 10
244.877
 20
778.823
 30
0.0
 40
4.25
 0
CIRCLE
 8
M0
 62
4
 10
209.877
 20
778.823
 30
0.0
 40
4.25
 0
CIRCLE
 8
M0
 62
4
 10
174.877
 20
778.823
 30
0.0
 40
4.25
 0
CIRCLE
 8
M0
 62
4
 10
174.877
 20
634.823
 30
0.0
 40
4.25
 0
CIRCLE
 8
M0
 62
4
 10
209.877
 20
634.823
 30
0.0
 40
4.25
 0
CIRCLE
 8
M0
 62
4
 10
244.877
 20
634.823
 30
0.0
 40
4.25
 0
LINE
 8
M0
 6
DASHDOT
 62
4
 10
144.848
 20
341.292
 30
0.0
 11
270.463
 21
341.292
 31
0.0
 0
LINE
 8
M0
 6
DASHDOT
 62
4
 10
209.877
 20
247.983
 30
0.0
 11
209.877
 21
435.179
 31
0.0
 0
LINE
 8
M0
 6
DASHDOT
 62
4
 10
262.377
 20
423.792
 30
0.0
 11
157.377
 21
423.792
 31
0.0
 0
LINE
 8
M0
 6
DASHDOT
 62
4
 10
157.377
 20
423.792
 30
0.0
 11
157.377
 21
258.792
 31
0.0
 0
LINE
 8
M0
 6
DASHDOT
 62
4
 10
262.377
 20
423.792
 30
0.0
 11
262.377
 21
258.792
 31
0.0
 0
LINE
 8
M0
 6
DASHDOT
 62
4
 10
157.377
 20
258.792
 30
0.0
 11
262.377
 21
258.792
 31
0.0
 0
LINE
 8
M0
 6
DASHDOT
 62
4
 10
415.716
 20
247.983
 30
0.0
 11
415.716
 21
435.179
 31
0.0
 0
LINE
 8
M0
 6
DASHDOT
 62
4
 10
350.687
 20
341.292
 30
0.0
 11
476.302
 21
341.292
 31
0.0
 0
LINE
 8
M0
 6
DASHDOT
 62
4
 10
468.216
 20
258.792
 30
0.0
 11
468.216
 21
423.792
 31
0.0
 0
LINE
 8
M0
 6
DASHDOT
 62
4
 10
468.216
 20
423.792
 30
0.0
 11
363.216
 21
423.792
 31
0.0
 0
LINE
 8
M0
 6
DASHDOT
 62
4
 10
363.216
 20
423.792
 30
0.0
 11
363.216
 21
258.792
 31
0.0
 0
LINE
 8
M0
 6
DASHDOT
 62
4
 10
363.216
 20
258.792
 30
0.0
 11
468.216
 21
258.792
 31
0.0
 0
INSERT
 8
DT0
 2
LIST0
 10
0.0
 20
0.0
 30
0.0
 0
ENDSEC
 0
EOF
