  0
SECTION
  2
HEADER
  9
$ACADVER
  1
AC1014
  9
$INSBASE
 10
0.000000
 20
0.000000
 30
0.0
  9
$VIEWCTR
 10
7.531722
 20
4.5
  9
$VIEWSIZE
 40
9.0
  9
$SNAPMODE
 70
     0
  9
$SNAPUNIT
 10
1.0
 20
1.0
  9
$SNAPBASE
 10
0.0
 20
0.0
  9
$SNAPANG
 50
0.0
  9
$SNAPSTYLE
 70
     0
  9
$SNAPISOPAIR
 70
     0
  9
$GRIDMODE
 70
     0
  9
$GRIDUNIT
 10
0.0
 20
0.0
  9
$ORTHOMODE
 70
     0
  9
$REGENMODE
 70
     1
  9
$FILLMODE
 70
     1
  9
$QTEXTMODE
 70
     0
  9
$DRAGMODE
 70
     2
  9
$LTSCALE
  40
     1.000000
  9
$OSMODE
 70
     0
  9
$ATTMODE
 70
     1
  9
$TEXTSIZE
 40
0.2
  9
$TRACEWID
 40
0.05
  9
$TEXTSTYLE
  7
STANDARD
  9
$CELTYPE
  6
BYLAYER
  9
$CECOLOR
 62
   256
  9
$DIMSCALE
 40
1.0
  9
$DIMASZ
 40
0.18
  9
$DIMEXO
 40
0.0625
  9
$DIMDLI
 40
0.38
  9
$DIMRND
 40
0.0
  9
$DIMDLE
 40
0.0
  9
$DIMEXE
 40
0.18
  9
$DIMTP
 40
0.0
  9
$DIMTM
 40
0.0
  9
$DIMTXT
 40
0.18
  9
$DIMCEN
 40
0.09
  9
$DIMTSZ
 40
0.0
  9
$DIMTOL
 70
     0
  9
$DIMLIM
 70
     0
  9
$DIMTIH
 70
     1
  9
$DIMTOH
 70
     1
  9
$DIMSE1
 70
     0
  9
$DIMSE2
 70
     0
  9
$DIMTAD
 70
     0
  9
$DIMZIN
 70
     0
  9
$DIMBLK
  1

  9
$LUNITS
 70
     2
  9
$LUPREC
 70
     4
  9
$AXISMODE
 70
     0
  9
$AXISUNIT
 10
0.0
 20
0.0
  9
$SKETCHINC
 40
0.1
  9
$FILLETRAD
 40
0.0
  9
$AUNITS
 70
     0
  9
$AUPREC
 70
     0
  9
$MENU
  1
ACAD
  9
$ELEVATION
 40
0.0
  9
$THICKNESS
 40
0.0
  9
$VIEWDIR
 10
0.0
 20
0.0
 30
1.0
  9
$LIMCHECK
 70
     0
  9
$BLIPMODE
 70
     1
  9
$CHAMFERA
 40
0.0
  9
$CHAMFERB
 40
0.0
  9
$FASTZOOM
 70
     1
  9
$SKPOLY
 70
     0
  9
$TDCREATE
 40
0000000.0000000000
  9
$TDUPDATE
 40
0000000.0000000000
  9
$TDINDWG
 40
0.0000000000
  9
$TDUSRTIMER
 40
0.0000000000
  9
$USRTIMER
 70
     1
  9
$ANGBASE
 50
0.0
  9
$ANGDIR
 70
     0
  9
$PDMODE
 70
     0
  9
$PDSIZE
 40
0.0
  9
$PLINEWID
 40
0.0
  9
$COORDS
 70
     0
  9
$USERI1
 70
     0
  9
$USERI2
 70
     0
  9
$USERI3
 70
     0
  9
$USERI4
 70
     0
  9
$USERI5
 70
     0
  9
$USERR1
 40
0.0
  9
$USERR2
 40
0.0
  9
$USERR3
 40
0.0
  9
$USERR4
 40
0.0
  9
$USERR5
 40
0.0
  9
$CLAYER
  8
M0
  9
$EXTMIN
 10
218.088868
 20
48.480105
  9
$EXTMAX
 10
858.092168
 20
1206.740631
  9
$LIMMIN
 10
0.0
 20
0.0
  9
$LIMMAX
 10
210.0
 20
297.0
  9
$HANDSEED
  5
14A
  0
ENDSEC
  0
SECTION
  2
CLASSES
  0
ENDSEC
  0
SECTION
  2
TABLES
  0
TABLE
  2
VPORT
  5
8
100
AcDbSymbolTable
 70
     2
  0
VPORT
  5
14
100
AcDbSymbolTableRecord
100
AcDbViewportTableRecord
  2
*ACTIVE
 70
     0
 10
0.0
 20
0.0
 11
1.0
 21
1.0
 12
484.0
 22
297.0
 13
0.0
 23
0.0
 14
1.0
 24
1.0
 15
0.0
 25
0.0
 16
0.0
 26
0.0
 36
1.0
 17
0.0
 27
0.0
 37
0.0
 40
594.0
 41
2.0
 42
50.0
 43
0.0
 44
0.0
 50
0.0
 51
0.0
 71
     0
 72
   100
 73
     1
 74
     1
 75
     0
 76
     0
 77
     0
 78
     0
  0
ENDTAB
  0
TABLE
  2
LTYPE
  5
5
100
AcDbSymbolTable
 70
     5
  0
LTYPE
  5
15
100
AcDbSymbolTableRecord
100
AcDbLinetypeTableRecord
  2
BYBLOCK
 70
     0
  3

 72
    65
 73
     0
 40
0.0
  0
LTYPE
  5
16
100
AcDbSymbolTableRecord
100
AcDbLinetypeTableRecord
  2
BYLAYER
 70
     0
  3

 72
    65
 73
     0
 40
0.0
  0
LTYPE
  5
17
100
AcDbSymbolTableRecord
100
AcDbLinetypeTableRecord
  2
CONTINUOUS
 70
    64
  3
Solid line
 72
    65
 73
     0
 40
0.0
  0
LTYPE
  5
18
100
AcDbSymbolTableRecord
100
AcDbLinetypeTableRecord
  2
DASHED
 70
    64
  3
__ __ __ __ __ __ __ __ __ __ __ __ __ __ __ __
 72
    65
 73
     2
 40
0.75
 49
0.5
 74
     0
 49
-0.25
 74
     0
  0
LTYPE
  5
19
100
AcDbSymbolTableRecord
100
AcDbLinetypeTableRecord
  2
DASHDOT
 70
    64
  3
__ . __ . __ . __ . __ . __ . __ . __ . __ . __
 72
    65
 73
     4
 40
1.0
 49
0.5
 74
     0
 49
-0.25
 74
     0
 49
0.0
 74
     0
 49
-0.25
 74
     0
  0
LTYPE
  5
1A
100
AcDbSymbolTableRecord
100
AcDbLinetypeTableRecord
  2
DIVIDE
 70
    64
  3
____ . . ____ . . ____ . . ____ . . ____ . . __
 72
    65
 73
     6
 40
1.25
 49
0.5
 74
     0
 49
-0.25
 74
     0
 49
0.0
 74
     0
 49
-0.25
 74
     0
 49
0.0
 74
     0
 49
-0.25
 74
     0
  0
LTYPE
  5
1B
100
AcDbSymbolTableRecord
100
AcDbLinetypeTableRecord
  2
DOT
 70
    64
  3
. . . . . . . . . . . . . . . . . . . . . . . .
 72
    65
 73
     2
 40
0.25
 49
0.0
 74
     0
 49
-0.25
 74
     0
  0
ENDTAB
  0
TABLE
  2
LAYER
  5
2
100
AcDbSymbolTable
 70
   102
  0
LAYER
  5
F
100
AcDbSymbolTableRecord
100
AcDbLayerTableRecord
  2
0
 70
     0
 62
     7
  6
CONTINUOUS
  0
LAYER
  5
1C
100
AcDbSymbolTableRecord
100
AcDbLayerTableRecord
  2
DEFPOINTS
 70
     0
 62
     7
  6
CONTINUOUS
  0
LAYER
  5
1D
100
AcDbSymbolTableRecord
100
AcDbLayerTableRecord
  2
M0
 70
     0
 62
     3
  6
CONTINUOUS
  0
LAYER
  5
1E
100
AcDbSymbolTableRecord
100
AcDbLayerTableRecord
  2
DT0
 70
     0
 62
     7
  6
CONTINUOUS
  0
ENDTAB
  0
TABLE
  2
STYLE
  5
3
100
AcDbSymbolTable
 70
     2
  0
STYLE
  5
10
100
AcDbSymbolTableRecord
100
AcDbTextStyleTableRecord
  2
STANDARD
 70
     0
 40
0.0
 41
1.0
 50
0.0
 71
     0
 42
0.2
  3
txt
  4
BIGFONT
  0
ENDTAB
  0
TABLE
  2
VIEW
  5
6
100
AcDbSymbolTable
 70
     0
  0
ENDTAB
  0
TABLE
  2
UCS
  5
7
100
AcDbSymbolTable
 70
     0
  0
ENDTAB
  0
TABLE
  2
APPID
  5
9
100
AcDbSymbolTable
 70
     1
  0
APPID
  5
11
100
AcDbSymbolTableRecord
100
AcDbRegAppTableRecord
  2
ACAD
 70
     0
  0
ENDTAB
  0
TABLE
  2
DIMSTYLE
  5
A
100
AcDbSymbolTable
 70
     2
  0
DIMSTYLE
105
25
100
AcDbSymbolTableRecord
100
AcDbDimStyleTableRecord
  2
STANDARD
 70
     0
  3

  4

  5

  6
_OPEN
  7
_OPEN
 40
1.0
 41
15.0
 42
1.0
 43
8.0
 44
1.0
 45
0.0
 46
0.0
 47
0.0
 48
0.0
140
12.5
141
0.09
142
0.0
143
0.03937
144
1.0
145
0.0
146
1.0
147
0.6
 71
     0
 72
     0
 73
     1
 74
     1
 75
     0
 76
     0
 77
     3
 78
     8
170
     0
171
     2
172
     0
173
     1
174
     0
175
     0
176
     0
177
     0
178
     0
270
     2
271
     2
272
     4
273
     2
274
     2
340
10
275
     0
280
     0
281
     0
282
     0
283
     1
284
     0
285
     0
286
     0
287
     3
288
     0
  0
DIMSTYLE
105
26
100
AcDbSymbolTableRecord
100
AcDbDimStyleTableRecord
  2
LEADSTYL
 70
     0
  3

  4

  5

  6
_OPEN
  7
_OPEN
 40
1.0
 41
15.0
 42
0.0625
 43
0.38
 44
0.18
 45
0.0
 46
0.0
 47
0.0
 48
0.0
140
15.749998
141
0.09
142
0.0
143
25.4
144
1.0
145
0.0
146
1.0
147
0.6
 71
     0
 72
     0
 73
     1
 74
     1
 75
     0
 76
     0
 77
     0
 78
     0
170
     0
171
     2
172
     0
173
     1
174
     0
175
     0
176
     0
177
     0
178
     0
270
     2
271
     4
272
     4
273
     2
274
     2
340
10
275
     0
280
     0
281
     0
282
     0
283
     1
284
     0
285
     0
286
     0
287
     3
288
     0
  0
ENDTAB
  0
TABLE
  2
BLOCK_RECORD
  5
1
100
AcDbSymbolTable
 70
     7
  0
BLOCK_RECORD
  5
1F
100
AcDbSymbolTableRecord
100
AcDbBlockTableRecord
  2
*MODEL_SPACE
  0
BLOCK_RECORD
  5
22
100
AcDbSymbolTableRecord
100
AcDbBlockTableRecord
  2
*PAPER_SPACE
  0
BLOCK_RECORD
  5
27
100
AcDbSymbolTableRecord
100
AcDbBlockTableRecord
  2
_NONE
  0
BLOCK_RECORD
  5
2B
100
AcDbSymbolTableRecord
100
AcDbBlockTableRecord
  2
_OPEN
  0
BLOCK_RECORD
  5
31
100
AcDbSymbolTableRecord
100
AcDbBlockTableRecord
  2
_CLOSED
  0
BLOCK_RECORD
  5
38
100
AcDbSymbolTableRecord
100
AcDbBlockTableRecord
  2
_ORIGIN
  0
BLOCK_RECORD
  5
3D
100
AcDbSymbolTableRecord
100
AcDbBlockTableRecord
  2
_DOT
  0
BLOCK_RECORD
  5
45
100
AcDbSymbolTableRecord
100
AcDbBlockTableRecord
  2
_OBLIQUE
  0
BLOCK_RECORD
  5
125
100
AcDbSymbolTableRecord
100
AcDbBlockTableRecord
  2
LIST0
  0
ENDTAB
  0
ENDSEC
  0
SECTION
  2
BLOCKS
  0
BLOCK
  5
20
100
AcDbEntity
  8
0
100
AcDbBlockBegin
  2
*MODEL_SPACE
 70
     0
 10
0.0
 20
0.0
 30
0.0
  3
*MODEL_SPACE
  1

  0
ENDBLK
  5
21
100
AcDbEntity
  8
0
100
AcDbBlockEnd
  0
BLOCK
  5
23
100
AcDbEntity
 67
     1
  8
0
100
AcDbBlockBegin
  2
*PAPER_SPACE
 70
     0
 10
0.0
 20
0.0
 30
0.0
  3
*PAPER_SPACE
  1

  0
ENDBLK
  5
24
100
AcDbEntity
 67
     1
  8
0
100
AcDbBlockEnd
  0
BLOCK
  5
28
100
AcDbEntity
  8
0
100
AcDbBlockBegin
  2
_NONE
 70
     0
 10
0.0
 20
0.0
  0
CIRCLE
  5
29
100
AcDbEntity
  8
0
 62
     0
100
AcDbCircle
 10
0.0
 20
0.0
 40
0.25
  0
ENDBLK
  5
2A
100
AcDbEntity
  8
0
100
AcDbBlockEnd
  0
BLOCK
  5
2C
100
AcDbEntity
  8
0
100
AcDbBlockBegin
  2
_OPEN
 70
     0
 10
0.0
 20
0.0
  0
LINE
  5
2D
100
AcDbEntity
  8
0
 62
     0
100
AcDbLine
 10
-0.965926
 20
0.25882
 11
0.0
 21
0.0
  0
LINE
  5
2E
100
AcDbEntity
  8
0
 62
     0
100
AcDbLine
 10
0.0
 20
0.0
 11
-0.965926
 21
-0.25882
  0
LINE
  5
2F
100
AcDbEntity
  8
0
 62
     0
100
AcDbLine
 10
0.0
 20
0.0
 11
-1.0
 21
0.0
  0
ENDBLK
  5
30
100
AcDbEntity
  8
0
100
AcDbBlockEnd
  0
BLOCK
  5
32
100
AcDbEntity
  8
0
100
AcDbBlockBegin
  2
_CLOSED
 70
     0
 10
0.0
 20
0.0
  0
LINE
  5
33
100
AcDbEntity
  8
0
 62
     0
100
AcDbLine
 10
-0.965926
 20
0.25882
 11
0.0
 21
0.0
  0
LINE
  5
34
100
AcDbEntity
  8
0
 62
     0
100
AcDbLine
 10
0.0
 20
0.0
 11
-0.965926
 21
-0.25882
  0
LINE
  5
35
100
AcDbEntity
  8
0
 62
     0
100
AcDbLine
 10
-0.965926
 20
0.25882
 11
-0.965926
 21
-0.25882
  0
LINE
  5
36
100
AcDbEntity
  8
0
 62
     0
100
AcDbLine
 10
0.0
 20
0.0
 11
-1.0
 21
0.0
  0
ENDBLK
  5
37
100
AcDbEntity
  8
0
100
AcDbBlockEnd
  0
BLOCK
  5
39
100
AcDbEntity
  8
0
100
AcDbBlockBegin
  2
_ORIGIN
 70
     0
 10
0.0
 20
0.0
  0
CIRCLE
  5
3A
100
AcDbEntity
  8
0
 62
     0
100
AcDbCircle
 10
0.0
 20
0.0
 40
0.5
  0
LINE
  5
3B
100
AcDbEntity
  8
0
 62
     0
100
AcDbLine
 10
0.0
 20
0.0
 11
-1.0
 21
0.0
  0
ENDBLK
  5
3C
100
AcDbEntity
  8
0
100
AcDbBlockEnd
  0
BLOCK
  5
3E
100
AcDbEntity
  8
0
100
AcDbBlockBegin
  2
_DOT
 70
     0
 10
0.0
 20
0.0
  0
POLYLINE
  5
3F
100
AcDbEntity
  8
0
 62
     0
100
AcDb2dPolyline
 66
     1
 70
     1
 40
0.5
 41
0.5
  0
VERTEX
  5
40
100
AcDbEntity
  8
0
 62
     0
100
AcDbVertex
100
AcDb2dVertex
 10
-0.25
 20
0.0
 42
1.0
  0
VERTEX
  5
41
100
AcDbEntity
  8
0
 62
     0
100
AcDbVertex
100
AcDb2dVertex
 10
0.25
 20
0.0
 42
1.0
  0
SEQEND
  5
42
100
AcDbEntity
  8
0
 62
     0
  0
LINE
  5
43
100
AcDbEntity
  8
0
 62
     0
100
AcDbLine
 10
-0.5
 20
0.0
 11
-1.0
 21
0.0
  0
ENDBLK
  5
44
100
AcDbEntity
  8
0
100
AcDbBlockEnd
  0
BLOCK
  5
46
100
AcDbEntity
  8
0
100
AcDbBlockBegin
  2
_OBLIQUE
 70
     0
 10
0.0
 20
0.0
  0
LINE
  5
47
100
AcDbEntity
  8
0
 62
     0
100
AcDbLine
 10
-0.353553
 20
-0.353553
 11
0.353553
 21
0.353553
  0
ENDBLK
  5
48
100
AcDbEntity
  8
0
100
AcDbBlockEnd
  0
BLOCK
  5
126
100
AcDbEntity
  8
DT0
100
AcDbBlockBegin
  2
LIST0
 70
     0
 10
0.0
 20
0.0
  0
LINE
  5
127
100
AcDbEntity
  8
DT0
100
AcDbLine
 10
652.844
 20
130.980108
 11
652.844
 21
48.480105
  0
LINE
  5
128
100
AcDbEntity
  8
DT0
100
AcDbLine
 10
242.843987
 20
130.980108
 11
242.843987
 21
48.480105
  0
LINE
  5
129
100
AcDbEntity
  8
DT0
100
AcDbLine
 10
242.843987
 20
48.480105
 11
652.844
 21
48.480105
  0
LINE
  5
12A
100
AcDbEntity
  8
DT0
100
AcDbLine
 10
242.843987
 20
130.980108
 11
652.844
 21
130.980108
  0
LINE
  5
12B
100
AcDbEntity
  8
DT0
100
AcDbLine
 10
557.844001
 20
103.480109
 11
557.844001
 21
130.980108
  0
LINE
  5
12C
100
AcDbEntity
  8
DT0
100
AcDbLine
 10
302.843986
 20
103.480109
 11
557.844001
 21
103.480109
  0
TEXT
  5
12D
100
AcDbEntity
  8
DT0
100
AcDbText
 10
308.885652
 20
110.980109
 40
12.5
  1
Ｓｘ６００３Ｐ
 41
0.833333
  7
STANDARD
100
AcDbText
  0
LINE
  5
12E
100
AcDbEntity
  8
DT0
 60
     1
100
AcDbLine
 10
602.843962
 20
103.480109
 11
602.843962
 21
130.980108
  0
LINE
  5
12F
100
AcDbEntity
  8
DT0
100
AcDbLine
 10
557.844001
 20
103.480109
 11
602.843962
 21
103.480109
  0
TEXT
  5
130
100
AcDbEntity
  8
DT0
100
AcDbText
 10
563.702342
 20
110.980109
 40
12.5
  1
ＲＥＶ．：
 41
0.666667
  7
STANDARD
100
AcDbText
  0
LINE
  5
131
100
AcDbEntity
  8
DT0
 60
     1
100
AcDbLine
 10
652.844
 20
103.480109
 11
652.844
 21
130.980108
  0
LINE
  5
132
100
AcDbEntity
  8
DT0
100
AcDbLine
 10
602.843962
 20
103.480109
 11
652.844
 21
103.480109
  0
TEXT
  5
133
100
AcDbEntity
  8
DT0
100
AcDbText
 10
623.885629
 20
110.980109
 40
12.5
  1
００
 41
0.833333
  7
STANDARD
100
AcDbText
  0
LINE
  5
134
100
AcDbEntity
  8
DT0
 60
     1
100
AcDbLine
 10
302.843986
 20
103.480109
 11
302.843986
 21
130.980108
  0
LINE
  5
135
100
AcDbEntity
  8
DT0
100
AcDbLine
 10
242.843987
 20
103.480109
 11
302.843986
 21
103.480109
  0
TEXT
  5
136
100
AcDbEntity
  8
DT0
100
AcDbText
 10
248.885653
 20
110.980109
 40
12.5
  1
登録名：
 41
0.833333
  7
STANDARD
100
AcDbText
  0
LINE
  5
137
100
AcDbEntity
  8
DT0
 60
     1
100
AcDbLine
 10
652.844
 20
75.980104
 11
652.844
 21
103.480109
  0
LINE
  5
138
100
AcDbEntity
  8
DT0
100
AcDbLine
 10
602.843962
 20
75.980104
 11
652.844
 21
75.980104
  0
LINE
  5
139
100
AcDbEntity
  8
DT0
 60
     1
100
AcDbLine
 10
602.843962
 20
75.980104
 11
602.843962
 21
103.480109
  0
LINE
  5
13A
100
AcDbEntity
  8
DT0
100
AcDbLine
 10
302.843986
 20
75.980104
 11
602.843962
 21
75.980104
  0
TEXT
  5
13B
100
AcDbEntity
  8
DT0
100
AcDbText
 10
308.885652
 20
83.480109
 40
12.5
  1
表面形
 41
0.833333
  7
STANDARD
100
AcDbText
  0
LINE
  5
13C
100
AcDbEntity
  8
DT0
 60
     1
100
AcDbLine
 10
302.843986
 20
75.980104
 11
302.843986
 21
103.480109
  0
LINE
  5
13D
100
AcDbEntity
  8
DT0
100
AcDbLine
 10
242.843987
 20
75.980104
 11
302.843986
 21
75.980104
  0
TEXT
  5
13E
100
AcDbEntity
  8
DT0
100
AcDbText
 10
246.281484
 20
83.480109
 40
12.5
  1
接続方式：
 41
0.75
  7
STANDARD
100
AcDbText
  0
LINE
  5
13F
100
AcDbEntity
  8
DT0
 60
     1
100
AcDbLine
 10
652.844
 20
48.480105
 11
652.844
 21
75.980104
  0
LINE
  5
140
100
AcDbEntity
  8
DT0
 60
     1
100
AcDbLine
 10
602.843962
 20
48.480105
 11
652.844
 21
48.480105
  0
LINE
  5
141
100
AcDbEntity
  8
DT0
 60
     1
100
AcDbLine
 10
602.843962
 20
48.480105
 11
602.843962
 21
75.980104
  0
LINE
  5
142
100
AcDbEntity
  8
DT0
 60
     1
100
AcDbLine
 10
302.843986
 20
48.480105
 11
602.843962
 21
48.480105
  0
TEXT
  5
143
100
AcDbEntity
  8
DT0
100
AcDbText
 10
308.781483
 20
55.980105
 40
12.5
  1
ＳＸ６００／ＦＸ６００
 41
0.75
  7
STANDARD
100
AcDbText
  0
LINE
  5
144
100
AcDbEntity
  8
DT0
 60
     1
100
AcDbLine
 10
302.843986
 20
48.480105
 11
302.843986
 21
75.980104
  0
LINE
  5
145
100
AcDbEntity
  8
DT0
 60
     1
100
AcDbLine
 10
242.843987
 20
48.480105
 11
302.843986
 21
48.480105
  0
TEXT
  5
146
100
AcDbEntity
  8
DT0
100
AcDbText
 10
246.281484
 20
55.980105
 40
12.5
  1
適用形式：
 41
0.75
  7
STANDARD
100
AcDbText
  0
ENDBLK
  5
147
100
AcDbEntity
  8
DT0
100
AcDbBlockEnd
  0
ENDSEC
  0
SECTION
  2
ENTITIES
  0
CIRCLE
  5
49
100
AcDbEntity
  8
M0
100
AcDbCircle
 10
313.088867
 20
245.299805
 40
3.499993
  0
CIRCLE
  5
4A
100
AcDbEntity
  8
M0
100
AcDbCircle
 10
383.088867
 20
245.299805
 40
3.499993
  0
CIRCLE
  5
4B
100
AcDbEntity
  8
M0
100
AcDbCircle
 10
313.088867
 20
488.299805
 40
3.499993
  0
CIRCLE
  5
4C
100
AcDbEntity
  8
M0
100
AcDbCircle
 10
383.088867
 20
488.299805
 40
3.499993
  0
LINE
  5
4D
100
AcDbEntity
  8
M0
  6
DASHDOT
100
AcDbLine
 10
369.588874
 20
245.299805
 11
396.58886
 21
245.299805
  0
LINE
  5
4E
100
AcDbEntity
  8
M0
  6
DASHDOT
100
AcDbLine
 10
383.088867
 20
231.799812
 11
383.088867
 21
258.799798
  0
LINE
  5
4F
100
AcDbEntity
  8
M0
  6
DASHDOT
100
AcDbLine
 10
299.588874
 20
245.299805
 11
326.58886
 21
245.299805
  0
LINE
  5
50
100
AcDbEntity
  8
M0
  6
DASHDOT
100
AcDbLine
 10
313.088867
 20
231.799812
 11
313.088867
 21
258.799798
  0
LINE
  5
51
100
AcDbEntity
  8
M0
  6
DASHDOT
100
AcDbLine
 10
299.588874
 20
488.299805
 11
326.58886
 21
488.299805
  0
LINE
  5
52
100
AcDbEntity
  8
M0
  6
DASHDOT
100
AcDbLine
 10
313.088867
 20
474.799812
 11
313.088867
 21
501.799798
  0
LINE
  5
53
100
AcDbEntity
  8
M0
  6
DASHDOT
100
AcDbLine
 10
369.588874
 20
488.299805
 11
396.58886
 21
488.299805
  0
LINE
  5
54
100
AcDbEntity
  8
M0
  6
DASHDOT
100
AcDbLine
 10
383.088867
 20
474.799812
 11
383.088867
 21
501.799798
  0
LINE
  5
55
100
AcDbEntity
  8
M0
 62
     4
100
AcDbLine
 10
736.592
 20
926.237732
 11
729.692008
 21
926.237732
  0
LINE
  5
56
100
AcDbEntity
  8
M0
 62
     4
100
AcDbLine
 10
729.692008
 20
931.237725
 11
729.692008
 21
926.237732
  0
LINE
  5
57
100
AcDbEntity
  8
M0
 62
     4
100
AcDbLine
 10
695.890265
 20
1010.383792
 11
699.837424
 21
1021.228523
  0
LINE
  5
58
100
AcDbEntity
  8
M0
 62
     4
100
AcDbLine
 10
723.092199
 20
1014.337014
 11
701.09975
 21
1021.833027
  0
LINE
  5
59
100
AcDbEntity
  8
M0
 62
     4
100
AcDbLine
 10
723.092199
 20
998.794176
 11
696.468695
 21
1009.109308
  0
ARC
  5
5A
100
AcDbEntity
  8
M0
 62
     4
100
AcDbCircle
 10
696.829957
 20
1010.041772
 40
1.0
100
AcDbArc
 50
160.0
 51
248.822283
  0
ARC
  5
5B
100
AcDbEntity
  8
M0
 62
     4
100
AcDbCircle
 10
700.777117
 20
1020.886503
 40
1.0
100
AcDbArc
 50
71.177717
 51
160.000055
  0
LINE
  5
5C
100
AcDbEntity
  8
M0
 62
     4
100
AcDbLine
 10
833.092168
 20
852.737793
 11
768.092336
 21
852.737793
  0
LINE
  5
5D
100
AcDbEntity
  8
M0
 62
     4
100
AcDbLine
 10
833.092168
 20
852.737793
 11
833.092168
 21
1126.737793
  0
LINE
  5
5E
100
AcDbEntity
  8
M0
 62
     4
100
AcDbLine
 10
768.092
 20
1126.737793
 11
833.092168
 21
1126.737793
  0
LINE
  5
5F
100
AcDbEntity
  8
M0
 62
     4
100
AcDbLine
 10
798.092168
 20
1206.740631
 11
798.092168
 21
1126.737793
  0
LINE
  5
60
100
AcDbEntity
  8
M0
 62
     4
100
AcDbLine
 10
791.592168
 20
1206.740528
 11
791.592168
 21
1126.737793
  0
LINE
  5
61
100
AcDbEntity
  8
M0
 62
     4
100
AcDbLine
 10
791.592168
 20
1206.740528
 11
798.092168
 21
1206.740631
  0
LINE
  5
62
100
AcDbEntity
  8
M0
 62
     4
100
AcDbLine
 10
798.092168
 20
772.737793
 11
798.092168
 21
852.737793
  0
LINE
  5
63
100
AcDbEntity
  8
M0
 62
     4
100
AcDbLine
 10
791.592168
 20
772.737793
 11
791.592168
 21
852.737793
  0
LINE
  5
64
100
AcDbEntity
  8
M0
 62
     4
100
AcDbLine
 10
798.092168
 20
772.737793
 11
791.592168
 21
772.737793
  0
LINE
  5
65
100
AcDbEntity
  8
M0
 62
     4
100
AcDbLine
 10
732.592
 20
878.737747
 11
739.592
 21
878.737747
  0
ARC
  5
66
100
AcDbEntity
  8
M0
 62
     4
100
AcDbCircle
 10
732.592
 20
881.237747
 40
2.5
100
AcDbArc
 50
179.99965
 51
270.0
  0
LINE
  5
67
100
AcDbEntity
  8
M0
 62
     4
100
AcDbLine
 10
739.592
 20
878.737747
 11
739.592
 21
853.737732
  0
LINE
  5
68
100
AcDbEntity
  8
M0
 62
     4
100
AcDbLine
 10
740.592
 20
852.737732
 11
768.092
 21
852.737732
  0
ARC
  5
69
100
AcDbEntity
  8
M0
 62
     4
100
AcDbCircle
 10
740.592
 20
853.737732
 40
1.0
100
AcDbArc
 50
179.999126
 51
270.0
  0
LINE
  5
6A
100
AcDbEntity
  8
M0
 62
     4
100
AcDbLine
 10
768.092
 20
852.737732
 11
768.092
 21
1126.737793
  0
LINE
  5
6B
100
AcDbEntity
  8
M0
 62
     4
100
AcDbLine
 10
732.392
 20
1052.237732
 11
736.792
 21
1052.237732
  0
LINE
  5
6C
100
AcDbEntity
  8
M0
 62
     4
100
AcDbLine
 10
740.592
 20
1126.737793
 11
768.092
 21
1126.737793
  0
LINE
  5
6D
100
AcDbEntity
  8
M0
 62
     4
100
AcDbLine
 10
736.792
 20
1099.737732
 11
736.792
 21
1052.237732
  0
LINE
  5
6E
100
AcDbEntity
  8
M0
 62
     4
100
AcDbLine
 10
730.092
 20
926.237732
 11
730.092
 21
881.237747
  0
LINE
  5
6F
100
AcDbEntity
  8
M0
 62
     4
100
AcDbLine
 10
726.692
 20
944.737732
 11
725.092031
 21
944.737732
  0
LINE
  5
70
100
AcDbEntity
  8
M0
 62
     4
100
AcDbLine
 10
726.692
 20
1034.737732
 11
725.092031
 21
1034.737732
  0
LINE
  5
71
100
AcDbEntity
  8
M0
 62
     4
100
AcDbLine
 10
723.092031
 20
1032.737732
 11
723.092031
 21
946.737732
  0
LINE
  5
72
100
AcDbEntity
  8
M0
 62
     4
100
AcDbLine
 10
736.592
 20
926.237732
 11
730.092
 21
926.237732
  0
LINE
  5
73
100
AcDbEntity
  8
M0
 62
     4
100
AcDbLine
 10
737.792
 20
1100.737732
 11
739.592
 21
1100.737732
  0
LINE
  5
74
100
AcDbEntity
  8
M0
 62
     4
100
AcDbLine
 10
739.592
 20
1125.737793
 11
739.592
 21
1100.737732
  0
ARC
  5
75
100
AcDbEntity
  8
M0
 62
     4
100
AcDbCircle
 10
737.792
 20
1099.737732
 40
1.0
100
AcDbArc
 50
90.0
 51
180.0
  0
ARC
  5
76
100
AcDbEntity
  8
M0
 62
     4
100
AcDbCircle
 10
740.592
 20
1125.737793
 40
1.0
100
AcDbArc
 50
90.0
 51
180.0
  0
ARC
  5
77
100
AcDbEntity
  8
M0
 62
     4
100
AcDbCircle
 10
725.092031
 20
1032.737732
 40
2.0
100
AcDbArc
 50
90.0
 51
180.0
  0
ARC
  5
78
100
AcDbEntity
  8
M0
 62
     4
100
AcDbCircle
 10
725.092031
 20
946.737732
 40
2.0
100
AcDbArc
 50
180.0
 51
270.0
  0
LINE
  5
79
100
AcDbEntity
  8
M0
  6
DASHDOT
 62
     4
100
AcDbLine
 10
676.551209
 20
989.737793
 11
858.092168
 21
989.737793
  0
LINE
  5
7A
100
AcDbEntity
  8
M0
 62
     4
100
AcDbLine
 10
729.692
 20
1049.737847
 11
729.692
 21
926.237732
  0
LINE
  5
7B
100
AcDbEntity
  8
M0
 62
     4
100
AcDbLine
 10
726.092
 20
1033.737732
 11
726.092
 21
945.737732
  0
LINE
  5
7C
100
AcDbEntity
  8
M0
 62
     4
100
AcDbLine
 10
729.192
 20
1034.737732
 11
726.692
 21
1034.737732
  0
LINE
  5
7D
100
AcDbEntity
  8
M0
 62
     4
100
AcDbLine
 10
729.192
 20
944.737732
 11
726.692
 21
944.737732
  0
LINE
  5
7E
100
AcDbEntity
  8
M0
 62
     4
100
AcDbLine
 10
729.692
 20
926.237732
 11
736.492
 21
926.237732
  0
LINE
  5
7F
100
AcDbEntity
  8
M0
 62
     4
100
AcDbLine
 10
736.492
 20
1052.237847
 11
736.492
 21
926.237732
  0
LINE
  5
80
100
AcDbEntity
  8
M0
 62
     4
100
AcDbLine
 10
736.492
 20
1052.237847
 11
732.192
 21
1052.237847
  0
ARC
  5
81
100
AcDbEntity
  8
M0
 62
     4
100
AcDbCircle
 10
732.192
 20
1049.737847
 40
2.5
100
AcDbArc
 50
90.0
 51
180.0
  0
ARC
  5
82
100
AcDbEntity
  8
M0
 62
     4
100
AcDbCircle
 10
726.692
 20
945.737732
 40
1.0
100
AcDbArc
 50
180.0
 51
270.0
  0
ARC
  5
83
100
AcDbEntity
  8
M0
 62
     4
100
AcDbCircle
 10
726.692
 20
1033.737732
 40
1.0
100
AcDbArc
 50
90.0
 51
180.0
  0
ARC
  5
84
100
AcDbEntity
  8
M0
 62
     4
100
AcDbCircle
 10
729.192
 20
944.237732
 40
0.5
100
AcDbArc
 50
0.0
 51
90.0
  0
ARC
  5
85
100
AcDbEntity
  8
M0
 62
     4
100
AcDbCircle
 10
729.192
 20
1035.237732
 40
0.5
100
AcDbArc
 50
-90.0
 51
0.0
  0
LINE
  5
86
100
AcDbEntity
  8
M0
 62
     4
100
AcDbLine
 10
802.092168
 20
1126.737793
 11
802.092168
 21
1126.737549
  0
LINE
  5
87
100
AcDbEntity
  8
M0
  6
DASHDOT
 62
     2
100
AcDbLine
 10
803.460431
 20
1151.740715
 11
781.078103
 21
1151.740363
  0
LINE
  5
88
100
AcDbEntity
  8
M0
  6
DASHDOT
 62
     2
100
AcDbLine
 10
791.592168
 20
1158.490528
 11
791.592168
 21
1144.990528
  0
LINE
  5
89
100
AcDbEntity
  8
M0
  6
DASHDOT
 62
     2
100
AcDbLine
 10
781.077599
 20
1183.740363
 11
803.459927
 21
1183.740715
  0
LINE
  5
8A
100
AcDbEntity
  8
M0
  6
DASHDOT
 62
     2
100
AcDbLine
 10
791.592168
 20
1198.490528
 11
791.592168
 21
1176.990528
  0
LINE
  5
8B
100
AcDbEntity
  8
M0
  6
DASHDOT
 62
     2
100
AcDbLine
 10
781.077473
 20
1191.740363
 11
803.459801
 21
1191.740715
  0
LINE
  5
8C
100
AcDbEntity
  8
M0
  6
DASHDOT
 62
     2
100
AcDbLine
 10
803.460431
 20
827.734871
 11
781.078103
 21
827.735223
  0
LINE
  5
8D
100
AcDbEntity
  8
M0
  6
DASHDOT
 62
     2
100
AcDbLine
 10
791.592168
 20
820.985058
 11
791.592168
 21
834.485058
  0
LINE
  5
8E
100
AcDbEntity
  8
M0
  6
DASHDOT
 62
     2
100
AcDbLine
 10
781.077599
 20
795.735223
 11
803.459927
 21
795.734871
  0
LINE
  5
8F
100
AcDbEntity
  8
M0
  6
DASHDOT
 62
     2
100
AcDbLine
 10
791.592168
 20
780.985058
 11
791.592168
 21
802.485058
  0
LINE
  5
90
100
AcDbEntity
  8
M0
  6
DASHDOT
 62
     2
100
AcDbLine
 10
781.077473
 20
787.735223
 11
803.459801
 21
787.734871
  0
LINE
  5
91
100
AcDbEntity
  8
M0
  6
DASHED
100
AcDbLine
 10
802.092168
 20
1117.737061
 11
802.092168
 21
1104.737061
  0
LINE
  5
92
100
AcDbEntity
  8
M0
  6
DASHDOT
100
AcDbLine
 10
781.318933
 20
1111.237061
 11
833.092168
 21
1111.237061
  0
LINE
  5
93
100
AcDbEntity
  8
M0
  6
DASHED
100
AcDbLine
 10
802.092168
 20
861.738525
 11
802.092168
 21
874.738525
  0
LINE
  5
94
100
AcDbEntity
  8
M0
  6
DASHDOT
100
AcDbLine
 10
781.318933
 20
868.238525
 11
833.092168
 21
868.238525
  0
LINE
  5
95
100
AcDbEntity
  8
M0
  6
DASHDOT
 62
     2
100
AcDbLine
 10
278.088654
 20
1138.737534
 11
278.088654
 21
1164.737534
  0
LINE
  5
96
100
AcDbEntity
  8
M0
  6
DASHDOT
 62
     2
100
AcDbLine
 10
265.088654
 20
1151.737534
 11
291.088654
 21
1151.737534
  0
LINE
  5
97
100
AcDbEntity
  8
M0
  6
DASHDOT
 62
     2
100
AcDbLine
 10
265.088654
 20
1183.737534
 11
291.088654
 21
1183.737534
  0
LINE
  5
98
100
AcDbEntity
  8
M0
  6
DASHDOT
 62
     2
100
AcDbLine
 10
265.088654
 20
1191.737534
 11
291.088654
 21
1191.737534
  0
LINE
  5
99
100
AcDbEntity
  8
M0
  6
DASHDOT
 62
     2
100
AcDbLine
 10
278.088654
 20
1170.653253
 11
278.088654
 21
1204.737534
  0
LINE
  5
9A
100
AcDbEntity
  8
M0
  6
DASHDOT
 62
     2
100
AcDbLine
 10
348.089081
 20
1138.737534
 11
348.089081
 21
1164.737534
  0
LINE
  5
9B
100
AcDbEntity
  8
M0
  6
DASHDOT
 62
     2
100
AcDbLine
 10
335.089081
 20
1151.737534
 11
361.089081
 21
1151.737534
  0
LINE
  5
9C
100
AcDbEntity
  8
M0
  6
DASHDOT
 62
     2
100
AcDbLine
 10
335.089081
 20
1183.737534
 11
361.089081
 21
1183.737534
  0
LINE
  5
9D
100
AcDbEntity
  8
M0
  6
DASHDOT
 62
     2
100
AcDbLine
 10
335.089081
 20
1191.737534
 11
361.089081
 21
1191.737534
  0
LINE
  5
9E
100
AcDbEntity
  8
M0
  6
DASHDOT
 62
     2
100
AcDbLine
 10
348.089081
 20
1170.653253
 11
348.089081
 21
1204.737534
  0
LINE
  5
9F
100
AcDbEntity
  8
M0
  6
DASHDOT
 62
     2
100
AcDbLine
 10
418.089081
 20
1138.737534
 11
418.089081
 21
1164.737534
  0
LINE
  5
A0
100
AcDbEntity
  8
M0
  6
DASHDOT
 62
     2
100
AcDbLine
 10
405.089081
 20
1151.737534
 11
431.089081
 21
1151.737534
  0
LINE
  5
A1
100
AcDbEntity
  8
M0
  6
DASHDOT
 62
     2
100
AcDbLine
 10
405.089081
 20
1183.737534
 11
431.089081
 21
1183.737534
  0
LINE
  5
A2
100
AcDbEntity
  8
M0
  6
DASHDOT
 62
     2
100
AcDbLine
 10
405.089081
 20
1191.737534
 11
431.089081
 21
1191.737534
  0
LINE
  5
A3
100
AcDbEntity
  8
M0
  6
DASHDOT
 62
     2
100
AcDbLine
 10
418.089081
 20
1170.653253
 11
418.089081
 21
1204.737534
  0
LINE
  5
A4
100
AcDbEntity
  8
M0
  6
DASHDOT
 62
     2
100
AcDbLine
 10
278.088654
 20
840.738052
 11
278.088654
 21
814.738052
  0
LINE
  5
A5
100
AcDbEntity
  8
M0
  6
DASHDOT
 62
     2
100
AcDbLine
 10
265.088654
 20
827.738052
 11
291.088654
 21
827.738052
  0
LINE
  5
A6
100
AcDbEntity
  8
M0
  6
DASHDOT
 62
     2
100
AcDbLine
 10
265.088654
 20
795.738052
 11
291.088654
 21
795.738052
  0
LINE
  5
A7
100
AcDbEntity
  8
M0
  6
DASHDOT
 62
     2
100
AcDbLine
 10
265.088654
 20
787.738052
 11
291.088654
 21
787.738052
  0
LINE
  5
A8
100
AcDbEntity
  8
M0
  6
DASHDOT
 62
     2
100
AcDbLine
 10
278.088654
 20
808.822332
 11
278.088654
 21
774.738052
  0
LINE
  5
A9
100
AcDbEntity
  8
M0
  6
DASHDOT
 62
     2
100
AcDbLine
 10
348.089081
 20
840.738052
 11
348.089081
 21
814.738052
  0
LINE
  5
AA
100
AcDbEntity
  8
M0
  6
DASHDOT
 62
     2
100
AcDbLine
 10
335.089081
 20
827.738052
 11
361.089081
 21
827.738052
  0
LINE
  5
AB
100
AcDbEntity
  8
M0
  6
DASHDOT
 62
     2
100
AcDbLine
 10
335.089081
 20
795.738052
 11
361.089081
 21
795.738052
  0
LINE
  5
AC
100
AcDbEntity
  8
M0
  6
DASHDOT
 62
     2
100
AcDbLine
 10
335.089081
 20
787.738052
 11
361.089081
 21
787.738052
  0
LINE
  5
AD
100
AcDbEntity
  8
M0
  6
DASHDOT
 62
     2
100
AcDbLine
 10
348.089081
 20
808.822332
 11
348.089081
 21
774.738052
  0
LINE
  5
AE
100
AcDbEntity
  8
M0
  6
DASHDOT
 62
     2
100
AcDbLine
 10
418.089081
 20
840.738052
 11
418.089081
 21
814.738052
  0
LINE
  5
AF
100
AcDbEntity
  8
M0
  6
DASHDOT
 62
     2
100
AcDbLine
 10
405.089081
 20
827.738052
 11
431.089081
 21
827.738052
  0
LINE
  5
B0
100
AcDbEntity
  8
M0
  6
DASHDOT
 62
     2
100
AcDbLine
 10
405.089081
 20
795.738052
 11
431.089081
 21
795.738052
  0
LINE
  5
B1
100
AcDbEntity
  8
M0
  6
DASHDOT
 62
     2
100
AcDbLine
 10
405.089081
 20
787.738052
 11
431.089081
 21
787.738052
  0
LINE
  5
B2
100
AcDbEntity
  8
M0
  6
DASHDOT
 62
     2
100
AcDbLine
 10
418.089081
 20
808.822332
 11
418.089081
 21
774.738052
  0
LINE
  5
B3
100
AcDbEntity
  8
M0
 62
     4
100
AcDbLine
 10
387.088867
 20
1027.737793
 11
387.088867
 21
951.737793
  0
LINE
  5
B4
100
AcDbEntity
  8
M0
 62
     4
100
AcDbLine
 10
309.088867
 20
1027.737793
 11
309.088867
 21
951.737793
  0
LINE
  5
B5
100
AcDbEntity
  8
M0
 62
     4
100
AcDbLine
 10
453.088867
 20
852.737793
 11
453.088867
 21
1126.737793
  0
LINE
  5
B6
100
AcDbEntity
  8
M0
 62
     4
100
AcDbLine
 10
453.088867
 20
1126.737793
 11
243.088867
 21
1126.737793
  0
LINE
  5
B7
100
AcDbEntity
  8
M0
 62
     4
100
AcDbLine
 10
243.088867
 20
1126.737793
 11
243.088867
 21
852.737793
  0
LINE
  5
B8
100
AcDbEntity
  8
M0
 62
     4
100
AcDbLine
 10
243.088867
 20
852.737793
 11
453.088867
 21
852.737793
  0
LINE
  5
B9
100
AcDbEntity
  8
M0
  6
DASHDOT
 62
     4
100
AcDbLine
 10
218.088868
 20
989.737793
 11
478.088867
 21
989.737793
  0
LINE
  5
BA
100
AcDbEntity
  8
M0
  6
DASHDOT
 62
     4
100
AcDbLine
 10
348.088867
 20
827.737793
 11
348.088867
 21
1151.737793
  0
CIRCLE
  5
BB
100
AcDbEntity
  8
M0
 62
     4
100
AcDbCircle
 10
278.088654
 20
827.738052
 40
6.75
  0
ARC
  5
BC
100
AcDbEntity
  8
M0
 62
     4
100
AcDbCircle
 10
278.088654
 20
795.738052
 40
6.75
100
AcDbArc
 50
0.0
 51
180.0
  0
ARC
  5
BD
100
AcDbEntity
  8
M0
 62
     4
100
AcDbCircle
 10
278.088654
 20
787.738052
 40
6.75
100
AcDbArc
 50
180.0
 51
360.0
  0
LINE
  5
BE
100
AcDbEntity
  8
M0
 62
     4
100
AcDbLine
 10
271.338654
 20
795.738052
 11
271.338654
 21
787.738052
  0
LINE
  5
BF
100
AcDbEntity
  8
M0
 62
     4
100
AcDbLine
 10
284.838654
 20
787.738052
 11
284.838654
 21
795.738052
  0
LINE
  5
C0
100
AcDbEntity
  8
M0
 62
     4
100
AcDbLine
 10
298.088654
 20
772.738051
 11
298.088654
 21
852.737793
  0
LINE
  5
C1
100
AcDbEntity
  8
M0
 62
     4
100
AcDbLine
 10
258.088654
 20
852.737793
 11
258.088654
 21
772.737421
  0
LINE
  5
C2
100
AcDbEntity
  8
M0
 62
     4
100
AcDbLine
 10
258.088654
 20
772.737421
 11
298.088654
 21
772.738051
  0
CIRCLE
  5
C3
100
AcDbEntity
  8
M0
 62
     4
100
AcDbCircle
 10
348.089081
 20
827.738052
 40
6.75
  0
ARC
  5
C4
100
AcDbEntity
  8
M0
 62
     4
100
AcDbCircle
 10
348.089081
 20
795.738052
 40
6.75
100
AcDbArc
 50
0.0
 51
180.0
  0
ARC
  5
C5
100
AcDbEntity
  8
M0
 62
     4
100
AcDbCircle
 10
348.089081
 20
787.738052
 40
6.75
100
AcDbArc
 50
-180.0
 51
0.0
  0
LINE
  5
C6
100
AcDbEntity
  8
M0
 62
     4
100
AcDbLine
 10
354.839081
 20
795.738052
 11
354.839081
 21
787.738052
  0
LINE
  5
C7
100
AcDbEntity
  8
M0
 62
     4
100
AcDbLine
 10
341.339081
 20
787.738052
 11
341.339081
 21
795.738052
  0
LINE
  5
C8
100
AcDbEntity
  8
M0
 62
     4
100
AcDbLine
 10
328.089081
 20
772.738051
 11
328.089081
 21
852.737793
  0
LINE
  5
C9
100
AcDbEntity
  8
M0
 62
     4
100
AcDbLine
 10
368.089081
 20
852.737793
 11
368.089081
 21
772.737421
  0
LINE
  5
CA
100
AcDbEntity
  8
M0
 62
     4
100
AcDbLine
 10
368.089081
 20
772.737421
 11
328.089081
 21
772.738051
  0
CIRCLE
  5
CB
100
AcDbEntity
  8
M0
 62
     4
100
AcDbCircle
 10
418.089081
 20
827.738052
 40
6.75
  0
ARC
  5
CC
100
AcDbEntity
  8
M0
 62
     4
100
AcDbCircle
 10
418.089081
 20
795.738052
 40
6.75
100
AcDbArc
 50
0.0
 51
180.0
  0
ARC
  5
CD
100
AcDbEntity
  8
M0
 62
     4
100
AcDbCircle
 10
418.089081
 20
787.738052
 40
6.75
100
AcDbArc
 50
-180.0
 51
0.0
  0
LINE
  5
CE
100
AcDbEntity
  8
M0
 62
     4
100
AcDbLine
 10
424.839081
 20
795.738052
 11
424.839081
 21
787.738052
  0
LINE
  5
CF
100
AcDbEntity
  8
M0
 62
     4
100
AcDbLine
 10
411.339081
 20
787.738052
 11
411.339081
 21
795.738052
  0
LINE
  5
D0
100
AcDbEntity
  8
M0
 62
     4
100
AcDbLine
 10
398.089081
 20
772.738051
 11
398.089081
 21
852.737793
  0
LINE
  5
D1
100
AcDbEntity
  8
M0
 62
     4
100
AcDbLine
 10
438.089081
 20
852.737793
 11
438.089081
 21
772.737421
  0
LINE
  5
D2
100
AcDbEntity
  8
M0
 62
     4
100
AcDbLine
 10
438.089081
 20
772.737421
 11
398.089081
 21
772.738051
  0
CIRCLE
  5
D3
100
AcDbEntity
  8
M0
 62
     4
100
AcDbCircle
 10
278.088654
 20
1151.737534
 40
6.75
  0
ARC
  5
D4
100
AcDbEntity
  8
M0
 62
     4
100
AcDbCircle
 10
278.088654
 20
1183.737534
 40
6.75
100
AcDbArc
 50
-180.0
 51
0.0
  0
ARC
  5
D5
100
AcDbEntity
  8
M0
 62
     4
100
AcDbCircle
 10
278.088654
 20
1191.737534
 40
6.75
100
AcDbArc
 50
0.0
 51
180.0
  0
LINE
  5
D6
100
AcDbEntity
  8
M0
 62
     4
100
AcDbLine
 10
271.338654
 20
1183.737534
 11
271.338654
 21
1191.737534
  0
LINE
  5
D7
100
AcDbEntity
  8
M0
 62
     4
100
AcDbLine
 10
284.838654
 20
1191.737534
 11
284.838654
 21
1183.737534
  0
LINE
  5
D8
100
AcDbEntity
  8
M0
 62
     4
100
AcDbLine
 10
298.088654
 20
1206.737535
 11
298.088654
 21
1126.737793
  0
LINE
  5
D9
100
AcDbEntity
  8
M0
 62
     4
100
AcDbLine
 10
258.088654
 20
1126.737793
 11
258.088654
 21
1206.738165
  0
LINE
  5
DA
100
AcDbEntity
  8
M0
 62
     4
100
AcDbLine
 10
258.088654
 20
1206.738165
 11
298.088654
 21
1206.737535
  0
CIRCLE
  5
DB
100
AcDbEntity
  8
M0
 62
     4
100
AcDbCircle
 10
348.089081
 20
1151.737534
 40
6.75
  0
ARC
  5
DC
100
AcDbEntity
  8
M0
 62
     4
100
AcDbCircle
 10
348.089081
 20
1183.737534
 40
6.75
100
AcDbArc
 50
180.0
 51
360.0
  0
ARC
  5
DD
100
AcDbEntity
  8
M0
 62
     4
100
AcDbCircle
 10
348.089081
 20
1191.737534
 40
6.75
100
AcDbArc
 50
0.0
 51
180.0
  0
LINE
  5
DE
100
AcDbEntity
  8
M0
 62
     4
100
AcDbLine
 10
354.839081
 20
1183.737534
 11
354.839081
 21
1191.737534
  0
LINE
  5
DF
100
AcDbEntity
  8
M0
 62
     4
100
AcDbLine
 10
341.339081
 20
1191.737534
 11
341.339081
 21
1183.737534
  0
LINE
  5
E0
100
AcDbEntity
  8
M0
 62
     4
100
AcDbLine
 10
328.089081
 20
1206.737535
 11
328.089081
 21
1126.737793
  0
LINE
  5
E1
100
AcDbEntity
  8
M0
 62
     4
100
AcDbLine
 10
368.089081
 20
1126.737793
 11
368.089081
 21
1206.738165
  0
LINE
  5
E2
100
AcDbEntity
  8
M0
 62
     4
100
AcDbLine
 10
368.089081
 20
1206.738165
 11
328.089081
 21
1206.737535
  0
CIRCLE
  5
E3
100
AcDbEntity
  8
M0
 62
     4
100
AcDbCircle
 10
418.089081
 20
1151.737534
 40
6.75
  0
ARC
  5
E4
100
AcDbEntity
  8
M0
 62
     4
100
AcDbCircle
 10
418.089081
 20
1183.737534
 40
6.75
100
AcDbArc
 50
180.0
 51
360.0
  0
ARC
  5
E5
100
AcDbEntity
  8
M0
 62
     4
100
AcDbCircle
 10
418.089081
 20
1191.737534
 40
6.75
100
AcDbArc
 50
0.0
 51
180.0
  0
LINE
  5
E6
100
AcDbEntity
  8
M0
 62
     4
100
AcDbLine
 10
424.839081
 20
1183.737534
 11
424.839081
 21
1191.737534
  0
LINE
  5
E7
100
AcDbEntity
  8
M0
 62
     4
100
AcDbLine
 10
411.339081
 20
1191.737534
 11
411.339081
 21
1183.737534
  0
LINE
  5
E8
100
AcDbEntity
  8
M0
 62
     4
100
AcDbLine
 10
398.089081
 20
1206.737535
 11
398.089081
 21
1126.737793
  0
LINE
  5
E9
100
AcDbEntity
  8
M0
 62
     4
100
AcDbLine
 10
438.089081
 20
1126.737793
 11
438.089081
 21
1206.738165
  0
LINE
  5
EA
100
AcDbEntity
  8
M0
 62
     4
100
AcDbLine
 10
438.089081
 20
1206.738165
 11
398.089081
 21
1206.737535
  0
LINE
  5
EB
100
AcDbEntity
  8
M0
 62
     4
100
AcDbLine
 10
433.088867
 20
949.737793
 11
433.088867
 21
1029.737793
  0
LINE
  5
EC
100
AcDbEntity
  8
M0
 62
     4
100
AcDbLine
 10
428.088867
 20
1034.737793
 11
268.088867
 21
1034.737793
  0
LINE
  5
ED
100
AcDbEntity
  8
M0
 62
     4
100
AcDbLine
 10
263.088867
 20
1029.737793
 11
263.088867
 21
949.737793
  0
LINE
  5
EE
100
AcDbEntity
  8
M0
 62
     4
100
AcDbLine
 10
268.088867
 20
944.737793
 11
428.088867
 21
944.737793
  0
ARC
  5
EF
100
AcDbEntity
  8
M0
 62
     4
100
AcDbCircle
 10
428.088867
 20
1029.737793
 40
5.0
100
AcDbArc
 50
0.0
 51
90.0
  0
ARC
  5
F0
100
AcDbEntity
  8
M0
 62
     4
100
AcDbCircle
 10
268.088867
 20
1029.737793
 40
5.0
100
AcDbArc
 50
90.0
 51
180.0
  0
ARC
  5
F1
100
AcDbEntity
  8
M0
 62
     4
100
AcDbCircle
 10
268.088867
 20
949.737793
 40
5.0
100
AcDbArc
 50
180.0
 51
270.0
  0
ARC
  5
F2
100
AcDbEntity
  8
M0
 62
     4
100
AcDbCircle
 10
428.088867
 20
949.737793
 40
5.0
100
AcDbArc
 50
270.0
 51
360.0
  0
LINE
  5
F3
100
AcDbEntity
  8
M0
 62
     4
100
AcDbLine
 10
373.088867
 20
1015.237793
 11
373.088867
 21
955.037961
  0
LINE
  5
F4
100
AcDbEntity
  8
M0
 62
     4
100
AcDbLine
 10
323.088867
 20
1015.237793
 11
373.088867
 21
1015.237793
  0
LINE
  5
F5
100
AcDbEntity
  8
M0
 62
     4
100
AcDbLine
 10
323.088867
 20
1015.237793
 11
323.088867
 21
955.037961
  0
LINE
  5
F6
100
AcDbEntity
  8
M0
 62
     4
100
AcDbLine
 10
323.088867
 20
955.037961
 11
373.088867
 21
955.037961
  0
ARC
  5
F7
100
AcDbEntity
  8
M0
 62
     4
100
AcDbCircle
 10
327.838792
 20
977.48714
 40
2.75
100
AcDbArc
 50
180.000079
 51
270.0
  0
LINE
  5
F8
100
AcDbEntity
  8
M0
 62
     4
100
AcDbLine
 10
325.088792
 20
977.487136
 11
325.088779
 21
986.987136
  0
ARC
  5
F9
100
AcDbEntity
  8
M0
 62
     4
100
AcDbCircle
 10
327.838779
 20
986.98714
 40
2.75
100
AcDbArc
 50
90.0
 51
180.000099
  0
LINE
  5
FA
100
AcDbEntity
  8
M0
 62
     4
100
AcDbLine
 10
368.321392
 20
974.737196
 11
327.838796
 21
974.73714
  0
ARC
  5
FB
100
AcDbEntity
  8
M0
 62
     4
100
AcDbCircle
 10
368.338942
 20
977.48714
 40
2.75
100
AcDbArc
 50
269.634341
 51
359.999921
  0
LINE
  5
FC
100
AcDbEntity
  8
M0
 62
     4
100
AcDbLine
 10
371.088942
 20
977.487136
 11
371.088955
 21
986.987136
  0
LINE
  5
FD
100
AcDbEntity
  8
M0
 62
     4
100
AcDbLine
 10
368.336845
 20
989.737196
 11
327.838775
 21
989.73714
  0
ARC
  5
FE
100
AcDbEntity
  8
M0
 62
     4
100
AcDbCircle
 10
368.338955
 20
986.98714
 40
2.75
100
AcDbArc
 50
359.999901
 51
450.0
  0
ARC
  5
FF
100
AcDbEntity
  8
M0
 62
     4
100
AcDbCircle
 10
380.088867
 20
1027.737793
 40
7.0
100
AcDbArc
 50
0.0
 51
90.0
  0
ARC
  5
100
100
AcDbEntity
  8
M0
 62
     4
100
AcDbCircle
 10
316.088867
 20
1027.737793
 40
7.0
100
AcDbArc
 50
90.0
 51
180.0
  0
ARC
  5
101
100
AcDbEntity
  8
M0
 62
     4
100
AcDbCircle
 10
316.088867
 20
951.737793
 40
7.0
100
AcDbArc
 50
180.0
 51
270.0
  0
ARC
  5
102
100
AcDbEntity
  8
M0
 62
     4
100
AcDbCircle
 10
380.088867
 20
951.737793
 40
7.0
100
AcDbArc
 50
270.0
 51
360.0
  0
LINE
  5
103
100
AcDbEntity
  8
M0
 62
     4
100
AcDbLine
 10
243.088867
 20
1100.737793
 11
453.088867
 21
1100.737793
  0
LINE
  5
104
100
AcDbEntity
  8
M0
 62
     4
100
AcDbLine
 10
243.088867
 20
878.737793
 11
453.088867
 21
878.737793
  0
LINE
  5
105
100
AcDbEntity
  8
M0
  6
DASHDOT
 62
     4
100
AcDbLine
 10
453.088867
 20
229.800293
 11
453.088867
 21
503.799316
  0
LINE
  5
106
100
AcDbEntity
  8
M0
  6
DASHDOT
 62
     4
100
AcDbLine
 10
453.088867
 20
503.799316
 11
243.088867
 21
503.799316
  0
LINE
  5
107
100
AcDbEntity
  8
M0
  6
DASHDOT
 62
     4
100
AcDbLine
 10
243.088867
 20
503.799316
 11
243.088867
 21
229.800293
  0
LINE
  5
108
100
AcDbEntity
  8
M0
  6
DASHDOT
 62
     4
100
AcDbLine
 10
243.088867
 20
229.800293
 11
453.088867
 21
229.800293
  0
LINE
  5
109
100
AcDbEntity
  8
M0
  6
DASHDOT
 62
     4
100
AcDbLine
 10
348.088867
 20
191.431519
 11
348.088867
 21
528.799316
  0
LINE
  5
10A
100
AcDbEntity
  8
M0
  6
DASHDOT
 62
     4
100
AcDbLine
 10
229.42598
 20
366.799805
 11
471.248224
 21
366.799805
  0
LINE
  5
10B
100
AcDbEntity
  8
M0
  6
DASHDOT
100
AcDbLine
 10
299.588867
 20
1111.237793
 11
326.588867
 21
1111.237793
  0
LINE
  5
10C
100
AcDbEntity
  8
M0
  6
DASHDOT
100
AcDbLine
 10
313.088867
 20
1097.737793
 11
313.088867
 21
1124.737793
  0
CIRCLE
  5
10D
100
AcDbEntity
  8
M0
100
AcDbCircle
 10
313.088867
 20
1111.237793
 40
3.5
  0
CIRCLE
  5
10E
100
AcDbEntity
  8
M0
100
AcDbCircle
 10
383.088867
 20
1111.237793
 40
3.5
  0
LINE
  5
10F
100
AcDbEntity
  8
M0
  6
DASHDOT
100
AcDbLine
 10
396.588867
 20
1111.237793
 11
369.588867
 21
1111.237793
  0
LINE
  5
110
100
AcDbEntity
  8
M0
  6
DASHDOT
100
AcDbLine
 10
383.088867
 20
1097.737793
 11
383.088867
 21
1124.737793
  0
CIRCLE
  5
111
100
AcDbEntity
  8
M0
100
AcDbCircle
 10
383.088867
 20
868.237793
 40
3.5
  0
LINE
  5
112
100
AcDbEntity
  8
M0
  6
DASHDOT
100
AcDbLine
 10
396.588867
 20
868.237793
 11
369.588867
 21
868.237793
  0
LINE
  5
113
100
AcDbEntity
  8
M0
  6
DASHDOT
100
AcDbLine
 10
383.088867
 20
881.737793
 11
383.088867
 21
854.737793
  0
CIRCLE
  5
114
100
AcDbEntity
  8
M0
100
AcDbCircle
 10
313.088867
 20
868.237793
 40
3.5
  0
LINE
  5
115
100
AcDbEntity
  8
M0
  6
DASHDOT
100
AcDbLine
 10
299.588867
 20
868.237793
 11
326.588867
 21
868.237793
  0
LINE
  5
116
100
AcDbEntity
  8
M0
  6
DASHDOT
100
AcDbLine
 10
313.088867
 20
881.737793
 11
313.088867
 21
854.737793
  0
LINE
  5
117
100
AcDbEntity
  8
M0
 62
     7
100
AcDbLine
 10
648.092168
 20
412.799805
 11
808.092168
 21
412.799805
  0
LINE
  5
118
100
AcDbEntity
  8
M0
 62
     7
100
AcDbLine
 10
648.092168
 20
320.799805
 11
808.092168
 21
320.799805
  0
LINE
  5
119
100
AcDbEntity
  8
M0
 62
     7
100
AcDbLine
 10
814.092168
 20
406.799805
 11
814.092168
 21
326.799805
  0
LINE
  5
11A
100
AcDbEntity
  8
M0
 62
     7
100
AcDbLine
 10
642.092168
 20
406.799805
 11
642.092168
 21
326.799805
  0
ARC
  5
11B
100
AcDbEntity
  8
M0
 62
     7
100
AcDbCircle
 10
808.092168
 20
406.799805
 40
6.0
100
AcDbArc
 50
0.0
 51
90.0
  0
ARC
  5
11C
100
AcDbEntity
  8
M0
 62
     7
100
AcDbCircle
 10
648.092168
 20
406.799805
 40
6.0
100
AcDbArc
 50
90.0
 51
180.0
  0
ARC
  5
11D
100
AcDbEntity
  8
M0
 62
     7
100
AcDbCircle
 10
648.092168
 20
326.799805
 40
6.0
100
AcDbArc
 50
180.0
 51
270.0
  0
ARC
  5
11E
100
AcDbEntity
  8
M0
 62
     7
100
AcDbCircle
 10
808.092168
 20
326.799805
 40
6.0
100
AcDbArc
 50
270.0
 51
360.0
  0
LINE
  5
11F
100
AcDbEntity
  8
M0
  6
DASHDOT
 62
     4
100
AcDbLine
 10
728.092168
 20
204.800293
 11
728.092168
 21
523.120408
  0
LINE
  5
120
100
AcDbEntity
  8
M0
  6
DASHDOT
 62
     4
100
AcDbLine
 10
598.092901
 20
366.799805
 11
858.092168
 21
366.799805
  0
LINE
  5
121
100
AcDbEntity
  8
M0
  6
DASHDOT
 62
     4
100
AcDbLine
 10
833.092168
 20
229.800293
 11
833.092168
 21
503.799316
  0
LINE
  5
122
100
AcDbEntity
  8
M0
  6
DASHDOT
 62
     4
100
AcDbLine
 10
833.092168
 20
503.799316
 11
623.092901
 21
503.799316
  0
LINE
  5
123
100
AcDbEntity
  8
M0
  6
DASHDOT
 62
     4
100
AcDbLine
 10
623.092901
 20
503.799316
 11
623.092901
 21
229.800293
  0
LINE
  5
124
100
AcDbEntity
  8
M0
  6
DASHDOT
 62
     4
100
AcDbLine
 10
623.092901
 20
229.800293
 11
833.092168
 21
229.800293
  0
INSERT
  5
148
100
AcDbEntity
  8
DT0
100
AcDbBlockReference
  2
LIST0
 10
0.0
 20
0.0
  0
ENDSEC
  0
SECTION
  2
OBJECTS
  0
DICTIONARY
  5
C
100
AcDbDictionary
  3
ACAD_GROUP
350
D
  3
ACAD_MLINESTYLE
350
E
  0
DICTIONARY
  5
D
102
{ACAD_REACTORS
330
C
102
}
100
AcDbDictionary
  0
DICTIONARY
  5
E
102
{ACAD_REACTORS
330
C
102
}
100
AcDbDictionary
  3
STANDARD
350
13
  0
MLINESTYLE
  5
13
102
{ACAD_REACTORS
330
E
102
}
100
AcDbMlineStyle
  2
STANDARD
 70
     0
  3

 62
     0
 51
90.0
 52
90.0
 71
     2
 49
0.5
 62
   256
  6
BYLAYER
 49
-0.5
 62
   256
  6
BYLAYER
  0
ENDSEC
  0
EOF
