  0
SECTION
  2
HEADER
  9
$ACADVER
  1
AC1015
  9
$INSBASE
 10
0.000000
 20
0.000000
 30
0.0
  9
$VIEWCTR
 10
7.531722
 20
4.5
  9
$VIEWSIZE
 40
9.0
  9
$SNAPMODE
 70
     0
  9
$SNAPUNIT
 10
1.0
 20
1.0
  9
$SNAPBASE
 10
0.0
 20
0.0
  9
$SNAPANG
 50
0.0
  9
$SNAPSTYLE
 70
     0
  9
$SNAPISOPAIR
 70
     0
  9
$GRIDMODE
 70
     0
  9
$GRIDUNIT
 10
0.0
 20
0.0
  9
$ORTHOMODE
 70
     0
  9
$REGENMODE
 70
     1
  9
$FILLMODE
 70
     1
  9
$QTEXTMODE
 70
     0
  9
$DRAGMODE
 70
     2
  9
$LTSCALE
  40
     1.000000
  9
$OSMODE
 70
     0
  9
$ATTMODE
 70
     1
  9
$TEXTSIZE
 40
0.2
  9
$TRACEWID
 40
0.05
  9
$TEXTSTYLE
  7
STANDARD
  9
$CELTYPE
  6
BYLAYER
  9
$CECOLOR
 62
   256
  9
$DIMSCALE
 40
1.0
  9
$DIMASZ
 40
0.18
  9
$DIMEXO
 40
0.0625
  9
$DIMDLI
 40
0.38
  9
$DIMRND
 40
0.0
  9
$DIMDLE
 40
0.0
  9
$DIMEXE
 40
0.18
  9
$DIMTP
 40
0.0
  9
$DIMTM
 40
0.0
  9
$DIMTXT
 40
0.18
  9
$DIMCEN
 40
0.09
  9
$DIMTSZ
 40
0.0
  9
$DIMADEC
 70
     0
  9
$DIMALTRND
 40
0.000000
  9
$DIMAZIN
 70
     0
  9
$DIMDSEP
 70
    46
  9
$DIMATFIT
 70
     3
  9
$DIMFRAC
 70
     0
  9
$DIMLDRBLK
  1

  9
$DIMLUNIT
 70
     2
  9
$DIMLWD
 70
   13
  9
$DIMLWE
 70
   13
  9
$DIMTMOVE
 70
     0
  9
$CELWEIGHT
370
    25
  9
$LWDISPLAY
290
    1
  9
$EXTNAMES
290
    1
  9
$DIMTOL
 70
     0
  9
$DIMLIM
 70
     0
  9
$DIMTIH
 70
     1
  9
$DIMTOH
 70
     1
  9
$DIMSE1
 70
     0
  9
$DIMSE2
 70
     0
  9
$DIMTAD
 70
     0
  9
$DIMZIN
 70
     0
  9
$DIMBLK
  1

  9
$LUNITS
 70
     2
  9
$LUPREC
 70
     4
  9
$AXISMODE
 70
     0
  9
$AXISUNIT
 10
0.0
 20
0.0
  9
$SKETCHINC
 40
0.1
  9
$FILLETRAD
 40
0.0
  9
$AUNITS
 70
     0
  9
$AUPREC
 70
     0
  9
$MENU
  1
ACAD
  9
$ELEVATION
 40
0.0
  9
$THICKNESS
 40
0.0
  9
$VIEWDIR
 10
0.0
 20
0.0
 30
1.0
  9
$LIMCHECK
 70
     0
  9
$BLIPMODE
 70
     1
  9
$CHAMFERA
 40
0.0
  9
$CHAMFERB
 40
0.0
  9
$FASTZOOM
 70
     1
  9
$SKPOLY
 70
     0
  9
$TDCREATE
 40
0000000.0000000000
  9
$TDUPDATE
 40
0000000.0000000000
  9
$TDINDWG
 40
0.0000000000
  9
$TDUSRTIMER
 40
0.0000000000
  9
$USRTIMER
 70
     1
  9
$ANGBASE
 50
0.0
  9
$ANGDIR
 70
     0
  9
$PDMODE
 70
     0
  9
$PDSIZE
 40
0.0
  9
$PLINEWID
 40
0.0
  9
$COORDS
 70
     0
  9
$USERI1
 70
     0
  9
$USERI2
 70
     0
  9
$USERI3
 70
     0
  9
$USERI4
 70
     0
  9
$USERI5
 70
     0
  9
$USERR1
 40
0.0
  9
$USERR2
 40
0.0
  9
$USERR3
 40
0.0
  9
$USERR4
 40
0.0
  9
$USERR5
 40
0.0
  9
$CLAYER
  8
M2
  9
$EXTMIN
 10
0.0
 20
0.0
  9
$EXTMAX
 10
841.0
 20
594.0
  9
$LIMMIN
 10
0.0
 20
0.0
  9
$LIMMAX
 10
841.0
 20
594.0
  9
$HANDSEED
  5
105
  0
ENDSEC
  0
SECTION
  2
CLASSES
  0
CLASS
  1
DIMASSOC
  2
AcDbDimAssoc
  3
"AcDbDimAssoc|Product Desc:     AcDim ARX App For Dimension|Company:          Autodesk, Inc.|WEB Address:      www.autodesk.com"
 90
        0
280
     0
281
     0
  0
ENDSEC
  0
SECTION
  2
TABLES
  0
TABLE
  2
VPORT
  5
8
100
AcDbSymbolTable
 70
     2
  0
VPORT
  5
14
100
AcDbSymbolTableRecord
100
AcDbViewportTableRecord
  2
*ACTIVE
 70
     0
 10
0.0
 20
0.0
 11
1.0
 21
1.0
 12
484.0
 22
297.0
 13
0.0
 23
0.0
 14
1.0
 24
1.0
 15
0.0
 25
0.0
 16
0.0
 26
0.0
 36
1.0
 17
0.0
 27
0.0
 37
0.0
 40
594.0
 41
2.0
 42
50.0
 43
0.0
 44
0.0
 50
0.0
 51
0.0
 71
     0
 72
   100
 73
     1
 74
     1
 75
     0
 76
     0
 77
     0
 78
     0
  0
ENDTAB
  0
TABLE
  2
LTYPE
  5
5
100
AcDbSymbolTable
 70
     5
  0
LTYPE
  5
15
100
AcDbSymbolTableRecord
100
AcDbLinetypeTableRecord
  2
BYBLOCK
 70
     0
  3

 72
    65
 73
     0
 40
0.0
  0
LTYPE
  5
16
100
AcDbSymbolTableRecord
100
AcDbLinetypeTableRecord
  2
BYLAYER
 70
     0
  3

 72
    65
 73
     0
 40
0.0
  0
LTYPE
  5
17
100
AcDbSymbolTableRecord
100
AcDbLinetypeTableRecord
  2
CONTINUOUS
 70
    64
  3
Solid line
 72
    65
 73
     0
 40
0.0
  0
LTYPE
  5
18
100
AcDbSymbolTableRecord
100
AcDbLinetypeTableRecord
  2
DASHED
 70
    64
  3
__ __ __ __ __ __ __ __ __ __ __ __ __ __ __ __
 72
    65
 73
     2
 40
0.75
 49
0.5
 74
     0
 49
-0.25
 74
     0
  0
LTYPE
  5
19
100
AcDbSymbolTableRecord
100
AcDbLinetypeTableRecord
  2
DASHDOT
 70
    64
  3
__ . __ . __ . __ . __ . __ . __ . __ . __ . __
 72
    65
 73
     4
 40
1.0
 49
0.5
 74
     0
 49
-0.25
 74
     0
 49
0.0
 74
     0
 49
-0.25
 74
     0
  0
LTYPE
  5
1A
100
AcDbSymbolTableRecord
100
AcDbLinetypeTableRecord
  2
DIVIDE
 70
    64
  3
____ . . ____ . . ____ . . ____ . . ____ . . __
 72
    65
 73
     6
 40
1.25
 49
0.5
 74
     0
 49
-0.25
 74
     0
 49
0.0
 74
     0
 49
-0.25
 74
     0
 49
0.0
 74
     0
 49
-0.25
 74
     0
  0
LTYPE
  5
1B
100
AcDbSymbolTableRecord
100
AcDbLinetypeTableRecord
  2
DOT
 70
    64
  3
. . . . . . . . . . . . . . . . . . . . . . . .
 72
    65
 73
     2
 40
0.25
 49
0.0
 74
     0
 49
-0.25
 74
     0
  0
ENDTAB
  0
TABLE
  2
LAYER
  5
2
100
AcDbSymbolTable
 70
   102
  0
LAYER
  5
F
100
AcDbSymbolTableRecord
100
AcDbLayerTableRecord
  2
0
 70
     0
 62
     7
  6
CONTINUOUS
370
     -3
390
F
  0
LAYER
  5
1C
100
AcDbSymbolTableRecord
100
AcDbLayerTableRecord
  2
M2
 70
     0
 62
     3
  6
CONTINUOUS
370
     -3
390
F
  0
LAYER
  5
1D
100
AcDbSymbolTableRecord
100
AcDbLayerTableRecord
  2
M3
 70
     0
 62
     7
  6
CONTINUOUS
370
     -3
390
F
  0
ENDTAB
  0
TABLE
  2
STYLE
  5
3
100
AcDbSymbolTable
 70
     2
  0
STYLE
  5
10
100
AcDbSymbolTableRecord
100
AcDbTextStyleTableRecord
  2
STANDARD
 70
     0
 40
0.0
 41
1.0
 50
0.0
 71
     0
 42
0.2
  3
txt
  4
BIGFONT
  0
ENDTAB
  0
TABLE
  2
VIEW
  5
6
100
AcDbSymbolTable
 70
     0
  0
ENDTAB
  0
TABLE
  2
UCS
  5
7
100
AcDbSymbolTable
 70
     0
  0
ENDTAB
  0
TABLE
  2
APPID
  5
9
100
AcDbSymbolTable
 70
     1
  0
APPID
  5
11
100
AcDbSymbolTableRecord
100
AcDbRegAppTableRecord
  2
ACAD
 70
     0
  0
ENDTAB
  0
TABLE
  2
DIMSTYLE
  5
A
100
AcDbSymbolTable
 70
     2
100
AcDbDimStyleTable
 71
     1
  0
DIMSTYLE
105
46
100
AcDbSymbolTableRecord
100
AcDbDimStyleTableRecord
  2
STANDARD
 70
     0
  3

  4

  5

  6
_OPEN
  7
_OPEN
 40
1.0
 41
3.0
 42
0.0
 43
8.0
 44
1.5
 45
0.0
 46
0.0
 47
0.0
 48
0.0
140
3.2
141
0.09
142
0.0
143
0.03937
144
1.0
145
0.0
146
1.0
147
1.0
148
0.000000
 71
     0
 72
     0
 73
     1
 74
     1
 75
     0
 76
     0
 77
     3
 78
     8
170
     0
171
     2
172
     0
173
     1
174
     0
175
     0
176
     0
177
     0
178
     0
270
     2
271
     2
272
     4
273
     2
274
     2
340
10
275
     0
278
    46
280
     0
281
     0
282
     0
283
     1
284
     0
285
     0
286
     0
287
     3
288
     0
371
   13
372
   13
  0
DIMSTYLE
105
47
100
AcDbSymbolTableRecord
100
AcDbDimStyleTableRecord
  2
LEADSTYL
 70
     0
  3

  4

  5

  6
_OPEN
  7
_OPEN
 40
1.0
 41
3.0
 42
0.0625
 43
0.38
 44
0.18
 45
0.0
 46
0.0
 47
0.0
 48
0.0
140
3.2
141
0.09
142
0.0
143
25.4
144
1.0
145
0.0
146
1.0
147
1.0
 71
     0
 72
     0
 73
     1
 74
     1
 75
     0
 76
     0
 77
     0
 78
     0
170
     0
171
     2
172
     0
173
     1
174
     0
175
     0
176
     0
177
     0
178
     0
270
     2
271
     4
272
     4
273
     2
274
     2
340
10
275
     0
280
     0
281
     0
282
     0
283
     1
284
     0
285
     0
286
     0
287
     3
288
     0
  0
ENDTAB
  0
TABLE
  2
BLOCK_RECORD
  5
1
100
AcDbSymbolTable
 70
     6
  0
BLOCK_RECORD
  5
1E
100
AcDbSymbolTableRecord
100
AcDbBlockTableRecord
  2
*MODEL_SPACE
  0
BLOCK_RECORD
  5
21
100
AcDbSymbolTableRecord
100
AcDbBlockTableRecord
  2
*PAPER_SPACE
  0
BLOCK_RECORD
  5
24
100
AcDbSymbolTableRecord
100
AcDbBlockTableRecord
  2
_NONE
  0
BLOCK_RECORD
  5
28
100
AcDbSymbolTableRecord
100
AcDbBlockTableRecord
  2
_OPEN
  0
BLOCK_RECORD
  5
2E
100
AcDbSymbolTableRecord
100
AcDbBlockTableRecord
  2
_CLOSED
  0
BLOCK_RECORD
  5
35
100
AcDbSymbolTableRecord
100
AcDbBlockTableRecord
  2
_ORIGIN
  0
BLOCK_RECORD
  5
3A
100
AcDbSymbolTableRecord
100
AcDbBlockTableRecord
  2
_DOT
  0
BLOCK_RECORD
  5
42
100
AcDbSymbolTableRecord
100
AcDbBlockTableRecord
  2
_OBLIQUE
  0
ENDTAB
  0
ENDSEC
  0
SECTION
  2
BLOCKS
  0
BLOCK
  5
1F
100
AcDbEntity
  8
0
100
AcDbBlockBegin
  2
*MODEL_SPACE
 70
     0
 10
0.0
 20
0.0
 30
0.0
  3
*MODEL_SPACE
  1

  0
ENDBLK
  5
20
100
AcDbEntity
  8
0
100
AcDbBlockEnd
  0
BLOCK
  5
22
100
AcDbEntity
 67
     1
  8
0
100
AcDbBlockBegin
  2
*PAPER_SPACE
 70
     0
 10
0.0
 20
0.0
 30
0.0
  3
*PAPER_SPACE
  1

  0
ENDBLK
  5
23
100
AcDbEntity
 67
     1
  8
0
100
AcDbBlockEnd
  0
BLOCK
  5
25
100
AcDbEntity
  8
0
100
AcDbBlockBegin
  2
_NONE
 70
     0
 10
0.0
 20
0.0
  0
CIRCLE
  5
26
100
AcDbEntity
  8
0
 62
     0
370
13
100
AcDbCircle
 10
0.0
 20
0.0
 40
0.25
  0
ENDBLK
  5
27
100
AcDbEntity
  8
0
100
AcDbBlockEnd
  0
BLOCK
  5
29
100
AcDbEntity
  8
0
100
AcDbBlockBegin
  2
_OPEN
 70
     0
 10
0.0
 20
0.0
  0
LINE
  5
2A
100
AcDbEntity
  8
0
 62
     0
370
13
100
AcDbLine
 10
-0.965926
 20
0.258819
 11
0.0
 21
0.0
  0
LINE
  5
2B
100
AcDbEntity
  8
0
 62
     0
370
13
100
AcDbLine
 10
0.0
 20
0.0
 11
-0.965926
 21
-0.258819
  0
LINE
  5
2C
100
AcDbEntity
  8
0
 62
     0
370
13
100
AcDbLine
 10
0.0
 20
0.0
 11
-1.0
 21
0.0
  0
ENDBLK
  5
2D
100
AcDbEntity
  8
0
100
AcDbBlockEnd
  0
BLOCK
  5
2F
100
AcDbEntity
  8
0
100
AcDbBlockBegin
  2
_CLOSED
 70
     0
 10
0.0
 20
0.0
  0
LINE
  5
30
100
AcDbEntity
  8
0
 62
     0
370
13
100
AcDbLine
 10
-0.965926
 20
0.258819
 11
0.0
 21
0.0
  0
LINE
  5
31
100
AcDbEntity
  8
0
 62
     0
370
13
100
AcDbLine
 10
0.0
 20
0.0
 11
-0.965926
 21
-0.258819
  0
LINE
  5
32
100
AcDbEntity
  8
0
 62
     0
370
13
100
AcDbLine
 10
-0.965926
 20
0.258819
 11
-0.965926
 21
-0.258819
  0
LINE
  5
33
100
AcDbEntity
  8
0
 62
     0
370
13
100
AcDbLine
 10
0.0
 20
0.0
 11
-1.0
 21
0.0
  0
ENDBLK
  5
34
100
AcDbEntity
  8
0
100
AcDbBlockEnd
  0
BLOCK
  5
36
100
AcDbEntity
  8
0
100
AcDbBlockBegin
  2
_ORIGIN
 70
     0
 10
0.0
 20
0.0
  0
CIRCLE
  5
37
100
AcDbEntity
  8
0
 62
     0
370
13
100
AcDbCircle
 10
0.0
 20
0.0
 40
0.5
  0
LINE
  5
38
100
AcDbEntity
  8
0
 62
     0
370
13
100
AcDbLine
 10
0.0
 20
0.0
 11
-1.0
 21
0.0
  0
ENDBLK
  5
39
100
AcDbEntity
  8
0
100
AcDbBlockEnd
  0
BLOCK
  5
3B
100
AcDbEntity
  8
0
100
AcDbBlockBegin
  2
_DOT
 70
     0
 10
0.0
 20
0.0
  0
POLYLINE
  5
3C
100
AcDbEntity
  8
0
 62
     0
100
AcDb2dPolyline
 66
     1
 70
     1
 40
0.5
 41
0.5
  0
VERTEX
  5
3D
100
AcDbEntity
  8
0
 62
     0
100
AcDbVertex
100
AcDb2dVertex
 10
-0.25
 20
0.0
 42
1.0
  0
VERTEX
  5
3E
100
AcDbEntity
  8
0
 62
     0
100
AcDbVertex
100
AcDb2dVertex
 10
0.25
 20
0.0
 42
1.0
  0
SEQEND
  5
3F
100
AcDbEntity
  8
0
 62
     0
  0
LINE
  5
40
100
AcDbEntity
  8
0
 62
     0
370
13
100
AcDbLine
 10
-0.5
 20
0.0
 11
-1.0
 21
0.0
  0
ENDBLK
  5
41
100
AcDbEntity
  8
0
100
AcDbBlockEnd
  0
BLOCK
  5
43
100
AcDbEntity
  8
0
100
AcDbBlockBegin
  2
_OBLIQUE
 70
     0
 10
0.0
 20
0.0
  0
LINE
  5
44
100
AcDbEntity
  8
0
 62
     0
370
13
100
AcDbLine
 10
-0.353553
 20
-0.353553
 11
0.353553
 21
0.353553
  0
ENDBLK
  5
45
100
AcDbEntity
  8
0
100
AcDbBlockEnd
  0
ENDSEC
  0
SECTION
  2
ENTITIES
  0
LINE
  5
48
100
AcDbEntity
  8
M2
  6
CONTINUOUS
370
25
 62
     4
100
AcDbLine
 10
267.392989
 20
566.376812
 11
267.392989
 21
526.375393
  0
LINE
  5
49
100
AcDbEntity
  8
M2
  6
CONTINUOUS
370
25
 62
     4
100
AcDbLine
 10
267.392989
 20
349.373975
 11
267.392989
 21
389.375394
  0
LINE
  5
4A
100
AcDbEntity
  8
M2
  6
DASHDOT
370
25
100
AcDbLine
 10
42.138893
 20
518.625393
 11
55.638893
 21
518.625393
  0
LINE
  5
4B
100
AcDbEntity
  8
M2
  6
DASHDOT
370
25
100
AcDbLine
 10
48.888893
 20
511.875393
 11
48.888893
 21
525.375393
  0
CIRCLE
  5
4C
100
AcDbEntity
  8
M2
  6
CONTINUOUS
370
25
100
AcDbCircle
 10
48.888893
 20
518.625393
 40
1.75
  0
CIRCLE
  5
4D
100
AcDbEntity
  8
M2
  6
CONTINUOUS
370
25
100
AcDbCircle
 10
83.888893
 20
518.625393
 40
1.75
  0
LINE
  5
4E
100
AcDbEntity
  8
M2
  6
DASHDOT
370
25
100
AcDbLine
 10
90.638893
 20
518.625393
 11
77.138893
 21
518.625393
  0
LINE
  5
4F
100
AcDbEntity
  8
M2
  6
DASHDOT
370
25
100
AcDbLine
 10
83.888893
 20
511.875393
 11
83.888893
 21
525.375393
  0
CIRCLE
  5
50
100
AcDbEntity
  8
M2
  6
CONTINUOUS
370
25
100
AcDbCircle
 10
83.888893
 20
397.125394
 40
1.75
  0
LINE
  5
51
100
AcDbEntity
  8
M2
  6
DASHDOT
370
25
100
AcDbLine
 10
90.638893
 20
397.125394
 11
77.138893
 21
397.125394
  0
LINE
  5
52
100
AcDbEntity
  8
M2
  6
DASHDOT
370
25
100
AcDbLine
 10
83.888893
 20
403.875394
 11
83.888893
 21
390.375394
  0
CIRCLE
  5
53
100
AcDbEntity
  8
M2
  6
CONTINUOUS
370
25
100
AcDbCircle
 10
48.888893
 20
397.125394
 40
1.75
  0
LINE
  5
54
100
AcDbEntity
  8
M2
  6
DASHDOT
370
25
100
AcDbLine
 10
42.138893
 20
397.125394
 11
55.638893
 21
397.125394
  0
LINE
  5
55
100
AcDbEntity
  8
M2
  6
DASHDOT
370
25
100
AcDbLine
 10
48.888893
 20
403.875394
 11
48.888893
 21
390.375394
  0
LINE
  5
56
100
AcDbEntity
  8
M2
  6
DASHDOT
370
25
 62
     2
100
AcDbLine
 10
101.389
 20
532.375264
 11
101.389
 21
545.375264
  0
LINE
  5
57
100
AcDbEntity
  8
M2
  6
DASHDOT
370
25
 62
     2
100
AcDbLine
 10
94.889
 20
538.875264
 11
107.889
 21
538.875264
  0
LINE
  5
58
100
AcDbEntity
  8
M2
  6
DASHDOT
370
25
 62
     2
100
AcDbLine
 10
94.889
 20
554.875264
 11
107.889
 21
554.875264
  0
LINE
  5
59
100
AcDbEntity
  8
M2
  6
DASHDOT
370
25
 62
     2
100
AcDbLine
 10
94.889
 20
558.875264
 11
107.889
 21
558.875264
  0
LINE
  5
5A
100
AcDbEntity
  8
M2
  6
DASHDOT
370
25
 62
     2
100
AcDbLine
 10
101.389
 20
548.333123
 11
101.389
 21
565.375264
  0
LINE
  5
5B
100
AcDbEntity
  8
M2
  6
DASHDOT
370
25
 62
     2
100
AcDbLine
 10
31.388786
 20
532.375264
 11
31.388786
 21
545.375264
  0
LINE
  5
5C
100
AcDbEntity
  8
M2
  6
DASHDOT
370
25
 62
     2
100
AcDbLine
 10
37.888786
 20
538.875264
 11
24.888786
 21
538.875264
  0
LINE
  5
5D
100
AcDbEntity
  8
M2
  6
DASHDOT
370
25
 62
     2
100
AcDbLine
 10
37.888786
 20
554.875264
 11
24.888786
 21
554.875264
  0
LINE
  5
5E
100
AcDbEntity
  8
M2
  6
DASHDOT
370
25
 62
     2
100
AcDbLine
 10
37.888786
 20
558.875264
 11
24.888786
 21
558.875264
  0
LINE
  5
5F
100
AcDbEntity
  8
M2
  6
DASHDOT
370
25
 62
     2
100
AcDbLine
 10
31.388786
 20
548.333123
 11
31.388786
 21
565.375264
  0
LINE
  5
60
100
AcDbEntity
  8
M2
  6
DASHDOT
370
25
 62
     2
100
AcDbLine
 10
101.389
 20
383.375523
 11
101.389
 21
370.375523
  0
LINE
  5
61
100
AcDbEntity
  8
M2
  6
DASHDOT
370
25
 62
     2
100
AcDbLine
 10
94.889
 20
376.875523
 11
107.889
 21
376.875523
  0
LINE
  5
62
100
AcDbEntity
  8
M2
  6
DASHDOT
370
25
 62
     2
100
AcDbLine
 10
94.889
 20
360.875523
 11
107.889
 21
360.875523
  0
LINE
  5
63
100
AcDbEntity
  8
M2
  6
DASHDOT
370
25
 62
     2
100
AcDbLine
 10
94.889
 20
356.875523
 11
107.889
 21
356.875523
  0
LINE
  5
64
100
AcDbEntity
  8
M2
  6
DASHDOT
370
25
 62
     2
100
AcDbLine
 10
101.389
 20
367.417663
 11
101.389
 21
350.375523
  0
LINE
  5
65
100
AcDbEntity
  8
M2
  6
DASHDOT
370
25
 62
     2
100
AcDbLine
 10
31.388786
 20
383.375523
 11
31.388786
 21
370.375523
  0
LINE
  5
66
100
AcDbEntity
  8
M2
  6
DASHDOT
370
25
 62
     2
100
AcDbLine
 10
37.888786
 20
376.875523
 11
24.888786
 21
376.875523
  0
LINE
  5
67
100
AcDbEntity
  8
M2
  6
DASHDOT
370
25
 62
     2
100
AcDbLine
 10
37.888786
 20
360.875523
 11
24.888786
 21
360.875523
  0
LINE
  5
68
100
AcDbEntity
  8
M2
  6
DASHDOT
370
25
 62
     2
100
AcDbLine
 10
37.888786
 20
356.875523
 11
24.888786
 21
356.875523
  0
LINE
  5
69
100
AcDbEntity
  8
M2
  6
DASHDOT
370
25
 62
     2
100
AcDbLine
 10
31.388786
 20
367.417663
 11
31.388786
 21
350.375523
  0
LINE
  5
6A
100
AcDbEntity
  8
M2
  6
CONTINUOUS
370
25
 62
     4
100
AcDbLine
 10
118.888893
 20
389.375394
 11
118.888893
 21
526.375393
  0
LINE
  5
6B
100
AcDbEntity
  8
M2
  6
CONTINUOUS
370
25
 62
     4
100
AcDbLine
 10
118.888893
 20
526.375393
 11
13.888893
 21
526.375393
  0
LINE
  5
6C
100
AcDbEntity
  8
M2
  6
CONTINUOUS
370
25
 62
     4
100
AcDbLine
 10
13.888893
 20
526.375393
 11
13.888893
 21
389.375394
  0
LINE
  5
6D
100
AcDbEntity
  8
M2
  6
CONTINUOUS
370
25
 62
     4
100
AcDbLine
 10
13.888893
 20
389.375394
 11
118.888893
 21
389.375394
  0
LINE
  5
6E
100
AcDbEntity
  8
M2
  6
DASHDOT
370
25
 62
     4
100
AcDbLine
 10
-1.421085E-014
 20
457.875394
 11
132.777786
 21
457.875394
  0
LINE
  5
6F
100
AcDbEntity
  8
M2
  6
DASHDOT
370
25
 62
     4
100
AcDbLine
 10
66.388893
 20
375.486501
 11
66.388893
 21
540.264286
  0
LINE
  5
70
100
AcDbEntity
  8
M2
  6
CONTINUOUS
370
25
 62
     4
100
AcDbLine
 10
82.388893
 20
481.625394
 11
50.388893
 21
481.625271
  0
ARC
  5
71
100
AcDbEntity
  8
M2
  6
CONTINUOUS
370
25
 62
     4
100
AcDbCircle
 10
82.388893
 20
478.125271
 40
3.49997
100
AcDbArc
 50
0.0
 51
90.0
  0
ARC
  5
72
100
AcDbEntity
  8
M2
  6
CONTINUOUS
370
25
 62
     4
100
AcDbCircle
 10
50.388893
 20
478.125271
 40
3.49997
100
AcDbArc
 50
89.999875
 51
179.999875
  0
LINE
  5
73
100
AcDbEntity
  8
M2
  6
CONTINUOUS
370
25
 62
     4
100
AcDbLine
 10
46.888893
 20
478.125271
 11
46.888893
 21
437.625394
  0
ARC
  5
74
100
AcDbEntity
  8
M2
  6
CONTINUOUS
370
25
 62
     4
100
AcDbCircle
 10
50.388893
 20
437.625394
 40
3.49997
100
AcDbArc
 50
179.999875
 51
270.0
  0
LINE
  5
75
100
AcDbEntity
  8
M2
  6
CONTINUOUS
370
25
 62
     4
100
AcDbLine
 10
50.388893
 20
434.125394
 11
82.388893
 21
434.125394
  0
ARC
  5
76
100
AcDbEntity
  8
M2
  6
CONTINUOUS
370
25
 62
     4
100
AcDbCircle
 10
82.388893
 20
437.625394
 40
3.49997
100
AcDbArc
 50
269.999875
 51
360.0
  0
LINE
  5
77
100
AcDbEntity
  8
M2
  6
CONTINUOUS
370
25
 62
     4
100
AcDbLine
 10
85.888893
 20
437.625271
 11
85.888893
 21
478.12515
  0
LINE
  5
78
100
AcDbEntity
  8
M2
  6
CONTINUOUS
370
25
 62
     4
100
AcDbLine
 10
55.388893
 20
445.375394
 11
77.388893
 21
445.375394
  0
LINE
  5
79
100
AcDbEntity
  8
M2
  6
CONTINUOUS
370
25
 62
     4
100
AcDbLine
 10
77.388893
 20
445.375394
 11
77.388893
 21
474.055325
  0
LINE
  5
7A
100
AcDbEntity
  8
M2
  6
CONTINUOUS
370
25
 62
     4
100
AcDbLine
 10
55.388893
 20
467.710355
 11
77.388893
 21
467.710355
  0
LINE
  5
7B
100
AcDbEntity
  8
M2
  6
CONTINUOUS
370
25
 62
     4
100
AcDbLine
 10
55.388893
 20
474.055325
 11
77.388893
 21
474.055325
  0
LINE
  5
7C
100
AcDbEntity
  8
M2
  6
CONTINUOUS
370
25
 62
     4
100
AcDbLine
 10
55.388893
 20
445.375394
 11
55.388893
 21
474.055325
  0
CIRCLE
  5
7D
100
AcDbEntity
  8
M2
  6
CONTINUOUS
370
25
 62
     4
100
AcDbCircle
 10
101.389
 20
538.875264
 40
3.375
  0
LINE
  5
7E
100
AcDbEntity
  8
M2
  6
CONTINUOUS
370
25
 62
     4
100
AcDbLine
 10
111.389
 20
566.375579
 11
91.389
 21
566.375264
  0
ARC
  5
7F
100
AcDbEntity
  8
M2
  6
CONTINUOUS
370
25
 62
     4
100
AcDbCircle
 10
101.389
 20
558.875264
 40
3.375
100
AcDbArc
 50
0.0
 51
180.0
  0
ARC
  5
80
100
AcDbEntity
  8
M2
  6
CONTINUOUS
370
25
 62
     4
100
AcDbCircle
 10
101.389
 20
554.875264
 40
3.375
100
AcDbArc
 50
180.0
 51
360.0
  0
LINE
  5
81
100
AcDbEntity
  8
M2
  6
CONTINUOUS
370
25
 62
     4
100
AcDbLine
 10
98.014
 20
558.875264
 11
98.014
 21
554.875264
  0
LINE
  5
82
100
AcDbEntity
  8
M2
  6
CONTINUOUS
370
25
 62
     4
100
AcDbLine
 10
104.764
 20
554.875264
 11
104.764
 21
558.875264
  0
LINE
  5
83
100
AcDbEntity
  8
M2
  6
CONTINUOUS
370
25
 62
     4
100
AcDbLine
 10
111.389
 20
526.375393
 11
111.389
 21
566.375579
  0
LINE
  5
84
100
AcDbEntity
  8
M2
  6
CONTINUOUS
370
25
 62
     4
100
AcDbLine
 10
91.389
 20
566.375264
 11
91.389
 21
526.375393
  0
CIRCLE
  5
85
100
AcDbEntity
  8
M2
  6
CONTINUOUS
370
25
 62
     4
100
AcDbCircle
 10
31.388786
 20
538.875264
 40
3.375
  0
LINE
  5
86
100
AcDbEntity
  8
M2
  6
CONTINUOUS
370
25
 62
     4
100
AcDbLine
 10
21.388786
 20
566.375579
 11
41.388786
 21
566.375264
  0
ARC
  5
87
100
AcDbEntity
  8
M2
  6
CONTINUOUS
370
25
 62
     4
100
AcDbCircle
 10
31.388786
 20
558.875264
 40
3.375
100
AcDbArc
 50
0.0
 51
180.0
  0
ARC
  5
88
100
AcDbEntity
  8
M2
  6
CONTINUOUS
370
25
 62
     4
100
AcDbCircle
 10
31.388786
 20
554.875264
 40
3.375
100
AcDbArc
 50
180.0
 51
360.0
  0
LINE
  5
89
100
AcDbEntity
  8
M2
  6
CONTINUOUS
370
25
 62
     4
100
AcDbLine
 10
34.763786
 20
558.875264
 11
34.763786
 21
554.875264
  0
LINE
  5
8A
100
AcDbEntity
  8
M2
  6
CONTINUOUS
370
25
 62
     4
100
AcDbLine
 10
28.013786
 20
554.875264
 11
28.013786
 21
558.875264
  0
LINE
  5
8B
100
AcDbEntity
  8
M2
  6
CONTINUOUS
370
25
 62
     4
100
AcDbLine
 10
21.388786
 20
526.375393
 11
21.388786
 21
566.375579
  0
LINE
  5
8C
100
AcDbEntity
  8
M2
  6
CONTINUOUS
370
25
 62
     4
100
AcDbLine
 10
41.388786
 20
566.375264
 11
41.388786
 21
526.375393
  0
CIRCLE
  5
8D
100
AcDbEntity
  8
M2
  6
CONTINUOUS
370
25
 62
     4
100
AcDbCircle
 10
31.388786
 20
376.875523
 40
3.375
  0
LINE
  5
8E
100
AcDbEntity
  8
M2
  6
CONTINUOUS
370
25
 62
     4
100
AcDbLine
 10
21.388786
 20
349.375208
 11
41.388786
 21
349.375523
  0
ARC
  5
8F
100
AcDbEntity
  8
M2
  6
CONTINUOUS
370
25
 62
     4
100
AcDbCircle
 10
31.388786
 20
356.875523
 40
3.375
100
AcDbArc
 50
180.0
 51
360.0
  0
ARC
  5
90
100
AcDbEntity
  8
M2
  6
CONTINUOUS
370
25
 62
     4
100
AcDbCircle
 10
31.388786
 20
360.875523
 40
3.375
100
AcDbArc
 50
0.0
 51
180.0
  0
LINE
  5
91
100
AcDbEntity
  8
M2
  6
CONTINUOUS
370
25
 62
     4
100
AcDbLine
 10
34.763786
 20
356.875523
 11
34.763786
 21
360.875523
  0
LINE
  5
92
100
AcDbEntity
  8
M2
  6
CONTINUOUS
370
25
 62
     4
100
AcDbLine
 10
28.013786
 20
360.875523
 11
28.013786
 21
356.875523
  0
LINE
  5
93
100
AcDbEntity
  8
M2
  6
CONTINUOUS
370
25
 62
     4
100
AcDbLine
 10
21.388786
 20
389.375394
 11
21.388786
 21
349.375208
  0
LINE
  5
94
100
AcDbEntity
  8
M2
  6
CONTINUOUS
370
25
 62
     4
100
AcDbLine
 10
41.388786
 20
349.375523
 11
41.388786
 21
389.375394
  0
CIRCLE
  5
95
100
AcDbEntity
  8
M2
  6
CONTINUOUS
370
25
 62
     4
100
AcDbCircle
 10
101.389
 20
376.875523
 40
3.375
  0
LINE
  5
96
100
AcDbEntity
  8
M2
  6
CONTINUOUS
370
25
 62
     4
100
AcDbLine
 10
111.389
 20
349.375208
 11
91.389
 21
349.375523
  0
ARC
  5
97
100
AcDbEntity
  8
M2
  6
CONTINUOUS
370
25
 62
     4
100
AcDbCircle
 10
101.389
 20
356.875523
 40
3.375
100
AcDbArc
 50
180.0
 51
360.0
  0
ARC
  5
98
100
AcDbEntity
  8
M2
  6
CONTINUOUS
370
25
 62
     4
100
AcDbCircle
 10
101.389
 20
360.875523
 40
3.375
100
AcDbArc
 50
0.0
 51
180.0
  0
LINE
  5
99
100
AcDbEntity
  8
M2
  6
CONTINUOUS
370
25
 62
     4
100
AcDbLine
 10
98.014
 20
356.875523
 11
98.014
 21
360.875523
  0
LINE
  5
9A
100
AcDbEntity
  8
M2
  6
CONTINUOUS
370
25
 62
     4
100
AcDbLine
 10
104.764
 20
360.875523
 11
104.764
 21
356.875523
  0
LINE
  5
9B
100
AcDbEntity
  8
M2
  6
CONTINUOUS
370
25
 62
     4
100
AcDbLine
 10
111.389
 20
389.375394
 11
111.389
 21
349.375208
  0
LINE
  5
9C
100
AcDbEntity
  8
M2
  6
CONTINUOUS
370
25
 62
     4
100
AcDbLine
 10
91.389
 20
349.375523
 11
91.389
 21
389.375394
  0
LINE
  5
9D
100
AcDbEntity
  8
M2
  6
CONTINUOUS
370
25
 62
     4
100
AcDbLine
 10
13.888893
 20
489.125393
 11
118.888893
 21
489.125393
  0
LINE
  5
9E
100
AcDbEntity
  8
M2
  6
CONTINUOUS
370
25
 62
     4
100
AcDbLine
 10
13.888893
 20
402.375394
 11
118.888893
 21
402.375394
  0
LINE
  5
9F
100
AcDbEntity
  8
M2
  6
DASHDOT
370
25
 62
     4
100
AcDbLine
 10
232.392989
 20
95.406643
 11
232.392989
 21
254.566701
  0
LINE
  5
A0
100
AcDbEntity
  8
M2
  6
DASHDOT
370
25
 62
     4
100
AcDbLine
 10
167.393355
 20
176.4064
 11
297.392989
 21
176.4064
  0
LINE
  5
A1
100
AcDbEntity
  8
M2
  6
DASHDOT
370
25
 62
     4
100
AcDbLine
 10
284.892989
 20
107.906644
 11
284.892989
 21
244.906155
  0
LINE
  5
A2
100
AcDbEntity
  8
M2
  6
DASHDOT
370
25
 62
     4
100
AcDbLine
 10
284.892989
 20
244.906155
 11
179.893355
 21
244.906155
  0
LINE
  5
A3
100
AcDbEntity
  8
M2
  6
DASHDOT
370
25
 62
     4
100
AcDbLine
 10
179.893355
 20
244.906155
 11
179.893355
 21
107.906644
  0
LINE
  5
A4
100
AcDbEntity
  8
M2
  6
DASHDOT
370
25
 62
     4
100
AcDbLine
 10
179.893355
 20
107.906644
 11
284.892989
 21
107.906644
  0
LINE
  5
A5
100
AcDbEntity
  8
M2
  6
DASHDOT
370
25
 62
     4
100
AcDbLine
 10
120.035866
 20
107.906644
 11
120.035866
 21
244.906155
  0
LINE
  5
A6
100
AcDbEntity
  8
M2
  6
DASHDOT
370
25
 62
     4
100
AcDbLine
 10
120.035866
 20
244.906155
 11
15.036232
 21
244.906155
  0
LINE
  5
A7
100
AcDbEntity
  8
M2
  6
DASHDOT
370
25
 62
     4
100
AcDbLine
 10
15.036232
 20
244.906155
 11
15.036232
 21
107.906644
  0
LINE
  5
A8
100
AcDbEntity
  8
M2
  6
DASHDOT
370
25
 62
     4
100
AcDbLine
 10
15.036232
 20
107.906644
 11
120.035866
 21
107.906644
  0
LINE
  5
A9
100
AcDbEntity
  8
M2
  6
DASHDOT
370
25
 62
     4
100
AcDbLine
 10
67.535865
 20
88.722256
 11
67.535865
 21
257.406155
  0
LINE
  5
AA
100
AcDbEntity
  8
M2
  6
DASHDOT
370
25
 62
     4
100
AcDbLine
 10
8.204788
 20
176.4064
 11
129.115545
 21
176.4064
  0
LINE
  5
AB
100
AcDbEntity
  8
M2
  6
CONTINUOUS
370
25
 62
     7
100
AcDbLine
 10
216.392989
 20
200.6564
 11
248.392989
 21
200.6564
  0
LINE
  5
AC
100
AcDbEntity
  8
M2
  6
CONTINUOUS
370
25
 62
     7
100
AcDbLine
 10
216.392989
 20
152.1564
 11
248.392989
 21
152.1564
  0
LINE
  5
AD
100
AcDbEntity
  8
M2
  6
CONTINUOUS
370
25
 62
     7
100
AcDbLine
 10
252.392989
 20
196.6564
 11
252.392989
 21
156.1564
  0
LINE
  5
AE
100
AcDbEntity
  8
M2
  6
CONTINUOUS
370
25
 62
     7
100
AcDbLine
 10
212.392989
 20
196.6564
 11
212.392989
 21
156.1564
  0
ARC
  5
AF
100
AcDbEntity
  8
M2
  6
CONTINUOUS
370
25
 62
     7
100
AcDbCircle
 10
216.392989
 20
196.6564
 40
4.0
100
AcDbArc
 50
90.0
 51
180.0
  0
ARC
  5
B0
100
AcDbEntity
  8
M2
  6
CONTINUOUS
370
25
 62
     7
100
AcDbCircle
 10
216.392989
 20
156.1564
 40
4.0
100
AcDbArc
 50
180.0
 51
270.0
  0
ARC
  5
B1
100
AcDbEntity
  8
M2
  6
CONTINUOUS
370
25
 62
     7
100
AcDbCircle
 10
248.392989
 20
156.1564
 40
4.0
100
AcDbArc
 50
270.0
 51
360.0
  0
ARC
  5
B2
100
AcDbEntity
  8
M2
  6
CONTINUOUS
370
25
 62
     7
100
AcDbCircle
 10
248.392989
 20
196.6564
 40
4.0
100
AcDbArc
 50
0.0
 51
90.0
  0
CIRCLE
  5
B3
100
AcDbEntity
  8
M2
  6
CONTINUOUS
370
25
100
AcDbCircle
 10
50.035865
 20
115.6564
 40
1.749997
  0
CIRCLE
  5
B4
100
AcDbEntity
  8
M2
  6
CONTINUOUS
370
25
100
AcDbCircle
 10
85.035865
 20
115.6564
 40
1.749997
  0
CIRCLE
  5
B5
100
AcDbEntity
  8
M2
  6
CONTINUOUS
370
25
100
AcDbCircle
 10
50.035865
 20
237.156399
 40
1.749997
  0
CIRCLE
  5
B6
100
AcDbEntity
  8
M2
  6
CONTINUOUS
370
25
100
AcDbCircle
 10
85.035865
 20
237.156399
 40
1.749997
  0
LINE
  5
B7
100
AcDbEntity
  8
M2
  6
DASHDOT
370
25
100
AcDbLine
 10
78.285869
 20
115.6564
 11
91.785862
 21
115.6564
  0
LINE
  5
B8
100
AcDbEntity
  8
M2
  6
DASHDOT
370
25
100
AcDbLine
 10
85.035865
 20
108.906403
 11
85.035865
 21
122.406396
  0
LINE
  5
B9
100
AcDbEntity
  8
M2
  6
DASHDOT
370
25
100
AcDbLine
 10
43.285869
 20
115.6564
 11
56.785862
 21
115.6564
  0
LINE
  5
BA
100
AcDbEntity
  8
M2
  6
DASHDOT
370
25
100
AcDbLine
 10
50.035865
 20
108.906403
 11
50.035865
 21
122.406396
  0
LINE
  5
BB
100
AcDbEntity
  8
M2
  6
DASHDOT
370
25
100
AcDbLine
 10
43.285869
 20
237.156399
 11
56.785862
 21
237.156399
  0
LINE
  5
BC
100
AcDbEntity
  8
M2
  6
DASHDOT
370
25
100
AcDbLine
 10
50.035865
 20
230.406403
 11
50.035865
 21
243.906396
  0
LINE
  5
BD
100
AcDbEntity
  8
M2
  6
DASHDOT
370
25
100
AcDbLine
 10
78.285869
 20
237.156399
 11
91.785862
 21
237.156399
  0
LINE
  5
BE
100
AcDbEntity
  8
M2
  6
DASHDOT
370
25
100
AcDbLine
 10
85.035865
 20
230.406403
 11
85.035865
 21
243.906396
  0
LINE
  5
BF
100
AcDbEntity
  8
M2
  6
DASHDOT
370
25
 62
     2
100
AcDbLine
 10
270.07712
 20
538.876854
 11
258.885956
 21
538.876678
  0
LINE
  5
C0
100
AcDbEntity
  8
M2
  6
DASHDOT
370
25
 62
     2
100
AcDbLine
 10
264.142989
 20
542.251761
 11
264.142989
 21
535.501761
  0
LINE
  5
C1
100
AcDbEntity
  8
M2
  6
DASHDOT
370
25
 62
     2
100
AcDbLine
 10
258.885705
 20
554.876678
 11
270.076868
 21
554.876854
  0
LINE
  5
C2
100
AcDbEntity
  8
M2
  6
DASHDOT
370
25
 62
     2
100
AcDbLine
 10
264.142989
 20
562.251761
 11
264.142989
 21
551.501761
  0
LINE
  5
C3
100
AcDbEntity
  8
M2
  6
DASHDOT
370
25
 62
     2
100
AcDbLine
 10
258.885641
 20
558.876678
 11
270.076805
 21
558.876854
  0
LINE
  5
C4
100
AcDbEntity
  8
M2
  6
DASHDOT
370
25
 62
     2
100
AcDbLine
 10
270.07712
 20
376.873933
 11
258.885956
 21
376.874109
  0
LINE
  5
C5
100
AcDbEntity
  8
M2
  6
DASHDOT
370
25
 62
     2
100
AcDbLine
 10
264.142989
 20
373.499026
 11
264.142989
 21
380.249026
  0
LINE
  5
C6
100
AcDbEntity
  8
M2
  6
DASHDOT
370
25
 62
     2
100
AcDbLine
 10
258.885705
 20
360.874109
 11
270.076868
 21
360.873933
  0
LINE
  5
C7
100
AcDbEntity
  8
M2
  6
DASHDOT
370
25
 62
     2
100
AcDbLine
 10
264.142989
 20
353.499026
 11
264.142989
 21
364.249026
  0
LINE
  5
C8
100
AcDbEntity
  8
M2
  6
DASHDOT
370
25
 62
     2
100
AcDbLine
 10
258.885641
 20
356.874109
 11
270.076805
 21
356.873933
  0
LINE
  5
C9
100
AcDbEntity
  8
M2
  6
CONTINUOUS
370
25
 62
     4
100
AcDbLine
 10
236.392989
 20
389.375394
 11
284.892989
 21
389.375394
  0
LINE
  5
CA
100
AcDbEntity
  8
M2
  6
CONTINUOUS
370
25
 62
     4
100
AcDbLine
 10
284.892989
 20
389.375394
 11
284.892989
 21
526.375271
  0
LINE
  5
CB
100
AcDbEntity
  8
M2
  6
CONTINUOUS
370
25
 62
     4
100
AcDbLine
 10
284.892989
 20
526.375393
 11
236.392989
 21
526.375393
  0
LINE
  5
CC
100
AcDbEntity
  8
M2
  6
CONTINUOUS
370
25
 62
     4
100
AcDbLine
 10
229.892867
 20
481.625394
 11
229.892867
 21
434.125394
  0
LINE
  5
CD
100
AcDbEntity
  8
M2
  6
DASHDOT
370
25
 62
     4
100
AcDbLine
 10
205.549771
 20
457.875394
 11
297.392989
 21
457.875394
  0
LINE
  5
CE
100
AcDbEntity
  8
M2
  6
CONTINUOUS
370
25
 62
     4
100
AcDbLine
 10
233.392867
 20
402.375394
 11
236.392867
 21
402.375394
  0
LINE
  5
CF
100
AcDbEntity
  8
M2
  6
CONTINUOUS
370
25
 62
     4
100
AcDbLine
 10
236.392867
 20
402.375394
 11
236.392989
 21
389.375394
  0
LINE
  5
D0
100
AcDbEntity
  8
M2
  6
CONTINUOUS
370
25
 62
     4
100
AcDbLine
 10
229.892867
 20
434.125394
 11
233.392867
 21
434.125394
  0
LINE
  5
D1
100
AcDbEntity
  8
M2
  6
CONTINUOUS
370
25
 62
     4
100
AcDbLine
 10
233.392867
 20
434.125394
 11
233.392867
 21
402.375394
  0
LINE
  5
D2
100
AcDbEntity
  8
M2
  6
CONTINUOUS
370
25
 62
     4
100
AcDbLine
 10
236.392989
 20
526.375393
 11
236.392989
 21
402.375394
  0
LINE
  5
D3
100
AcDbEntity
  8
M2
  6
CONTINUOUS
370
25
 62
     4
100
AcDbLine
 10
236.392867
 20
489.125393
 11
233.392867
 21
489.125393
  0
LINE
  5
D4
100
AcDbEntity
  8
M2
  6
CONTINUOUS
370
25
 62
     4
100
AcDbLine
 10
233.392867
 20
489.125393
 11
233.392867
 21
434.125394
  0
LINE
  5
D5
100
AcDbEntity
  8
M2
  6
CONTINUOUS
370
25
 62
     4
100
AcDbLine
 10
233.392867
 20
481.625394
 11
229.892867
 21
481.625394
  0
LINE
  5
D6
100
AcDbEntity
  8
M2
  6
CONTINUOUS
370
25
 62
     4
100
AcDbLine
 10
229.892867
 20
473.659695
 11
229.892867
 21
466.47659
  0
LINE
  5
D7
100
AcDbEntity
  8
M2
  6
CONTINUOUS
370
25
 62
     4
100
AcDbLine
 10
269.392989
 20
526.375393
 11
269.392989
 21
526.375271
  0
ARC
  5
D8
100
AcDbEntity
  8
M2
  6
CONTINUOUS
370
25
 62
     4
100
AcDbCircle
 10
263.392989
 20
454.125394
 40
48.999878
100
AcDbArc
 50
160.000562
 51
179.999955
  0
LINE
  5
D9
100
AcDbEntity
  8
M2
  6
CONTINUOUS
370
25
 62
     4
100
AcDbLine
 10
218.50212
 20
474.055325
 11
216.193404
 21
467.712308
  0
LINE
  5
DA
100
AcDbEntity
  8
M2
  6
CONTINUOUS
370
25
 62
     4
100
AcDbLine
 10
218.50212
 20
474.055447
 11
229.892867
 21
469.909695
  0
LINE
  5
DB
100
AcDbEntity
  8
M2
  6
CONTINUOUS
370
25
 62
     4
100
AcDbLine
 10
216.193404
 20
467.71243
 11
229.892867
 21
462.726468
  0
LINE
  5
DC
100
AcDbEntity
  8
M2
  6
CONTINUOUS
370
25
 62
     4
100
AcDbLine
 10
264.142989
 20
566.376761
 11
267.392989
 21
566.376812
  0
LINE
  5
DD
100
AcDbEntity
  8
M2
  6
CONTINUOUS
370
25
 62
     4
100
AcDbLine
 10
264.142989
 20
566.376761
 11
264.142989
 21
526.375393
  0
LINE
  5
DE
100
AcDbEntity
  8
M2
  6
CONTINUOUS
370
25
 62
     4
100
AcDbLine
 10
264.142989
 20
349.374026
 11
264.142989
 21
389.375394
  0
LINE
  5
DF
100
AcDbEntity
  8
M2
  6
CONTINUOUS
370
25
 62
     4
100
AcDbLine
 10
264.142989
 20
349.374026
 11
267.392989
 21
349.373975
  0
LINE
  5
E0
100
AcDbEntity
  8
M2
  6
DASHED
370
25
100
AcDbLine
 10
269.392989
 20
521.875027
 11
269.392989
 21
515.375027
  0
LINE
  5
E1
100
AcDbEntity
  8
M2
  6
DASHDOT
370
25
100
AcDbLine
 10
259.006371
 20
518.625027
 11
284.892989
 21
518.625027
  0
LINE
  5
E2
100
AcDbEntity
  8
M2
  6
DASHED
370
25
100
AcDbLine
 10
269.392989
 20
393.87576
 11
269.392989
 21
400.37576
  0
LINE
  5
E3
100
AcDbEntity
  8
M2
  6
DASHDOT
370
25
100
AcDbLine
 10
259.006371
 20
397.12576
 11
284.892989
 21
397.12576
  0
LINE
  5
E4
100
AcDbEntity
  8
M3
  6
CONTINUOUS
370
25
100
AcDbLine
 10
217.420215
 20
41.249999
 11
217.420215
 21
-3.552714E-015
  0
LINE
  5
E5
100
AcDbEntity
  8
M3
  6
CONTINUOUS
370
25
100
AcDbLine
 10
12.420208
 20
41.249999
 11
12.420208
 21
-3.552714E-015
  0
LINE
  5
E6
100
AcDbEntity
  8
M3
  6
CONTINUOUS
370
25
100
AcDbLine
 10
12.420208
 20
-3.552714E-015
 11
217.420215
 21
-3.552714E-015
  0
LINE
  5
E7
100
AcDbEntity
  8
M3
  6
CONTINUOUS
370
25
100
AcDbLine
 10
12.420208
 20
41.249999
 11
217.420215
 21
41.249999
  0
LINE
  5
E8
100
AcDbEntity
  8
M3
  6
CONTINUOUS
370
25
100
AcDbLine
 10
169.920216
 20
27.5
 11
169.920216
 21
41.249999
  0
LINE
  5
E9
100
AcDbEntity
  8
M3
  6
CONTINUOUS
370
25
100
AcDbLine
 10
42.420207
 20
27.5
 11
169.920216
 21
27.5
  0
LINE
  5
EA
100
AcDbEntity
  8
M3
  6
CONTINUOUS
370
25
 60
     1
100
AcDbLine
 10
192.420196
 20
27.5
 11
192.420196
 21
41.249999
  0
LINE
  5
EB
100
AcDbEntity
  8
M3
  6
CONTINUOUS
370
25
100
AcDbLine
 10
169.920216
 20
27.5
 11
192.420196
 21
27.5
  0
TEXT
  5
EC
100
AcDbEntity
  8
M3
100
AcDbText
 10
172.571602
 20
31.250001
 40
6.25
  1
ＲＥＶ．：
 41
0.666667
  7
STANDARD
100
AcDbText
  0
LINE
  5
ED
100
AcDbEntity
  8
M3
  6
CONTINUOUS
370
25
 60
     1
100
AcDbLine
 10
217.420215
 20
27.5
 11
217.420215
 21
41.249999
  0
LINE
  5
EE
100
AcDbEntity
  8
M3
  6
CONTINUOUS
370
25
100
AcDbLine
 10
192.420196
 20
27.5
 11
217.420215
 21
27.5
  0
TEXT
  5
EF
100
AcDbEntity
  8
M3
100
AcDbText
 10
202.593819
 20
31.250001
 40
6.25
  1
００
 41
0.833333
  7
STANDARD
100
AcDbText
  0
LINE
  5
F0
100
AcDbEntity
  8
M3
  6
CONTINUOUS
370
25
 60
     1
100
AcDbLine
 10
42.420207
 20
27.5
 11
42.420207
 21
41.249999
  0
LINE
  5
F1
100
AcDbEntity
  8
M3
  6
CONTINUOUS
370
25
100
AcDbLine
 10
12.420208
 20
27.5
 11
42.420207
 21
27.5
  0
TEXT
  5
F2
100
AcDbEntity
  8
M3
100
AcDbText
 10
15.093819
 20
31.250001
 40
6.25
  1
登録名：
 41
0.833333
  7
STANDARD
100
AcDbText
  0
LINE
  5
F3
100
AcDbEntity
  8
M3
  6
CONTINUOUS
370
25
 60
     1
100
AcDbLine
 10
217.420215
 20
13.75
 11
217.420215
 21
27.5
  0
LINE
  5
F4
100
AcDbEntity
  8
M3
  6
CONTINUOUS
370
25
100
AcDbLine
 10
192.420196
 20
13.75
 11
217.420215
 21
13.75
  0
LINE
  5
F5
100
AcDbEntity
  8
M3
  6
CONTINUOUS
370
25
 60
     1
100
AcDbLine
 10
192.420196
 20
13.75
 11
192.420196
 21
27.5
  0
LINE
  5
F6
100
AcDbEntity
  8
M3
  6
CONTINUOUS
370
25
100
AcDbLine
 10
42.420207
 20
13.75
 11
192.420196
 21
13.75
  0
TEXT
  5
F7
100
AcDbEntity
  8
M3
100
AcDbText
 10
45.093819
 20
17.500001
 40
6.25
  1
表面形
 41
0.833333
  7
STANDARD
100
AcDbText
  0
LINE
  5
F8
100
AcDbEntity
  8
M3
  6
CONTINUOUS
370
25
 60
     1
100
AcDbLine
 10
42.420207
 20
13.75
 11
42.420207
 21
27.5
  0
LINE
  5
F9
100
AcDbEntity
  8
M3
  6
CONTINUOUS
370
25
100
AcDbLine
 10
12.420208
 20
13.75
 11
42.420207
 21
13.75
  0
TEXT
  5
FA
100
AcDbEntity
  8
M3
100
AcDbText
 10
13.826462
 20
17.500001
 40
6.25
  1
接続方式：
 41
0.75
  7
STANDARD
100
AcDbText
  0
LINE
  5
FB
100
AcDbEntity
  8
M3
  6
CONTINUOUS
370
25
 60
     1
100
AcDbLine
 10
217.420215
 20
-3.552714E-015
 11
217.420215
 21
13.75
  0
LINE
  5
FC
100
AcDbEntity
  8
M3
  6
CONTINUOUS
370
25
 60
     1
100
AcDbLine
 10
192.420196
 20
-3.552714E-015
 11
217.420215
 21
-3.552714E-015
  0
LINE
  5
FD
100
AcDbEntity
  8
M3
  6
CONTINUOUS
370
25
 60
     1
100
AcDbLine
 10
192.420196
 20
-3.552714E-015
 11
192.420196
 21
13.75
  0
LINE
  5
FE
100
AcDbEntity
  8
M3
  6
CONTINUOUS
370
25
 60
     1
100
AcDbLine
 10
42.420207
 20
-3.552714E-015
 11
192.420196
 21
-3.552714E-015
  0
TEXT
  5
FF
100
AcDbEntity
  8
M3
100
AcDbText
 10
45.076454
 20
3.750001
 40
6.25
  1
Ｓ－６３０Ｓ／Ｆ－６３０Ｆ
 41
0.75
  7
STANDARD
100
AcDbText
  0
LINE
  5
100
100
AcDbEntity
  8
M3
  6
CONTINUOUS
370
25
 60
     1
100
AcDbLine
 10
42.420207
 20
-3.552714E-015
 11
42.420207
 21
13.75
  0
LINE
  5
101
100
AcDbEntity
  8
M3
  6
CONTINUOUS
370
25
 60
     1
100
AcDbLine
 10
12.420208
 20
-3.552714E-015
 11
42.420207
 21
-3.552714E-015
  0
TEXT
  5
102
100
AcDbEntity
  8
M3
100
AcDbText
 10
13.826462
 20
3.750001
 40
6.25
  1
適用形式：
 41
0.75
  7
STANDARD
100
AcDbText
  0
TEXT
  5
103
100
AcDbEntity
  8
M3
100
AcDbText
 10
45.093819
 20
31.250001
 40
6.25
  1
Ｓ－６３０Ｓ　２Ｐ
 41
0.833333
  7
STANDARD
100
AcDbText
  0
ENDSEC
  0
SECTION
  2
OBJECTS
  0
DICTIONARY
  5
C
100
AcDbDictionary
  3
ACAD_GROUP
350
D
  3
ACAD_MLINESTYLE
350
E
  0
DICTIONARY
  5
D
102
{ACAD_REACTORS
330
C
102
}
100
AcDbDictionary
  0
DICTIONARY
  5
E
102
{ACAD_REACTORS
330
C
102
}
100
AcDbDictionary
  3
STANDARD
350
13
  0
MLINESTYLE
  5
13
102
{ACAD_REACTORS
330
E
102
}
100
AcDbMlineStyle
  2
STANDARD
 70
     0
  3

 62
     0
 51
90.0
 52
90.0
 71
     2
 49
0.5
 62
   256
  6
BYLAYER
 49
-0.5
 62
   256
  6
BYLAYER
  0
ENDSEC
  0
EOF
