  0
SECTION
  2
HEADER
  9
$ACADVER
  1
AC1014
  9
$INSBASE
 10
0.000000
 20
0.000000
 30
0.0
  9
$VIEWCTR
 10
7.531722
 20
4.5
  9
$VIEWSIZE
 40
9.0
  9
$SNAPMODE
 70
     0
  9
$SNAPUNIT
 10
1.0
 20
1.0
  9
$SNAPBASE
 10
0.0
 20
0.0
  9
$SNAPANG
 50
0.0
  9
$SNAPSTYLE
 70
     0
  9
$SNAPISOPAIR
 70
     0
  9
$GRIDMODE
 70
     0
  9
$GRIDUNIT
 10
0.0
 20
0.0
  9
$ORTHOMODE
 70
     0
  9
$REGENMODE
 70
     1
  9
$FILLMODE
 70
     1
  9
$QTEXTMODE
 70
     0
  9
$DRAGMODE
 70
     2
  9
$LTSCALE
  40
     1.000000
  9
$OSMODE
 70
     0
  9
$ATTMODE
 70
     1
  9
$TEXTSIZE
 40
0.2
  9
$TRACEWID
 40
0.05
  9
$TEXTSTYLE
  7
STANDARD
  9
$CELTYPE
  6
BYLAYER
  9
$CECOLOR
 62
   256
  9
$DIMSCALE
 40
1.0
  9
$DIMASZ
 40
0.18
  9
$DIMEXO
 40
0.0625
  9
$DIMDLI
 40
0.38
  9
$DIMRND
 40
0.0
  9
$DIMDLE
 40
0.0
  9
$DIMEXE
 40
0.18
  9
$DIMTP
 40
0.0
  9
$DIMTM
 40
0.0
  9
$DIMTXT
 40
0.18
  9
$DIMCEN
 40
0.09
  9
$DIMTSZ
 40
0.0
  9
$DIMTOL
 70
     0
  9
$DIMLIM
 70
     0
  9
$DIMTIH
 70
     1
  9
$DIMTOH
 70
     1
  9
$DIMSE1
 70
     0
  9
$DIMSE2
 70
     0
  9
$DIMTAD
 70
     0
  9
$DIMZIN
 70
     0
  9
$DIMBLK
  1

  9
$LUNITS
 70
     2
  9
$LUPREC
 70
     4
  9
$AXISMODE
 70
     0
  9
$AXISUNIT
 10
0.0
 20
0.0
  9
$SKETCHINC
 40
0.1
  9
$FILLETRAD
 40
0.0
  9
$AUNITS
 70
     0
  9
$AUPREC
 70
     0
  9
$MENU
  1
ACAD
  9
$ELEVATION
 40
0.0
  9
$THICKNESS
 40
0.0
  9
$VIEWDIR
 10
0.0
 20
0.0
 30
1.0
  9
$LIMCHECK
 70
     0
  9
$BLIPMODE
 70
     1
  9
$CHAMFERA
 40
0.0
  9
$CHAMFERB
 40
0.0
  9
$FASTZOOM
 70
     1
  9
$SKPOLY
 70
     0
  9
$TDCREATE
 40
0000000.0000000000
  9
$TDUPDATE
 40
0000000.0000000000
  9
$TDINDWG
 40
0.0000000000
  9
$TDUSRTIMER
 40
0.0000000000
  9
$USRTIMER
 70
     1
  9
$ANGBASE
 50
0.0
  9
$ANGDIR
 70
     0
  9
$PDMODE
 70
     0
  9
$PDSIZE
 40
0.0
  9
$PLINEWID
 40
0.0
  9
$COORDS
 70
     0
  9
$USERI1
 70
     0
  9
$USERI2
 70
     0
  9
$USERI3
 70
     0
  9
$USERI4
 70
     0
  9
$USERI5
 70
     0
  9
$USERR1
 40
0.0
  9
$USERR2
 40
0.0
  9
$USERR3
 40
0.0
  9
$USERR4
 40
0.0
  9
$USERR5
 40
0.0
  9
$CLAYER
  8
M0
  9
$EXTMIN
 10
127.673344
 20
78.398833
  9
$EXTMAX
 10
345.034561
 20
600.365417
  9
$LIMMIN
 10
0.0
 20
0.0
  9
$LIMMAX
 10
210.0
 20
297.0
  9
$HANDSEED
  5
163
  0
ENDSEC
  0
SECTION
  2
CLASSES
  0
ENDSEC
  0
SECTION
  2
TABLES
  0
TABLE
  2
VPORT
  5
8
100
AcDbSymbolTable
 70
     2
  0
VPORT
  5
14
100
AcDbSymbolTableRecord
100
AcDbViewportTableRecord
  2
*ACTIVE
 70
     0
 10
0.0
 20
0.0
 11
1.0
 21
1.0
 12
484.0
 22
297.0
 13
0.0
 23
0.0
 14
1.0
 24
1.0
 15
0.0
 25
0.0
 16
0.0
 26
0.0
 36
1.0
 17
0.0
 27
0.0
 37
0.0
 40
594.0
 41
2.0
 42
50.0
 43
0.0
 44
0.0
 50
0.0
 51
0.0
 71
     0
 72
   100
 73
     1
 74
     1
 75
     0
 76
     0
 77
     0
 78
     0
  0
ENDTAB
  0
TABLE
  2
LTYPE
  5
5
100
AcDbSymbolTable
 70
     5
  0
LTYPE
  5
15
100
AcDbSymbolTableRecord
100
AcDbLinetypeTableRecord
  2
BYBLOCK
 70
     0
  3

 72
    65
 73
     0
 40
0.0
  0
LTYPE
  5
16
100
AcDbSymbolTableRecord
100
AcDbLinetypeTableRecord
  2
BYLAYER
 70
     0
  3

 72
    65
 73
     0
 40
0.0
  0
LTYPE
  5
17
100
AcDbSymbolTableRecord
100
AcDbLinetypeTableRecord
  2
CONTINUOUS
 70
    64
  3
Solid line
 72
    65
 73
     0
 40
0.0
  0
LTYPE
  5
18
100
AcDbSymbolTableRecord
100
AcDbLinetypeTableRecord
  2
DASHED
 70
    64
  3
__ __ __ __ __ __ __ __ __ __ __ __ __ __ __ __
 72
    65
 73
     2
 40
0.75
 49
0.5
 74
     0
 49
-0.25
 74
     0
  0
LTYPE
  5
19
100
AcDbSymbolTableRecord
100
AcDbLinetypeTableRecord
  2
DASHDOT
 70
    64
  3
__ . __ . __ . __ . __ . __ . __ . __ . __ . __
 72
    65
 73
     4
 40
1.0
 49
0.5
 74
     0
 49
-0.25
 74
     0
 49
0.0
 74
     0
 49
-0.25
 74
     0
  0
LTYPE
  5
1A
100
AcDbSymbolTableRecord
100
AcDbLinetypeTableRecord
  2
DIVIDE
 70
    64
  3
____ . . ____ . . ____ . . ____ . . ____ . . __
 72
    65
 73
     6
 40
1.25
 49
0.5
 74
     0
 49
-0.25
 74
     0
 49
0.0
 74
     0
 49
-0.25
 74
     0
 49
0.0
 74
     0
 49
-0.25
 74
     0
  0
LTYPE
  5
1B
100
AcDbSymbolTableRecord
100
AcDbLinetypeTableRecord
  2
DOT
 70
    64
  3
. . . . . . . . . . . . . . . . . . . . . . . .
 72
    65
 73
     2
 40
0.25
 49
0.0
 74
     0
 49
-0.25
 74
     0
  0
ENDTAB
  0
TABLE
  2
LAYER
  5
2
100
AcDbSymbolTable
 70
   102
  0
LAYER
  5
F
100
AcDbSymbolTableRecord
100
AcDbLayerTableRecord
  2
0
 70
     0
 62
     7
  6
CONTINUOUS
  0
LAYER
  5
1C
100
AcDbSymbolTableRecord
100
AcDbLayerTableRecord
  2
DEFPOINTS
 70
     0
 62
     7
  6
CONTINUOUS
  0
LAYER
  5
1D
100
AcDbSymbolTableRecord
100
AcDbLayerTableRecord
  2
M0
 70
     0
 62
     3
  6
CONTINUOUS
  0
LAYER
  5
1E
100
AcDbSymbolTableRecord
100
AcDbLayerTableRecord
  2
DT0
 70
     0
 62
     7
  6
CONTINUOUS
  0
ENDTAB
  0
TABLE
  2
STYLE
  5
3
100
AcDbSymbolTable
 70
     2
  0
STYLE
  5
10
100
AcDbSymbolTableRecord
100
AcDbTextStyleTableRecord
  2
STANDARD
 70
     0
 40
0.0
 41
1.0
 50
0.0
 71
     0
 42
0.2
  3
txt
  4
BIGFONT
  0
ENDTAB
  0
TABLE
  2
VIEW
  5
6
100
AcDbSymbolTable
 70
     0
  0
ENDTAB
  0
TABLE
  2
UCS
  5
7
100
AcDbSymbolTable
 70
     0
  0
ENDTAB
  0
TABLE
  2
APPID
  5
9
100
AcDbSymbolTable
 70
     1
  0
APPID
  5
11
100
AcDbSymbolTableRecord
100
AcDbRegAppTableRecord
  2
ACAD
 70
     0
  0
ENDTAB
  0
TABLE
  2
DIMSTYLE
  5
A
100
AcDbSymbolTable
 70
     2
  0
DIMSTYLE
105
25
100
AcDbSymbolTableRecord
100
AcDbDimStyleTableRecord
  2
STANDARD
 70
     0
  3

  4

  5

  6
_OPEN
  7
_OPEN
 40
1.0
 41
7.5
 42
1.0
 43
8.0
 44
1.0
 45
0.0
 46
0.0
 47
0.0
 48
0.0
140
6.25
141
0.09
142
0.0
143
0.03937
144
1.0
145
0.0
146
1.0
147
0.6
 71
     0
 72
     0
 73
     1
 74
     1
 75
     0
 76
     0
 77
     3
 78
     8
170
     0
171
     2
172
     0
173
     1
174
     0
175
     0
176
     0
177
     0
178
     0
270
     2
271
     2
272
     4
273
     2
274
     2
340
10
275
     0
280
     0
281
     0
282
     0
283
     1
284
     0
285
     0
286
     0
287
     3
288
     0
  0
DIMSTYLE
105
26
100
AcDbSymbolTableRecord
100
AcDbDimStyleTableRecord
  2
LEADSTYL
 70
     0
  3

  4

  5

  6
_OPEN
  7
_OPEN
 40
1.0
 41
7.5
 42
0.0625
 43
0.38
 44
0.18
 45
0.0
 46
0.0
 47
0.0
 48
0.0
140
7.875
141
0.09
142
0.0
143
25.4
144
1.0
145
0.0
146
1.0
147
0.6
 71
     0
 72
     0
 73
     1
 74
     1
 75
     0
 76
     0
 77
     0
 78
     0
170
     0
171
     2
172
     0
173
     1
174
     0
175
     0
176
     0
177
     0
178
     0
270
     2
271
     4
272
     4
273
     2
274
     2
340
10
275
     0
280
     0
281
     0
282
     0
283
     1
284
     0
285
     0
286
     0
287
     3
288
     0
  0
ENDTAB
  0
TABLE
  2
BLOCK_RECORD
  5
1
100
AcDbSymbolTable
 70
     7
  0
BLOCK_RECORD
  5
1F
100
AcDbSymbolTableRecord
100
AcDbBlockTableRecord
  2
*MODEL_SPACE
  0
BLOCK_RECORD
  5
22
100
AcDbSymbolTableRecord
100
AcDbBlockTableRecord
  2
*PAPER_SPACE
  0
BLOCK_RECORD
  5
27
100
AcDbSymbolTableRecord
100
AcDbBlockTableRecord
  2
_NONE
  0
BLOCK_RECORD
  5
2B
100
AcDbSymbolTableRecord
100
AcDbBlockTableRecord
  2
_OPEN
  0
BLOCK_RECORD
  5
31
100
AcDbSymbolTableRecord
100
AcDbBlockTableRecord
  2
_CLOSED
  0
BLOCK_RECORD
  5
38
100
AcDbSymbolTableRecord
100
AcDbBlockTableRecord
  2
_ORIGIN
  0
BLOCK_RECORD
  5
3D
100
AcDbSymbolTableRecord
100
AcDbBlockTableRecord
  2
_DOT
  0
BLOCK_RECORD
  5
45
100
AcDbSymbolTableRecord
100
AcDbBlockTableRecord
  2
_OBLIQUE
  0
BLOCK_RECORD
  5
13E
100
AcDbSymbolTableRecord
100
AcDbBlockTableRecord
  2
LIST0
  0
ENDTAB
  0
ENDSEC
  0
SECTION
  2
BLOCKS
  0
BLOCK
  5
20
100
AcDbEntity
  8
0
100
AcDbBlockBegin
  2
*MODEL_SPACE
 70
     0
 10
0.0
 20
0.0
 30
0.0
  3
*MODEL_SPACE
  1

  0
ENDBLK
  5
21
100
AcDbEntity
  8
0
100
AcDbBlockEnd
  0
BLOCK
  5
23
100
AcDbEntity
 67
     1
  8
0
100
AcDbBlockBegin
  2
*PAPER_SPACE
 70
     0
 10
0.0
 20
0.0
 30
0.0
  3
*PAPER_SPACE
  1

  0
ENDBLK
  5
24
100
AcDbEntity
 67
     1
  8
0
100
AcDbBlockEnd
  0
BLOCK
  5
28
100
AcDbEntity
  8
0
100
AcDbBlockBegin
  2
_NONE
 70
     0
 10
0.0
 20
0.0
  0
CIRCLE
  5
29
100
AcDbEntity
  8
0
 62
     0
100
AcDbCircle
 10
0.0
 20
0.0
 40
0.25
  0
ENDBLK
  5
2A
100
AcDbEntity
  8
0
100
AcDbBlockEnd
  0
BLOCK
  5
2C
100
AcDbEntity
  8
0
100
AcDbBlockBegin
  2
_OPEN
 70
     0
 10
0.0
 20
0.0
  0
LINE
  5
2D
100
AcDbEntity
  8
0
 62
     0
100
AcDbLine
 10
-0.965926
 20
0.258819
 11
0.0
 21
0.0
  0
LINE
  5
2E
100
AcDbEntity
  8
0
 62
     0
100
AcDbLine
 10
0.0
 20
0.0
 11
-0.965926
 21
-0.258819
  0
LINE
  5
2F
100
AcDbEntity
  8
0
 62
     0
100
AcDbLine
 10
0.0
 20
0.0
 11
-1.0
 21
0.0
  0
ENDBLK
  5
30
100
AcDbEntity
  8
0
100
AcDbBlockEnd
  0
BLOCK
  5
32
100
AcDbEntity
  8
0
100
AcDbBlockBegin
  2
_CLOSED
 70
     0
 10
0.0
 20
0.0
  0
LINE
  5
33
100
AcDbEntity
  8
0
 62
     0
100
AcDbLine
 10
-0.965926
 20
0.258819
 11
0.0
 21
0.0
  0
LINE
  5
34
100
AcDbEntity
  8
0
 62
     0
100
AcDbLine
 10
0.0
 20
0.0
 11
-0.965926
 21
-0.258819
  0
LINE
  5
35
100
AcDbEntity
  8
0
 62
     0
100
AcDbLine
 10
-0.965926
 20
0.258819
 11
-0.965926
 21
-0.258819
  0
LINE
  5
36
100
AcDbEntity
  8
0
 62
     0
100
AcDbLine
 10
0.0
 20
0.0
 11
-1.0
 21
0.0
  0
ENDBLK
  5
37
100
AcDbEntity
  8
0
100
AcDbBlockEnd
  0
BLOCK
  5
39
100
AcDbEntity
  8
0
100
AcDbBlockBegin
  2
_ORIGIN
 70
     0
 10
0.0
 20
0.0
  0
CIRCLE
  5
3A
100
AcDbEntity
  8
0
 62
     0
100
AcDbCircle
 10
0.0
 20
0.0
 40
0.5
  0
LINE
  5
3B
100
AcDbEntity
  8
0
 62
     0
100
AcDbLine
 10
0.0
 20
0.0
 11
-1.0
 21
0.0
  0
ENDBLK
  5
3C
100
AcDbEntity
  8
0
100
AcDbBlockEnd
  0
BLOCK
  5
3E
100
AcDbEntity
  8
0
100
AcDbBlockBegin
  2
_DOT
 70
     0
 10
0.0
 20
0.0
  0
POLYLINE
  5
3F
100
AcDbEntity
  8
0
 62
     0
100
AcDb2dPolyline
 66
     1
 70
     1
 40
0.5
 41
0.5
  0
VERTEX
  5
40
100
AcDbEntity
  8
0
 62
     0
100
AcDbVertex
100
AcDb2dVertex
 10
-0.25
 20
0.0
 42
1.0
  0
VERTEX
  5
41
100
AcDbEntity
  8
0
 62
     0
100
AcDbVertex
100
AcDb2dVertex
 10
0.25
 20
0.0
 42
1.0
  0
SEQEND
  5
42
100
AcDbEntity
  8
0
 62
     0
  0
LINE
  5
43
100
AcDbEntity
  8
0
 62
     0
100
AcDbLine
 10
-0.5
 20
0.0
 11
-1.0
 21
0.0
  0
ENDBLK
  5
44
100
AcDbEntity
  8
0
100
AcDbBlockEnd
  0
BLOCK
  5
46
100
AcDbEntity
  8
0
100
AcDbBlockBegin
  2
_OBLIQUE
 70
     0
 10
0.0
 20
0.0
  0
LINE
  5
47
100
AcDbEntity
  8
0
 62
     0
100
AcDbLine
 10
-0.353553
 20
-0.353553
 11
0.353553
 21
0.353553
  0
ENDBLK
  5
48
100
AcDbEntity
  8
0
100
AcDbBlockEnd
  0
BLOCK
  5
13F
100
AcDbEntity
  8
DT0
100
AcDbBlockBegin
  2
LIST0
 70
     0
 10
0.0
 20
0.0
  0
LINE
  5
140
100
AcDbEntity
  8
DT0
100
AcDbLine
 10
345.034561
 20
119.648838
 11
345.034561
 21
78.398833
  0
LINE
  5
141
100
AcDbEntity
  8
DT0
100
AcDbLine
 10
140.034571
 20
119.648838
 11
140.034571
 21
78.398833
  0
LINE
  5
142
100
AcDbEntity
  8
DT0
100
AcDbLine
 10
140.034571
 20
78.398833
 11
345.034561
 21
78.398833
  0
LINE
  5
143
100
AcDbEntity
  8
DT0
100
AcDbLine
 10
140.034571
 20
119.648838
 11
345.034561
 21
119.648838
  0
LINE
  5
144
100
AcDbEntity
  8
DT0
100
AcDbLine
 10
297.53458
 20
105.898838
 11
297.53458
 21
119.648838
  0
LINE
  5
145
100
AcDbEntity
  8
DT0
100
AcDbLine
 10
170.03458
 20
105.898838
 11
297.53458
 21
105.898838
  0
TEXT
  5
146
100
AcDbEntity
  8
DT0
100
AcDbText
 10
173.055414
 20
109.648838
 40
6.25
  1
Ｓ３０ｅ２Ｐ
 41
0.833333
  7
STANDARD
100
AcDbText
  0
LINE
  5
147
100
AcDbEntity
  8
DT0
 60
     1
100
AcDbLine
 10
320.034561
 20
105.898838
 11
320.034561
 21
119.648838
  0
LINE
  5
148
100
AcDbEntity
  8
DT0
100
AcDbLine
 10
297.53458
 20
105.898838
 11
320.034561
 21
105.898838
  0
TEXT
  5
149
100
AcDbEntity
  8
DT0
100
AcDbText
 10
300.463751
 20
109.648838
 40
6.25
  1
ＲＥＶ．：
 41
0.666667
  7
STANDARD
100
AcDbText
  0
LINE
  5
14A
100
AcDbEntity
  8
DT0
 60
     1
100
AcDbLine
 10
345.034561
 20
105.898838
 11
345.034561
 21
119.648838
  0
LINE
  5
14B
100
AcDbEntity
  8
DT0
100
AcDbLine
 10
320.034561
 20
105.898838
 11
345.034561
 21
105.898838
  0
TEXT
  5
14C
100
AcDbEntity
  8
DT0
100
AcDbText
 10
330.555376
 20
109.648838
 40
6.25
  1
００
 41
0.833333
  7
STANDARD
100
AcDbText
  0
LINE
  5
14D
100
AcDbEntity
  8
DT0
 60
     1
100
AcDbLine
 10
170.03458
 20
105.898838
 11
170.03458
 21
119.648838
  0
LINE
  5
14E
100
AcDbEntity
  8
DT0
100
AcDbLine
 10
140.034571
 20
105.898838
 11
170.03458
 21
105.898838
  0
TEXT
  5
14F
100
AcDbEntity
  8
DT0
100
AcDbText
 10
143.055405
 20
109.648838
 40
6.25
  1
登録名：
 41
0.833333
  7
STANDARD
100
AcDbText
  0
LINE
  5
150
100
AcDbEntity
  8
DT0
 60
     1
100
AcDbLine
 10
345.034561
 20
92.148838
 11
345.034561
 21
105.898838
  0
LINE
  5
151
100
AcDbEntity
  8
DT0
100
AcDbLine
 10
320.034561
 20
92.148838
 11
345.034561
 21
92.148838
  0
LINE
  5
152
100
AcDbEntity
  8
DT0
 60
     1
100
AcDbLine
 10
320.034561
 20
92.148838
 11
320.034561
 21
105.898838
  0
LINE
  5
153
100
AcDbEntity
  8
DT0
100
AcDbLine
 10
170.03458
 20
92.148838
 11
320.034561
 21
92.148838
  0
TEXT
  5
154
100
AcDbEntity
  8
DT0
100
AcDbText
 10
173.055414
 20
95.898838
 40
6.25
  1
表面形
 41
0.833333
  7
STANDARD
100
AcDbText
  0
LINE
  5
155
100
AcDbEntity
  8
DT0
 60
     1
100
AcDbLine
 10
170.03458
 20
92.148838
 11
170.03458
 21
105.898838
  0
LINE
  5
156
100
AcDbEntity
  8
DT0
100
AcDbLine
 10
140.034571
 20
92.148838
 11
170.03458
 21
92.148838
  0
TEXT
  5
157
100
AcDbEntity
  8
DT0
100
AcDbText
 10
141.75332
 20
95.898838
 40
6.25
  1
接続方式：
 41
0.75
  7
STANDARD
100
AcDbText
  0
LINE
  5
158
100
AcDbEntity
  8
DT0
 60
     1
100
AcDbLine
 10
345.034561
 20
78.398833
 11
345.034561
 21
92.148838
  0
LINE
  5
159
100
AcDbEntity
  8
DT0
 60
     1
100
AcDbLine
 10
320.034561
 20
78.398833
 11
345.034561
 21
78.398833
  0
LINE
  5
15A
100
AcDbEntity
  8
DT0
 60
     1
100
AcDbLine
 10
320.034561
 20
78.398833
 11
320.034561
 21
92.148838
  0
LINE
  5
15B
100
AcDbEntity
  8
DT0
 60
     1
100
AcDbLine
 10
170.03458
 20
78.398833
 11
320.034561
 21
78.398833
  0
TEXT
  5
15C
100
AcDbEntity
  8
DT0
100
AcDbText
 10
173.003339
 20
82.148838
 40
6.25
  1
Ｓ－３０Ｅ／Ｓ－５０ＥＢ
 41
0.75
  7
STANDARD
100
AcDbText
  0
LINE
  5
15D
100
AcDbEntity
  8
DT0
 60
     1
100
AcDbLine
 10
170.03458
 20
78.398833
 11
170.03458
 21
92.148838
  0
LINE
  5
15E
100
AcDbEntity
  8
DT0
 60
     1
100
AcDbLine
 10
140.034571
 20
78.398833
 11
170.03458
 21
78.398833
  0
TEXT
  5
15F
100
AcDbEntity
  8
DT0
100
AcDbText
 10
141.75332
 20
82.148838
 40
6.25
  1
適用形式：
 41
0.75
  7
STANDARD
100
AcDbText
  0
ENDBLK
  5
160
100
AcDbEntity
  8
DT0
100
AcDbBlockEnd
  0
ENDSEC
  0
SECTION
  2
ENTITIES
  0
LINE
  5
49
100
AcDbEntity
  8
M0
 62
     4
100
AcDbLine
 10
264.169637
 20
565.559789
 11
271.796609
 21
562.960156
  0
ARC
  5
4A
100
AcDbEntity
  8
M0
 62
     4
100
AcDbCircle
 10
261.594706
 20
562.558401
 40
0.799999
100
AcDbArc
 50
154.020881
 51
243.841477
  0
LINE
  5
4B
100
AcDbEntity
  8
M0
 62
     4
100
AcDbLine
 10
271.796609
 20
556.697258
 11
261.242021
 21
561.84034
  0
LINE
  5
4C
100
AcDbEntity
  8
M0
 62
     4
100
AcDbLine
 10
262.102068
 20
565.425907
 11
260.875541
 21
562.908841
  0
LINE
  5
4D
100
AcDbEntity
  8
M0
 62
     4
100
AcDbLine
 10
262.102068
 20
565.425907
 11
264.169637
 21
565.559789
  0
ARC
  5
4E
100
AcDbEntity
  8
M0
 62
     4
100
AcDbCircle
 10
272.296609
 20
517.265422
 40
0.5
100
AcDbArc
 50
180.0
 51
270.0
  0
ARC
  5
4F
100
AcDbEntity
  8
M0
 62
     4
100
AcDbCircle
 10
272.296609
 20
566.26543
 40
0.5
100
AcDbArc
 50
90.0
 51
180.0
  0
LINE
  5
50
100
AcDbEntity
  8
M0
 62
     4
100
AcDbLine
 10
283.796609
 20
494.765438
 11
283.796609
 21
508.265422
  0
LINE
  5
51
100
AcDbEntity
  8
M0
  6
DASHDOT
 62
     4
100
AcDbLine
 10
266.796609
 20
541.765438
 11
336.796609
 21
541.765438
  0
LINE
  5
52
100
AcDbEntity
  8
M0
 62
     4
100
AcDbLine
 10
298.796613
 20
493.765438
 11
284.796609
 21
493.765438
  0
ARC
  5
53
100
AcDbEntity
  8
M0
 62
     4
100
AcDbCircle
 10
277.796609
 20
574.26543
 40
1.0
100
AcDbArc
 50
90.0
 51
180.0
  0
ARC
  5
54
100
AcDbEntity
  8
M0
 62
     4
100
AcDbCircle
 10
277.796609
 20
509.265422
 40
1.0
100
AcDbArc
 50
180.0
 51
270.0
  0
ARC
  5
55
100
AcDbEntity
  8
M0
 62
     4
100
AcDbCircle
 10
284.796609
 20
588.765444
 40
1.0
100
AcDbArc
 50
90.0
 51
180.0
  0
ARC
  5
56
100
AcDbEntity
  8
M0
 62
     4
100
AcDbCircle
 10
284.796609
 20
494.765438
 40
1.0
100
AcDbArc
 50
180.0
 51
270.0
  0
LINE
  5
57
100
AcDbEntity
  8
M0
 62
     4
100
AcDbLine
 10
272.296609
 20
566.76543
 11
276.796609
 21
566.76543
  0
LINE
  5
58
100
AcDbEntity
  8
M0
 62
     4
100
AcDbLine
 10
276.796609
 20
516.765422
 11
272.296609
 21
516.765422
  0
LINE
  5
59
100
AcDbEntity
  8
M0
 62
     4
100
AcDbLine
 10
283.796609
 20
575.26543
 11
277.796609
 21
575.26543
  0
LINE
  5
5A
100
AcDbEntity
  8
M0
 62
     4
100
AcDbLine
 10
283.796609
 20
508.265422
 11
277.796609
 21
508.265422
  0
LINE
  5
5B
100
AcDbEntity
  8
M0
 62
     4
100
AcDbLine
 10
276.796609
 20
574.26543
 11
276.796609
 21
509.265422
  0
LINE
  5
5C
100
AcDbEntity
  8
M0
 62
     4
100
AcDbLine
 10
283.796609
 20
575.26543
 11
283.796609
 21
588.765444
  0
ARC
  5
5D
100
AcDbEntity
  8
M0
 62
     4
100
AcDbCircle
 10
271.831609
 20
565.300422
 40
0.035
100
AcDbArc
 50
180.0
 51
270.0
  0
LINE
  5
5E
100
AcDbEntity
  8
M0
 62
     4
100
AcDbLine
 10
271.796609
 20
565.300422
 11
271.796609
 21
517.265422
  0
LINE
  5
5F
100
AcDbEntity
  8
M0
 62
     4
100
AcDbLine
 10
298.796613
 20
589.765444
 11
284.796609
 21
589.765444
  0
LINE
  5
60
100
AcDbEntity
  8
M0
 62
     4
100
AcDbLine
 10
271.796609
 20
565.300422
 11
271.796609
 21
566.26543
  0
LINE
  5
61
100
AcDbEntity
  8
M0
 62
     4
100
AcDbLine
 10
328.296609
 20
588.435308
 11
328.296609
 21
586.865435
  0
LINE
  5
62
100
AcDbEntity
  8
M0
 62
     4
100
AcDbLine
 10
328.296609
 20
495.095562
 11
328.296609
 21
496.665435
  0
LINE
  5
63
100
AcDbEntity
  8
M0
 62
     4
100
AcDbLine
 10
336.796609
 20
496.665435
 11
335.296609
 21
496.665435
  0
LINE
  5
64
100
AcDbEntity
  8
M0
 62
     4
100
AcDbLine
 10
331.796609
 20
524.115435
 11
331.796609
 21
559.415435
  0
LINE
  5
65
100
AcDbEntity
  8
M0
 62
     4
100
AcDbLine
 10
336.796609
 20
495.765435
 11
336.796609
 21
519.765435
  0
LINE
  5
66
100
AcDbEntity
  8
M0
 62
     4
100
AcDbLine
 10
298.796613
 20
589.765438
 11
323.332497
 21
589.765438
  0
LINE
  5
67
100
AcDbEntity
  8
M0
 62
     4
100
AcDbLine
 10
298.796613
 20
493.765432
 11
323.332497
 21
493.765432
  0
LINE
  5
68
100
AcDbEntity
  8
M0
 62
     4
100
AcDbLine
 10
332.396609
 20
524.115435
 11
331.796609
 21
524.115435
  0
LINE
  5
69
100
AcDbEntity
  8
M0
 62
     4
100
AcDbLine
 10
336.796609
 20
559.415435
 11
331.796609
 21
559.415435
  0
LINE
  5
6A
100
AcDbEntity
  8
M0
 62
     4
100
AcDbLine
 10
336.796609
 20
557.415435
 11
336.796609
 21
587.765435
  0
LINE
  5
6B
100
AcDbEntity
  8
M0
 62
     4
100
AcDbLine
 10
336.796609
 20
495.765435
 11
336.671382
 21
495.765435
  0
LINE
  5
6C
100
AcDbEntity
  8
M0
 62
     4
100
AcDbLine
 10
336.796609
 20
587.765435
 11
336.67139
 21
587.765435
  0
LINE
  5
6D
100
AcDbEntity
  8
M0
 62
     4
100
AcDbLine
 10
330.796609
 20
495.765435
 11
323.332497
 21
493.765432
  0
LINE
  5
6E
100
AcDbEntity
  8
M0
 62
     4
100
AcDbLine
 10
330.796609
 20
587.765435
 11
323.332497
 21
589.765438
  0
LINE
  5
6F
100
AcDbEntity
  8
M0
 62
     4
100
AcDbLine
 10
336.796609
 20
557.415435
 11
334.796609
 21
557.415435
  0
LINE
  5
70
100
AcDbEntity
  8
M0
 62
     4
100
AcDbLine
 10
333.551255
 20
557.996153
 11
332.796609
 21
559.415435
  0
LINE
  5
71
100
AcDbEntity
  8
M0
 62
     4
100
AcDbLine
 10
334.796609
 20
557.415435
 11
333.551255
 21
557.996153
  0
LINE
  5
72
100
AcDbEntity
  8
M0
 62
     4
100
AcDbLine
 10
333.396609
 20
520.765435
 11
333.396609
 21
523.115435
  0
LINE
  5
73
100
AcDbEntity
  8
M0
 62
     4
100
AcDbLine
 10
335.796609
 20
520.765435
 11
333.396609
 21
520.765435
  0
ARC
  5
74
100
AcDbEntity
  8
M0
 62
     4
100
AcDbCircle
 10
335.796609
 20
519.765435
 40
1.0
100
AcDbArc
 50
0.0
 51
90.0
  0
ARC
  5
75
100
AcDbEntity
  8
M0
 62
     4
100
AcDbCircle
 10
332.396609
 20
523.115435
 40
1.0
100
AcDbArc
 50
0.0
 51
90.0
  0
LINE
  5
76
100
AcDbEntity
  8
M0
 62
     4
100
AcDbLine
 10
328.296609
 20
586.865435
 11
330.562132
 21
586.865435
  0
LINE
  5
77
100
AcDbEntity
  8
M0
 62
     4
100
AcDbLine
 10
331.222595
 20
587.765435
 11
330.796609
 21
587.765435
  0
LINE
  5
78
100
AcDbEntity
  8
M0
 62
     4
100
AcDbLine
 10
335.303958
 20
586.865435
 11
336.796609
 21
586.865435
  0
LINE
  5
79
100
AcDbEntity
  8
M0
 62
     4
100
AcDbLine
 10
331.222569
 20
495.765435
 11
330.796609
 21
495.765435
  0
LINE
  5
7A
100
AcDbEntity
  8
M0
 62
     4
100
AcDbLine
 10
330.562126
 20
496.665435
 11
328.296609
 21
496.665435
  0
LINE
  5
7B
100
AcDbEntity
  8
M0
 62
     4
100
AcDbLine
 10
333.296609
 20
525.615428
 11
336.796609
 21
521.415428
  0
LINE
  5
7C
100
AcDbEntity
  8
M0
 62
     4
100
AcDbLine
 10
332.796609
 20
524.415428
 11
333.096609
 21
525.615428
  0
LINE
  5
7D
100
AcDbEntity
  8
M0
 62
     4
100
AcDbLine
 10
336.796609
 20
521.415428
 11
336.796609
 21
495.765435
  0
LINE
  5
7E
100
AcDbEntity
  8
M0
 62
     4
100
AcDbLine
 10
333.096609
 20
525.615428
 11
333.296609
 21
525.615428
  0
LINE
  5
7F
100
AcDbEntity
  8
M0
 62
     4
100
AcDbLine
 10
331.796609
 20
524.415428
 11
332.796609
 21
524.415428
  0
LINE
  5
80
100
AcDbEntity
  8
M0
  6
DASHDOT
 62
     4
100
AcDbLine
 10
332.186934
 20
586.865417
 11
335.296609
 21
586.865417
  0
ARC
  5
81
100
AcDbEntity
  8
M0
  6
DASHED
 62
     4
100
AcDbCircle
 10
335.296609
 20
588.365417
 40
1.5
100
AcDbArc
 50
270.0
 51
360.0
  0
ARC
  5
82
100
AcDbEntity
  8
M0
  6
DASHDOT
 62
     4
100
AcDbCircle
 10
332.186934
 20
586.365417
 40
1.7
100
AcDbArc
 50
90.0
 51
190.0
  0
LINE
  5
83
100
AcDbEntity
  8
M0
  6
DASHDOT
 62
     4
100
AcDbLine
 10
332.186934
 20
588.065417
 11
335.296609
 21
588.065417
  0
ARC
  5
84
100
AcDbEntity
  8
M0
  6
DASHED
 62
     4
100
AcDbCircle
 10
335.296609
 20
588.365417
 40
0.3
100
AcDbArc
 50
270.0
 51
360.0
  0
LINE
  5
85
100
AcDbEntity
  8
M0
  6
DASHDOT
 62
     4
100
AcDbLine
 10
335.596609
 20
600.365417
 11
335.596609
 21
588.365417
  0
LINE
  5
86
100
AcDbEntity
  8
M0
  6
DASHDOT
 62
     4
100
AcDbLine
 10
336.796609
 20
600.365417
 11
336.796609
 21
588.365417
  0
LINE
  5
87
100
AcDbEntity
  8
M0
  6
DASHDOT
 62
     4
100
AcDbLine
 10
335.596609
 20
600.365417
 11
336.796609
 21
600.365417
  0
LINE
  5
88
100
AcDbEntity
  8
M0
  6
DASHDOT
 62
     4
100
AcDbLine
 10
335.596609
 20
483.165435
 11
336.796609
 21
483.165435
  0
ARC
  5
89
100
AcDbEntity
  8
M0
  6
DASHDOT
 62
     4
100
AcDbCircle
 10
335.296609
 20
495.165435
 40
0.3
100
AcDbArc
 50
0.0
 51
90.0
  0
LINE
  5
8A
100
AcDbEntity
  8
M0
  6
DASHDOT
 62
     4
100
AcDbLine
 10
336.796609
 20
483.165435
 11
336.796609
 21
495.165435
  0
LINE
  5
8B
100
AcDbEntity
  8
M0
  6
DASHDOT
 62
     4
100
AcDbLine
 10
335.596609
 20
483.165435
 11
335.596609
 21
495.165435
  0
ARC
  5
8C
100
AcDbEntity
  8
M0
  6
DASHDOT
 62
     4
100
AcDbCircle
 10
335.296609
 20
495.165435
 40
1.5
100
AcDbArc
 50
0.0
 51
90.0
  0
LINE
  5
8D
100
AcDbEntity
  8
M0
  6
DASHDOT
 62
     4
100
AcDbLine
 10
332.186934
 20
495.465435
 11
335.296609
 21
495.465435
  0
LINE
  5
8E
100
AcDbEntity
  8
M0
  6
DASHDOT
 62
     4
100
AcDbLine
 10
332.186934
 20
496.665435
 11
335.296609
 21
496.665435
  0
ARC
  5
8F
100
AcDbEntity
  8
M0
  6
DASHDOT
 62
     4
100
AcDbCircle
 10
332.186934
 20
497.165435
 40
1.7
100
AcDbArc
 50
170.036624
 51
270.0
  0
ARC
  5
90
100
AcDbEntity
  8
M0
  6
DASHDOT
 62
     4
100
AcDbCircle
 10
335.296609
 20
588.365417
 40
0.3
100
AcDbArc
 50
270.0
 51
360.0
  0
ARC
  5
91
100
AcDbEntity
  8
M0
  6
DASHDOT
 62
     4
100
AcDbCircle
 10
335.296609
 20
588.365417
 40
1.5
100
AcDbArc
 50
270.0
 51
360.0
  0
LINE
  5
92
100
AcDbEntity
  8
M0
  6
DASHDOT
 62
     4
100
AcDbLine
 10
332.186934
 20
586.865417
 11
335.296609
 21
586.865417
  0
ARC
  5
93
100
AcDbEntity
  8
M0
  6
DASHDOT
 62
     4
100
AcDbCircle
 10
332.186934
 20
586.365417
 40
0.5
100
AcDbArc
 50
90.0
 51
190.0
  0
LINE
  5
94
100
AcDbEntity
  8
M0
  6
DASHDOT
 62
     4
100
AcDbLine
 10
330.512761
 20
586.070215
 11
330.81484
 21
584.357039
  0
LINE
  5
95
100
AcDbEntity
  8
M0
  6
DASHDOT
 62
     4
100
AcDbLine
 10
331.69453
 20
586.278593
 11
331.996609
 21
584.565417
  0
LINE
  5
96
100
AcDbEntity
  8
M0
  6
DASHDOT
 62
     4
100
AcDbLine
 10
331.996609
 20
584.565417
 11
330.81484
 21
584.357039
  0
ARC
  5
97
100
AcDbEntity
  8
M0
  6
DASHDOT
 62
     4
100
AcDbCircle
 10
332.186934
 20
497.165433
 40
0.5
100
AcDbArc
 50
170.0
 51
270.0
  0
LINE
  5
98
100
AcDbEntity
  8
M0
  6
DASHDOT
 62
     4
100
AcDbLine
 10
331.69453
 20
497.252257
 11
331.996609
 21
498.965433
  0
LINE
  5
99
100
AcDbEntity
  8
M0
  6
DASHDOT
 62
     4
100
AcDbLine
 10
330.512573
 20
497.459567
 11
330.81484
 21
499.173811
  0
LINE
  5
9A
100
AcDbEntity
  8
M0
  6
DASHDOT
 62
     4
100
AcDbLine
 10
331.996609
 20
498.965433
 11
330.81484
 21
499.173811
  0
LINE
  5
9B
100
AcDbEntity
  8
M0
 62
     4
100
AcDbLine
 10
169.892337
 20
550.277989
 11
169.892337
 21
565.559789
  0
LINE
  5
9C
100
AcDbEntity
  8
M0
 62
     4
100
AcDbLine
 10
161.292337
 20
550.277989
 11
161.292337
 21
565.559789
  0
LINE
  5
9D
100
AcDbEntity
  8
M0
 62
     4
100
AcDbLine
 10
161.292337
 20
556.267661
 11
169.892337
 21
556.267661
  0
LINE
  5
9E
100
AcDbEntity
  8
M0
 62
     4
100
AcDbLine
 10
169.892337
 20
565.559789
 11
161.292337
 21
565.559789
  0
LINE
  5
9F
100
AcDbEntity
  8
M0
 62
     4
100
AcDbLine
 10
161.292337
 20
562.189681
 11
169.892337
 21
562.189681
  0
LINE
  5
A0
100
AcDbEntity
  8
M0
 62
     4
100
AcDbLine
 10
161.292337
 20
565.425907
 11
169.892337
 21
565.425907
  0
LINE
  5
A1
100
AcDbEntity
  8
M0
  6
DASHDOT
 62
     4
100
AcDbLine
 10
165.592345
 20
489.53698
 11
165.592345
 21
592.911064
  0
LINE
  5
A2
100
AcDbEntity
  8
M0
 62
     4
100
AcDbLine
 10
142.092345
 20
517.265422
 11
142.092345
 21
566.265422
  0
LINE
  5
A3
100
AcDbEntity
  8
M0
 62
     4
100
AcDbLine
 10
140.892345
 20
508.265422
 11
190.292345
 21
508.265422
  0
LINE
  5
A4
100
AcDbEntity
  8
M0
 62
     4
100
AcDbLine
 10
140.592345
 20
493.765438
 11
140.592345
 21
589.265444
  0
LINE
  5
A5
100
AcDbEntity
  8
M0
 62
     4
100
AcDbLine
 10
189.092345
 20
517.265422
 11
189.092345
 21
566.265422
  0
LINE
  5
A6
100
AcDbEntity
  8
M0
 62
     4
100
AcDbLine
 10
159.742345
 20
493.765438
 11
159.742345
 21
508.265422
  0
LINE
  5
A7
100
AcDbEntity
  8
M0
 62
     4
100
AcDbLine
 10
146.442345
 20
493.765438
 11
146.442345
 21
508.265422
  0
LINE
  5
A8
100
AcDbEntity
  8
M0
 62
     4
100
AcDbLine
 10
190.292345
 20
575.26543
 11
140.892345
 21
575.26543
  0
LINE
  5
A9
100
AcDbEntity
  8
M0
 62
     4
100
AcDbLine
 10
171.592345
 20
493.765438
 11
171.592345
 21
508.265422
  0
LINE
  5
AA
100
AcDbEntity
  8
M0
 62
     4
100
AcDbLine
 10
142.592345
 20
516.765422
 11
188.592345
 21
516.765422
  0
ARC
  5
AB
100
AcDbEntity
  8
M0
 62
     4
100
AcDbCircle
 10
142.592345
 20
517.265422
 40
0.5
100
AcDbArc
 50
180.0
 51
270.0
  0
ARC
  5
AC
100
AcDbEntity
  8
M0
 62
     4
100
AcDbCircle
 10
140.892345
 20
508.565422
 40
0.3
100
AcDbArc
 50
180.0
 51
270.0
  0
ARC
  5
AD
100
AcDbEntity
  8
M0
 62
     4
100
AcDbCircle
 10
188.592345
 20
566.265422
 40
0.5
100
AcDbArc
 50
0.0
 51
90.0
  0
ARC
  5
AE
100
AcDbEntity
  8
M0
 62
     4
100
AcDbCircle
 10
142.592345
 20
566.265422
 40
0.5
100
AcDbArc
 50
90.0
 51
180.0
  0
ARC
  5
AF
100
AcDbEntity
  8
M0
 62
     4
100
AcDbCircle
 10
190.292345
 20
508.565422
 40
0.3
100
AcDbArc
 50
270.0
 51
360.0
  0
LINE
  5
B0
100
AcDbEntity
  8
M0
 62
     4
100
AcDbLine
 10
142.592345
 20
566.765422
 11
188.592345
 21
566.765422
  0
ARC
  5
B1
100
AcDbEntity
  8
M0
 62
     4
100
AcDbCircle
 10
140.892345
 20
574.96543
 40
0.3
100
AcDbArc
 50
90.0
 51
180.0
  0
ARC
  5
B2
100
AcDbEntity
  8
M0
 62
     4
100
AcDbCircle
 10
190.292345
 20
574.96543
 40
0.3
100
AcDbArc
 50
0.0
 51
90.0
  0
LINE
  5
B3
100
AcDbEntity
  8
M0
 62
     4
100
AcDbLine
 10
160.992345
 20
547.465443
 11
170.192345
 21
547.465443
  0
LINE
  5
B4
100
AcDbEntity
  8
M0
 62
     4
100
AcDbLine
 10
160.992345
 20
547.465443
 11
160.992345
 21
563.36543
  0
LINE
  5
B5
100
AcDbEntity
  8
M0
 62
     4
100
AcDbLine
 10
160.992345
 20
563.36543
 11
161.292337
 21
563.36543
  0
LINE
  5
B6
100
AcDbEntity
  8
M0
 62
     4
100
AcDbLine
 10
170.192345
 20
547.465443
 11
170.192345
 21
563.36543
  0
LINE
  5
B7
100
AcDbEntity
  8
M0
  6
DASHDOT
 62
     4
100
AcDbLine
 10
195.092345
 20
541.765438
 11
127.673344
 21
541.765438
  0
LINE
  5
B8
100
AcDbEntity
  8
M0
 62
     4
100
AcDbLine
 10
169.892337
 20
563.36543
 11
170.192345
 21
563.36543
  0
LINE
  5
B9
100
AcDbEntity
  8
M0
 62
     4
100
AcDbLine
 10
146.442345
 20
575.26543
 11
146.442345
 21
589.765444
  0
LINE
  5
BA
100
AcDbEntity
  8
M0
 62
     4
100
AcDbLine
 10
190.592345
 20
494.265438
 11
190.592345
 21
589.765444
  0
LINE
  5
BB
100
AcDbEntity
  8
M0
 62
     4
100
AcDbLine
 10
171.592345
 20
575.26543
 11
171.592345
 21
589.765444
  0
LINE
  5
BC
100
AcDbEntity
  8
M0
 62
     4
100
AcDbLine
 10
159.742345
 20
575.26543
 11
159.742345
 21
589.765444
  0
LINE
  5
BD
100
AcDbEntity
  8
M0
 62
     4
100
AcDbLine
 10
190.592345
 20
493.765438
 11
140.592345
 21
493.765438
  0
LINE
  5
BE
100
AcDbEntity
  8
M0
 62
     4
100
AcDbLine
 10
184.742345
 20
493.765438
 11
184.742345
 21
508.265422
  0
LINE
  5
BF
100
AcDbEntity
  8
M0
 62
     4
100
AcDbLine
 10
190.592345
 20
589.765444
 11
140.592345
 21
589.765444
  0
LINE
  5
C0
100
AcDbEntity
  8
M0
 62
     4
100
AcDbLine
 10
184.742345
 20
575.26543
 11
184.742345
 21
589.765444
  0
ARC
  5
C1
100
AcDbEntity
  8
M0
 62
     4
100
AcDbCircle
 10
188.592345
 20
517.265422
 40
0.5
100
AcDbArc
 50
270.0
 51
360.0
  0
LINE
  5
C2
100
AcDbEntity
  8
M0
  6
DASHDOT
 62
     4
100
AcDbLine
 10
147.092337
 20
589.765426
 11
147.092337
 21
600.265429
  0
ARC
  5
C3
100
AcDbEntity
  8
M0
  6
DASHDOT
 62
     4
100
AcDbCircle
 10
178.092337
 20
491.765432
 40
2.25
100
AcDbArc
 50
0.0
 51
62.734289
  0
ARC
  5
C4
100
AcDbEntity
  8
M0
  6
DASHDOT
 62
     4
100
AcDbCircle
 10
178.092337
 20
487.765432
 40
2.25
100
AcDbArc
 50
180.0
 51
360.0
  0
LINE
  5
C5
100
AcDbEntity
  8
M0
  6
DASHDOT
 62
     4
100
AcDbLine
 10
155.342337
 20
591.765432
 11
155.342337
 21
595.765432
  0
LINE
  5
C6
100
AcDbEntity
  8
M0
  6
DASHDOT
 62
     4
100
AcDbLine
 10
147.092337
 20
600.265429
 11
159.092337
 21
600.265429
  0
LINE
  5
C7
100
AcDbEntity
  8
M0
  6
DASHDOT
 62
     4
100
AcDbLine
 10
159.092337
 20
589.765426
 11
159.092337
 21
600.265429
  0
LINE
  5
C8
100
AcDbEntity
  8
M0
  6
DASHDOT
 62
     4
100
AcDbLine
 10
150.842337
 20
591.765432
 11
150.842337
 21
595.765432
  0
ARC
  5
C9
100
AcDbEntity
  8
M0
  6
DASHDOT
 62
     4
100
AcDbCircle
 10
178.092337
 20
491.765432
 40
2.25
100
AcDbArc
 50
117.265711
 51
180.0
  0
ARC
  5
CA
100
AcDbEntity
  8
M0
  6
DASHDOT
 62
     4
100
AcDbCircle
 10
153.092337
 20
491.765432
 40
2.25
100
AcDbArc
 50
117.265711
 51
180.0
  0
ARC
  5
CB
100
AcDbEntity
  8
M0
  6
DASHDOT
 62
     4
100
AcDbCircle
 10
153.092337
 20
491.765432
 40
2.25
100
AcDbArc
 50
0.0
 51
62.734289
  0
ARC
  5
CC
100
AcDbEntity
  8
M0
  6
DASHDOT
 62
     4
100
AcDbCircle
 10
153.092337
 20
591.765432
 40
2.25
100
AcDbArc
 50
297.265711
 51
360.0
  0
ARC
  5
CD
100
AcDbEntity
  8
M0
  6
DASHDOT
 62
     4
100
AcDbCircle
 10
153.092337
 20
595.765432
 40
2.25
100
AcDbArc
 50
0.0
 51
180.0
  0
ARC
  5
CE
100
AcDbEntity
  8
M0
  6
DASHDOT
 62
     4
100
AcDbCircle
 10
178.092337
 20
591.765432
 40
2.25
100
AcDbArc
 50
297.265711
 51
360.0
  0
ARC
  5
CF
100
AcDbEntity
  8
M0
  6
DASHDOT
 62
     4
100
AcDbCircle
 10
178.092337
 20
595.765432
 40
2.25
100
AcDbArc
 50
0.0
 51
180.0
  0
ARC
  5
D0
100
AcDbEntity
  8
M0
  6
DASHDOT
 62
     4
100
AcDbCircle
 10
153.092337
 20
487.765432
 40
2.25
100
AcDbArc
 50
180.0
 51
360.0
  0
ARC
  5
D1
100
AcDbEntity
  8
M0
  6
DASHDOT
 62
     4
100
AcDbCircle
 10
178.092337
 20
591.765432
 40
2.25
100
AcDbArc
 50
180.0
 51
242.734289
  0
ARC
  5
D2
100
AcDbEntity
  8
M0
  6
DASHDOT
 62
     4
100
AcDbCircle
 10
153.092337
 20
591.765432
 40
2.25
100
AcDbArc
 50
180.0
 51
242.734289
  0
LINE
  5
D3
100
AcDbEntity
  8
M0
  6
DASHDOT
 62
     4
100
AcDbLine
 10
172.092337
 20
493.765438
 11
172.092337
 21
483.265435
  0
LINE
  5
D4
100
AcDbEntity
  8
M0
  6
DASHDOT
 62
     4
100
AcDbLine
 10
180.342337
 20
591.765432
 11
180.342337
 21
595.765432
  0
LINE
  5
D5
100
AcDbEntity
  8
M0
  6
DASHDOT
 62
     4
100
AcDbLine
 10
172.092337
 20
600.265429
 11
184.092337
 21
600.265429
  0
LINE
  5
D6
100
AcDbEntity
  8
M0
  6
DASHDOT
 62
     4
100
AcDbLine
 10
180.342337
 20
491.765432
 11
180.342337
 21
487.765432
  0
LINE
  5
D7
100
AcDbEntity
  8
M0
  6
DASHDOT
 62
     4
100
AcDbLine
 10
172.092337
 20
483.265435
 11
184.092337
 21
483.265435
  0
LINE
  5
D8
100
AcDbEntity
  8
M0
  6
DASHDOT
 62
     4
100
AcDbLine
 10
184.092337
 20
493.765438
 11
184.092337
 21
483.265435
  0
LINE
  5
D9
100
AcDbEntity
  8
M0
  6
DASHDOT
 62
     4
100
AcDbLine
 10
175.842337
 20
491.765432
 11
175.842337
 21
487.765432
  0
LINE
  5
DA
100
AcDbEntity
  8
M0
  6
DASHDOT
 62
     4
100
AcDbLine
 10
175.842337
 20
591.765432
 11
175.842337
 21
595.765432
  0
LINE
  5
DB
100
AcDbEntity
  8
M0
  6
DASHDOT
 62
     4
100
AcDbLine
 10
150.842337
 20
491.765432
 11
150.842337
 21
487.765432
  0
LINE
  5
DC
100
AcDbEntity
  8
M0
  6
DASHDOT
 62
     4
100
AcDbLine
 10
155.342337
 20
491.765432
 11
155.342337
 21
487.765432
  0
LINE
  5
DD
100
AcDbEntity
  8
M0
  6
DASHDOT
 62
     4
100
AcDbLine
 10
147.092337
 20
493.765438
 11
147.092337
 21
483.265435
  0
LINE
  5
DE
100
AcDbEntity
  8
M0
  6
DASHDOT
 62
     4
100
AcDbLine
 10
159.092337
 20
493.765438
 11
159.092337
 21
483.265435
  0
LINE
  5
DF
100
AcDbEntity
  8
M0
  6
DASHDOT
 62
     4
100
AcDbLine
 10
172.092337
 20
589.765426
 11
172.092337
 21
600.265429
  0
LINE
  5
E0
100
AcDbEntity
  8
M0
  6
DASHDOT
 62
     4
100
AcDbLine
 10
184.092337
 20
589.765426
 11
184.092337
 21
600.265429
  0
LINE
  5
E1
100
AcDbEntity
  8
M0
  6
DASHDOT
 62
     4
100
AcDbLine
 10
147.092337
 20
483.265435
 11
159.092337
 21
483.265435
  0
LINE
  5
E2
100
AcDbEntity
  8
M0
 62
     4
100
AcDbLine
 10
151.32457
 20
579.997662
 11
154.860104
 21
583.533196
  0
LINE
  5
E3
100
AcDbEntity
  8
M0
 62
     4
100
AcDbLine
 10
154.860104
 20
579.997662
 11
151.32457
 21
583.533196
  0
LINE
  5
E4
100
AcDbEntity
  8
M0
 62
     4
100
AcDbLine
 10
176.32457
 20
579.997662
 11
179.860104
 21
583.533196
  0
LINE
  5
E5
100
AcDbEntity
  8
M0
 62
     4
100
AcDbLine
 10
179.860104
 20
579.997662
 11
176.32457
 21
583.533196
  0
LINE
  5
E6
100
AcDbEntity
  8
M0
 62
     4
100
AcDbLine
 10
151.32457
 20
503.533214
 11
154.860104
 21
499.99768
  0
LINE
  5
E7
100
AcDbEntity
  8
M0
 62
     4
100
AcDbLine
 10
154.860104
 20
503.533214
 11
151.32457
 21
499.99768
  0
LINE
  5
E8
100
AcDbEntity
  8
M0
 62
     4
100
AcDbLine
 10
176.32457
 20
503.533214
 11
179.860104
 21
499.99768
  0
LINE
  5
E9
100
AcDbEntity
  8
M0
 62
     4
100
AcDbLine
 10
179.860104
 20
503.533214
 11
176.32457
 21
499.99768
  0
CIRCLE
  5
EA
100
AcDbEntity
  8
M0
 62
     4
100
AcDbCircle
 10
178.092327
 20
581.765439
 40
4.5
  0
CIRCLE
  5
EB
100
AcDbEntity
  8
M0
 62
     4
100
AcDbCircle
 10
153.092337
 20
581.765429
 40
4.5
  0
CIRCLE
  5
EC
100
AcDbEntity
  8
M0
 62
     4
100
AcDbCircle
 10
153.092327
 20
501.765437
 40
4.5
  0
CIRCLE
  5
ED
100
AcDbEntity
  8
M0
 62
     4
100
AcDbCircle
 10
178.092353
 20
501.765463
 40
4.5
  0
LINE
  5
EE
100
AcDbEntity
  8
M0
 62
     7
100
AcDbLine
 10
190.092345
 20
243.588813
 11
190.092345
 21
293.588813
  0
ARC
  5
EF
100
AcDbEntity
  8
M0
 62
     7
100
AcDbCircle
 10
142.092345
 20
293.588813
 40
1.0
100
AcDbArc
 50
90.0
 51
180.0
  0
LINE
  5
F0
100
AcDbEntity
  8
M0
 62
     7
100
AcDbLine
 10
141.092345
 20
293.588813
 11
141.092345
 21
243.588813
  0
ARC
  5
F1
100
AcDbEntity
  8
M0
 62
     7
100
AcDbCircle
 10
189.092345
 20
243.588813
 40
1.0
100
AcDbArc
 50
270.0
 51
360.0
  0
ARC
  5
F2
100
AcDbEntity
  8
M0
 62
     7
100
AcDbCircle
 10
189.092345
 20
293.588813
 40
1.0
100
AcDbArc
 50
0.0
 51
90.0
  0
LINE
  5
F3
100
AcDbEntity
  8
M0
 62
     7
100
AcDbLine
 10
142.092345
 20
242.588813
 11
189.092345
 21
242.588813
  0
ARC
  5
F4
100
AcDbEntity
  8
M0
 62
     7
100
AcDbCircle
 10
142.092345
 20
243.588813
 40
1.0
100
AcDbArc
 50
180.0
 51
270.0
  0
LINE
  5
F5
100
AcDbEntity
  8
M0
 62
     7
100
AcDbLine
 10
142.092345
 20
294.588813
 11
189.092345
 21
294.588813
  0
CIRCLE
  5
F6
100
AcDbEntity
  8
M0
100
AcDbCircle
 10
312.296609
 20
310.588813
 40
2.5
  0
CIRCLE
  5
F7
100
AcDbEntity
  8
M0
100
AcDbCircle
 10
312.296609
 20
226.588813
 40
2.5
  0
LINE
  5
F8
100
AcDbEntity
  8
M0
  6
DASHDOT
100
AcDbLine
 10
305.296609
 20
226.588813
 11
319.296609
 21
226.588813
  0
LINE
  5
F9
100
AcDbEntity
  8
M0
  6
DASHDOT
100
AcDbLine
 10
312.296609
 20
219.588813
 11
312.296609
 21
233.588813
  0
LINE
  5
FA
100
AcDbEntity
  8
M0
  6
DASHDOT
100
AcDbLine
 10
305.296609
 20
310.588813
 11
319.296609
 21
310.588813
  0
LINE
  5
FB
100
AcDbEntity
  8
M0
  6
DASHDOT
100
AcDbLine
 10
312.296609
 20
303.588813
 11
312.296609
 21
317.588813
  0
LINE
  5
FC
100
AcDbEntity
  8
M0
  6
DASHDOT
 62
     4
100
AcDbLine
 10
312.296609
 20
212.383982
 11
312.296609
 21
324.596716
  0
LINE
  5
FD
100
AcDbEntity
  8
M0
  6
DASHDOT
 62
     4
100
AcDbLine
 10
281.656573
 20
268.588813
 11
342.934718
 21
268.588813
  0
LINE
  5
FE
100
AcDbEntity
  8
M0
  6
DIVIDE
 62
     4
100
AcDbLine
 10
336.796609
 20
220.588813
 11
336.796609
 21
316.588813
  0
LINE
  5
FF
100
AcDbEntity
  8
M0
  6
DIVIDE
 62
     4
100
AcDbLine
 10
287.796609
 20
316.588813
 11
336.796609
 21
316.588813
  0
LINE
  5
100
100
AcDbEntity
  8
M0
  6
DIVIDE
 62
     4
100
AcDbLine
 10
287.796609
 20
316.588813
 11
287.796609
 21
220.588813
  0
LINE
  5
101
100
AcDbEntity
  8
M0
  6
DIVIDE
 62
     4
100
AcDbLine
 10
287.796609
 20
220.588813
 11
336.796609
 21
220.588813
  0
LINE
  5
102
100
AcDbEntity
  8
M0
  6
DASHDOT
 62
     4
100
AcDbLine
 10
130.490399
 20
268.588813
 11
197.794949
 21
268.588813
  0
LINE
  5
103
100
AcDbEntity
  8
M0
  6
DASHDOT
 62
     4
100
AcDbLine
 10
165.592345
 20
208.149767
 11
165.592345
 21
324.596716
  0
LINE
  5
104
100
AcDbEntity
  8
M0
  6
DASHDOT
 62
     4
100
AcDbLine
 10
140.092345
 20
316.588813
 11
191.092345
 21
316.588813
  0
LINE
  5
105
100
AcDbEntity
  8
M0
  6
DASHDOT
 62
     4
100
AcDbLine
 10
140.092345
 20
316.588813
 11
140.092345
 21
220.588813
  0
LINE
  5
106
100
AcDbEntity
  8
M0
  6
DASHDOT
 62
     4
100
AcDbLine
 10
191.092345
 20
220.588813
 11
191.092345
 21
316.588813
  0
LINE
  5
107
100
AcDbEntity
  8
M0
  6
DASHDOT
 62
     4
100
AcDbLine
 10
140.092345
 20
220.588813
 11
191.092345
 21
220.588813
  0
LINE
  5
108
100
AcDbEntity
  8
M0
  6
DASHED
 62
     2
100
AcDbLine
 10
304.7966
 20
507.206054
 11
304.7966
 21
496.420357
  0
LINE
  5
109
100
AcDbEntity
  8
M0
  6
DASHDOT
 62
     2
100
AcDbLine
 10
316.447094
 20
501.765447
 11
294.903316
 21
501.765447
  0
LINE
  5
10A
100
AcDbEntity
  8
M0
  6
DASHED
 62
     2
100
AcDbLine
 10
304.7966
 20
576.324822
 11
304.7966
 21
587.110519
  0
LINE
  5
10B
100
AcDbEntity
  8
M0
  6
DASHDOT
 62
     2
100
AcDbLine
 10
316.447094
 20
581.765429
 11
294.903316
 21
581.765429
  0
LINE
  5
10C
100
AcDbEntity
  8
M0
  6
DASHDOT
100
AcDbLine
 10
296.796613
 20
587.915438
 11
296.796613
 21
579.615438
  0
LINE
  5
10D
100
AcDbEntity
  8
M0
  6
DASHDOT
100
AcDbLine
 10
286.925551
 20
583.765438
 11
336.796609
 21
583.765438
  0
LINE
  5
10E
100
AcDbEntity
  8
M0
  6
DASHDOT
100
AcDbLine
 10
296.796613
 20
495.615438
 11
296.796613
 21
503.915438
  0
LINE
  5
10F
100
AcDbEntity
  8
M0
  6
DASHDOT
100
AcDbLine
 10
286.925551
 20
499.765438
 11
336.796609
 21
499.765438
  0
LINE
  5
110
100
AcDbEntity
  8
M0
  6
DASHDOT
100
AcDbLine
 10
335.596609
 20
588.765444
 11
335.596609
 21
598.765444
  0
LINE
  5
111
100
AcDbEntity
  8
M0
  6
DASHDOT
100
AcDbLine
 10
330.596609
 20
593.765444
 11
340.596609
 21
593.765444
  0
LINE
  5
112
100
AcDbEntity
  8
M0
  6
DASHDOT
100
AcDbLine
 10
335.596609
 20
484.765432
 11
335.596609
 21
494.765432
  0
LINE
  5
113
100
AcDbEntity
  8
M0
  6
DASHDOT
100
AcDbLine
 10
330.596609
 20
489.765432
 11
340.596609
 21
489.765432
  0
LINE
  5
114
100
AcDbEntity
  8
M0
  6
DASHDOT
100
AcDbLine
 10
148.092345
 20
489.765438
 11
158.092345
 21
489.765438
  0
LINE
  5
115
100
AcDbEntity
  8
M0
  6
DASHDOT
100
AcDbLine
 10
153.092345
 20
484.765438
 11
153.092345
 21
494.765438
  0
LINE
  5
116
100
AcDbEntity
  8
M0
  6
DASHDOT
100
AcDbLine
 10
183.092345
 20
489.765438
 11
173.092345
 21
489.765438
  0
LINE
  5
117
100
AcDbEntity
  8
M0
  6
DASHDOT
100
AcDbLine
 10
178.092345
 20
484.765438
 11
178.092345
 21
494.765438
  0
LINE
  5
118
100
AcDbEntity
  8
M0
  6
DASHDOT
100
AcDbLine
 10
148.092345
 20
593.765438
 11
158.092345
 21
593.765438
  0
LINE
  5
119
100
AcDbEntity
  8
M0
  6
DASHDOT
100
AcDbLine
 10
153.092345
 20
598.765438
 11
153.092345
 21
588.765438
  0
LINE
  5
11A
100
AcDbEntity
  8
M0
  6
DASHDOT
100
AcDbLine
 10
183.092345
 20
593.765438
 11
173.092345
 21
593.765438
  0
LINE
  5
11B
100
AcDbEntity
  8
M0
  6
DASHDOT
100
AcDbLine
 10
178.092345
 20
598.765438
 11
178.092345
 21
588.765438
  0
CIRCLE
  5
11C
100
AcDbEntity
  8
M0
100
AcDbCircle
 10
165.592337
 20
583.765428
 40
2.5
  0
CIRCLE
  5
11D
100
AcDbEntity
  8
M0
100
AcDbCircle
 10
165.592337
 20
499.765438
 40
2.5
  0
LINE
  5
11E
100
AcDbEntity
  8
M0
  6
DASHDOT
100
AcDbLine
 10
158.092337
 20
499.765438
 11
173.092337
 21
499.765438
  0
LINE
  5
11F
100
AcDbEntity
  8
M0
  6
DASHDOT
100
AcDbLine
 10
165.592337
 20
492.265438
 11
165.592337
 21
507.265438
  0
LINE
  5
120
100
AcDbEntity
  8
M0
  6
DASHDOT
100
AcDbLine
 10
158.092337
 20
583.765428
 11
173.092337
 21
583.765428
  0
LINE
  5
121
100
AcDbEntity
  8
M0
  6
DASHDOT
100
AcDbLine
 10
165.592337
 20
576.265428
 11
165.592337
 21
591.265428
  0
LINE
  5
122
100
AcDbEntity
  8
M0
  6
DASHDOT
 62
     2
100
AcDbLine
 10
153.092337
 20
494.765437
 11
153.092337
 21
508.765437
  0
LINE
  5
123
100
AcDbEntity
  8
M0
  6
DASHDOT
 62
     2
100
AcDbLine
 10
146.092337
 20
501.765437
 11
160.092337
 21
501.765437
  0
LINE
  5
124
100
AcDbEntity
  8
M0
  6
DASHDOT
 62
     2
100
AcDbLine
 10
178.092353
 20
494.765437
 11
178.092353
 21
508.765437
  0
LINE
  5
125
100
AcDbEntity
  8
M0
  6
DASHDOT
 62
     2
100
AcDbLine
 10
185.092353
 20
501.765437
 11
171.092353
 21
501.765437
  0
LINE
  5
126
100
AcDbEntity
  8
M0
  6
DASHDOT
 62
     2
100
AcDbLine
 10
153.092337
 20
588.765439
 11
153.092337
 21
574.765439
  0
LINE
  5
127
100
AcDbEntity
  8
M0
  6
DASHDOT
 62
     2
100
AcDbLine
 10
146.092337
 20
581.765439
 11
160.092337
 21
581.765439
  0
LINE
  5
128
100
AcDbEntity
  8
M0
  6
DASHDOT
 62
     2
100
AcDbLine
 10
178.092353
 20
588.765439
 11
178.092353
 21
574.765439
  0
LINE
  5
129
100
AcDbEntity
  8
M0
  6
DASHDOT
 62
     2
100
AcDbLine
 10
185.092353
 20
581.765439
 11
171.092353
 21
581.765439
  0
LINE
  5
12A
100
AcDbEntity
  8
M0
 62
     4
100
AcDbLine
 10
169.892337
 20
439.977347
 11
161.292337
 21
439.977347
  0
LINE
  5
12B
100
AcDbEntity
  8
M0
 62
     4
100
AcDbLine
 10
161.292337
 20
429.085445
 11
161.292337
 21
439.977347
  0
LINE
  5
12C
100
AcDbEntity
  8
M0
 62
     4
100
AcDbLine
 10
169.892337
 20
429.085445
 11
169.892337
 21
439.977347
  0
LINE
  5
12D
100
AcDbEntity
  8
M0
 62
     4
100
AcDbLine
 10
190.592345
 20
424.085445
 11
190.592345
 21
364.085451
  0
LINE
  5
12E
100
AcDbEntity
  8
M0
 62
     4
100
AcDbLine
 10
190.592345
 20
424.085445
 11
140.592345
 21
424.085445
  0
LINE
  5
12F
100
AcDbEntity
  8
M0
 62
     4
100
AcDbLine
 10
189.092345
 20
424.085445
 11
189.092345
 21
429.085445
  0
LINE
  5
130
100
AcDbEntity
  8
M0
 62
     4
100
AcDbLine
 10
142.092345
 20
424.085445
 11
142.092345
 21
429.085445
  0
LINE
  5
131
100
AcDbEntity
  8
M0
 62
     4
100
AcDbLine
 10
140.592345
 20
424.085445
 11
140.592345
 21
364.085451
  0
LINE
  5
132
100
AcDbEntity
  8
M0
 62
     4
100
AcDbLine
 10
142.092345
 20
429.085445
 11
189.092345
 21
429.085445
  0
LINE
  5
133
100
AcDbEntity
  8
M0
 62
     4
100
AcDbLine
 10
190.592345
 20
364.085451
 11
140.592345
 21
364.085451
  0
LINE
  5
134
100
AcDbEntity
  8
M0
  6
DASHDOT
100
AcDbLine
 10
165.592345
 20
364.085451
 11
165.592345
 21
412.613674
  0
LINE
  5
135
100
AcDbEntity
  8
M0
  6
DASHDOT
100
AcDbLine
 10
169.742345
 20
404.085451
 11
161.442345
 21
404.085451
  0
LINE
  5
136
100
AcDbEntity
  8
M0
  6
DASHDOT
100
AcDbLine
 10
159.092345
 20
365.285451
 11
147.092345
 21
365.285451
  0
LINE
  5
137
100
AcDbEntity
  8
M0
  6
DASHDOT
100
AcDbLine
 10
153.092345
 20
360.923029
 11
153.092345
 21
370.26823
  0
LINE
  5
138
100
AcDbEntity
  8
M0
  6
DASHDOT
100
AcDbLine
 10
184.092345
 20
365.285451
 11
172.092345
 21
365.285451
  0
LINE
  5
139
100
AcDbEntity
  8
M0
  6
DASHDOT
100
AcDbLine
 10
178.092345
 20
360.923029
 11
178.092345
 21
370.26823
  0
LINE
  5
13A
100
AcDbEntity
  8
M0
  6
DASHDOT
 62
     2
100
AcDbLine
 10
153.092345
 20
389.923995
 11
153.092345
 21
402.743023
  0
LINE
  5
13B
100
AcDbEntity
  8
M0
  6
DASHDOT
 62
     2
100
AcDbLine
 10
159.092345
 20
396.085451
 11
147.092345
 21
396.085451
  0
LINE
  5
13C
100
AcDbEntity
  8
M0
  6
DASHDOT
 62
     2
100
AcDbLine
 10
178.092345
 20
389.923995
 11
178.092345
 21
402.743023
  0
LINE
  5
13D
100
AcDbEntity
  8
M0
  6
DASHDOT
 62
     2
100
AcDbLine
 10
184.092345
 20
396.085451
 11
172.092345
 21
396.085451
  0
INSERT
  5
161
100
AcDbEntity
  8
DT0
100
AcDbBlockReference
  2
LIST0
 10
0.0
 20
0.0
  0
ENDSEC
  0
SECTION
  2
OBJECTS
  0
DICTIONARY
  5
C
100
AcDbDictionary
  3
ACAD_GROUP
350
D
  3
ACAD_MLINESTYLE
350
E
  0
DICTIONARY
  5
D
102
{ACAD_REACTORS
330
C
102
}
100
AcDbDictionary
  0
DICTIONARY
  5
E
102
{ACAD_REACTORS
330
C
102
}
100
AcDbDictionary
  3
STANDARD
350
13
  0
MLINESTYLE
  5
13
102
{ACAD_REACTORS
330
E
102
}
100
AcDbMlineStyle
  2
STANDARD
 70
     0
  3

 62
     0
 51
90.0
 52
90.0
 71
     2
 49
0.5
 62
   256
  6
BYLAYER
 49
-0.5
 62
   256
  6
BYLAYER
  0
ENDSEC
  0
EOF
