  0
SECTION
  2
HEADER
  9
$ACADVER
  1
AC1014
  9
$INSBASE
 10
0.000000
 20
0.000000
 30
0.0
  9
$VIEWCTR
 10
7.531722
 20
4.5
  9
$VIEWSIZE
 40
9.0
  9
$SNAPMODE
 70
     0
  9
$SNAPUNIT
 10
1.0
 20
1.0
  9
$SNAPBASE
 10
0.0
 20
0.0
  9
$SNAPANG
 50
0.0
  9
$SNAPSTYLE
 70
     0
  9
$SNAPISOPAIR
 70
     0
  9
$GRIDMODE
 70
     0
  9
$GRIDUNIT
 10
0.0
 20
0.0
  9
$ORTHOMODE
 70
     0
  9
$REGENMODE
 70
     1
  9
$FILLMODE
 70
     1
  9
$QTEXTMODE
 70
     0
  9
$DRAGMODE
 70
     2
  9
$LTSCALE
  40
     1.000000
  9
$OSMODE
 70
     0
  9
$ATTMODE
 70
     1
  9
$TEXTSIZE
 40
0.2
  9
$TRACEWID
 40
0.05
  9
$TEXTSTYLE
  7
STANDARD
  9
$CELTYPE
  6
BYLAYER
  9
$CECOLOR
 62
   256
  9
$DIMSCALE
 40
1.0
  9
$DIMASZ
 40
0.18
  9
$DIMEXO
 40
0.0625
  9
$DIMDLI
 40
0.38
  9
$DIMRND
 40
0.0
  9
$DIMDLE
 40
0.0
  9
$DIMEXE
 40
0.18
  9
$DIMTP
 40
0.0
  9
$DIMTM
 40
0.0
  9
$DIMTXT
 40
0.18
  9
$DIMCEN
 40
0.09
  9
$DIMTSZ
 40
0.0
  9
$DIMTOL
 70
     0
  9
$DIMLIM
 70
     0
  9
$DIMTIH
 70
     1
  9
$DIMTOH
 70
     1
  9
$DIMSE1
 70
     0
  9
$DIMSE2
 70
     0
  9
$DIMTAD
 70
     0
  9
$DIMZIN
 70
     0
  9
$DIMBLK
  1

  9
$LUNITS
 70
     2
  9
$LUPREC
 70
     4
  9
$AXISMODE
 70
     0
  9
$AXISUNIT
 10
0.0
 20
0.0
  9
$SKETCHINC
 40
0.1
  9
$FILLETRAD
 40
0.0
  9
$AUNITS
 70
     0
  9
$AUPREC
 70
     0
  9
$MENU
  1
ACAD
  9
$ELEVATION
 40
0.0
  9
$THICKNESS
 40
0.0
  9
$VIEWDIR
 10
0.0
 20
0.0
 30
1.0
  9
$LIMCHECK
 70
     0
  9
$BLIPMODE
 70
     1
  9
$CHAMFERA
 40
0.0
  9
$CHAMFERB
 40
0.0
  9
$FASTZOOM
 70
     1
  9
$SKPOLY
 70
     0
  9
$TDCREATE
 40
0000000.0000000000
  9
$TDUPDATE
 40
0000000.0000000000
  9
$TDINDWG
 40
0.0000000000
  9
$TDUSRTIMER
 40
0.0000000000
  9
$USRTIMER
 70
     1
  9
$ANGBASE
 50
0.0
  9
$ANGDIR
 70
     0
  9
$PDMODE
 70
     0
  9
$PDSIZE
 40
0.0
  9
$PLINEWID
 40
0.0
  9
$COORDS
 70
     0
  9
$USERI1
 70
     0
  9
$USERI2
 70
     0
  9
$USERI3
 70
     0
  9
$USERI4
 70
     0
  9
$USERI5
 70
     0
  9
$USERR1
 40
0.0
  9
$USERR2
 40
0.0
  9
$USERR3
 40
0.0
  9
$USERR4
 40
0.0
  9
$USERR5
 40
0.0
  9
$CLAYER
  8
M0
  9
$EXTMIN
 10
291.100237
 20
106.579331
  9
$EXTMAX
 10
764.214808
 20
1163.321501
  9
$LIMMIN
 10
0.0
 20
0.0
  9
$LIMMAX
 10
210.0
 20
297.0
  9
$HANDSEED
  5
122
  0
ENDSEC
  0
SECTION
  2
CLASSES
  0
ENDSEC
  0
SECTION
  2
TABLES
  0
TABLE
  2
VPORT
  5
8
100
AcDbSymbolTable
 70
     2
  0
VPORT
  5
14
100
AcDbSymbolTableRecord
100
AcDbViewportTableRecord
  2
*ACTIVE
 70
     0
 10
0.0
 20
0.0
 11
1.0
 21
1.0
 12
484.0
 22
297.0
 13
0.0
 23
0.0
 14
1.0
 24
1.0
 15
0.0
 25
0.0
 16
0.0
 26
0.0
 36
1.0
 17
0.0
 27
0.0
 37
0.0
 40
594.0
 41
2.0
 42
50.0
 43
0.0
 44
0.0
 50
0.0
 51
0.0
 71
     0
 72
   100
 73
     1
 74
     1
 75
     0
 76
     0
 77
     0
 78
     0
  0
ENDTAB
  0
TABLE
  2
LTYPE
  5
5
100
AcDbSymbolTable
 70
     5
  0
LTYPE
  5
15
100
AcDbSymbolTableRecord
100
AcDbLinetypeTableRecord
  2
BYBLOCK
 70
     0
  3

 72
    65
 73
     0
 40
0.0
  0
LTYPE
  5
16
100
AcDbSymbolTableRecord
100
AcDbLinetypeTableRecord
  2
BYLAYER
 70
     0
  3

 72
    65
 73
     0
 40
0.0
  0
LTYPE
  5
17
100
AcDbSymbolTableRecord
100
AcDbLinetypeTableRecord
  2
CONTINUOUS
 70
    64
  3
Solid line
 72
    65
 73
     0
 40
0.0
  0
LTYPE
  5
18
100
AcDbSymbolTableRecord
100
AcDbLinetypeTableRecord
  2
DASHED
 70
    64
  3
__ __ __ __ __ __ __ __ __ __ __ __ __ __ __ __
 72
    65
 73
     2
 40
0.75
 49
0.5
 74
     0
 49
-0.25
 74
     0
  0
LTYPE
  5
19
100
AcDbSymbolTableRecord
100
AcDbLinetypeTableRecord
  2
DASHDOT
 70
    64
  3
__ . __ . __ . __ . __ . __ . __ . __ . __ . __
 72
    65
 73
     4
 40
1.0
 49
0.5
 74
     0
 49
-0.25
 74
     0
 49
0.0
 74
     0
 49
-0.25
 74
     0
  0
LTYPE
  5
1A
100
AcDbSymbolTableRecord
100
AcDbLinetypeTableRecord
  2
DIVIDE
 70
    64
  3
____ . . ____ . . ____ . . ____ . . ____ . . __
 72
    65
 73
     6
 40
1.25
 49
0.5
 74
     0
 49
-0.25
 74
     0
 49
0.0
 74
     0
 49
-0.25
 74
     0
 49
0.0
 74
     0
 49
-0.25
 74
     0
  0
LTYPE
  5
1B
100
AcDbSymbolTableRecord
100
AcDbLinetypeTableRecord
  2
DOT
 70
    64
  3
. . . . . . . . . . . . . . . . . . . . . . . .
 72
    65
 73
     2
 40
0.25
 49
0.0
 74
     0
 49
-0.25
 74
     0
  0
ENDTAB
  0
TABLE
  2
LAYER
  5
2
100
AcDbSymbolTable
 70
   102
  0
LAYER
  5
F
100
AcDbSymbolTableRecord
100
AcDbLayerTableRecord
  2
0
 70
     0
 62
     7
  6
CONTINUOUS
  0
LAYER
  5
1C
100
AcDbSymbolTableRecord
100
AcDbLayerTableRecord
  2
DEFPOINTS
 70
     0
 62
     7
  6
CONTINUOUS
  0
LAYER
  5
1D
100
AcDbSymbolTableRecord
100
AcDbLayerTableRecord
  2
M0
 70
     0
 62
     3
  6
CONTINUOUS
  0
LAYER
  5
1E
100
AcDbSymbolTableRecord
100
AcDbLayerTableRecord
  2
DT0
 70
     0
 62
     7
  6
CONTINUOUS
  0
ENDTAB
  0
TABLE
  2
STYLE
  5
3
100
AcDbSymbolTable
 70
     2
  0
STYLE
  5
10
100
AcDbSymbolTableRecord
100
AcDbTextStyleTableRecord
  2
STANDARD
 70
     0
 40
0.0
 41
1.0
 50
0.0
 71
     0
 42
0.2
  3
txt
  4
BIGFONT
  0
ENDTAB
  0
TABLE
  2
VIEW
  5
6
100
AcDbSymbolTable
 70
     0
  0
ENDTAB
  0
TABLE
  2
UCS
  5
7
100
AcDbSymbolTable
 70
     0
  0
ENDTAB
  0
TABLE
  2
APPID
  5
9
100
AcDbSymbolTable
 70
     1
  0
APPID
  5
11
100
AcDbSymbolTableRecord
100
AcDbRegAppTableRecord
  2
ACAD
 70
     0
  0
ENDTAB
  0
TABLE
  2
DIMSTYLE
  5
A
100
AcDbSymbolTable
 70
     2
  0
DIMSTYLE
105
25
100
AcDbSymbolTableRecord
100
AcDbDimStyleTableRecord
  2
STANDARD
 70
     0
  3

  4

  5

  6
_OPEN
  7
_OPEN
 40
1.0
 41
15.0
 42
1.0
 43
8.0
 44
1.0
 45
0.0
 46
0.0
 47
0.0
 48
0.0
140
12.5
141
0.09
142
0.0
143
0.03937
144
1.0
145
0.0
146
1.0
147
0.6
 71
     0
 72
     0
 73
     1
 74
     1
 75
     0
 76
     0
 77
     3
 78
     8
170
     0
171
     2
172
     0
173
     1
174
     0
175
     0
176
     0
177
     0
178
     0
270
     2
271
     2
272
     4
273
     2
274
     2
340
10
275
     0
280
     0
281
     0
282
     0
283
     1
284
     0
285
     0
286
     0
287
     3
288
     0
  0
DIMSTYLE
105
26
100
AcDbSymbolTableRecord
100
AcDbDimStyleTableRecord
  2
LEADSTYL
 70
     0
  3

  4

  5

  6
_OPEN
  7
_OPEN
 40
1.0
 41
15.0
 42
0.0625
 43
0.38
 44
0.18
 45
0.0
 46
0.0
 47
0.0
 48
0.0
140
15.75
141
0.09
142
0.0
143
25.4
144
1.0
145
0.0
146
1.0
147
0.6
 71
     0
 72
     0
 73
     1
 74
     1
 75
     0
 76
     0
 77
     0
 78
     0
170
     0
171
     2
172
     0
173
     1
174
     0
175
     0
176
     0
177
     0
178
     0
270
     2
271
     4
272
     4
273
     2
274
     2
340
10
275
     0
280
     0
281
     0
282
     0
283
     1
284
     0
285
     0
286
     0
287
     3
288
     0
  0
ENDTAB
  0
TABLE
  2
BLOCK_RECORD
  5
1
100
AcDbSymbolTable
 70
     7
  0
BLOCK_RECORD
  5
1F
100
AcDbSymbolTableRecord
100
AcDbBlockTableRecord
  2
*MODEL_SPACE
  0
BLOCK_RECORD
  5
22
100
AcDbSymbolTableRecord
100
AcDbBlockTableRecord
  2
*PAPER_SPACE
  0
BLOCK_RECORD
  5
27
100
AcDbSymbolTableRecord
100
AcDbBlockTableRecord
  2
_NONE
  0
BLOCK_RECORD
  5
2B
100
AcDbSymbolTableRecord
100
AcDbBlockTableRecord
  2
_OPEN
  0
BLOCK_RECORD
  5
31
100
AcDbSymbolTableRecord
100
AcDbBlockTableRecord
  2
_CLOSED
  0
BLOCK_RECORD
  5
38
100
AcDbSymbolTableRecord
100
AcDbBlockTableRecord
  2
_ORIGIN
  0
BLOCK_RECORD
  5
3D
100
AcDbSymbolTableRecord
100
AcDbBlockTableRecord
  2
_DOT
  0
BLOCK_RECORD
  5
45
100
AcDbSymbolTableRecord
100
AcDbBlockTableRecord
  2
_OBLIQUE
  0
BLOCK_RECORD
  5
FD
100
AcDbSymbolTableRecord
100
AcDbBlockTableRecord
  2
LIST0
  0
ENDTAB
  0
ENDSEC
  0
SECTION
  2
BLOCKS
  0
BLOCK
  5
20
100
AcDbEntity
  8
0
100
AcDbBlockBegin
  2
*MODEL_SPACE
 70
     0
 10
0.0
 20
0.0
 30
0.0
  3
*MODEL_SPACE
  1

  0
ENDBLK
  5
21
100
AcDbEntity
  8
0
100
AcDbBlockEnd
  0
BLOCK
  5
23
100
AcDbEntity
 67
     1
  8
0
100
AcDbBlockBegin
  2
*PAPER_SPACE
 70
     0
 10
0.0
 20
0.0
 30
0.0
  3
*PAPER_SPACE
  1

  0
ENDBLK
  5
24
100
AcDbEntity
 67
     1
  8
0
100
AcDbBlockEnd
  0
BLOCK
  5
28
100
AcDbEntity
  8
0
100
AcDbBlockBegin
  2
_NONE
 70
     0
 10
0.0
 20
0.0
  0
CIRCLE
  5
29
100
AcDbEntity
  8
0
 62
     0
100
AcDbCircle
 10
0.0
 20
0.0
 40
0.25
  0
ENDBLK
  5
2A
100
AcDbEntity
  8
0
100
AcDbBlockEnd
  0
BLOCK
  5
2C
100
AcDbEntity
  8
0
100
AcDbBlockBegin
  2
_OPEN
 70
     0
 10
0.0
 20
0.0
  0
LINE
  5
2D
100
AcDbEntity
  8
0
 62
     0
100
AcDbLine
 10
-0.965926
 20
0.258819
 11
0.0
 21
0.0
  0
LINE
  5
2E
100
AcDbEntity
  8
0
 62
     0
100
AcDbLine
 10
0.0
 20
0.0
 11
-0.965926
 21
-0.258819
  0
LINE
  5
2F
100
AcDbEntity
  8
0
 62
     0
100
AcDbLine
 10
0.0
 20
0.0
 11
-1.0
 21
0.0
  0
ENDBLK
  5
30
100
AcDbEntity
  8
0
100
AcDbBlockEnd
  0
BLOCK
  5
32
100
AcDbEntity
  8
0
100
AcDbBlockBegin
  2
_CLOSED
 70
     0
 10
0.0
 20
0.0
  0
LINE
  5
33
100
AcDbEntity
  8
0
 62
     0
100
AcDbLine
 10
-0.965926
 20
0.258819
 11
0.0
 21
0.0
  0
LINE
  5
34
100
AcDbEntity
  8
0
 62
     0
100
AcDbLine
 10
0.0
 20
0.0
 11
-0.965926
 21
-0.258819
  0
LINE
  5
35
100
AcDbEntity
  8
0
 62
     0
100
AcDbLine
 10
-0.965926
 20
0.258819
 11
-0.965926
 21
-0.258819
  0
LINE
  5
36
100
AcDbEntity
  8
0
 62
     0
100
AcDbLine
 10
0.0
 20
0.0
 11
-1.0
 21
0.0
  0
ENDBLK
  5
37
100
AcDbEntity
  8
0
100
AcDbBlockEnd
  0
BLOCK
  5
39
100
AcDbEntity
  8
0
100
AcDbBlockBegin
  2
_ORIGIN
 70
     0
 10
0.0
 20
0.0
  0
CIRCLE
  5
3A
100
AcDbEntity
  8
0
 62
     0
100
AcDbCircle
 10
0.0
 20
0.0
 40
0.5
  0
LINE
  5
3B
100
AcDbEntity
  8
0
 62
     0
100
AcDbLine
 10
0.0
 20
0.0
 11
-1.0
 21
0.0
  0
ENDBLK
  5
3C
100
AcDbEntity
  8
0
100
AcDbBlockEnd
  0
BLOCK
  5
3E
100
AcDbEntity
  8
0
100
AcDbBlockBegin
  2
_DOT
 70
     0
 10
0.0
 20
0.0
  0
POLYLINE
  5
3F
100
AcDbEntity
  8
0
 62
     0
100
AcDb2dPolyline
 66
     1
 70
     1
 40
0.5
 41
0.5
  0
VERTEX
  5
40
100
AcDbEntity
  8
0
 62
     0
100
AcDbVertex
100
AcDb2dVertex
 10
-0.25
 20
0.0
 42
1.0
  0
VERTEX
  5
41
100
AcDbEntity
  8
0
 62
     0
100
AcDbVertex
100
AcDb2dVertex
 10
0.25
 20
0.0
 42
1.0
  0
SEQEND
  5
42
100
AcDbEntity
  8
0
 62
     0
  0
LINE
  5
43
100
AcDbEntity
  8
0
 62
     0
100
AcDbLine
 10
-0.5
 20
0.0
 11
-1.0
 21
0.0
  0
ENDBLK
  5
44
100
AcDbEntity
  8
0
100
AcDbBlockEnd
  0
BLOCK
  5
46
100
AcDbEntity
  8
0
100
AcDbBlockBegin
  2
_OBLIQUE
 70
     0
 10
0.0
 20
0.0
  0
LINE
  5
47
100
AcDbEntity
  8
0
 62
     0
100
AcDbLine
 10
-0.353553
 20
-0.353553
 11
0.353553
 21
0.353553
  0
ENDBLK
  5
48
100
AcDbEntity
  8
0
100
AcDbBlockEnd
  0
BLOCK
  5
FE
100
AcDbEntity
  8
DT0
100
AcDbBlockBegin
  2
LIST0
 70
     0
 10
0.0
 20
0.0
  0
LINE
  5
FF
100
AcDbEntity
  8
DT0
100
AcDbLine
 10
727.665013
 20
189.07932
 11
727.665013
 21
106.579331
  0
LINE
  5
100
100
AcDbEntity
  8
DT0
100
AcDbLine
 10
317.665038
 20
189.07932
 11
317.665038
 21
106.579331
  0
LINE
  5
101
100
AcDbEntity
  8
DT0
100
AcDbLine
 10
317.665038
 20
106.579331
 11
727.665013
 21
106.579331
  0
LINE
  5
102
100
AcDbEntity
  8
DT0
100
AcDbLine
 10
317.665038
 20
189.07932
 11
727.665013
 21
189.07932
  0
LINE
  5
103
100
AcDbEntity
  8
DT0
100
AcDbLine
 10
632.665053
 20
161.579339
 11
632.665053
 21
189.07932
  0
LINE
  5
104
100
AcDbEntity
  8
DT0
100
AcDbLine
 10
377.665056
 20
161.579339
 11
632.665053
 21
161.579339
  0
TEXT
  5
105
100
AcDbEntity
  8
DT0
100
AcDbText
 10
383.706725
 20
169.07932
 40
12.5
  1
Ｓ４００ｓ３Ｐ
 41
0.833333
  7
STANDARD
100
AcDbText
  0
LINE
  5
106
100
AcDbEntity
  8
DT0
 60
     1
100
AcDbLine
 10
677.665014
 20
161.579339
 11
677.665014
 21
189.07932
  0
LINE
  5
107
100
AcDbEntity
  8
DT0
100
AcDbLine
 10
632.665053
 20
161.579339
 11
677.665014
 21
161.579339
  0
TEXT
  5
108
100
AcDbEntity
  8
DT0
100
AcDbText
 10
638.523393
 20
169.07932
 40
12.5
  1
ＲＥＶ．：
 41
0.666667
  7
STANDARD
100
AcDbText
  0
LINE
  5
109
100
AcDbEntity
  8
DT0
 60
     1
100
AcDbLine
 10
727.665013
 20
161.579339
 11
727.665013
 21
189.07932
  0
LINE
  5
10A
100
AcDbEntity
  8
DT0
100
AcDbLine
 10
677.665014
 20
161.579339
 11
727.665013
 21
161.579339
  0
TEXT
  5
10B
100
AcDbEntity
  8
DT0
100
AcDbText
 10
698.706644
 20
169.07932
 40
12.5
  1
００
 41
0.833333
  7
STANDARD
100
AcDbText
  0
LINE
  5
10C
100
AcDbEntity
  8
DT0
 60
     1
100
AcDbLine
 10
377.665056
 20
161.579339
 11
377.665056
 21
189.07932
  0
LINE
  5
10D
100
AcDbEntity
  8
DT0
100
AcDbLine
 10
317.665038
 20
161.579339
 11
377.665056
 21
161.579339
  0
TEXT
  5
10E
100
AcDbEntity
  8
DT0
100
AcDbText
 10
323.706687
 20
169.07932
 40
12.5
  1
登録名：
 41
0.833333
  7
STANDARD
100
AcDbText
  0
LINE
  5
10F
100
AcDbEntity
  8
DT0
 60
     1
100
AcDbLine
 10
727.665013
 20
134.07933
 11
727.665013
 21
161.579339
  0
LINE
  5
110
100
AcDbEntity
  8
DT0
100
AcDbLine
 10
677.665014
 20
134.07933
 11
727.665013
 21
134.07933
  0
LINE
  5
111
100
AcDbEntity
  8
DT0
 60
     1
100
AcDbLine
 10
677.665014
 20
134.07933
 11
677.665014
 21
161.579339
  0
LINE
  5
112
100
AcDbEntity
  8
DT0
100
AcDbLine
 10
377.665056
 20
134.07933
 11
677.665014
 21
134.07933
  0
TEXT
  5
113
100
AcDbEntity
  8
DT0
100
AcDbText
 10
383.706725
 20
141.57934
 40
12.5
  1
表面形
 41
0.833333
  7
STANDARD
100
AcDbText
  0
LINE
  5
114
100
AcDbEntity
  8
DT0
 60
     1
100
AcDbLine
 10
377.665056
 20
134.07933
 11
377.665056
 21
161.579339
  0
LINE
  5
115
100
AcDbEntity
  8
DT0
100
AcDbLine
 10
317.665038
 20
134.07933
 11
377.665056
 21
134.07933
  0
TEXT
  5
116
100
AcDbEntity
  8
DT0
100
AcDbText
 10
321.102537
 20
141.57934
 40
12.5
  1
接続方式：
 41
0.75
  7
STANDARD
100
AcDbText
  0
LINE
  5
117
100
AcDbEntity
  8
DT0
 60
     1
100
AcDbLine
 10
727.665013
 20
106.579331
 11
727.665013
 21
134.07933
  0
LINE
  5
118
100
AcDbEntity
  8
DT0
 60
     1
100
AcDbLine
 10
677.665014
 20
106.579331
 11
727.665013
 21
106.579331
  0
LINE
  5
119
100
AcDbEntity
  8
DT0
 60
     1
100
AcDbLine
 10
677.665014
 20
106.579331
 11
677.665014
 21
134.07933
  0
LINE
  5
11A
100
AcDbEntity
  8
DT0
 60
     1
100
AcDbLine
 10
377.665056
 20
106.579331
 11
677.665014
 21
106.579331
  0
TEXT
  5
11B
100
AcDbEntity
  8
DT0
100
AcDbText
 10
383.602574
 20
114.079331
 40
12.5
  1
Ｓ－４００Ｓ／Ｆ－４００ＦＢ／Ｌ－４００Ｅ
 41
0.75
  7
STANDARD
100
AcDbText
  0
LINE
  5
11C
100
AcDbEntity
  8
DT0
 60
     1
100
AcDbLine
 10
377.665056
 20
106.579331
 11
377.665056
 21
134.07933
  0
LINE
  5
11D
100
AcDbEntity
  8
DT0
 60
     1
100
AcDbLine
 10
317.665038
 20
106.579331
 11
377.665056
 21
106.579331
  0
TEXT
  5
11E
100
AcDbEntity
  8
DT0
100
AcDbText
 10
321.102537
 20
114.079331
 40
12.5
  1
適用形式：
 41
0.75
  7
STANDARD
100
AcDbText
  0
ENDBLK
  5
11F
100
AcDbEntity
  8
DT0
100
AcDbBlockEnd
  0
ENDSEC
  0
SECTION
  2
ENTITIES
  0
ARC
  5
49
100
AcDbEntity
  8
M0
 62
     4
100
AcDbCircle
 10
704.461603
 20
996.821501
 40
87.999619
100
AcDbArc
 50
166.394399
 51
180.0
  0
LINE
  5
4A
100
AcDbEntity
  8
M0
 62
     4
100
AcDbLine
 10
618.911799
 20
1017.526091
 11
617.385187
 21
1009.673064
  0
LINE
  5
4B
100
AcDbEntity
  8
M0
 62
     4
100
AcDbLine
 10
645.453058
 20
992.522673
 11
645.453058
 21
992.522429
  0
LINE
  5
4C
100
AcDbEntity
  8
M0
 62
     4
100
AcDbLine
 10
617.404963
 20
1009.669401
 11
639.462092
 21
1004.184782
  0
LINE
  5
4D
100
AcDbEntity
  8
M0
 62
     4
100
AcDbLine
 10
618.931574
 20
1017.522429
 11
639.462092
 21
1014.623259
  0
LINE
  5
4E
100
AcDbEntity
  8
M0
 62
     4
100
AcDbLine
 10
645.452814
 20
992.522429
 11
645.453058
 21
992.522673
  0
LINE
  5
4F
100
AcDbEntity
  8
M0
 62
     4
100
AcDbLine
 10
647.268244
 20
981.673308
 11
647.268488
 21
981.673552
  0
LINE
  5
50
100
AcDbEntity
  8
M0
 62
     4
100
AcDbLine
 10
749.462092
 20
868.321501
 11
749.462092
 21
1125.321501
  0
LINE
  5
51
100
AcDbEntity
  8
M0
 62
     4
100
AcDbLine
 10
639.462092
 20
1041.821501
 11
639.462092
 21
951.821501
  0
LINE
  5
52
100
AcDbEntity
  8
M0
 62
     4
100
AcDbLine
 10
646.462092
 20
1087.321501
 11
646.462092
 21
906.321501
  0
LINE
  5
53
100
AcDbEntity
  8
M0
 62
     4
100
AcDbLine
 10
652.462092
 20
868.321501
 11
652.462092
 21
906.321501
  0
LINE
  5
54
100
AcDbEntity
  8
M0
 62
     4
100
AcDbLine
 10
646.462092
 20
1087.321501
 11
652.462092
 21
1087.321501
  0
LINE
  5
55
100
AcDbEntity
  8
M0
 62
     4
100
AcDbLine
 10
639.462092
 20
1041.821501
 11
646.462092
 21
1041.821501
  0
LINE
  5
56
100
AcDbEntity
  8
M0
 62
     4
100
AcDbLine
 10
639.462092
 20
951.821501
 11
646.462092
 21
951.821501
  0
LINE
  5
57
100
AcDbEntity
  8
M0
 62
     4
100
AcDbLine
 10
646.462092
 20
906.321501
 11
652.462092
 21
906.321501
  0
LINE
  5
58
100
AcDbEntity
  8
M0
 62
     4
100
AcDbLine
 10
715.461847
 20
868.321257
 11
707.461847
 21
868.321257
  0
LINE
  5
59
100
AcDbEntity
  8
M0
 62
     4
100
AcDbLine
 10
644.962092
 20
1041.821501
 11
646.462092
 21
1041.821501
  0
LINE
  5
5A
100
AcDbEntity
  8
M0
 62
     4
100
AcDbLine
 10
644.962092
 20
951.821501
 11
646.462092
 21
951.821501
  0
LINE
  5
5B
100
AcDbEntity
  8
M0
 62
     4
100
AcDbLine
 10
646.462092
 20
1087.571501
 11
652.462092
 21
1087.571501
  0
LINE
  5
5C
100
AcDbEntity
  8
M0
 62
     4
100
AcDbLine
 10
749.461847
 20
1125.321501
 11
749.461847
 21
1079.821501
  0
LINE
  5
5D
100
AcDbEntity
  8
M0
 62
     4
100
AcDbLine
 10
652.462092
 20
1125.321501
 11
749.461847
 21
1125.321501
  0
LINE
  5
5E
100
AcDbEntity
  8
M0
 62
     4
100
AcDbLine
 10
749.461847
 20
868.321501
 11
749.461847
 21
913.821501
  0
LINE
  5
5F
100
AcDbEntity
  8
M0
 62
     4
100
AcDbLine
 10
652.462092
 20
868.321501
 11
749.461847
 21
868.321501
  0
LINE
  5
60
100
AcDbEntity
  8
M0
  6
DASHDOT
 62
     4
100
AcDbLine
 10
592.182143
 20
996.821501
 11
764.214808
 21
996.821501
  0
LINE
  5
61
100
AcDbEntity
  8
M0
 62
     4
100
AcDbLine
 10
652.462092
 20
1087.571501
 11
652.462092
 21
1125.321257
  0
LINE
  5
62
100
AcDbEntity
  8
M0
 62
     4
100
AcDbLine
 10
681.462092
 20
1163.321501
 11
689.462092
 21
1163.321501
  0
LINE
  5
63
100
AcDbEntity
  8
M0
 62
     4
100
AcDbLine
 10
707.462092
 20
1163.321501
 11
707.462092
 21
1125.321501
  0
LINE
  5
64
100
AcDbEntity
  8
M0
 62
     4
100
AcDbLine
 10
715.462092
 20
1163.321501
 11
715.462092
 21
1125.321501
  0
LINE
  5
65
100
AcDbEntity
  8
M0
 62
     4
100
AcDbLine
 10
681.462092
 20
1163.321501
 11
681.462092
 21
1136.821257
  0
LINE
  5
66
100
AcDbEntity
  8
M0
 62
     4
100
AcDbLine
 10
689.462092
 20
1163.321501
 11
689.462092
 21
1136.821501
  0
LINE
  5
67
100
AcDbEntity
  8
M0
 62
     4
100
AcDbLine
 10
692.962092
 20
1133.321501
 11
707.462092
 21
1133.321501
  0
ARC
  5
68
100
AcDbEntity
  8
M0
 62
     4
100
AcDbCircle
 10
692.962092
 20
1136.821501
 40
3.5
100
AcDbArc
 50
180.0
 51
270.0
  0
ARC
  5
69
100
AcDbEntity
  8
M0
 62
     4
100
AcDbCircle
 10
692.962092
 20
1136.821257
 40
11.499986
100
AcDbArc
 50
180.0
 51
269.999943
  0
LINE
  5
6A
100
AcDbEntity
  8
M0
 62
     4
100
AcDbLine
 10
707.462092
 20
1163.321501
 11
715.462092
 21
1163.321501
  0
LINE
  5
6B
100
AcDbEntity
  8
M0
 62
     4
100
AcDbLine
 10
681.462092
 20
830.321501
 11
689.462092
 21
830.321501
  0
LINE
  5
6C
100
AcDbEntity
  8
M0
 62
     4
100
AcDbLine
 10
707.462092
 20
830.321501
 11
707.462092
 21
868.321501
  0
LINE
  5
6D
100
AcDbEntity
  8
M0
 62
     4
100
AcDbLine
 10
715.462092
 20
830.321501
 11
715.462092
 21
868.321501
  0
LINE
  5
6E
100
AcDbEntity
  8
M0
 62
     4
100
AcDbLine
 10
681.462092
 20
830.321501
 11
681.462092
 21
856.821745
  0
LINE
  5
6F
100
AcDbEntity
  8
M0
 62
     4
100
AcDbLine
 10
689.462092
 20
830.321501
 11
689.462092
 21
856.821501
  0
LINE
  5
70
100
AcDbEntity
  8
M0
 62
     4
100
AcDbLine
 10
692.962092
 20
860.321501
 11
707.462092
 21
860.321501
  0
ARC
  5
71
100
AcDbEntity
  8
M0
 62
     4
100
AcDbCircle
 10
692.962092
 20
856.821501
 40
3.5
100
AcDbArc
 50
90.0
 51
179.99975
  0
ARC
  5
72
100
AcDbEntity
  8
M0
 62
     4
100
AcDbCircle
 10
692.962092
 20
856.821745
 40
11.499986
100
AcDbArc
 50
90.0
 51
179.999924
  0
LINE
  5
73
100
AcDbEntity
  8
M0
 62
     4
100
AcDbLine
 10
707.462092
 20
830.321501
 11
715.462092
 21
830.321501
  0
LINE
  5
74
100
AcDbEntity
  8
M0
 62
     4
100
AcDbLine
 10
442.600237
 20
1163.321501
 11
442.600237
 21
1125.321501
  0
LINE
  5
75
100
AcDbEntity
  8
M0
 62
     4
100
AcDbLine
 10
442.600237
 20
1163.321501
 11
417.600237
 21
1163.321501
  0
CIRCLE
  5
76
100
AcDbEntity
  8
M0
 62
     4
100
AcDbCircle
 10
430.100237
 20
1147.321501
 40
5.5
  0
LINE
  5
77
100
AcDbEntity
  8
M0
 62
     4
100
AcDbLine
 10
417.600237
 20
1163.321501
 11
417.600237
 21
1125.321501
  0
LINE
  5
78
100
AcDbEntity
  8
M0
 62
     4
100
AcDbLine
 10
398.600237
 20
1163.321501
 11
398.600237
 21
1125.321501
  0
LINE
  5
79
100
AcDbEntity
  8
M0
 62
     4
100
AcDbLine
 10
398.600237
 20
1163.321501
 11
373.600237
 21
1163.321501
  0
CIRCLE
  5
7A
100
AcDbEntity
  8
M0
 62
     4
100
AcDbCircle
 10
386.100237
 20
1147.321501
 40
5.5
  0
LINE
  5
7B
100
AcDbEntity
  8
M0
 62
     4
100
AcDbLine
 10
373.600237
 20
1163.321501
 11
373.600237
 21
1125.321501
  0
LINE
  5
7C
100
AcDbEntity
  8
M0
 62
     4
100
AcDbLine
 10
329.600237
 20
1163.321501
 11
329.600237
 21
1125.321501
  0
LINE
  5
7D
100
AcDbEntity
  8
M0
 62
     4
100
AcDbLine
 10
329.600237
 20
1163.321501
 11
354.600237
 21
1163.321501
  0
CIRCLE
  5
7E
100
AcDbEntity
  8
M0
 62
     4
100
AcDbCircle
 10
342.100237
 20
1147.321501
 40
5.5
  0
LINE
  5
7F
100
AcDbEntity
  8
M0
 62
     4
100
AcDbLine
 10
354.600237
 20
1163.321501
 11
354.600237
 21
1125.321501
  0
LINE
  5
80
100
AcDbEntity
  8
M0
 62
     4
100
AcDbLine
 10
442.600237
 20
830.321501
 11
442.600237
 21
868.321501
  0
LINE
  5
81
100
AcDbEntity
  8
M0
 62
     4
100
AcDbLine
 10
442.600237
 20
830.321501
 11
417.600237
 21
830.321501
  0
CIRCLE
  5
82
100
AcDbEntity
  8
M0
 62
     4
100
AcDbCircle
 10
430.100237
 20
846.321501
 40
5.5
  0
LINE
  5
83
100
AcDbEntity
  8
M0
 62
     4
100
AcDbLine
 10
417.600237
 20
830.321501
 11
417.600237
 21
868.321501
  0
LINE
  5
84
100
AcDbEntity
  8
M0
 62
     4
100
AcDbLine
 10
329.600237
 20
830.321501
 11
329.600237
 21
868.321501
  0
LINE
  5
85
100
AcDbEntity
  8
M0
 62
     4
100
AcDbLine
 10
329.600237
 20
830.321501
 11
354.600237
 21
830.321501
  0
CIRCLE
  5
86
100
AcDbEntity
  8
M0
 62
     4
100
AcDbCircle
 10
342.100237
 20
846.321501
 40
5.5
  0
LINE
  5
87
100
AcDbEntity
  8
M0
 62
     4
100
AcDbLine
 10
354.600237
 20
830.321501
 11
354.600237
 21
868.321501
  0
LINE
  5
88
100
AcDbEntity
  8
M0
 62
     4
100
AcDbLine
 10
398.600237
 20
830.321501
 11
398.600237
 21
868.321501
  0
LINE
  5
89
100
AcDbEntity
  8
M0
 62
     4
100
AcDbLine
 10
398.600237
 20
830.321501
 11
373.600237
 21
830.321501
  0
CIRCLE
  5
8A
100
AcDbEntity
  8
M0
 62
     4
100
AcDbCircle
 10
386.100237
 20
846.321501
 40
5.5
  0
LINE
  5
8B
100
AcDbEntity
  8
M0
 62
     4
100
AcDbLine
 10
373.600237
 20
830.321501
 11
373.600237
 21
868.321501
  0
LINE
  5
8C
100
AcDbEntity
  8
M0
 62
     4
100
AcDbLine
 10
456.100237
 20
868.321501
 11
456.100237
 21
1125.321501
  0
LINE
  5
8D
100
AcDbEntity
  8
M0
 62
     4
100
AcDbLine
 10
456.100237
 20
1125.321501
 11
442.600237
 21
1125.321501
  0
LINE
  5
8E
100
AcDbEntity
  8
M0
 62
     4
100
AcDbLine
 10
316.100237
 20
1125.321501
 11
316.100237
 21
868.321501
  0
LINE
  5
8F
100
AcDbEntity
  8
M0
 62
     4
100
AcDbLine
 10
316.100237
 20
868.321501
 11
329.600237
 21
868.321501
  0
LINE
  5
90
100
AcDbEntity
  8
M0
  6
DASHDOT
 62
     4
100
AcDbLine
 10
291.100237
 20
996.821501
 11
481.100236
 21
996.821501
  0
LINE
  5
91
100
AcDbEntity
  8
M0
  6
DASHDOT
 62
     4
100
AcDbLine
 10
386.100237
 20
843.321501
 11
386.100237
 21
1150.321501
  0
LINE
  5
92
100
AcDbEntity
  8
M0
 62
     4
100
AcDbLine
 10
417.101946
 20
1034.821745
 11
417.101946
 21
996.821501
  0
LINE
  5
93
100
AcDbEntity
  8
M0
 62
     4
100
AcDbLine
 10
362.101946
 20
1041.821501
 11
410.101946
 21
1041.821501
  0
LINE
  5
94
100
AcDbEntity
  8
M0
 62
     4
100
AcDbLine
 10
355.101946
 20
996.821501
 11
355.101946
 21
1034.821501
  0
LINE
  5
95
100
AcDbEntity
  8
M0
 62
     4
100
AcDbLine
 10
374.601946
 20
1017.521452
 11
397.601946
 21
1017.521452
  0
LINE
  5
96
100
AcDbEntity
  8
M0
 62
     4
100
AcDbLine
 10
397.601946
 20
1009.671355
 11
374.601946
 21
1009.671355
  0
ARC
  5
97
100
AcDbEntity
  8
M0
 62
     4
100
AcDbCircle
 10
362.101946
 20
1034.821501
 40
7.0
100
AcDbArc
 50
89.999875
 51
179.999875
  0
ARC
  5
98
100
AcDbEntity
  8
M0
 62
     4
100
AcDbCircle
 10
410.101946
 20
1034.821501
 40
7.0
100
AcDbArc
 50
0.0
 51
90.0
  0
ARC
  5
99
100
AcDbEntity
  8
M0
 62
     4
100
AcDbCircle
 10
362.101946
 20
958.821501
 40
7.0
100
AcDbArc
 50
179.999875
 51
270.0
  0
ARC
  5
9A
100
AcDbEntity
  8
M0
 62
     4
100
AcDbCircle
 10
410.101946
 20
958.821501
 40
7.0
100
AcDbArc
 50
269.999875
 51
360.0
  0
LINE
  5
9B
100
AcDbEntity
  8
M0
 62
     4
100
AcDbLine
 10
397.601946
 20
977.321501
 11
397.601946
 21
1017.521452
  0
LINE
  5
9C
100
AcDbEntity
  8
M0
 62
     4
100
AcDbLine
 10
374.601946
 20
977.321501
 11
397.601946
 21
977.321501
  0
LINE
  5
9D
100
AcDbEntity
  8
M0
 62
     4
100
AcDbLine
 10
374.601946
 20
1017.521452
 11
374.601946
 21
977.321501
  0
LINE
  5
9E
100
AcDbEntity
  8
M0
 62
     4
100
AcDbLine
 10
417.101946
 20
958.821257
 11
417.101946
 21
996.821501
  0
LINE
  5
9F
100
AcDbEntity
  8
M0
 62
     4
100
AcDbLine
 10
362.101946
 20
951.821501
 11
410.101946
 21
951.821501
  0
LINE
  5
A0
100
AcDbEntity
  8
M0
 62
     4
100
AcDbLine
 10
355.101946
 20
996.821501
 11
355.101946
 21
958.821501
  0
LINE
  5
A1
100
AcDbEntity
  8
M0
 62
     4
100
AcDbLine
 10
316.100237
 20
906.321501
 11
456.100237
 21
906.321501
  0
LINE
  5
A2
100
AcDbEntity
  8
M0
 62
     4
100
AcDbLine
 10
316.100237
 20
1087.321501
 11
456.100237
 21
1087.321501
  0
LINE
  5
A3
100
AcDbEntity
  8
M0
 62
     4
100
AcDbLine
 10
329.600237
 20
1125.321501
 11
316.100237
 21
1125.321501
  0
LINE
  5
A4
100
AcDbEntity
  8
M0
 62
     4
100
AcDbLine
 10
417.600237
 20
1125.321501
 11
354.600237
 21
1125.321501
  0
LINE
  5
A5
100
AcDbEntity
  8
M0
 62
     4
100
AcDbLine
 10
354.600237
 20
868.321501
 11
417.600237
 21
868.321501
  0
LINE
  5
A6
100
AcDbEntity
  8
M0
 62
     4
100
AcDbLine
 10
442.600237
 20
868.321501
 11
456.100237
 21
868.321501
  0
LINE
  5
A7
100
AcDbEntity
  8
M0
 62
     4
100
AcDbLine
 10
327.600237
 20
1125.321257
 11
327.599993
 21
1109.321257
  0
LINE
  5
A8
100
AcDbEntity
  8
M0
 62
     4
100
AcDbLine
 10
356.599993
 20
1109.321257
 11
356.600237
 21
1125.321257
  0
ARC
  5
A9
100
AcDbEntity
  8
M0
 62
     4
100
AcDbCircle
 10
342.100237
 20
1109.321501
 40
14.5
100
AcDbArc
 50
-180.0
 51
0.0
  0
LINE
  5
AA
100
AcDbEntity
  8
M0
 62
     4
100
AcDbLine
 10
371.600237
 20
1125.321257
 11
371.599993
 21
1109.321257
  0
LINE
  5
AB
100
AcDbEntity
  8
M0
 62
     4
100
AcDbLine
 10
400.599993
 20
1109.321257
 11
400.600237
 21
1125.321257
  0
ARC
  5
AC
100
AcDbEntity
  8
M0
 62
     4
100
AcDbCircle
 10
386.100237
 20
1109.321501
 40
14.5
100
AcDbArc
 50
-180.0
 51
0.0
  0
LINE
  5
AD
100
AcDbEntity
  8
M0
 62
     4
100
AcDbLine
 10
415.600237
 20
1125.321257
 11
415.599993
 21
1109.321257
  0
LINE
  5
AE
100
AcDbEntity
  8
M0
 62
     4
100
AcDbLine
 10
444.599993
 20
1109.321257
 11
444.600237
 21
1125.321257
  0
ARC
  5
AF
100
AcDbEntity
  8
M0
 62
     4
100
AcDbCircle
 10
430.100237
 20
1109.321501
 40
14.5
100
AcDbArc
 50
-180.0
 51
0.0
  0
LINE
  5
B0
100
AcDbEntity
  8
M0
 62
     4
100
AcDbLine
 10
327.600237
 20
868.321745
 11
327.599993
 21
884.321745
  0
LINE
  5
B1
100
AcDbEntity
  8
M0
 62
     4
100
AcDbLine
 10
356.599993
 20
884.321745
 11
356.600237
 21
868.321745
  0
ARC
  5
B2
100
AcDbEntity
  8
M0
 62
     4
100
AcDbCircle
 10
342.100237
 20
884.321501
 40
14.5
100
AcDbArc
 50
0.0
 51
180.0
  0
LINE
  5
B3
100
AcDbEntity
  8
M0
 62
     4
100
AcDbLine
 10
371.600237
 20
868.321745
 11
371.599993
 21
884.321745
  0
LINE
  5
B4
100
AcDbEntity
  8
M0
 62
     4
100
AcDbLine
 10
400.599993
 20
884.321745
 11
400.600237
 21
868.321745
  0
ARC
  5
B5
100
AcDbEntity
  8
M0
 62
     4
100
AcDbCircle
 10
386.100237
 20
884.321501
 40
14.5
100
AcDbArc
 50
0.0
 51
180.0
  0
LINE
  5
B6
100
AcDbEntity
  8
M0
 62
     4
100
AcDbLine
 10
415.600237
 20
868.321745
 11
415.599993
 21
884.321745
  0
LINE
  5
B7
100
AcDbEntity
  8
M0
 62
     4
100
AcDbLine
 10
444.599993
 20
884.321745
 11
444.600237
 21
868.321745
  0
ARC
  5
B8
100
AcDbEntity
  8
M0
 62
     4
100
AcDbCircle
 10
430.100237
 20
884.321501
 40
14.5
100
AcDbArc
 50
0.0
 51
180.0
  0
CIRCLE
  5
B9
100
AcDbEntity
  8
M0
100
AcDbCircle
 10
408.100237
 20
1095.321501
 40
3.5
  0
LINE
  5
BA
100
AcDbEntity
  8
M0
  6
DASHDOT
100
AcDbLine
 10
408.100237
 20
1081.821501
 11
408.100237
 21
1108.821501
  0
LINE
  5
BB
100
AcDbEntity
  8
M0
  6
DASHDOT
100
AcDbLine
 10
421.600237
 20
1095.321501
 11
394.600237
 21
1095.321501
  0
LINE
  5
BC
100
AcDbEntity
  8
M0
  6
DASHDOT
100
AcDbLine
 10
350.600237
 20
1095.321501
 11
377.600237
 21
1095.321501
  0
LINE
  5
BD
100
AcDbEntity
  8
M0
  6
DASHDOT
100
AcDbLine
 10
364.100237
 20
1081.821501
 11
364.100237
 21
1108.821501
  0
CIRCLE
  5
BE
100
AcDbEntity
  8
M0
100
AcDbCircle
 10
364.100237
 20
1095.321501
 40
3.5
  0
LINE
  5
BF
100
AcDbEntity
  8
M0
  6
DASHDOT
100
AcDbLine
 10
408.100237
 20
911.821501
 11
408.100237
 21
884.821501
  0
LINE
  5
C0
100
AcDbEntity
  8
M0
  6
DASHDOT
100
AcDbLine
 10
421.600237
 20
898.321501
 11
394.600237
 21
898.321501
  0
CIRCLE
  5
C1
100
AcDbEntity
  8
M0
100
AcDbCircle
 10
408.100237
 20
898.321501
 40
3.5
  0
LINE
  5
C2
100
AcDbEntity
  8
M0
  6
DASHDOT
100
AcDbLine
 10
364.100237
 20
911.821501
 11
364.100237
 21
884.821501
  0
LINE
  5
C3
100
AcDbEntity
  8
M0
  6
DASHDOT
100
AcDbLine
 10
350.600237
 20
898.321501
 11
377.600237
 21
898.321501
  0
CIRCLE
  5
C4
100
AcDbEntity
  8
M0
100
AcDbCircle
 10
364.100237
 20
898.321501
 40
3.5
  0
LINE
  5
C5
100
AcDbEntity
  8
M0
  6
DASHDOT
 62
     2
100
AcDbLine
 10
414.600237
 20
1147.321501
 11
445.600237
 21
1147.321501
  0
LINE
  5
C6
100
AcDbEntity
  8
M0
  6
DASHDOT
 62
     2
100
AcDbLine
 10
430.100237
 20
1131.821501
 11
430.100237
 21
1162.821501
  0
LINE
  5
C7
100
AcDbEntity
  8
M0
  6
DASHDOT
 62
     2
100
AcDbLine
 10
370.600237
 20
1147.321501
 11
401.600237
 21
1147.321501
  0
LINE
  5
C8
100
AcDbEntity
  8
M0
  6
DASHDOT
 62
     2
100
AcDbLine
 10
386.100237
 20
1131.821501
 11
386.100237
 21
1162.821501
  0
LINE
  5
C9
100
AcDbEntity
  8
M0
  6
DASHDOT
 62
     2
100
AcDbLine
 10
357.600237
 20
1147.321501
 11
326.600237
 21
1147.321501
  0
LINE
  5
CA
100
AcDbEntity
  8
M0
  6
DASHDOT
 62
     2
100
AcDbLine
 10
342.100237
 20
1131.821501
 11
342.100237
 21
1162.821501
  0
LINE
  5
CB
100
AcDbEntity
  8
M0
  6
DASHDOT
 62
     2
100
AcDbLine
 10
342.100237
 20
861.821501
 11
342.100237
 21
830.821501
  0
LINE
  5
CC
100
AcDbEntity
  8
M0
  6
DASHDOT
 62
     2
100
AcDbLine
 10
357.600237
 20
846.321501
 11
326.600237
 21
846.321501
  0
LINE
  5
CD
100
AcDbEntity
  8
M0
  6
DASHDOT
 62
     2
100
AcDbLine
 10
386.100237
 20
861.821501
 11
386.100237
 21
830.821501
  0
LINE
  5
CE
100
AcDbEntity
  8
M0
  6
DASHDOT
 62
     2
100
AcDbLine
 10
370.600237
 20
846.321501
 11
401.600237
 21
846.321501
  0
LINE
  5
CF
100
AcDbEntity
  8
M0
  6
DASHDOT
 62
     2
100
AcDbLine
 10
430.100237
 20
861.821501
 11
430.100237
 21
830.821501
  0
LINE
  5
D0
100
AcDbEntity
  8
M0
  6
DASHDOT
 62
     2
100
AcDbLine
 10
414.600237
 20
846.321501
 11
445.600237
 21
846.321501
  0
LINE
  5
D1
100
AcDbEntity
  8
M0
  6
DASHED
 62
     2
100
AcDbLine
 10
681.462092
 20
1156.321501
 11
681.462092
 21
1138.321501
  0
LINE
  5
D2
100
AcDbEntity
  8
M0
  6
DASHDOT
 62
     2
100
AcDbLine
 10
670.371462
 20
1147.321501
 11
689.462092
 21
1147.321501
  0
LINE
  5
D3
100
AcDbEntity
  8
M0
  6
DASHED
 62
     2
100
AcDbLine
 10
707.462092
 20
1156.321501
 11
707.462092
 21
1138.321501
  0
LINE
  5
D4
100
AcDbEntity
  8
M0
  6
DASHDOT
 62
     2
100
AcDbLine
 10
697.137965
 20
1147.321501
 11
715.462092
 21
1147.321501
  0
LINE
  5
D5
100
AcDbEntity
  8
M0
  6
DASHED
 62
     2
100
AcDbLine
 10
681.462092
 20
837.321501
 11
681.462092
 21
855.321501
  0
LINE
  5
D6
100
AcDbEntity
  8
M0
  6
DASHDOT
 62
     2
100
AcDbLine
 10
670.371462
 20
846.321501
 11
689.462092
 21
846.321501
  0
LINE
  5
D7
100
AcDbEntity
  8
M0
  6
DASHED
 62
     2
100
AcDbLine
 10
707.462092
 20
837.321501
 11
707.462092
 21
855.321501
  0
LINE
  5
D8
100
AcDbEntity
  8
M0
  6
DASHDOT
 62
     2
100
AcDbLine
 10
697.137965
 20
846.321501
 11
715.462092
 21
846.321501
  0
LINE
  5
D9
100
AcDbEntity
  8
M0
  6
DASHED
100
AcDbLine
 10
719.462092
 20
1100.071013
 11
719.462092
 21
1087.571013
  0
LINE
  5
DA
100
AcDbEntity
  8
M0
  6
DASHDOT
100
AcDbLine
 10
704.845789
 20
1093.821013
 11
749.462092
 21
1093.821013
  0
LINE
  5
DB
100
AcDbEntity
  8
M0
  6
DASHED
100
AcDbLine
 10
719.462092
 20
893.571989
 11
719.462092
 21
906.071989
  0
LINE
  5
DC
100
AcDbEntity
  8
M0
  6
DASHDOT
100
AcDbLine
 10
704.845789
 20
899.821989
 11
749.462092
 21
899.821989
  0
LINE
  5
DD
100
AcDbEntity
  8
M0
  6
DASHDOT
 62
     4
100
AcDbLine
 10
316.100237
 20
316.377744
 11
456.100237
 21
316.377744
  0
LINE
  5
DE
100
AcDbEntity
  8
M0
  6
DASHDOT
 62
     4
100
AcDbLine
 10
456.100237
 20
316.377744
 11
456.100237
 21
573.3775
  0
LINE
  5
DF
100
AcDbEntity
  8
M0
  6
DASHDOT
 62
     4
100
AcDbLine
 10
316.100237
 20
573.3775
 11
316.100237
 21
316.377744
  0
LINE
  5
E0
100
AcDbEntity
  8
M0
  6
DASHDOT
 62
     4
100
AcDbLine
 10
386.100237
 20
305.532529
 11
386.100237
 21
585.542295
  0
LINE
  5
E1
100
AcDbEntity
  8
M0
  6
DASHDOT
 62
     4
100
AcDbLine
 10
304.394914
 20
444.877744
 11
467.937593
 21
444.877744
  0
LINE
  5
E2
100
AcDbEntity
  8
M0
  6
DASHDOT
 62
     4
100
AcDbLine
 10
316.100481
 20
573.3775
 11
456.100237
 21
573.3775
  0
CIRCLE
  5
E3
100
AcDbEntity
  8
M0
100
AcDbCircle
 10
408.100237
 20
538.3775
 40
3.5
  0
CIRCLE
  5
E4
100
AcDbEntity
  8
M0
100
AcDbCircle
 10
364.100237
 20
538.3775
 40
3.5
  0
CIRCLE
  5
E5
100
AcDbEntity
  8
M0
100
AcDbCircle
 10
364.100237
 20
344.377744
 40
3.5
  0
CIRCLE
  5
E6
100
AcDbEntity
  8
M0
100
AcDbCircle
 10
408.100237
 20
344.377744
 40
3.5
  0
LINE
  5
E7
100
AcDbEntity
  8
M0
  6
DASHDOT
100
AcDbLine
 10
394.600237
 20
538.3775
 11
421.600237
 21
538.3775
  0
LINE
  5
E8
100
AcDbEntity
  8
M0
  6
DASHDOT
100
AcDbLine
 10
408.100237
 20
524.8775
 11
408.100237
 21
551.8775
  0
LINE
  5
E9
100
AcDbEntity
  8
M0
  6
DASHDOT
100
AcDbLine
 10
350.600237
 20
538.3775
 11
377.600237
 21
538.3775
  0
LINE
  5
EA
100
AcDbEntity
  8
M0
  6
DASHDOT
100
AcDbLine
 10
364.100237
 20
524.8775
 11
364.100237
 21
551.8775
  0
LINE
  5
EB
100
AcDbEntity
  8
M0
  6
DASHDOT
100
AcDbLine
 10
350.600237
 20
344.377744
 11
377.600237
 21
344.377744
  0
LINE
  5
EC
100
AcDbEntity
  8
M0
  6
DASHDOT
100
AcDbLine
 10
364.100237
 20
330.877744
 11
364.100237
 21
357.877744
  0
LINE
  5
ED
100
AcDbEntity
  8
M0
  6
DASHDOT
100
AcDbLine
 10
394.600237
 20
344.377744
 11
421.600237
 21
344.377744
  0
LINE
  5
EE
100
AcDbEntity
  8
M0
  6
DASHDOT
100
AcDbLine
 10
408.100237
 20
330.877744
 11
408.100237
 21
357.877744
  0
LINE
  5
EF
100
AcDbEntity
  8
M0
  6
DASHDOT
 62
     4
100
AcDbLine
 10
679.962092
 20
301.196748
 11
679.962092
 21
593.3775
  0
LINE
  5
F0
100
AcDbEntity
  8
M0
  6
DASHDOT
 62
     4
100
AcDbLine
 10
590.868716
 20
444.877744
 11
761.299448
 21
444.877744
  0
LINE
  5
F1
100
AcDbEntity
  8
M0
  6
DASHDOT
 62
     4
100
AcDbLine
 10
749.462092
 20
316.377744
 11
749.462092
 21
573.3775
  0
LINE
  5
F2
100
AcDbEntity
  8
M0
  6
DASHDOT
 62
     4
100
AcDbLine
 10
609.462336
 20
573.3775
 11
749.462092
 21
573.3775
  0
LINE
  5
F3
100
AcDbEntity
  8
M0
  6
DASHDOT
 62
     4
100
AcDbLine
 10
609.462092
 20
573.3775
 11
609.462092
 21
316.377744
  0
LINE
  5
F4
100
AcDbEntity
  8
M0
  6
DASHDOT
 62
     4
100
AcDbLine
 10
609.462092
 20
316.377744
 11
749.462092
 21
316.377744
  0
LINE
  5
F5
100
AcDbEntity
  8
M0
 62
     7
100
AcDbLine
 10
647.962092
 20
482.877744
 11
647.962092
 21
406.877744
  0
LINE
  5
F6
100
AcDbEntity
  8
M0
 62
     7
100
AcDbLine
 10
655.962092
 20
490.877744
 11
703.962092
 21
490.877744
  0
LINE
  5
F7
100
AcDbEntity
  8
M0
 62
     7
100
AcDbLine
 10
655.962092
 20
398.877744
 11
703.962092
 21
398.877744
  0
LINE
  5
F8
100
AcDbEntity
  8
M0
 62
     7
100
AcDbLine
 10
711.962092
 20
482.877744
 11
711.962092
 21
406.877744
  0
ARC
  5
F9
100
AcDbEntity
  8
M0
 62
     7
100
AcDbCircle
 10
703.962092
 20
482.877744
 40
8.0
100
AcDbArc
 50
0.0
 51
90.0
  0
ARC
  5
FA
100
AcDbEntity
  8
M0
 62
     7
100
AcDbCircle
 10
655.962092
 20
482.877744
 40
8.0
100
AcDbArc
 50
90.0
 51
180.0
  0
ARC
  5
FB
100
AcDbEntity
  8
M0
 62
     7
100
AcDbCircle
 10
655.962092
 20
406.877744
 40
8.0
100
AcDbArc
 50
180.0
 51
270.0
  0
ARC
  5
FC
100
AcDbEntity
  8
M0
 62
     7
100
AcDbCircle
 10
703.962092
 20
406.877744
 40
8.0
100
AcDbArc
 50
270.0
 51
360.0
  0
INSERT
  5
120
100
AcDbEntity
  8
DT0
100
AcDbBlockReference
  2
LIST0
 10
0.0
 20
0.0
  0
ENDSEC
  0
SECTION
  2
OBJECTS
  0
DICTIONARY
  5
C
100
AcDbDictionary
  3
ACAD_GROUP
350
D
  3
ACAD_MLINESTYLE
350
E
  0
DICTIONARY
  5
D
102
{ACAD_REACTORS
330
C
102
}
100
AcDbDictionary
  0
DICTIONARY
  5
E
102
{ACAD_REACTORS
330
C
102
}
100
AcDbDictionary
  3
STANDARD
350
13
  0
MLINESTYLE
  5
13
102
{ACAD_REACTORS
330
E
102
}
100
AcDbMlineStyle
  2
STANDARD
 70
     0
  3

 62
     0
 51
90.0
 52
90.0
 71
     2
 49
0.5
 62
   256
  6
BYLAYER
 49
-0.5
 62
   256
  6
BYLAYER
  0
ENDSEC
  0
EOF
