  0
SECTION
  2
HEADER
  9
$ACADVER
  1
AC1015
  9
$INSBASE
 10
0.000000
 20
0.000000
 30
0.0
  9
$VIEWCTR
 10
7.531722
 20
4.5
  9
$VIEWSIZE
 40
9.0
  9
$SNAPMODE
 70
     0
  9
$SNAPUNIT
 10
1.0
 20
1.0
  9
$SNAPBASE
 10
0.0
 20
0.0
  9
$SNAPANG
 50
0.0
  9
$SNAPSTYLE
 70
     0
  9
$SNAPISOPAIR
 70
     0
  9
$GRIDMODE
 70
     0
  9
$GRIDUNIT
 10
0.0
 20
0.0
  9
$ORTHOMODE
 70
     0
  9
$REGENMODE
 70
     1
  9
$FILLMODE
 70
     1
  9
$QTEXTMODE
 70
     0
  9
$DRAGMODE
 70
     2
  9
$LTSCALE
  40
     1.000000
  9
$OSMODE
 70
     0
  9
$ATTMODE
 70
     1
  9
$TEXTSIZE
 40
0.2
  9
$TRACEWID
 40
0.05
  9
$TEXTSTYLE
  7
STANDARD
  9
$CELTYPE
  6
BYLAYER
  9
$CECOLOR
 62
   256
  9
$DIMSCALE
 40
1.0
  9
$DIMASZ
 40
0.18
  9
$DIMEXO
 40
0.0625
  9
$DIMDLI
 40
0.38
  9
$DIMRND
 40
0.0
  9
$DIMDLE
 40
0.0
  9
$DIMEXE
 40
0.18
  9
$DIMTP
 40
0.0
  9
$DIMTM
 40
0.0
  9
$DIMTXT
 40
0.18
  9
$DIMCEN
 40
0.09
  9
$DIMTSZ
 40
0.0
  9
$DIMADEC
 70
     0
  9
$DIMALTRND
 40
0.000000
  9
$DIMAZIN
 70
     0
  9
$DIMDSEP
 70
    46
  9
$DIMATFIT
 70
     3
  9
$DIMFRAC
 70
     0
  9
$DIMLDRBLK
  1

  9
$DIMLUNIT
 70
     2
  9
$DIMLWD
 70
   13
  9
$DIMLWE
 70
   13
  9
$DIMTMOVE
 70
     0
  9
$CELWEIGHT
370
    25
  9
$LWDISPLAY
290
    1
  9
$EXTNAMES
290
    1
  9
$DIMTOL
 70
     0
  9
$DIMLIM
 70
     0
  9
$DIMTIH
 70
     1
  9
$DIMTOH
 70
     1
  9
$DIMSE1
 70
     0
  9
$DIMSE2
 70
     0
  9
$DIMTAD
 70
     0
  9
$DIMZIN
 70
     0
  9
$DIMBLK
  1

  9
$LUNITS
 70
     2
  9
$LUPREC
 70
     4
  9
$AXISMODE
 70
     0
  9
$AXISUNIT
 10
0.0
 20
0.0
  9
$SKETCHINC
 40
0.1
  9
$FILLETRAD
 40
0.0
  9
$AUNITS
 70
     0
  9
$AUPREC
 70
     0
  9
$MENU
  1
ACAD
  9
$ELEVATION
 40
0.0
  9
$THICKNESS
 40
0.0
  9
$VIEWDIR
 10
0.0
 20
0.0
 30
1.0
  9
$LIMCHECK
 70
     0
  9
$BLIPMODE
 70
     1
  9
$CHAMFERA
 40
0.0
  9
$CHAMFERB
 40
0.0
  9
$FASTZOOM
 70
     1
  9
$SKPOLY
 70
     0
  9
$TDCREATE
 40
0000000.0000000000
  9
$TDUPDATE
 40
0000000.0000000000
  9
$TDINDWG
 40
0.0000000000
  9
$TDUSRTIMER
 40
0.0000000000
  9
$USRTIMER
 70
     1
  9
$ANGBASE
 50
0.0
  9
$ANGDIR
 70
     0
  9
$PDMODE
 70
     0
  9
$PDSIZE
 40
0.0
  9
$PLINEWID
 40
0.0
  9
$COORDS
 70
     0
  9
$USERI1
 70
     0
  9
$USERI2
 70
     0
  9
$USERI3
 70
     0
  9
$USERI4
 70
     0
  9
$USERI5
 70
     0
  9
$USERR1
 40
0.0
  9
$USERR2
 40
0.0
  9
$USERR3
 40
0.0
  9
$USERR4
 40
0.0
  9
$USERR5
 40
0.0
  9
$CLAYER
  8
M1
  9
$EXTMIN
 10
0.0
 20
0.0
  9
$EXTMAX
 10
841.0
 20
594.0
  9
$LIMMIN
 10
0.0
 20
0.0
  9
$LIMMAX
 10
841.0
 20
594.0
  9
$HANDSEED
  5
5EB
  0
ENDSEC
  0
SECTION
  2
CLASSES
  0
CLASS
  1
DIMASSOC
  2
AcDbDimAssoc
  3
"AcDbDimAssoc|Product Desc:     AcDim ARX App For Dimension|Company:          Autodesk, Inc.|WEB Address:      www.autodesk.com"
 90
        0
280
     0
281
     0
  0
ENDSEC
  0
SECTION
  2
TABLES
  0
TABLE
  2
VPORT
  5
8
100
AcDbSymbolTable
 70
     2
  0
VPORT
  5
14
100
AcDbSymbolTableRecord
100
AcDbViewportTableRecord
  2
*ACTIVE
 70
     0
 10
0.0
 20
0.0
 11
1.0
 21
1.0
 12
484.0
 22
297.0
 13
0.0
 23
0.0
 14
1.0
 24
1.0
 15
0.0
 25
0.0
 16
0.0
 26
0.0
 36
1.0
 17
0.0
 27
0.0
 37
0.0
 40
594.0
 41
2.0
 42
50.0
 43
0.0
 44
0.0
 50
0.0
 51
0.0
 71
     0
 72
   100
 73
     1
 74
     1
 75
     0
 76
     0
 77
     0
 78
     0
  0
ENDTAB
  0
TABLE
  2
LTYPE
  5
5
100
AcDbSymbolTable
 70
     5
  0
LTYPE
  5
15
100
AcDbSymbolTableRecord
100
AcDbLinetypeTableRecord
  2
BYBLOCK
 70
     0
  3

 72
    65
 73
     0
 40
0.0
  0
LTYPE
  5
16
100
AcDbSymbolTableRecord
100
AcDbLinetypeTableRecord
  2
BYLAYER
 70
     0
  3

 72
    65
 73
     0
 40
0.0
  0
LTYPE
  5
17
100
AcDbSymbolTableRecord
100
AcDbLinetypeTableRecord
  2
CONTINUOUS
 70
    64
  3
Solid line
 72
    65
 73
     0
 40
0.0
  0
LTYPE
  5
18
100
AcDbSymbolTableRecord
100
AcDbLinetypeTableRecord
  2
DASHED
 70
    64
  3
__ __ __ __ __ __ __ __ __ __ __ __ __ __ __ __
 72
    65
 73
     2
 40
0.75
 49
0.5
 74
     0
 49
-0.25
 74
     0
  0
LTYPE
  5
19
100
AcDbSymbolTableRecord
100
AcDbLinetypeTableRecord
  2
DASHDOT
 70
    64
  3
__ . __ . __ . __ . __ . __ . __ . __ . __ . __
 72
    65
 73
     4
 40
1.0
 49
0.5
 74
     0
 49
-0.25
 74
     0
 49
0.0
 74
     0
 49
-0.25
 74
     0
  0
LTYPE
  5
1A
100
AcDbSymbolTableRecord
100
AcDbLinetypeTableRecord
  2
DIVIDE
 70
    64
  3
____ . . ____ . . ____ . . ____ . . ____ . . __
 72
    65
 73
     6
 40
1.25
 49
0.5
 74
     0
 49
-0.25
 74
     0
 49
0.0
 74
     0
 49
-0.25
 74
     0
 49
0.0
 74
     0
 49
-0.25
 74
     0
  0
LTYPE
  5
1B
100
AcDbSymbolTableRecord
100
AcDbLinetypeTableRecord
  2
DOT
 70
    64
  3
. . . . . . . . . . . . . . . . . . . . . . . .
 72
    65
 73
     2
 40
0.25
 49
0.0
 74
     0
 49
-0.25
 74
     0
  0
ENDTAB
  0
TABLE
  2
LAYER
  5
2
100
AcDbSymbolTable
 70
   102
  0
LAYER
  5
F
100
AcDbSymbolTableRecord
100
AcDbLayerTableRecord
  2
0
 70
     0
 62
     7
  6
CONTINUOUS
370
     -3
390
F
  0
LAYER
  5
1C
100
AcDbSymbolTableRecord
100
AcDbLayerTableRecord
  2
M1
 70
     0
 62
     7
  6
CONTINUOUS
370
     -3
390
F
  0
LAYER
  5
1D
100
AcDbSymbolTableRecord
100
AcDbLayerTableRecord
  2
M2
 70
     0
 62
     3
  6
CONTINUOUS
370
     -3
390
F
  0
LAYER
  5
1E
100
AcDbSymbolTableRecord
100
AcDbLayerTableRecord
  2
M3
 70
     0
 62
     3
  6
CONTINUOUS
370
     -3
390
F
  0
LAYER
  5
1F
100
AcDbSymbolTableRecord
100
AcDbLayerTableRecord
  2
M4
 70
     0
 62
     3
  6
CONTINUOUS
370
     -3
390
F
  0
LAYER
  5
20
100
AcDbSymbolTableRecord
100
AcDbLayerTableRecord
  2
M5
 70
     0
 62
     3
  6
CONTINUOUS
370
     -3
390
F
  0
ENDTAB
  0
TABLE
  2
STYLE
  5
3
100
AcDbSymbolTable
 70
     2
  0
STYLE
  5
10
100
AcDbSymbolTableRecord
100
AcDbTextStyleTableRecord
  2
STANDARD
 70
     0
 40
0.0
 41
1.0
 50
0.0
 71
     0
 42
0.2
  3
txt
  4
BIGFONT
  0
ENDTAB
  0
TABLE
  2
VIEW
  5
6
100
AcDbSymbolTable
 70
     0
  0
ENDTAB
  0
TABLE
  2
UCS
  5
7
100
AcDbSymbolTable
 70
     0
  0
ENDTAB
  0
TABLE
  2
APPID
  5
9
100
AcDbSymbolTable
 70
     1
  0
APPID
  5
11
100
AcDbSymbolTableRecord
100
AcDbRegAppTableRecord
  2
ACAD
 70
     0
  0
ENDTAB
  0
TABLE
  2
DIMSTYLE
  5
A
100
AcDbSymbolTable
 70
     2
100
AcDbDimStyleTable
 71
     1
  0
DIMSTYLE
105
49
100
AcDbSymbolTableRecord
100
AcDbDimStyleTableRecord
  2
STANDARD
 70
     0
  3

  4

  5

  6
_OPEN
  7
_OPEN
 40
1.0
 41
3.0
 42
0.0
 43
8.0
 44
1.5
 45
0.0
 46
0.0
 47
0.0
 48
0.0
140
3.2
141
0.09
142
0.0
143
0.03937
144
1.0
145
0.0
146
1.0
147
1.0
148
0.000000
 71
     0
 72
     0
 73
     1
 74
     1
 75
     0
 76
     0
 77
     3
 78
     8
170
     0
171
     2
172
     0
173
     1
174
     0
175
     0
176
     0
177
     0
178
     0
270
     2
271
     2
272
     4
273
     2
274
     2
340
10
275
     0
278
    46
280
     0
281
     0
282
     0
283
     1
284
     0
285
     0
286
     0
287
     3
288
     0
371
   13
372
   13
  0
DIMSTYLE
105
4A
100
AcDbSymbolTableRecord
100
AcDbDimStyleTableRecord
  2
LEADSTYL
 70
     0
  3

  4

  5

  6
_OPEN
  7
_OPEN
 40
1.0
 41
3.0
 42
0.0625
 43
0.38
 44
0.18
 45
0.0
 46
0.0
 47
0.0
 48
0.0
140
3.2
141
0.09
142
0.0
143
25.4
144
1.0
145
0.0
146
1.0
147
1.0
 71
     0
 72
     0
 73
     1
 74
     1
 75
     0
 76
     0
 77
     0
 78
     0
170
     0
171
     2
172
     0
173
     1
174
     0
175
     0
176
     0
177
     0
178
     0
270
     2
271
     4
272
     4
273
     2
274
     2
340
10
275
     0
280
     0
281
     0
282
     0
283
     1
284
     0
285
     0
286
     0
287
     3
288
     0
  0
ENDTAB
  0
TABLE
  2
BLOCK_RECORD
  5
1
100
AcDbSymbolTable
 70
     6
  0
BLOCK_RECORD
  5
21
100
AcDbSymbolTableRecord
100
AcDbBlockTableRecord
  2
*MODEL_SPACE
  0
BLOCK_RECORD
  5
24
100
AcDbSymbolTableRecord
100
AcDbBlockTableRecord
  2
*PAPER_SPACE
  0
BLOCK_RECORD
  5
27
100
AcDbSymbolTableRecord
100
AcDbBlockTableRecord
  2
_NONE
  0
BLOCK_RECORD
  5
2B
100
AcDbSymbolTableRecord
100
AcDbBlockTableRecord
  2
_OPEN
  0
BLOCK_RECORD
  5
31
100
AcDbSymbolTableRecord
100
AcDbBlockTableRecord
  2
_CLOSED
  0
BLOCK_RECORD
  5
38
100
AcDbSymbolTableRecord
100
AcDbBlockTableRecord
  2
_ORIGIN
  0
BLOCK_RECORD
  5
3D
100
AcDbSymbolTableRecord
100
AcDbBlockTableRecord
  2
_DOT
  0
BLOCK_RECORD
  5
45
100
AcDbSymbolTableRecord
100
AcDbBlockTableRecord
  2
_OBLIQUE
  0
ENDTAB
  0
ENDSEC
  0
SECTION
  2
BLOCKS
  0
BLOCK
  5
22
100
AcDbEntity
  8
0
100
AcDbBlockBegin
  2
*MODEL_SPACE
 70
     0
 10
0.0
 20
0.0
 30
0.0
  3
*MODEL_SPACE
  1

  0
ENDBLK
  5
23
100
AcDbEntity
  8
0
100
AcDbBlockEnd
  0
BLOCK
  5
25
100
AcDbEntity
 67
     1
  8
0
100
AcDbBlockBegin
  2
*PAPER_SPACE
 70
     0
 10
0.0
 20
0.0
 30
0.0
  3
*PAPER_SPACE
  1

  0
ENDBLK
  5
26
100
AcDbEntity
 67
     1
  8
0
100
AcDbBlockEnd
  0
BLOCK
  5
28
100
AcDbEntity
  8
0
100
AcDbBlockBegin
  2
_NONE
 70
     0
 10
0.0
 20
0.0
  0
CIRCLE
  5
29
100
AcDbEntity
  8
0
 62
     0
370
13
100
AcDbCircle
 10
0.0
 20
0.0
 40
0.25
  0
ENDBLK
  5
2A
100
AcDbEntity
  8
0
100
AcDbBlockEnd
  0
BLOCK
  5
2C
100
AcDbEntity
  8
0
100
AcDbBlockBegin
  2
_OPEN
 70
     0
 10
0.0
 20
0.0
  0
LINE
  5
2D
100
AcDbEntity
  8
0
 62
     0
370
13
100
AcDbLine
 10
-0.965926
 20
0.258819
 11
0.0
 21
0.0
  0
LINE
  5
2E
100
AcDbEntity
  8
0
 62
     0
370
13
100
AcDbLine
 10
0.0
 20
0.0
 11
-0.965926
 21
-0.258819
  0
LINE
  5
2F
100
AcDbEntity
  8
0
 62
     0
370
13
100
AcDbLine
 10
0.0
 20
0.0
 11
-1.0
 21
0.0
  0
ENDBLK
  5
30
100
AcDbEntity
  8
0
100
AcDbBlockEnd
  0
BLOCK
  5
32
100
AcDbEntity
  8
0
100
AcDbBlockBegin
  2
_CLOSED
 70
     0
 10
0.0
 20
0.0
  0
LINE
  5
33
100
AcDbEntity
  8
0
 62
     0
370
13
100
AcDbLine
 10
-0.965926
 20
0.258819
 11
0.0
 21
0.0
  0
LINE
  5
34
100
AcDbEntity
  8
0
 62
     0
370
13
100
AcDbLine
 10
0.0
 20
0.0
 11
-0.965926
 21
-0.258819
  0
LINE
  5
35
100
AcDbEntity
  8
0
 62
     0
370
13
100
AcDbLine
 10
-0.965926
 20
0.258819
 11
-0.965926
 21
-0.258819
  0
LINE
  5
36
100
AcDbEntity
  8
0
 62
     0
370
13
100
AcDbLine
 10
0.0
 20
0.0
 11
-1.0
 21
0.0
  0
ENDBLK
  5
37
100
AcDbEntity
  8
0
100
AcDbBlockEnd
  0
BLOCK
  5
39
100
AcDbEntity
  8
0
100
AcDbBlockBegin
  2
_ORIGIN
 70
     0
 10
0.0
 20
0.0
  0
CIRCLE
  5
3A
100
AcDbEntity
  8
0
 62
     0
370
13
100
AcDbCircle
 10
0.0
 20
0.0
 40
0.5
  0
LINE
  5
3B
100
AcDbEntity
  8
0
 62
     0
370
13
100
AcDbLine
 10
0.0
 20
0.0
 11
-1.0
 21
0.0
  0
ENDBLK
  5
3C
100
AcDbEntity
  8
0
100
AcDbBlockEnd
  0
BLOCK
  5
3E
100
AcDbEntity
  8
0
100
AcDbBlockBegin
  2
_DOT
 70
     0
 10
0.0
 20
0.0
  0
POLYLINE
  5
3F
100
AcDbEntity
  8
0
 62
     0
100
AcDb2dPolyline
 66
     1
 70
     1
 40
0.5
 41
0.5
  0
VERTEX
  5
40
100
AcDbEntity
  8
0
 62
     0
100
AcDbVertex
100
AcDb2dVertex
 10
-0.25
 20
0.0
 42
1.0
  0
VERTEX
  5
41
100
AcDbEntity
  8
0
 62
     0
100
AcDbVertex
100
AcDb2dVertex
 10
0.25
 20
0.0
 42
1.0
  0
SEQEND
  5
42
100
AcDbEntity
  8
0
 62
     0
  0
LINE
  5
43
100
AcDbEntity
  8
0
 62
     0
370
13
100
AcDbLine
 10
-0.5
 20
0.0
 11
-1.0
 21
0.0
  0
ENDBLK
  5
44
100
AcDbEntity
  8
0
100
AcDbBlockEnd
  0
BLOCK
  5
46
100
AcDbEntity
  8
0
100
AcDbBlockBegin
  2
_OBLIQUE
 70
     0
 10
0.0
 20
0.0
  0
LINE
  5
47
100
AcDbEntity
  8
0
 62
     0
370
13
100
AcDbLine
 10
-0.353553
 20
-0.353553
 11
0.353553
 21
0.353553
  0
ENDBLK
  5
48
100
AcDbEntity
  8
0
100
AcDbBlockEnd
  0
ENDSEC
  0
SECTION
  2
ENTITIES
  0
LINE
  5
4B
100
AcDbEntity
  8
M1
  6
DASHDOT
370
13
 62
     3
100
AcDbLine
 10
177.627874
 20
410.277736
 11
186.127874
 21
410.277736
  0
LINE
  5
4C
100
AcDbEntity
  8
M1
  6
DASHDOT
370
13
 62
     3
100
AcDbLine
 10
108.627874
 20
430.527736
 11
193.627877
 21
430.527736
  0
LINE
  5
4D
100
AcDbEntity
  8
M1
  6
DASHDOT
370
13
 62
     3
100
AcDbLine
 10
181.877874
 20
414.527736
 11
181.877874
 21
406.027736
  0
LINE
  5
4E
100
AcDbEntity
  8
M1
  6
CONTINUOUS
370
25
 62
   154
100
AcDbLine
 10
307.072792
 20
447.327904
 11
307.072792
 21
437.677904
  0
ARC
  5
4F
100
AcDbEntity
  8
M1
  6
DIVIDE
370
13
 62
     3
100
AcDbCircle
 10
284.572792
 20
430.677901
 40
58.69523
100
AcDbArc
 50
162.460206
 51
180.0
  0
LINE
  5
50
100
AcDbEntity
  8
M1
  6
DASHDOT
370
13
 62
     3
100
AcDbLine
 10
284.572792
 20
425.677901
 11
284.572792
 21
435.677901
  0
LINE
  5
51
100
AcDbEntity
  8
M1
  6
DASHDOT
370
13
 62
     3
100
AcDbLine
 10
225.877564
 20
430.677901
 11
311.072792
 21
430.677901
  0
LINE
  5
52
100
AcDbEntity
  8
M1
  6
DASHED
370
13
 62
     3
100
AcDbLine
 10
289.372792
 20
380.677906
 11
289.372792
 21
365.677906
  0
LINE
  5
53
100
AcDbEntity
  8
M1
  6
DASHED
370
13
 62
     3
100
AcDbLine
 10
287.072792
 20
365.677906
 11
287.072792
 21
380.677906
  0
LINE
  5
54
100
AcDbEntity
  8
M1
  6
DASHDOT
370
13
 62
     3
100
AcDbLine
 10
151.127874
 20
500.527736
 11
151.127874
 21
360.527741
  0
LINE
  5
55
100
AcDbEntity
  8
M1
  6
CONTINUOUS
370
25
 62
   154
100
AcDbLine
 10
307.072792
 20
437.677904
 11
274.572792
 21
437.677904
  0
LINE
  5
56
100
AcDbEntity
  8
M1
  6
CONTINUOUS
370
25
 62
     3
100
AcDbLine
 10
280.119806
 20
269.473778
 11
280.119806
 21
223.473778
  0
CIRCLE
  5
57
100
AcDbEntity
  8
M1
  6
CONTINUOUS
370
25
 62
     3
100
AcDbCircle
 10
138.627874
 20
301.473778
 40
2.0
  0
LINE
  5
58
100
AcDbEntity
  8
M1
  6
DIVIDE
370
13
 62
     3
100
AcDbLine
 10
354.119808
 20
311.473778
 11
354.119808
 21
181.473778
  0
LINE
  5
59
100
AcDbEntity
  8
M1
  6
DIVIDE
370
13
 62
     3
100
AcDbLine
 10
279.119806
 20
311.473778
 11
279.119806
 21
181.473778
  0
LINE
  5
5A
100
AcDbEntity
  8
M1
  6
CONTINUOUS
370
25
 62
     3
100
AcDbLine
 10
350.119806
 20
272.473778
 11
283.119806
 21
272.473778
  0
LINE
  5
5B
100
AcDbEntity
  8
M1
  6
CONTINUOUS
370
25
 62
     3
100
AcDbLine
 10
350.119806
 20
220.473778
 11
283.119806
 21
220.473778
  0
ARC
  5
5C
100
AcDbEntity
  8
M1
  6
CONTINUOUS
370
25
 62
     3
100
AcDbCircle
 10
283.119806
 20
269.473778
 40
3.0
100
AcDbArc
 50
90.0
 51
180.0
  0
ARC
  5
5D
100
AcDbEntity
  8
M1
  6
CONTINUOUS
370
25
 62
     3
100
AcDbCircle
 10
350.119806
 20
269.473778
 40
3.0
100
AcDbArc
 50
0.0
 51
90.0
  0
ARC
  5
5E
100
AcDbEntity
  8
M1
  6
CONTINUOUS
370
25
 62
     3
100
AcDbCircle
 10
283.119806
 20
223.473778
 40
3.0
100
AcDbArc
 50
180.0
 51
270.0
  0
ARC
  5
5F
100
AcDbEntity
  8
M1
  6
CONTINUOUS
370
25
 62
     3
100
AcDbCircle
 10
350.119806
 20
223.473778
 40
3.0
100
AcDbArc
 50
270.0
 51
360.0
  0
CIRCLE
  5
60
100
AcDbEntity
  8
M1
  6
CONTINUOUS
370
25
 62
     3
100
AcDbCircle
 10
163.627874
 20
191.473778
 40
2.0
  0
LINE
  5
61
100
AcDbEntity
  8
M1
  6
CONTINUOUS
370
25
 62
     3
100
AcDbLine
 10
353.119806
 20
269.473778
 11
353.119806
 21
223.473778
  0
LINE
  5
62
100
AcDbEntity
  8
M1
  6
DIVIDE
370
13
 62
     3
100
AcDbLine
 10
188.627874
 20
311.473778
 11
188.627874
 21
181.473778
  0
LINE
  5
63
100
AcDbEntity
  8
M1
  6
DIVIDE
370
13
 62
     3
100
AcDbLine
 10
113.627871
 20
311.473778
 11
113.627871
 21
181.473778
  0
LINE
  5
64
100
AcDbEntity
  8
M1
  6
DASHDOT
370
13
 62
     3
100
AcDbLine
 10
108.627871
 20
246.473778
 11
193.627874
 21
246.473778
  0
LINE
  5
65
100
AcDbEntity
  8
M1
  6
DIVIDE
370
13
 62
     3
100
AcDbLine
 10
113.627871
 20
311.473778
 11
188.627874
 21
311.473778
  0
LINE
  5
66
100
AcDbEntity
  8
M1
  6
DIVIDE
370
13
 62
     3
100
AcDbLine
 10
188.627874
 20
181.473778
 11
113.627871
 21
181.473778
  0
LINE
  5
67
100
AcDbEntity
  8
M1
  6
DIVIDE
370
13
 62
     3
100
AcDbLine
 10
354.119808
 20
181.473778
 11
279.119806
 21
181.473778
  0
LINE
  5
68
100
AcDbEntity
  8
M1
  6
DIVIDE
370
13
 62
     3
100
AcDbLine
 10
279.119806
 20
311.473778
 11
354.119808
 21
311.473778
  0
LINE
  5
69
100
AcDbEntity
  8
M1
  6
DASHDOT
370
13
 62
     3
100
AcDbLine
 10
131.627874
 20
301.473778
 11
145.627874
 21
301.473778
  0
LINE
  5
6A
100
AcDbEntity
  8
M1
  6
DASHDOT
370
13
 62
     3
100
AcDbLine
 10
138.627874
 20
294.473778
 11
138.627874
 21
308.473778
  0
LINE
  5
6B
100
AcDbEntity
  8
M1
  6
DASHDOT
370
13
 62
     3
100
AcDbLine
 10
163.627874
 20
184.473778
 11
163.627874
 21
198.473778
  0
LINE
  5
6C
100
AcDbEntity
  8
M1
  6
DASHDOT
370
13
 62
     3
100
AcDbLine
 10
156.627874
 20
191.473778
 11
170.627874
 21
191.473778
  0
LINE
  5
6D
100
AcDbEntity
  8
M1
  6
DASHDOT
370
13
 62
     3
100
AcDbLine
 10
274.119806
 20
246.473778
 11
359.119808
 21
246.473778
  0
LINE
  5
6E
100
AcDbEntity
  8
M1
  6
DASHDOT
370
13
 62
     3
100
AcDbLine
 10
151.127874
 20
316.473778
 11
151.127874
 21
176.473778
  0
LINE
  5
6F
100
AcDbEntity
  8
M1
  6
DASHDOT
370
13
 62
     3
100
AcDbLine
 10
316.619806
 20
316.473778
 11
316.619806
 21
176.473778
  0
LINE
  5
70
100
AcDbEntity
  8
M1
  6
DASHED
370
13
 62
     3
100
AcDbLine
 10
268.572792
 20
488.677901
 11
310.572792
 21
488.677901
  0
LINE
  5
71
100
AcDbEntity
  8
M1
  6
DASHED
370
13
 62
     3
100
AcDbLine
 10
310.572792
 20
483.177901
 11
268.572792
 21
483.177901
  0
LINE
  5
72
100
AcDbEntity
  8
M1
  6
DASHED
370
13
 62
     3
100
AcDbLine
 10
268.572792
 20
490.177901
 11
268.572792
 21
481.677901
  0
LINE
  5
73
100
AcDbEntity
  8
M1
  6
DASHED
370
13
 62
     3
100
AcDbLine
 10
254.572794
 20
490.177901
 11
268.572792
 21
490.177901
  0
LINE
  5
74
100
AcDbEntity
  8
M1
  6
DASHED
370
13
 62
     3
100
AcDbLine
 10
254.572794
 20
481.677901
 11
268.572792
 21
481.677901
  0
LINE
  5
75
100
AcDbEntity
  8
M1
  6
CONTINUOUS
370
25
100
AcDbLine
 10
228.606429
 20
448.366774
 11
227.940507
 21
444.904451
  0
ARC
  5
76
100
AcDbEntity
  8
M1
  6
CONTINUOUS
370
25
100
AcDbCircle
 10
228.922509
 20
444.715579
 40
1.0
100
AcDbArc
 50
169.113015
 51
257.616705
  0
ARC
  5
77
100
AcDbEntity
  8
M1
  6
CONTINUOUS
370
25
100
AcDbCircle
 10
229.588432
 20
448.177901
 40
1.0
100
AcDbArc
 50
79.113015
 51
169.113015
  0
ARC
  5
78
100
AcDbEntity
  8
M1
  6
CONTINUOUS
370
25
100
AcDbCircle
 10
243.412407
 20
461.812331
 40
15.0
100
AcDbArc
 50
259.113015
 51
268.702659
  0
LINE
  5
79
100
AcDbEntity
  8
M1
  6
CONTINUOUS
370
25
100
AcDbLine
 10
240.579322
 20
447.082306
 11
229.777304
 21
449.159904
  0
LINE
  5
7A
100
AcDbEntity
  8
M1
  6
CONTINUOUS
370
25
100
AcDbLine
 10
228.708057
 20
443.738844
 11
243.072794
 21
440.584944
  0
LINE
  5
7B
100
AcDbEntity
  8
M1
  6
CONTINUOUS
370
25
 62
   154
100
AcDbLine
 10
310.572792
 20
366.177906
 11
310.572792
 21
365.977906
  0
LINE
  5
7C
100
AcDbEntity
  8
M1
  6
CONTINUOUS
370
25
 62
   154
100
AcDbLine
 10
310.572792
 20
412.577906
 11
310.572792
 21
412.377909
  0
ARC
  5
7D
100
AcDbEntity
  8
M1
  6
CONTINUOUS
370
25
 62
   154
100
AcDbCircle
 10
307.072792
 20
447.627906
 40
0.3
100
AcDbArc
 50
270.0
 51
360.0
  0
ARC
  5
7E
100
AcDbEntity
  8
M1
  6
CONTINUOUS
370
25
 62
   154
100
AcDbCircle
 10
310.272792
 20
489.877906
 40
0.3
100
AcDbArc
 50
0.0
 51
90.0
  0
ARC
  5
7F
100
AcDbEntity
  8
M1
  6
CONTINUOUS
370
25
 62
   154
100
AcDbCircle
 10
310.272792
 20
412.577906
 40
0.3
100
AcDbArc
 50
0.0
 51
90.0
  0
ARC
  5
80
100
AcDbEntity
  8
M1
  6
CONTINUOUS
370
25
 62
   154
100
AcDbCircle
 10
292.572792
 20
417.677906
 40
5.0
100
AcDbArc
 50
6.513776E-012
 51
90.0
  0
ARC
  5
81
100
AcDbEntity
  8
M1
  6
CONTINUOUS
370
25
 62
   154
100
AcDbCircle
 10
310.272792
 20
495.377906
 40
0.3
100
AcDbArc
 50
1.085629E-011
 51
90.0
  0
ARC
  5
82
100
AcDbEntity
  8
M1
  6
CONTINUOUS
370
25
 62
   154
100
AcDbCircle
 10
292.572792
 20
376.177906
 40
5.0
100
AcDbArc
 50
270.0
 51
360.0
  0
ARC
  5
83
100
AcDbEntity
  8
M1
  6
CONTINUOUS
370
25
 62
   154
100
AcDbCircle
 10
310.272792
 20
365.977906
 40
0.3
100
AcDbArc
 50
270.0
 51
360.0
  0
ARC
  5
84
100
AcDbEntity
  8
M1
  6
CONTINUOUS
370
25
 62
   154
100
AcDbCircle
 10
310.272792
 20
448.777906
 40
0.3
100
AcDbArc
 50
270.0
 51
360.0
  0
LINE
  5
85
100
AcDbEntity
  8
M1
  6
CONTINUOUS
370
25
 62
   154
100
AcDbLine
 10
311.072792
 20
489.927909
 11
311.072792
 21
489.877909
  0
LINE
  5
86
100
AcDbEntity
  8
M1
  6
CONTINUOUS
370
25
 62
   154
100
AcDbLine
 10
310.572792
 20
365.977906
 11
311.072792
 21
365.977906
  0
LINE
  5
87
100
AcDbEntity
  8
M1
  6
CONTINUOUS
370
25
 62
   154
100
AcDbLine
 10
311.072792
 20
489.927909
 11
310.572792
 21
489.927909
  0
LINE
  5
88
100
AcDbEntity
  8
M1
  6
CONTINUOUS
370
25
 62
   154
100
AcDbLine
 10
274.572792
 20
490.177906
 11
310.272792
 21
490.177906
  0
LINE
  5
89
100
AcDbEntity
  8
M1
  6
CONTINUOUS
370
25
 62
   154
100
AcDbLine
 10
307.372792
 20
448.519646
 11
307.372792
 21
412.877909
  0
LINE
  5
8A
100
AcDbEntity
  8
M1
  6
CONTINUOUS
370
25
 62
   154
100
AcDbLine
 10
274.572792
 20
365.677906
 11
274.572792
 21
387.977906
  0
LINE
  5
8B
100
AcDbEntity
  8
M1
  6
CONTINUOUS
370
25
 62
   154
100
AcDbLine
 10
310.272792
 20
448.477909
 11
307.372792
 21
448.477909
  0
LINE
  5
8C
100
AcDbEntity
  8
M1
  6
CONTINUOUS
370
25
 62
   154
100
AcDbLine
 10
311.072792
 20
489.877909
 11
310.572792
 21
489.877909
  0
LINE
  5
8D
100
AcDbEntity
  8
M1
  6
CONTINUOUS
370
25
 62
   154
100
AcDbLine
 10
310.572792
 20
482.777906
 11
311.072792
 21
482.777906
  0
LINE
  5
8E
100
AcDbEntity
  8
M1
  6
CONTINUOUS
370
25
 62
   154
100
AcDbLine
 10
268.372792
 20
389.977906
 11
268.372792
 21
418.477906
  0
ARC
  5
8F
100
AcDbEntity
  8
M1
  6
CONTINUOUS
370
25
 62
   154
100
AcDbCircle
 10
307.072792
 20
443.727906
 40
0.3
100
AcDbArc
 50
4.342517E-011
 51
90.0
  0
LINE
  5
90
100
AcDbEntity
  8
M1
  6
CONTINUOUS
370
25
 62
   154
100
AcDbLine
 10
274.572792
 20
422.677906
 11
292.572792
 21
422.677906
  0
LINE
  5
91
100
AcDbEntity
  8
M1
  6
CONTINUOUS
370
25
 62
   154
100
AcDbLine
 10
292.572792
 20
371.177906
 11
274.572792
 21
371.177906
  0
LINE
  5
92
100
AcDbEntity
  8
M1
  6
CONTINUOUS
370
25
 62
   154
100
AcDbLine
 10
297.572792
 20
417.677909
 11
297.572792
 21
376.177906
  0
LINE
  5
93
100
AcDbEntity
  8
M1
  6
CONTINUOUS
370
25
 62
   154
100
AcDbLine
 10
274.572792
 20
387.977909
 11
268.372794
 21
389.977906
  0
LINE
  5
94
100
AcDbEntity
  8
M1
  6
CONTINUOUS
370
25
 62
   154
100
AcDbLine
 10
310.272792
 20
365.677906
 11
274.572792
 21
365.677906
  0
LINE
  5
95
100
AcDbEntity
  8
M1
  6
CONTINUOUS
370
25
 62
   154
100
AcDbLine
 10
311.072792
 20
489.877909
 11
311.072792
 21
481.927909
  0
LINE
  5
96
100
AcDbEntity
  8
M1
  6
CONTINUOUS
370
25
 62
   154
100
AcDbLine
 10
276.572789
 20
437.677904
 11
276.572789
 21
422.677906
  0
LINE
  5
97
100
AcDbEntity
  8
M1
  6
CONTINUOUS
370
25
 62
   154
100
AcDbLine
 10
311.072792
 20
379.427906
 11
311.072792
 21
365.977906
  0
LINE
  5
98
100
AcDbEntity
  8
M1
  6
CONTINUOUS
370
25
 62
   154
100
AcDbLine
 10
310.572792
 20
412.377909
 11
310.572792
 21
365.977906
  0
LINE
  5
99
100
AcDbEntity
  8
M1
  6
CONTINUOUS
370
25
 62
   154
100
AcDbLine
 10
307.372792
 20
412.877909
 11
310.272792
 21
412.877909
  0
LINE
  5
9A
100
AcDbEntity
  8
M1
  6
CONTINUOUS
370
25
 62
   154
100
AcDbLine
 10
307.672792
 20
442.977904
 11
307.372792
 21
442.477911
  0
LINE
  5
9B
100
AcDbEntity
  8
M1
  6
CONTINUOUS
370
25
 62
   154
100
AcDbLine
 10
274.572792
 20
495.677901
 11
310.272792
 21
495.677901
  0
LINE
  5
9C
100
AcDbEntity
  8
M1
  6
CONTINUOUS
370
25
 62
   154
100
AcDbLine
 10
274.572792
 20
420.477906
 11
274.572792
 21
495.677901
  0
LINE
  5
9D
100
AcDbEntity
  8
M1
  6
CONTINUOUS
370
25
 62
   154
100
AcDbLine
 10
307.372792
 20
445.977911
 11
307.672792
 21
444.977909
  0
LINE
  5
9E
100
AcDbEntity
  8
M1
  6
CONTINUOUS
370
25
 62
   154
100
AcDbLine
 10
310.572792
 20
481.927909
 11
311.072792
 21
481.927909
  0
LINE
  5
9F
100
AcDbEntity
  8
M1
  6
CONTINUOUS
370
25
 62
   154
100
AcDbLine
 10
307.672792
 20
444.977909
 11
307.672792
 21
442.977904
  0
LINE
  5
A0
100
AcDbEntity
  8
M1
  6
CONTINUOUS
370
25
 62
   154
100
AcDbLine
 10
311.072792
 20
379.427906
 11
310.572792
 21
379.427906
  0
LINE
  5
A1
100
AcDbEntity
  8
M1
  6
CONTINUOUS
370
25
 62
   154
100
AcDbLine
 10
311.072792
 20
375.377906
 11
310.572792
 21
375.377906
  0
LINE
  5
A2
100
AcDbEntity
  8
M1
  6
CONTINUOUS
370
25
 62
   154
100
AcDbLine
 10
274.572792
 20
420.477906
 11
268.372792
 21
418.477906
  0
LINE
  5
A3
100
AcDbEntity
  8
M1
  6
CONTINUOUS
370
25
 62
   154
100
AcDbLine
 10
310.572792
 20
495.377911
 11
310.572792
 21
448.777906
  0
LINE
  5
A4
100
AcDbEntity
  8
M1
  6
CONTINUOUS
370
25
 62
   154
100
AcDbLine
 10
274.572792
 20
490.977901
 11
255.572794
 21
490.977901
  0
ARC
  5
A5
100
AcDbEntity
  8
M1
  6
CONTINUOUS
370
25
 62
   154
100
AcDbCircle
 10
255.572794
 20
388.677901
 40
1.0
100
AcDbArc
 50
180.0
 51
270.0
  0
LINE
  5
A6
100
AcDbEntity
  8
M1
  6
CONTINUOUS
370
25
 62
   154
100
AcDbLine
 10
262.572794
 20
381.177901
 11
255.572794
 21
381.177901
  0
ARC
  5
A7
100
AcDbEntity
  8
M1
  6
CONTINUOUS
370
25
 62
   154
100
AcDbCircle
 10
268.072794
 20
438.677904
 40
1.0
100
AcDbArc
 50
180.0
 51
270.0
  0
SPLINE
  5
A8
100
AcDbEntity
  8
M1
  6
CONTINUOUS
370
25
 62
   154
100
AcDbSpline
210
0.0
220
0.0
230
-1.0
 70
     8
 71
     3
 72
    29
 73
    25
 43
0.0000001
 40
0.0
 40
0.0
 40
0.0
 40
0.0
 40
1.0
 40
1.0
 40
1.0
 40
2.0
 40
2.0
 40
2.0
 40
3.0
 40
3.0
 40
3.0
 40
4.0
 40
4.0
 40
4.0
 40
5.0
 40
5.0
 40
5.0
 40
6.0
 40
6.0
 40
6.0
 40
7.0
 40
7.0
 40
7.0
 40
8.0
 40
8.0
 40
8.0
 40
8.0
 10
255.556474
 20
494.619209
 10
255.570359
 20
494.615514
 10
255.584249
 20
494.611824
 10
255.598687
 20
494.608316
 10
255.613124
 20
494.604809
 10
255.628119
 20
494.601491
 10
255.643419
 20
494.598371
 10
255.658721
 20
494.595249
 10
255.674341
 20
494.592334
 10
255.690267
 20
494.589676
 10
255.706194
 20
494.587019
 10
255.722434
 20
494.584629
 10
255.738824
 20
494.582539
 10
255.755214
 20
494.580449
 10
255.771762
 20
494.578671
 10
255.788372
 20
494.577174
 10
255.804981
 20
494.575676
 10
255.821659
 20
494.574469
 10
255.838404
 20
494.573501
 10
255.855149
 20
494.572536
 10
255.871967
 20
494.571819
 10
255.888849
 20
494.571396
 10
255.905729
 20
494.570971
 10
255.922679
 20
494.570849
 10
255.939627
 20
494.570724
  0
ARC
  5
A9
100
AcDbEntity
  8
M1
  6
CONTINUOUS
370
25
 62
   154
100
AcDbCircle
 10
255.572794
 20
441.177901
 40
1.0
100
AcDbArc
 50
180.0
 51
270.0
  0
ARC
  5
AA
100
AcDbEntity
  8
M1
  6
CONTINUOUS
370
25
 62
   154
100
AcDbCircle
 10
255.572794
 20
489.977901
 40
1.0
100
AcDbArc
 50
90.0
 51
180.0
  0
ARC
  5
AB
100
AcDbEntity
  8
M1
  6
CONTINUOUS
370
25
 62
   154
100
AcDbCircle
 10
255.572794
 20
494.177901
 40
0.5
100
AcDbArc
 50
131.280533
 51
142.996957
  0
SPLINE
  5
AC
100
AcDbEntity
  8
M1
  6
CONTINUOUS
370
25
 62
   154
100
AcDbSpline
210
0.0
220
0.0
230
-1.0
 70
     8
 71
     3
 72
     8
 73
     4
 43
0.0000001
 40
0.0
 40
0.0
 40
0.0
 40
0.0
 40
1.0
 40
1.0
 40
1.0
 40
1.0
 10
255.118722
 20
493.154899
 10
255.161249
 20
493.142464
 10
255.204672
 20
493.136281
 10
255.248979
 20
493.136281
  0
SPLINE
  5
AD
100
AcDbEntity
  8
M1
  6
CONTINUOUS
370
25
 62
   154
100
AcDbSpline
210
0.0
220
0.0
230
-1.0
 70
     8
 71
     3
 72
   125
 73
   121
 43
0.0000001
 40
0.0
 40
0.0
 40
0.0
 40
0.0
 40
1.0
 40
1.0
 40
1.0
 40
2.0
 40
2.0
 40
2.0
 40
3.0
 40
3.0
 40
3.0
 40
4.0
 40
4.0
 40
4.0
 40
5.0
 40
5.0
 40
5.0
 40
6.0
 40
6.0
 40
6.0
 40
7.0
 40
7.0
 40
7.0
 40
8.0
 40
8.0
 40
8.0
 40
9.0
 40
9.0
 40
9.0
 40
10.0
 40
10.0
 40
10.0
 40
11.0
 40
11.0
 40
11.0
 40
12.0
 40
12.0
 40
12.0
 40
13.0
 40
13.0
 40
13.0
 40
14.0
 40
14.0
 40
14.0
 40
15.0
 40
15.0
 40
15.0
 40
16.0
 40
16.0
 40
16.0
 40
17.0
 40
17.0
 40
17.0
 40
18.0
 40
18.0
 40
18.0
 40
19.0
 40
19.0
 40
19.0
 40
20.0
 40
20.0
 40
20.0
 40
21.0
 40
21.0
 40
21.0
 40
22.0
 40
22.0
 40
22.0
 40
23.0
 40
23.0
 40
23.0
 40
24.0
 40
24.0
 40
24.0
 40
25.0
 40
25.0
 40
25.0
 40
26.0
 40
26.0
 40
26.0
 40
27.0
 40
27.0
 40
27.0
 40
28.0
 40
28.0
 40
28.0
 40
29.0
 40
29.0
 40
29.0
 40
30.0
 40
30.0
 40
30.0
 40
31.0
 40
31.0
 40
31.0
 40
32.0
 40
32.0
 40
32.0
 40
33.0
 40
33.0
 40
33.0
 40
34.0
 40
34.0
 40
34.0
 40
35.0
 40
35.0
 40
35.0
 40
36.0
 40
36.0
 40
36.0
 40
37.0
 40
37.0
 40
37.0
 40
38.0
 40
38.0
 40
38.0
 40
39.0
 40
39.0
 40
39.0
 40
40.0
 40
40.0
 40
40.0
 40
40.0
 10
254.777129
 20
367.589681
 10
254.777004
 20
367.589996
 10
254.776882
 20
367.590314
 10
254.776759
 20
367.590621
 10
254.776639
 20
367.590931
 10
254.776521
 20
367.591234
 10
254.776402
 20
367.591536
 10
254.776284
 20
367.591841
 10
254.776164
 20
367.592144
 10
254.776066
 20
367.592399
 10
254.775967
 20
367.592654
 10
254.775887
 20
367.592859
 10
254.775759
 20
367.593184
 10
254.775582
 20
367.593636
 10
254.775314
 20
367.594324
 10
254.775114
 20
367.594834
 10
254.774916
 20
367.595346
 10
254.774787
 20
367.595681
 10
254.774666
 20
367.595989
 10
254.774547
 20
367.596296
 10
254.774439
 20
367.596576
 10
254.774312
 20
367.596914
 10
254.774182
 20
367.597249
 10
254.774032
 20
367.597641
 10
254.773944
 20
367.597876
 10
254.773917
 20
367.597951
 10
254.773894
 20
367.598009
 10
254.773867
 20
367.598079
 10
254.773842
 20
367.598149
 10
254.773809
 20
367.598229
 10
254.773777
 20
367.598314
 10
254.773744
 20
367.598399
 10
254.773712
 20
367.598486
 10
254.773664
 20
367.598606
 10
254.773619
 20
367.598726
 10
254.773561
 20
367.598879
 10
254.773522
 20
367.598979
 10
254.773492
 20
367.599059
 10
254.773472
 20
367.599106
 10
254.773449
 20
367.599169
 10
254.773424
 20
367.599234
 10
254.773394
 20
367.599309
 10
254.773364
 20
367.599389
 10
254.773334
 20
367.599466
 10
254.773302
 20
367.599549
 10
254.773267
 20
367.599644
 10
254.773229
 20
367.599741
 10
254.773187
 20
367.599854
 10
254.773149
 20
367.599949
 10
254.773114
 20
367.600044
 10
254.773084
 20
367.600121
 10
254.773049
 20
367.600211
 10
254.773017
 20
367.600299
 10
254.772979
 20
367.600396
 10
254.772939
 20
367.600501
 10
254.772899
 20
367.600606
 10
254.772857
 20
367.600719
 10
254.772817
 20
367.600824
 10
254.772776
 20
367.600926
 10
254.772739
 20
367.601026
 10
254.772686
 20
367.601171
 10
254.772629
 20
367.601324
 10
254.772549
 20
367.601529
 10
254.772474
 20
367.601729
 10
254.772399
 20
367.601929
 10
254.772326
 20
367.602126
 10
254.772249
 20
367.602331
 10
254.772172
 20
367.602539
 10
254.772089
 20
367.602756
 10
254.772011
 20
367.602964
 10
254.771934
 20
367.603171
 10
254.771859
 20
367.603369
 10
254.771769
 20
367.603614
 10
254.771504
 20
367.604324
 10
254.771094
 20
367.605431
 10
254.770726
 20
367.606439
 10
254.770357
 20
367.607446
 10
254.770029
 20
367.608359
 10
254.769684
 20
367.609321
 10
254.769342
 20
367.610284
 10
254.768982
 20
367.611299
 10
254.768652
 20
367.612239
 10
254.768322
 20
367.613179
 10
254.768017
 20
367.614049
 10
254.767632
 20
367.615176
 10
254.766734
 20
367.617806
 10
254.765387
 20
367.621851
 10
254.764219
 20
367.625494
 10
254.763049
 20
367.629136
 10
254.762056
 20
367.632384
 10
254.761044
 20
367.635836
 10
254.760029
 20
367.639289
 10
254.758994
 20
367.642949
 10
254.758089
 20
367.646221
 10
254.757184
 20
367.649491
 10
254.756409
 20
367.652389
 10
254.755337
 20
367.656661
 10
254.754027
 20
367.661886
 10
254.752277
 20
367.669174
 10
254.750799
 20
367.675944
 10
254.749319
 20
367.682711
 10
254.748112
 20
367.688974
 10
254.747014
 20
367.695419
 10
254.745914
 20
367.701864
 10
254.744929
 20
367.708494
 10
254.744127
 20
367.715036
 10
254.743324
 20
367.721579
 10
254.742709
 20
367.728041
 10
254.742282
 20
367.734744
 10
254.741854
 20
367.741446
 10
254.741619
 20
367.748394
 10
254.741549
 20
367.755279
 10
254.741479
 20
367.762166
 10
254.741577
 20
367.768996
 10
254.741779
 20
367.775846
 10
254.741982
 20
367.782694
 10
254.742291
 20
367.789564
 10
254.742652
 20
367.796431
 10
254.743014
 20
367.803299
 10
254.743432
 20
367.810164
 10
254.743846
 20
367.817029
  0
LINE
  5
AE
100
AcDbEntity
  8
M1
  6
CONTINUOUS
370
25
 62
   154
100
AcDbLine
 10
246.072792
 20
454.677901
 11
246.072792
 21
406.677901
  0
LINE
  5
AF
100
AcDbEntity
  8
M1
  6
CONTINUOUS
370
25
 62
   154
100
AcDbLine
 10
251.072794
 20
460.177901
 11
251.072794
 21
455.677904
  0
SPLINE
  5
B0
100
AcDbEntity
  8
M1
  6
CONTINUOUS
370
25
 62
   154
100
AcDbSpline
210
0.0
220
0.0
230
-1.0
 70
     8
 71
     3
 72
    65
 73
    61
 43
0.0000001
 40
0.0
 40
0.0
 40
0.0
 40
0.0
 40
1.0
 40
1.0
 40
1.0
 40
2.0
 40
2.0
 40
2.0
 40
3.0
 40
3.0
 40
3.0
 40
4.0
 40
4.0
 40
4.0
 40
5.0
 40
5.0
 40
5.0
 40
6.0
 40
6.0
 40
6.0
 40
7.0
 40
7.0
 40
7.0
 40
8.0
 40
8.0
 40
8.0
 40
9.0
 40
9.0
 40
9.0
 40
10.0
 40
10.0
 40
10.0
 40
11.0
 40
11.0
 40
11.0
 40
12.0
 40
12.0
 40
12.0
 40
13.0
 40
13.0
 40
13.0
 40
14.0
 40
14.0
 40
14.0
 40
15.0
 40
15.0
 40
15.0
 40
16.0
 40
16.0
 40
16.0
 40
17.0
 40
17.0
 40
17.0
 40
18.0
 40
18.0
 40
18.0
 40
19.0
 40
19.0
 40
19.0
 40
20.0
 40
20.0
 40
20.0
 40
20.0
 10
255.118722
 20
368.200896
 10
255.107014
 20
368.196711
 10
255.095307
 20
368.192529
 10
255.083669
 20
368.188264
 10
255.072032
 20
368.183999
 10
255.060459
 20
368.179656
 10
255.049031
 20
368.175156
 10
255.037602
 20
368.170654
 10
255.026312
 20
368.165999
 10
255.015224
 20
368.161101
 10
255.004139
 20
368.156204
 10
254.993252
 20
368.151071
 10
254.982664
 20
368.145629
 10
254.972077
 20
368.140186
 10
254.961782
 20
368.134441
 10
254.951794
 20
368.128424
 10
254.941807
 20
368.122406
 10
254.932119
 20
368.116121
 10
254.922744
 20
368.109574
 10
254.913369
 20
368.103026
 10
254.904299
 20
368.096224
 10
254.895684
 20
368.089316
 10
254.887069
 20
368.082409
 10
254.878902
 20
368.075404
 10
254.870777
 20
368.067889
 10
254.862654
 20
368.060374
 10
254.854564
 20
368.052356
 10
254.846984
 20
368.044286
 10
254.839407
 20
368.036216
 10
254.832329
 20
368.028099
 10
254.825547
 20
368.019759
 10
254.818764
 20
368.011416
 10
254.812266
 20
368.002856
 10
254.806239
 20
367.994419
 10
254.800214
 20
367.985981
 10
254.794649
 20
367.977671
 10
254.788839
 20
367.968379
 10
254.783032
 20
367.959086
 10
254.776971
 20
367.948814
 10
254.771632
 20
367.938524
 10
254.766292
 20
367.928234
 10
254.761661
 20
367.917924
 10
254.757744
 20
367.907746
 10
254.753827
 20
367.897569
 10
254.750614
 20
367.887524
 10
254.748404
 20
367.875864
 10
254.746192
 20
367.864204
 10
254.744979
 20
367.850926
 10
254.744824
 20
367.842689
 10
254.744779
 20
367.840326
 10
254.744822
 20
367.838376
 10
254.744882
 20
367.836306
 10
254.744942
 20
367.834239
 10
254.745022
 20
367.832051
 10
254.745124
 20
367.829889
 10
254.745226
 20
367.827726
 10
254.745354
 20
367.825589
 10
254.745489
 20
367.823441
 10
254.745624
 20
367.821296
 10
254.745769
 20
367.819139
 10
254.745917
 20
367.816984
  0
LINE
  5
B1
100
AcDbEntity
  8
M1
  6
CONTINUOUS
370
25
 62
   154
100
AcDbLine
 10
251.072794
 20
455.677904
 11
244.072794
 21
455.677904
  0
LINE
  5
B2
100
AcDbEntity
  8
M1
  6
CONTINUOUS
370
25
 62
   154
100
AcDbLine
 10
268.372794
 20
389.777906
 11
274.572792
 21
387.777901
  0
LINE
  5
B3
100
AcDbEntity
  8
M1
  6
CONTINUOUS
370
25
 62
   154
100
AcDbLine
 10
243.072794
 20
406.677901
 11
243.072794
 21
454.677901
  0
LINE
  5
B4
100
AcDbEntity
  8
M1
  6
CONTINUOUS
370
25
 62
   154
100
AcDbLine
 10
267.072794
 20
421.677901
 11
267.072794
 21
420.177906
  0
LINE
  5
B5
100
AcDbEntity
  8
M1
  6
CONTINUOUS
370
25
 62
   154
100
AcDbLine
 10
244.072794
 20
405.677899
 11
251.072794
 21
405.677899
  0
LINE
  5
B6
100
AcDbEntity
  8
M1
  6
CONTINUOUS
370
25
 62
   154
100
AcDbLine
 10
274.572792
 20
422.677904
 11
268.072794
 21
422.677904
  0
ARC
  5
B7
100
AcDbEntity
  8
M1
  6
CONTINUOUS
370
25
 62
   154
100
AcDbCircle
 10
257.572794
 20
368.677901
 40
3.0
100
AcDbArc
 50
202.143917
 51
216.454553
  0
ARC
  5
B8
100
AcDbEntity
  8
M1
  6
CONTINUOUS
370
25
 62
   154
100
AcDbCircle
 10
247.072794
 20
406.677901
 40
1.0
100
AcDbArc
 50
180.0
 51
270.0
  0
ARC
  5
B9
100
AcDbEntity
  8
M1
  6
CONTINUOUS
370
25
 62
   154
100
AcDbCircle
 10
247.072794
 20
454.677901
 40
1.0
100
AcDbArc
 50
90.0
 51
180.0
  0
ARC
  5
BA
100
AcDbEntity
  8
M1
  6
CONTINUOUS
370
25
 62
   154
100
AcDbCircle
 10
244.072794
 20
454.677901
 40
1.0
100
AcDbArc
 50
90.0
 51
180.0
  0
LINE
  5
BB
100
AcDbEntity
  8
M1
  6
CONTINUOUS
370
25
 62
   154
100
AcDbLine
 10
274.572792
 20
495.677901
 11
257.572794
 21
495.677901
  0
LINE
  5
BC
100
AcDbEntity
  8
M1
  6
CONTINUOUS
370
25
 62
   154
100
AcDbLine
 10
274.572792
 20
495.177901
 11
274.572792
 21
494.570724
  0
SPLINE
  5
BD
100
AcDbEntity
  8
M1
  6
CONTINUOUS
370
25
 62
   154
100
AcDbSpline
210
0.0
220
0.0
230
-1.0
 70
     8
 71
     3
 72
   113
 73
   109
 43
0.0000001
 40
0.0
 40
0.0
 40
0.0
 40
0.0
 40
1.0
 40
1.0
 40
1.0
 40
2.0
 40
2.0
 40
2.0
 40
3.0
 40
3.0
 40
3.0
 40
4.0
 40
4.0
 40
4.0
 40
5.0
 40
5.0
 40
5.0
 40
6.0
 40
6.0
 40
6.0
 40
7.0
 40
7.0
 40
7.0
 40
8.0
 40
8.0
 40
8.0
 40
9.0
 40
9.0
 40
9.0
 40
10.0
 40
10.0
 40
10.0
 40
11.0
 40
11.0
 40
11.0
 40
12.0
 40
12.0
 40
12.0
 40
13.0
 40
13.0
 40
13.0
 40
14.0
 40
14.0
 40
14.0
 40
15.0
 40
15.0
 40
15.0
 40
16.0
 40
16.0
 40
16.0
 40
17.0
 40
17.0
 40
17.0
 40
18.0
 40
18.0
 40
18.0
 40
19.0
 40
19.0
 40
19.0
 40
20.0
 40
20.0
 40
20.0
 40
21.0
 40
21.0
 40
21.0
 40
22.0
 40
22.0
 40
22.0
 40
23.0
 40
23.0
 40
23.0
 40
24.0
 40
24.0
 40
24.0
 40
25.0
 40
25.0
 40
25.0
 40
26.0
 40
26.0
 40
26.0
 40
27.0
 40
27.0
 40
27.0
 40
28.0
 40
28.0
 40
28.0
 40
29.0
 40
29.0
 40
29.0
 40
30.0
 40
30.0
 40
30.0
 40
31.0
 40
31.0
 40
31.0
 40
32.0
 40
32.0
 40
32.0
 40
33.0
 40
33.0
 40
33.0
 40
34.0
 40
34.0
 40
34.0
 40
35.0
 40
35.0
 40
35.0
 40
36.0
 40
36.0
 40
36.0
 40
36.0
 10
254.775869
 20
493.762881
 10
254.776139
 20
493.763579
 10
254.776407
 20
493.764274
 10
254.776691
 20
493.765009
 10
254.776974
 20
493.765744
 10
254.777274
 20
493.766514
 10
254.777609
 20
493.767379
 10
254.777944
 20
493.768241
 10
254.778316
 20
493.769194
 10
254.778724
 20
493.770236
 10
254.779132
 20
493.771279
 10
254.779574
 20
493.772409
 10
254.780132
 20
493.773826
 10
254.781019
 20
493.776086
 10
254.782194
 20
493.779064
 10
254.783517
 20
493.782399
 10
254.784837
 20
493.785734
 10
254.786304
 20
493.789416
 10
254.787944
 20
493.793509
 10
254.789584
 20
493.797599
 10
254.791397
 20
493.802094
 10
254.793241
 20
493.806644
 10
254.795087
 20
493.811194
 10
254.796964
 20
493.815796
 10
254.799231
 20
493.821296
 10
254.801499
 20
493.826799
 10
254.804154
 20
493.833191
 10
254.806837
 20
493.839584
 10
254.809519
 20
493.845976
 10
254.812227
 20
493.852364
 10
254.815114
 20
493.859096
 10
254.817999
 20
493.865831
 10
254.821062
 20
493.872901
 10
254.824039
 20
493.879714
 10
254.827014
 20
493.886526
 10
254.829899
 20
493.893074
 10
254.833589
 20
493.901316
 10
254.837279
 20
493.909559
 10
254.841769
 20
493.919486
 10
254.846207
 20
493.929159
 10
254.850644
 20
493.938834
 10
254.855024
 20
493.948244
 10
254.859652
 20
493.958039
 10
254.864279
 20
493.967834
 10
254.869147
 20
493.978006
 10
254.873827
 20
493.987674
 10
254.878506
 20
493.997344
 10
254.882997
 20
494.006506
 10
254.888636
 20
494.017789
 10
254.894277
 20
494.029071
 10
254.901064
 20
494.042464
 10
254.907684
 20
494.055291
 10
254.914301
 20
494.068119
 10
254.920754
 20
494.080376
 10
254.927454
 20
494.092891
 10
254.934157
 20
494.105404
 10
254.941101
 20
494.118169
 10
254.947851
 20
494.130384
 10
254.954601
 20
494.142596
 10
254.961149
 20
494.154261
 10
254.968777
 20
494.167564
 10
254.976402
 20
494.180864
 10
254.985104
 20
494.195799
 10
254.993624
 20
494.210136
 10
255.002144
 20
494.224471
 10
255.010484
 20
494.238216
 10
255.018729
 20
494.251604
 10
255.026977
 20
494.264991
 10
255.035132
 20
494.278029
 10
255.043774
 20
494.291566
 10
255.052419
 20
494.305104
 10
255.061554
 20
494.319149
 10
255.068437
 20
494.329621
 10
255.075157
 20
494.339846
 10
255.079736
 20
494.346679
 10
255.084807
 20
494.354186
 10
255.089877
 20
494.361694
 10
255.095444
 20
494.369884
 10
255.100664
 20
494.377486
 10
255.105884
 20
494.385089
 10
255.110764
 20
494.392121
 10
255.115819
 20
494.399324
 10
255.120874
 20
494.406529
 10
255.126107
 20
494.413919
 10
255.130084
 20
494.419504
 10
255.134064
 20
494.425089
 10
255.136797
 20
494.428884
 10
255.139694
 20
494.432891
 10
255.142592
 20
494.436901
 10
255.145662
 20
494.441134
 10
255.148442
 20
494.444949
 10
255.151222
 20
494.448764
 10
255.153717
 20
494.452171
 10
255.156027
 20
494.455314
 10
255.158334
 20
494.458454
 10
255.160459
 20
494.461336
 10
255.162149
 20
494.463621
 10
255.163809
 20
494.465869
 10
255.165052
 20
494.467546
 10
255.166174
 20
494.469059
 10
255.167299
 20
494.470571
 10
255.168304
 20
494.471921
 10
255.169182
 20
494.473094
 10
255.170059
 20
494.474269
 10
255.170809
 20
494.475269
 10
255.171506
 20
494.476196
 10
255.172204
 20
494.477124
 10
255.172849
 20
494.477979
 10
255.173492
 20
494.478831
  0
LINE
  5
BE
100
AcDbEntity
  8
M1
  6
CONTINUOUS
370
25
 62
   154
100
AcDbLine
 10
267.072794
 20
440.177901
 11
267.072794
 21
438.677904
  0
ARC
  5
BF
100
AcDbEntity
  8
M1
  6
CONTINUOUS
370
25
 62
   154
100
AcDbCircle
 10
244.072794
 20
406.677901
 40
1.0
100
AcDbArc
 50
180.0
 51
270.0
  0
SPLINE
  5
C0
100
AcDbEntity
  8
M1
  6
CONTINUOUS
370
25
 62
   154
100
AcDbSpline
210
0.0
220
0.0
230
-1.0
 70
     8
 71
     3
 72
   125
 73
   121
 43
0.0000001
 40
0.0
 40
0.0
 40
0.0
 40
0.0
 40
1.0
 40
1.0
 40
1.0
 40
2.0
 40
2.0
 40
2.0
 40
3.0
 40
3.0
 40
3.0
 40
4.0
 40
4.0
 40
4.0
 40
5.0
 40
5.0
 40
5.0
 40
6.0
 40
6.0
 40
6.0
 40
7.0
 40
7.0
 40
7.0
 40
8.0
 40
8.0
 40
8.0
 40
9.0
 40
9.0
 40
9.0
 40
10.0
 40
10.0
 40
10.0
 40
11.0
 40
11.0
 40
11.0
 40
12.0
 40
12.0
 40
12.0
 40
13.0
 40
13.0
 40
13.0
 40
14.0
 40
14.0
 40
14.0
 40
15.0
 40
15.0
 40
15.0
 40
16.0
 40
16.0
 40
16.0
 40
17.0
 40
17.0
 40
17.0
 40
18.0
 40
18.0
 40
18.0
 40
19.0
 40
19.0
 40
19.0
 40
20.0
 40
20.0
 40
20.0
 40
21.0
 40
21.0
 40
21.0
 40
22.0
 40
22.0
 40
22.0
 40
23.0
 40
23.0
 40
23.0
 40
24.0
 40
24.0
 40
24.0
 40
25.0
 40
25.0
 40
25.0
 40
26.0
 40
26.0
 40
26.0
 40
27.0
 40
27.0
 40
27.0
 40
28.0
 40
28.0
 40
28.0
 40
29.0
 40
29.0
 40
29.0
 40
30.0
 40
30.0
 40
30.0
 40
31.0
 40
31.0
 40
31.0
 40
32.0
 40
32.0
 40
32.0
 40
33.0
 40
33.0
 40
33.0
 40
34.0
 40
34.0
 40
34.0
 40
35.0
 40
35.0
 40
35.0
 40
36.0
 40
36.0
 40
36.0
 40
37.0
 40
37.0
 40
37.0
 40
38.0
 40
38.0
 40
38.0
 40
39.0
 40
39.0
 40
39.0
 40
40.0
 40
40.0
 40
40.0
 40
40.0
 10
255.243719
 20
366.802586
 10
255.241304
 20
366.804679
 10
255.238892
 20
366.806771
 10
255.236486
 20
366.808869
 10
255.234084
 20
366.810969
 10
255.231692
 20
366.813079
 10
255.229314
 20
366.815206
 10
255.226937
 20
366.817336
 10
255.224577
 20
366.819489
 10
255.222254
 20
366.821651
 10
255.219934
 20
366.823816
 10
255.217657
 20
366.825999
 10
255.215369
 20
366.828261
 10
255.213084
 20
366.830524
 10
255.210791
 20
366.832871
 10
255.208532
 20
366.835254
 10
255.206272
 20
366.837639
 10
255.204049
 20
366.840059
 10
255.201894
 20
366.842451
 10
255.199742
 20
366.844846
 10
255.197667
 20
366.847209
 10
255.195417
 20
366.849831
 10
255.193169
 20
366.852451
 10
255.190761
 20
366.855321
 10
255.189059
 20
366.857364
 10
255.187787
 20
366.858891
 10
255.186917
 20
366.859951
 10
255.185934
 20
366.861156
 10
255.184952
 20
366.862361
 10
255.183866
 20
366.863699
 10
255.182847
 20
366.864961
 10
255.181829
 20
366.866226
 10
255.180884
 20
366.867414
 10
255.179822
 20
366.868761
 10
255.178759
 20
366.870109
 10
255.177592
 20
366.871606
 10
255.176877
 20
366.872534
 10
255.176702
 20
366.872761
 10
255.176552
 20
366.872951
 10
255.176399
 20
366.873151
 10
255.176244
 20
366.873351
 10
255.176087
 20
366.873559
 10
255.175934
 20
366.873756
 10
255.175781
 20
366.873954
 10
255.175639
 20
366.874141
 10
255.175492
 20
366.874334
 10
255.175344
 20
366.874529
 10
255.175194
 20
366.874726
 10
255.175082
 20
366.874874
 10
255.174996
 20
366.874986
 10
255.174937
 20
366.875066
 10
255.174872
 20
366.875151
 10
255.174807
 20
366.875236
 10
255.174739
 20
366.875326
 10
255.174674
 20
366.875411
 10
255.174609
 20
366.875496
 10
255.174551
 20
366.875576
 10
255.174492
 20
366.875651
 10
255.174434
 20
366.875729
 10
255.174379
 20
366.875804
 10
255.174326
 20
366.875871
 10
255.174274
 20
366.875939
 10
255.174227
 20
366.876001
 10
255.174182
 20
366.876061
 10
255.174137
 20
366.876121
 10
255.174094
 20
366.876179
 10
255.174052
 20
366.876234
 10
255.174009
 20
366.876289
 10
255.173969
 20
366.876341
 10
255.173934
 20
366.876386
 10
255.173899
 20
366.876434
 10
255.173869
 20
366.876469
 10
255.173827
 20
366.876526
 10
255.173784
 20
366.876584
 10
255.173727
 20
366.876659
 10
255.173676
 20
366.876724
 10
255.173629
 20
366.876789
 10
255.173587
 20
366.876841
 10
255.173547
 20
366.876896
 10
255.173507
 20
366.876949
 10
255.173467
 20
366.877001
 10
255.173434
 20
366.877046
 10
255.173399
 20
366.877091
 10
255.173374
 20
366.877126
 10
255.173332
 20
366.877181
 10
255.173277
 20
366.877256
 10
255.173194
 20
366.877364
 10
255.173129
 20
366.877451
 10
255.173062
 20
366.877541
 10
255.173007
 20
366.877611
 10
255.172954
 20
366.877681
 10
255.172902
 20
366.877751
 10
255.172849
 20
366.877819
 10
255.172804
 20
366.877879
 10
255.172757
 20
366.877941
 10
255.172717
 20
366.877994
 10
255.172664
 20
366.878061
 10
255.172527
 20
366.878244
 10
255.172304
 20
366.878536
 10
255.172109
 20
366.878796
 10
255.171912
 20
366.879056
 10
255.171736
 20
366.879291
 10
255.171537
 20
366.879559
 10
255.171339
 20
366.879826
 10
255.171112
 20
366.880131
 10
255.170867
 20
366.880461
 10
255.170619
 20
366.880794
 10
255.170349
 20
366.881161
 10
255.170007
 20
366.881624
 10
255.169519
 20
366.882281
 10
255.168877
 20
366.883149
 10
255.168169
 20
366.884109
 10
255.167459
 20
366.885069
 10
255.166671
 20
366.886136
 10
255.165829
 20
366.887274
 10
255.164987
 20
366.888414
 10
255.164081
 20
366.889636
 10
255.163154
 20
366.890891
 10
255.162227
 20
366.892146
 10
255.161269
 20
366.893444
 10
255.160314
 20
366.894736
  0
SPLINE
  5
C1
100
AcDbEntity
  8
M1
  6
CONTINUOUS
370
25
 62
   154
100
AcDbSpline
210
0.0
220
0.0
230
-1.0
 70
     8
 71
     3
 72
    65
 73
    61
 43
0.0000001
 40
0.0
 40
0.0
 40
0.0
 40
0.0
 40
1.0
 40
1.0
 40
1.0
 40
2.0
 40
2.0
 40
2.0
 40
3.0
 40
3.0
 40
3.0
 40
4.0
 40
4.0
 40
4.0
 40
5.0
 40
5.0
 40
5.0
 40
6.0
 40
6.0
 40
6.0
 40
7.0
 40
7.0
 40
7.0
 40
8.0
 40
8.0
 40
8.0
 40
9.0
 40
9.0
 40
9.0
 40
10.0
 40
10.0
 40
10.0
 40
11.0
 40
11.0
 40
11.0
 40
12.0
 40
12.0
 40
12.0
 40
13.0
 40
13.0
 40
13.0
 40
14.0
 40
14.0
 40
14.0
 40
15.0
 40
15.0
 40
15.0
 40
16.0
 40
16.0
 40
16.0
 40
17.0
 40
17.0
 40
17.0
 40
18.0
 40
18.0
 40
18.0
 40
19.0
 40
19.0
 40
19.0
 40
20.0
 40
20.0
 40
20.0
 40
20.0
 10
254.745917
 20
493.538839
 10
254.745772
 20
493.536679
 10
254.745627
 20
493.534521
 10
254.745489
 20
493.532374
 10
254.745354
 20
493.530226
 10
254.745226
 20
493.528089
 10
254.745124
 20
493.525924
 10
254.745022
 20
493.523759
 10
254.744942
 20
493.521571
 10
254.744882
 20
493.519501
 10
254.744822
 20
493.517431
 10
254.744779
 20
493.515481
 10
254.744824
 20
493.513116
 10
254.744982
 20
493.504874
 10
254.746192
 20
493.491601
 10
254.748404
 20
493.479944
 10
254.750617
 20
493.468284
 10
254.753827
 20
493.458239
 10
254.757747
 20
493.448059
 10
254.761667
 20
493.437881
 10
254.766287
 20
493.427571
 10
254.771632
 20
493.417281
 10
254.776974
 20
493.406991
 10
254.783029
 20
493.396719
 10
254.788839
 20
493.387426
 10
254.794652
 20
493.378134
 10
254.800209
 20
493.369824
 10
254.806239
 20
493.361389
 10
254.812269
 20
493.352954
 10
254.818762
 20
493.344389
 10
254.825547
 20
493.336051
 10
254.832331
 20
493.327711
 10
254.839404
 20
493.319594
 10
254.846986
 20
493.311526
 10
254.854567
 20
493.303456
 10
254.862652
 20
493.295436
 10
254.870777
 20
493.287921
 10
254.878904
 20
493.280409
 10
254.887066
 20
493.273401
 10
254.895684
 20
493.266494
 10
254.904302
 20
493.259589
 10
254.913367
 20
493.252781
 10
254.922744
 20
493.246236
 10
254.932122
 20
493.239689
 10
254.941804
 20
493.233401
 10
254.951794
 20
493.227384
 10
254.961784
 20
493.221366
 10
254.972074
 20
493.215619
 10
254.982664
 20
493.210179
 10
254.993254
 20
493.204736
 10
255.004136
 20
493.199599
 10
255.015224
 20
493.194704
 10
255.026312
 20
493.189806
 10
255.037602
 20
493.185146
 10
255.049031
 20
493.180646
 10
255.060462
 20
493.176146
 10
255.072029
 20
493.171801
 10
255.083669
 20
493.167536
 10
255.095307
 20
493.163271
 10
255.107012
 20
493.159086
 10
255.118722
 20
493.154901
  0
LINE
  5
C2
100
AcDbEntity
  8
M1
  6
CONTINUOUS
370
25
 62
   154
100
AcDbLine
 10
254.572794
 20
419.177904
 11
254.572794
 21
397.065386
  0
LINE
  5
C3
100
AcDbEntity
  8
M1
  6
CONTINUOUS
370
25
 62
   154
100
AcDbLine
 10
254.572794
 20
388.709276
 11
254.572794
 21
388.677901
  0
ARC
  5
C4
100
AcDbEntity
  8
M1
  6
CONTINUOUS
370
25
 62
   154
100
AcDbCircle
 10
268.072794
 20
421.677901
 40
1.0
100
AcDbArc
 50
90.0
 51
180.0
  0
ARC
  5
C5
100
AcDbEntity
  8
M1
  6
CONTINUOUS
370
25
 62
   154
100
AcDbCircle
 10
253.572794
 20
397.065384
 40
1.0
100
AcDbArc
 50
282.839588
 51
360.0
  0
SPLINE
  5
C6
100
AcDbEntity
  8
M1
  6
CONTINUOUS
370
25
 62
   154
100
AcDbSpline
210
0.0
220
0.0
230
-1.0
 70
     8
 71
     3
 72
    41
 73
    37
 43
0.0000001
 40
0.0
 40
0.0
 40
0.0
 40
0.0
 40
1.0
 40
1.0
 40
1.0
 40
2.0
 40
2.0
 40
2.0
 40
3.0
 40
3.0
 40
3.0
 40
4.0
 40
4.0
 40
4.0
 40
5.0
 40
5.0
 40
5.0
 40
6.0
 40
6.0
 40
6.0
 40
7.0
 40
7.0
 40
7.0
 40
8.0
 40
8.0
 40
8.0
 40
9.0
 40
9.0
 40
9.0
 40
10.0
 40
10.0
 40
10.0
 40
11.0
 40
11.0
 40
11.0
 40
12.0
 40
12.0
 40
12.0
 40
12.0
 10
255.247489
 20
366.806759
 10
255.251444
 20
366.802849
 10
255.255394
 20
366.798936
 10
255.259334
 20
366.795096
 10
255.263274
 20
366.791254
 10
255.267199
 20
366.787481
 10
255.271289
 20
366.783734
 10
255.275377
 20
366.779984
 10
255.279624
 20
366.776256
 10
255.283454
 20
366.772971
 10
255.287284
 20
366.769689
 10
255.290694
 20
366.766844
 10
255.295939
 20
366.763114
 10
255.303084
 20
366.758034
 10
255.313619
 20
366.751306
 10
255.323624
 20
366.746086
 10
255.333629
 20
366.740866
 10
255.343094
 20
366.737146
 10
255.353057
 20
366.734001
 10
255.363016
 20
366.730856
 10
255.373461
 20
366.728279
 10
255.384084
 20
366.726439
 10
255.394707
 20
366.724601
 10
255.405499
 20
366.723489
 10
255.416557
 20
366.722986
 10
255.427617
 20
366.722481
 10
255.438929
 20
366.722574
 10
255.450397
 20
366.723139
 10
255.461867
 20
366.723706
 10
255.473484
 20
366.724736
 10
255.485214
 20
366.726076
 10
255.496944
 20
366.727419
 10
255.508787
 20
366.729066
 10
255.520681
 20
366.730869
 10
255.532577
 20
366.732674
 10
255.544524
 20
366.734631
 10
255.556474
 20
366.736589
  0
LINE
  5
C7
100
AcDbEntity
  8
M1
  6
CONTINUOUS
370
25
 62
   154
100
AcDbLine
 10
267.072794
 20
420.177906
 11
255.572794
 21
420.177906
  0
LINE
  5
C8
100
AcDbEntity
  8
M1
  6
CONTINUOUS
370
25
 62
   154
100
AcDbLine
 10
262.572794
 20
387.677899
 11
262.572794
 21
381.177901
  0
LINE
  5
C9
100
AcDbEntity
  8
M1
  6
CONTINUOUS
370
25
 62
   154
100
AcDbLine
 10
274.572792
 20
366.785079
 11
255.939627
 21
366.785079
  0
LINE
  5
CA
100
AcDbEntity
  8
M1
  6
CONTINUOUS
370
25
 62
   154
100
AcDbLine
 10
268.372794
 20
389.777906
 11
268.372794
 21
418.677904
  0
ARC
  5
CB
100
AcDbEntity
  8
M1
  6
CONTINUOUS
370
25
 62
   154
100
AcDbCircle
 10
254.572794
 20
392.677901
 40
3.5
100
AcDbArc
 50
102.839588
 51
180.0
  0
LINE
  5
CC
100
AcDbEntity
  8
M1
  6
CONTINUOUS
370
25
 62
   154
100
AcDbLine
 10
255.572794
 20
440.177901
 11
267.072794
 21
440.177901
  0
LINE
  5
CD
100
AcDbEntity
  8
M1
  6
CONTINUOUS
370
25
 62
   154
100
AcDbLine
 10
254.572794
 20
388.677901
 11
254.572794
 21
368.677901
  0
LINE
  5
CE
100
AcDbEntity
  8
M1
  6
CONTINUOUS
370
25
 62
   154
100
AcDbLine
 10
274.572792
 20
420.477906
 11
274.572792
 21
495.677901
  0
LINE
  5
CF
100
AcDbEntity
  8
M1
  6
CONTINUOUS
370
25
 62
   154
100
AcDbLine
 10
257.572794
 20
365.677906
 11
274.572792
 21
365.677906
  0
LINE
  5
D0
100
AcDbEntity
  8
M1
  6
CONTINUOUS
370
25
 62
   154
100
AcDbLine
 10
255.248979
 20
368.219524
 11
274.572792
 21
368.219524
  0
SPLINE
  5
D1
100
AcDbEntity
  8
M1
  6
CONTINUOUS
370
25
 62
   154
100
AcDbSpline
210
0.0
220
0.0
230
-1.0
 70
     8
 71
     3
 72
     8
 73
     4
 43
0.0000001
 40
0.0
 40
0.0
 40
0.0
 40
0.0
 40
1.0
 40
1.0
 40
1.0
 40
1.0
 10
255.248979
 20
368.219521
 10
255.204672
 20
368.219521
 10
255.161249
 20
368.213341
 10
255.118722
 20
368.200904
  0
ARC
  5
D2
100
AcDbEntity
  8
M1
  6
CONTINUOUS
370
25
 62
   154
100
AcDbCircle
 10
254.072794
 20
388.709276
 40
0.5
100
AcDbArc
 50
0.0
 51
82.819244
  0
SPLINE
  5
D3
100
AcDbEntity
  8
M1
  6
CONTINUOUS
370
25
 62
   154
100
AcDbSpline
210
0.0
220
0.0
230
-1.0
 70
     8
 71
     3
 72
    29
 73
    25
 43
0.0000001
 40
0.0
 40
0.0
 40
0.0
 40
0.0
 40
1.0
 40
1.0
 40
1.0
 40
2.0
 40
2.0
 40
2.0
 40
3.0
 40
3.0
 40
3.0
 40
4.0
 40
4.0
 40
4.0
 40
5.0
 40
5.0
 40
5.0
 40
6.0
 40
6.0
 40
6.0
 40
7.0
 40
7.0
 40
7.0
 40
8.0
 40
8.0
 40
8.0
 40
8.0
 10
255.939627
 20
366.785081
 10
255.922657
 20
366.784959
 10
255.905689
 20
366.784829
 10
255.888812
 20
366.784409
 10
255.871937
 20
366.783986
 10
255.855156
 20
366.783264
 10
255.838457
 20
366.782306
 10
255.821757
 20
366.781346
 10
255.805144
 20
366.780136
 10
255.788622
 20
366.778654
 10
255.772099
 20
366.777171
 10
255.755669
 20
366.775401
 10
255.739367
 20
366.773334
 10
255.723062
 20
366.771264
 10
255.706892
 20
366.768884
 10
255.690972
 20
366.766236
 10
255.675054
 20
366.763591
 10
255.659394
 20
366.760669
 10
255.644019
 20
366.757544
 10
255.628644
 20
366.754419
 10
255.613562
 20
366.751086
 10
255.599017
 20
366.747561
 10
255.584472
 20
366.744036
 10
255.570477
 20
366.740314
 10
255.556474
 20
366.736596
  0
LINE
  5
D4
100
AcDbEntity
  8
M1
  6
CONTINUOUS
370
25
 62
   154
100
AcDbLine
 10
274.572792
 20
494.570724
 11
255.939627
 21
494.570724
  0
LINE
  5
D5
100
AcDbEntity
  8
M1
  6
CONTINUOUS
370
25
 62
   154
100
AcDbLine
 10
255.248979
 20
493.136281
 11
274.572792
 21
493.136281
  0
ARC
  5
D6
100
AcDbEntity
  8
M1
  6
CONTINUOUS
370
25
 62
   154
100
AcDbCircle
 10
255.572794
 20
380.177901
 40
1.0
100
AcDbArc
 50
90.0
 51
180.0
  0
LINE
  5
D7
100
AcDbEntity
  8
M1
  6
CONTINUOUS
370
25
 62
   154
100
AcDbLine
 10
254.572794
 20
492.677901
 11
254.572794
 21
441.177901
  0
LINE
  5
D8
100
AcDbEntity
  8
M1
  6
CONTINUOUS
370
25
 62
   154
100
AcDbLine
 10
272.572792
 20
422.677904
 11
272.572792
 21
437.677904
  0
LINE
  5
D9
100
AcDbEntity
  8
M1
  6
CONTINUOUS
370
25
 62
   154
100
AcDbLine
 10
255.572794
 20
370.377896
 11
274.572792
 21
370.377896
  0
ARC
  5
DA
100
AcDbEntity
  8
M1
  6
CONTINUOUS
370
25
 62
   154
100
AcDbCircle
 10
257.572794
 20
492.677901
 40
3.0
100
AcDbArc
 50
157.010821
 51
180.0
  0
ARC
  5
DB
100
AcDbEntity
  8
M1
  6
CONTINUOUS
370
25
 62
   154
100
AcDbCircle
 10
255.572794
 20
419.177901
 40
1.0
100
AcDbArc
 50
90.0
 51
180.0
  0
ARC
  5
DC
100
AcDbEntity
  8
M1
  6
CONTINUOUS
370
25
 62
   154
100
AcDbCircle
 10
257.572794
 20
368.677901
 40
3.0
100
AcDbArc
 50
216.379943
 51
270.0
  0
ARC
  5
DD
100
AcDbEntity
  8
M1
  6
CONTINUOUS
370
25
 62
   154
100
AcDbCircle
 10
254.572794
 20
392.677901
 40
3.5
100
AcDbArc
 50
180.0
 51
262.819244
  0
ARC
  5
DE
100
AcDbEntity
  8
M1
  6
CONTINUOUS
370
25
 62
   154
100
AcDbCircle
 10
255.572794
 20
371.377901
 40
1.0
100
AcDbArc
 50
180.0
 51
270.0
  0
SPLINE
  5
DF
100
AcDbEntity
  8
M1
  6
CONTINUOUS
370
25
 62
   154
100
AcDbSpline
210
0.0
220
0.0
230
-1.0
 70
     8
 71
     3
 72
    41
 73
    37
 43
0.0000001
 40
0.0
 40
0.0
 40
0.0
 40
0.0
 40
1.0
 40
1.0
 40
1.0
 40
2.0
 40
2.0
 40
2.0
 40
3.0
 40
3.0
 40
3.0
 40
4.0
 40
4.0
 40
4.0
 40
5.0
 40
5.0
 40
5.0
 40
6.0
 40
6.0
 40
6.0
 40
7.0
 40
7.0
 40
7.0
 40
8.0
 40
8.0
 40
8.0
 40
9.0
 40
9.0
 40
9.0
 40
10.0
 40
10.0
 40
10.0
 40
11.0
 40
11.0
 40
11.0
 40
12.0
 40
12.0
 40
12.0
 40
12.0
 10
255.556474
 20
494.619209
 10
255.544479
 20
494.621169
 10
255.532484
 20
494.623131
 10
255.520544
 20
494.624936
 10
255.508607
 20
494.626739
 10
255.496719
 20
494.628389
 10
255.484944
 20
494.629726
 10
255.473172
 20
494.631064
 10
255.461509
 20
494.632096
 10
255.450002
 20
494.632651
 10
255.438494
 20
494.633206
 10
255.427134
 20
494.633294
 10
255.416042
 20
494.632771
 10
255.404949
 20
494.632249
 10
255.394117
 20
494.631124
 10
255.383462
 20
494.629256
 10
255.372807
 20
494.627386
 10
255.362321
 20
494.624784
 10
255.352337
 20
494.621601
 10
255.342352
 20
494.618419
 10
255.332857
 20
494.614664
 10
255.322822
 20
494.609384
 10
255.312789
 20
494.604101
 10
255.302212
 20
494.597301
 10
255.295072
 20
494.592176
 10
255.289912
 20
494.588474
 10
255.286539
 20
494.585649
 10
255.282759
 20
494.582389
 10
255.278982
 20
494.579126
 10
255.274792
 20
494.575434
 10
255.270762
 20
494.571716
 10
255.266732
 20
494.568001
 10
255.262857
 20
494.564264
 10
255.258969
 20
494.560459
 10
255.255084
 20
494.556651
 10
255.251182
 20
494.552779
 10
255.247284
 20
494.548906
  0
LINE
  5
E0
100
AcDbEntity
  8
M1
  6
CONTINUOUS
370
25
 62
   154
100
AcDbLine
 10
255.572794
 20
387.677899
 11
262.572794
 21
387.677899
  0
ARC
  5
E1
100
AcDbEntity
  8
M1
  6
CONTINUOUS
370
25
 62
   154
100
AcDbCircle
 10
257.572794
 20
492.677901
 40
3.0
100
AcDbArc
 50
90.0
 51
143.620057
  0
ARC
  5
E2
100
AcDbEntity
  8
M1
  6
CONTINUOUS
370
25
 62
   154
100
AcDbCircle
 10
257.572794
 20
368.677901
 40
3.0
100
AcDbArc
 50
180.0
 51
202.989179
  0
LINE
  5
E3
100
AcDbEntity
  8
M1
  6
CONTINUOUS
370
25
 62
   154
100
AcDbLine
 10
251.072794
 20
404.677904
 11
251.072794
 21
404.177904
  0
LINE
  5
E4
100
AcDbEntity
  8
M1
  6
CONTINUOUS
370
25
 62
   154
100
AcDbLine
 10
254.572794
 20
490.677841
 11
254.554269
 21
490.628411
  0
LINE
  5
E5
100
AcDbEntity
  8
M1
  6
CONTINUOUS
370
25
 62
   154
100
AcDbLine
 10
268.072794
 20
437.677904
 11
274.572792
 21
437.677904
  0
LINE
  5
E6
100
AcDbEntity
  8
M1
  6
CONTINUOUS
370
25
 62
   154
100
AcDbLine
 10
274.572792
 20
420.677899
 11
268.372794
 21
418.677904
  0
LINE
  5
E7
100
AcDbEntity
  8
M1
  6
CONTINUOUS
370
25
 62
   154
100
AcDbLine
 10
274.572792
 20
387.777901
 11
274.572792
 21
365.677906
  0
LINE
  5
E8
100
AcDbEntity
  8
M1
  6
CONTINUOUS
370
25
 62
   154
100
AcDbLine
 10
255.157784
 20
494.457716
 11
255.078384
 21
494.344614
  0
LINE
  5
E9
100
AcDbEntity
  8
M1
  6
CONTINUOUS
370
25
 62
   154
100
AcDbLine
 10
255.078384
 20
494.344614
 11
254.822297
 21
493.875721
  0
ARC
  5
EA
100
AcDbEntity
  8
M1
  6
CONTINUOUS
370
25
 62
     6
100
AcDbCircle
 10
261.812702
 20
386.107581
 40
1.0
100
AcDbArc
 50
94.999105
 51
163.742547
  0
ARC
  5
EB
100
AcDbEntity
  8
M1
  6
CONTINUOUS
370
25
 62
     6
100
AcDbCircle
 10
267.572794
 20
384.427901
 40
7.0
100
AcDbArc
 50
163.742886
 51
196.257039
  0
ARC
  5
EC
100
AcDbEntity
  8
M1
  6
CONTINUOUS
370
25
 62
     6
100
AcDbCircle
 10
261.812702
 20
382.748221
 40
1.0
100
AcDbArc
 50
196.257348
 51
265.000019
  0
LINE
  5
ED
100
AcDbEntity
  8
M1
  6
CONTINUOUS
370
25
 62
     6
100
AcDbLine
 10
262.572794
 20
381.677901
 11
262.572794
 21
387.177901
  0
LINE
  5
EE
100
AcDbEntity
  8
M1
  6
CONTINUOUS
370
25
 62
     6
100
AcDbLine
 10
262.572794
 20
381.677901
 11
261.725547
 21
381.752026
  0
LINE
  5
EF
100
AcDbEntity
  8
M1
  6
CONTINUOUS
370
25
 62
     6
100
AcDbLine
 10
262.572794
 20
387.177901
 11
261.725547
 21
387.103776
  0
ARC
  5
F0
100
AcDbEntity
  8
M1
  6
CONTINUOUS
370
25
 62
     2
100
AcDbCircle
 10
247.072794
 20
406.677904
 40
1.0
100
AcDbArc
 50
180.0
 51
270.0
  0
ARC
  5
F1
100
AcDbEntity
  8
M1
  6
CONTINUOUS
370
25
 62
     2
100
AcDbCircle
 10
254.572794
 20
467.177904
 40
1.0
100
AcDbArc
 50
90.0
 51
180.0
  0
ARC
  5
F2
100
AcDbEntity
  8
M1
  6
CONTINUOUS
370
25
 62
     2
100
AcDbCircle
 10
254.572794
 20
459.677904
 40
1.0
100
AcDbArc
 50
180.0
 51
270.0
  0
LINE
  5
F3
100
AcDbEntity
  8
M1
  6
CONTINUOUS
370
25
 62
     2
100
AcDbLine
 10
254.572794
 20
421.177904
 11
257.572794
 21
422.177904
  0
LINE
  5
F4
100
AcDbEntity
  8
M1
  6
CONTINUOUS
370
25
 62
     2
100
AcDbLine
 10
253.572794
 20
460.877001
 11
254.572794
 21
460.877001
  0
LINE
  5
F5
100
AcDbEntity
  8
M1
  6
CONTINUOUS
370
25
 62
     2
100
AcDbLine
 10
254.572794
 20
397.577904
 11
254.572794
 21
421.177904
  0
LINE
  5
F6
100
AcDbEntity
  8
M1
  6
CONTINUOUS
370
25
 62
     2
100
AcDbLine
 10
246.072792
 20
454.677904
 11
246.072792
 21
406.677904
  0
ARC
  5
F7
100
AcDbEntity
  8
M1
  6
CONTINUOUS
370
25
 62
     2
100
AcDbCircle
 10
247.072794
 20
454.677904
 40
1.0
100
AcDbArc
 50
90.0
 51
180.0
  0
ARC
  5
F8
100
AcDbEntity
  8
M1
  6
CONTINUOUS
370
25
 62
     2
100
AcDbCircle
 10
251.072794
 20
395.506331
 40
1.0
100
AcDbArc
 50
321.057559
 51
355.397698
  0
ARC
  5
F9
100
AcDbEntity
  8
M1
  6
CONTINUOUS
370
25
 62
     2
100
AcDbCircle
 10
251.072794
 20
395.345854
 40
1.0
100
AcDbArc
 50
4.602302
 51
60.0
  0
ARC
  5
FA
100
AcDbEntity
  8
M1
  6
CONTINUOUS
370
25
 62
     2
100
AcDbCircle
 10
252.072794
 20
397.077904
 40
1.0
100
AcDbArc
 50
180.0
 51
270.0
  0
ARC
  5
FB
100
AcDbEntity
  8
M1
  6
CONTINUOUS
370
25
 62
     2
100
AcDbCircle
 10
254.572794
 20
392.677904
 40
3.5
100
AcDbArc
 50
141.057559
 51
262.819249
  0
ARC
  5
FC
100
AcDbEntity
  8
M1
  6
CONTINUOUS
370
25
 62
     2
100
AcDbCircle
 10
252.072794
 20
471.677904
 40
1.0
100
AcDbArc
 50
90.0
 51
180.0
  0
LINE
  5
FD
100
AcDbEntity
  8
M1
  6
CONTINUOUS
370
25
 62
     2
100
AcDbLine
 10
254.572794
 20
439.177906
 11
254.572794
 21
472.677901
  0
LINE
  5
FE
100
AcDbEntity
  8
M1
  6
CONTINUOUS
370
25
 62
     2
100
AcDbLine
 10
254.572794
 20
472.677901
 11
252.072794
 21
472.677901
  0
LINE
  5
FF
100
AcDbEntity
  8
M1
  6
CONTINUOUS
370
25
 62
     2
100
AcDbLine
 10
253.572794
 20
459.677906
 11
253.572794
 21
467.177906
  0
LINE
  5
100
100
AcDbEntity
  8
M1
  6
CONTINUOUS
370
25
 62
     2
100
AcDbLine
 10
247.072794
 20
405.677904
 11
251.072794
 21
405.677904
  0
LINE
  5
101
100
AcDbEntity
  8
M1
  6
CONTINUOUS
370
25
 62
     2
100
AcDbLine
 10
252.572794
 20
396.077904
 11
254.572794
 21
397.577904
  0
LINE
  5
102
100
AcDbEntity
  8
M1
  6
CONTINUOUS
370
25
 62
     2
100
AcDbLine
 10
257.572794
 20
438.177904
 11
254.572794
 21
439.177906
  0
LINE
  5
103
100
AcDbEntity
  8
M1
  6
CONTINUOUS
370
25
 62
     2
100
AcDbLine
 10
252.072794
 20
396.077904
 11
252.572794
 21
396.077904
  0
LINE
  5
104
100
AcDbEntity
  8
M1
  6
CONTINUOUS
370
25
 62
     2
100
AcDbLine
 10
257.572794
 20
440.177901
 11
257.572794
 21
420.177904
  0
LINE
  5
105
100
AcDbEntity
  8
M1
  6
CONTINUOUS
370
25
 62
     2
100
AcDbLine
 10
251.072794
 20
471.677909
 11
251.072794
 21
397.077904
  0
LINE
  5
106
100
AcDbEntity
  8
M1
  6
CONTINUOUS
370
25
 62
     2
100
AcDbLine
 10
251.072794
 20
455.677906
 11
247.072794
 21
455.677906
  0
LINE
  5
107
100
AcDbEntity
  8
M1
  6
CONTINUOUS
370
25
100
AcDbLine
 10
143.627874
 20
420.577356
 11
158.627874
 21
420.577356
  0
LINE
  5
108
100
AcDbEntity
  8
M1
  6
CONTINUOUS
370
25
100
AcDbLine
 10
145.727874
 20
421.407351
 11
156.527874
 21
421.407351
  0
LINE
  5
109
100
AcDbEntity
  8
M1
  6
CONTINUOUS
370
25
100
AcDbLine
 10
145.727874
 20
421.448936
 11
156.527874
 21
421.448936
  0
LINE
  5
10A
100
AcDbEntity
  8
M1
  6
CONTINUOUS
370
25
100
AcDbLine
 10
158.627874
 20
420.840011
 11
143.627874
 21
420.840011
  0
LINE
  5
10B
100
AcDbEntity
  8
M1
  6
CONTINUOUS
370
25
100
AcDbLine
 10
145.727874
 20
421.407351
 11
145.727874
 21
430.677901
  0
LINE
  5
10C
100
AcDbEntity
  8
M1
  6
CONTINUOUS
370
25
100
AcDbLine
 10
146.727874
 20
431.677901
 11
145.725702
 21
430.675729
  0
LINE
  5
10D
100
AcDbEntity
  8
M1
  6
CONTINUOUS
370
25
100
AcDbLine
 10
144.127874
 20
445.477901
 11
144.127874
 21
448.027736
  0
LINE
  5
10E
100
AcDbEntity
  8
M1
  6
CONTINUOUS
370
25
100
AcDbLine
 10
157.127874
 20
449.027736
 11
145.127874
 21
449.027736
  0
ARC
  5
10F
100
AcDbEntity
  8
M1
  6
CONTINUOUS
370
25
100
AcDbCircle
 10
145.127874
 20
448.027736
 40
1.0
100
AcDbArc
 50
90.0
 51
180.0
  0
ARC
  5
110
100
AcDbEntity
  8
M1
  6
CONTINUOUS
370
25
100
AcDbCircle
 10
157.127874
 20
448.027736
 40
1.0
100
AcDbArc
 50
0.0
 51
90.0
  0
ARC
  5
111
100
AcDbEntity
  8
M1
  6
CONTINUOUS
370
25
100
AcDbCircle
 10
145.127704
 20
441.529684
 40
0.99983
100
AcDbArc
 50
180.009772
 51
270.009769
  0
ARC
  5
112
100
AcDbEntity
  8
M1
  6
CONTINUOUS
370
25
100
AcDbCircle
 10
157.128047
 20
441.529684
 40
0.99983
100
AcDbArc
 50
269.990231
 51
359.990228
  0
LINE
  5
113
100
AcDbEntity
  8
M1
  6
CONTINUOUS
370
25
100
AcDbLine
 10
158.127874
 20
445.477901
 11
158.127874
 21
448.027736
  0
LINE
  5
114
100
AcDbEntity
  8
M1
  6
CONTINUOUS
370
25
100
AcDbLine
 10
144.127874
 20
441.952121
 11
144.127874
 21
445.477901
  0
LINE
  5
115
100
AcDbEntity
  8
M1
  6
CONTINUOUS
370
25
100
AcDbLine
 10
145.127874
 20
440.529854
 11
157.127874
 21
440.529854
  0
LINE
  5
116
100
AcDbEntity
  8
M1
  6
CONTINUOUS
370
25
100
AcDbLine
 10
144.127874
 20
441.529514
 11
144.127874
 21
441.952121
  0
ARC
  5
117
100
AcDbEntity
  8
M1
  6
CONTINUOUS
370
25
100
AcDbCircle
 10
145.127704
 20
444.502126
 40
0.99983
100
AcDbArc
 50
180.009772
 51
270.009769
  0
LINE
  5
118
100
AcDbEntity
  8
M1
  6
CONTINUOUS
370
25
100
AcDbLine
 10
158.127874
 20
441.529514
 11
158.127874
 21
441.952121
  0
ARC
  5
119
100
AcDbEntity
  8
M1
  6
CONTINUOUS
370
25
100
AcDbCircle
 10
157.128047
 20
444.502126
 40
0.99983
100
AcDbArc
 50
269.990231
 51
359.990228
  0
LINE
  5
11A
100
AcDbEntity
  8
M1
  6
CONTINUOUS
370
25
100
AcDbLine
 10
158.127874
 20
441.952121
 11
158.127874
 21
445.477901
  0
LINE
  5
11B
100
AcDbEntity
  8
M1
  6
CONTINUOUS
370
25
100
AcDbLine
 10
157.127874
 20
443.502296
 11
145.127874
 21
443.502296
  0
LINE
  5
11C
100
AcDbEntity
  8
M1
  6
CONTINUOUS
370
25
100
AcDbLine
 10
158.627874
 20
431.677901
 11
143.627874
 21
431.677901
  0
LINE
  5
11D
100
AcDbEntity
  8
M1
  6
CONTINUOUS
370
25
100
AcDbLine
 10
156.527874
 20
421.407351
 11
156.527874
 21
431.677901
  0
CIRCLE
  5
11E
100
AcDbEntity
  8
M1
  6
CONTINUOUS
370
25
 62
   154
100
AcDbCircle
 10
163.627874
 20
485.777736
 40
2.75
  0
CIRCLE
  5
11F
100
AcDbEntity
  8
M1
  6
CONTINUOUS
370
25
 62
   154
100
AcDbCircle
 10
138.627874
 20
485.777736
 40
2.75
  0
CIRCLE
  5
120
100
AcDbEntity
  8
M1
  6
CONTINUOUS
370
25
 62
   154
100
AcDbCircle
 10
138.627874
 20
375.277736
 40
2.75
  0
CIRCLE
  5
121
100
AcDbEntity
  8
M1
  6
CONTINUOUS
370
25
 62
   154
100
AcDbCircle
 10
163.627874
 20
375.277736
 40
2.75
  0
LINE
  5
122
100
AcDbEntity
  8
M1
  6
CONTINUOUS
370
25
 62
   154
100
AcDbLine
 10
167.627874
 20
495.527736
 11
173.343992
 21
495.527736
  0
LINE
  5
123
100
AcDbEntity
  8
M1
  6
CONTINUOUS
370
25
 62
   154
100
AcDbLine
 10
142.627874
 20
495.527736
 11
148.343992
 21
495.527736
  0
LINE
  5
124
100
AcDbEntity
  8
M1
  6
CONTINUOUS
370
25
 62
   154
100
AcDbLine
 10
117.627874
 20
495.527736
 11
123.343992
 21
495.527736
  0
LINE
  5
125
100
AcDbEntity
  8
M1
  6
CONTINUOUS
370
25
 62
   154
100
AcDbLine
 10
117.627874
 20
365.527741
 11
123.343979
 21
365.527741
  0
LINE
  5
126
100
AcDbEntity
  8
M1
  6
CONTINUOUS
370
25
 62
   154
100
AcDbLine
 10
142.627874
 20
365.527741
 11
148.343979
 21
365.527741
  0
LINE
  5
127
100
AcDbEntity
  8
M1
  6
CONTINUOUS
370
25
 62
   154
100
AcDbLine
 10
167.627874
 20
365.527741
 11
173.343979
 21
365.527741
  0
LINE
  5
128
100
AcDbEntity
  8
M1
  6
CONTINUOUS
370
25
 62
   154
100
AcDbLine
 10
128.911769
 20
365.527741
 11
134.627874
 21
365.527741
  0
LINE
  5
129
100
AcDbEntity
  8
M1
  6
CONTINUOUS
370
25
 62
   154
100
AcDbLine
 10
153.911769
 20
365.527741
 11
159.627874
 21
365.527741
  0
LINE
  5
12A
100
AcDbEntity
  8
M1
  6
CONTINUOUS
370
25
 62
   154
100
AcDbLine
 10
178.911769
 20
365.527741
 11
184.627874
 21
365.527741
  0
LINE
  5
12B
100
AcDbEntity
  8
M1
  6
CONTINUOUS
370
25
 62
   154
100
AcDbLine
 10
178.911757
 20
495.527736
 11
184.627874
 21
495.527736
  0
LINE
  5
12C
100
AcDbEntity
  8
M1
  6
CONTINUOUS
370
25
 62
   154
100
AcDbLine
 10
153.911757
 20
495.527736
 11
159.627874
 21
495.527736
  0
LINE
  5
12D
100
AcDbEntity
  8
M1
  6
CONTINUOUS
370
25
 62
   154
100
AcDbLine
 10
128.911757
 20
495.527736
 11
134.627874
 21
495.527736
  0
LINE
  5
12E
100
AcDbEntity
  8
M1
  6
DASHDOT
370
13
 62
     3
100
AcDbLine
 10
155.877874
 20
485.777736
 11
171.377874
 21
485.777736
  0
LINE
  5
12F
100
AcDbEntity
  8
M1
  6
DASHDOT
370
13
 62
     3
100
AcDbLine
 10
163.627874
 20
478.027736
 11
163.627874
 21
493.527736
  0
LINE
  5
130
100
AcDbEntity
  8
M1
  6
DASHDOT
370
13
 62
     3
100
AcDbLine
 10
130.877874
 20
485.777736
 11
146.377874
 21
485.777736
  0
LINE
  5
131
100
AcDbEntity
  8
M1
  6
DASHDOT
370
13
 62
     3
100
AcDbLine
 10
138.627874
 20
478.027736
 11
138.627874
 21
493.527736
  0
LINE
  5
132
100
AcDbEntity
  8
M1
  6
DASHDOT
370
13
 62
     3
100
AcDbLine
 10
155.877874
 20
375.277736
 11
171.377874
 21
375.277736
  0
LINE
  5
133
100
AcDbEntity
  8
M1
  6
DASHDOT
370
13
 62
     3
100
AcDbLine
 10
163.627874
 20
367.527736
 11
163.627874
 21
383.027736
  0
LINE
  5
134
100
AcDbEntity
  8
M1
  6
DASHDOT
370
13
 62
     3
100
AcDbLine
 10
130.877874
 20
375.277736
 11
146.377874
 21
375.277736
  0
LINE
  5
135
100
AcDbEntity
  8
M1
  6
DASHDOT
370
13
 62
     3
100
AcDbLine
 10
138.627874
 20
367.527736
 11
138.627874
 21
383.027736
  0
LINE
  5
136
100
AcDbEntity
  8
M1
  6
CONTINUOUS
370
25
 62
     2
100
AcDbLine
 10
118.127874
 20
455.527736
 11
139.127874
 21
455.527736
  0
LINE
  5
137
100
AcDbEntity
  8
M1
  6
CONTINUOUS
370
25
 62
     2
100
AcDbLine
 10
184.127874
 20
454.027736
 11
163.127874
 21
454.027736
  0
LINE
  5
138
100
AcDbEntity
  8
M1
  6
CONTINUOUS
370
25
 62
     2
100
AcDbLine
 10
185.127877
 20
408.027736
 11
185.127877
 21
453.027736
  0
LINE
  5
139
100
AcDbEntity
  8
M1
  6
CONTINUOUS
370
25
 62
     2
100
AcDbLine
 10
139.127874
 20
454.027736
 11
118.127874
 21
454.027736
  0
LINE
  5
13A
100
AcDbEntity
  8
M1
  6
CONTINUOUS
370
25
 62
     2
100
AcDbLine
 10
163.127874
 20
455.527736
 11
184.127874
 21
455.527736
  0
LINE
  5
13B
100
AcDbEntity
  8
M1
  6
CONTINUOUS
370
25
 62
     2
100
AcDbLine
 10
129.827877
 20
389.027736
 11
147.427874
 21
389.027736
  0
LINE
  5
13C
100
AcDbEntity
  8
M1
  6
CONTINUOUS
370
25
 62
     2
100
AcDbLine
 10
118.127874
 20
407.027736
 11
139.127874
 21
407.027736
  0
LINE
  5
13D
100
AcDbEntity
  8
M1
  6
CONTINUOUS
370
25
 62
     2
100
AcDbLine
 10
163.127874
 20
407.027736
 11
184.127874
 21
407.027736
  0
LINE
  5
13E
100
AcDbEntity
  8
M1
  6
CONTINUOUS
370
25
 62
     2
100
AcDbLine
 10
139.627874
 20
403.527736
 11
162.627874
 21
403.527736
  0
LINE
  5
13F
100
AcDbEntity
  8
M1
  6
CONTINUOUS
370
25
 62
     2
100
AcDbLine
 10
164.827874
 20
395.927736
 11
147.427874
 21
395.927736
  0
LINE
  5
140
100
AcDbEntity
  8
M1
  6
CONTINUOUS
370
25
 62
     2
100
AcDbLine
 10
139.127874
 20
405.527736
 11
118.127874
 21
405.527736
  0
LINE
  5
141
100
AcDbEntity
  8
M1
  6
CONTINUOUS
370
25
 62
     2
100
AcDbLine
 10
172.427874
 20
389.027736
 11
172.427874
 21
395.927736
  0
LINE
  5
142
100
AcDbEntity
  8
M1
  6
CONTINUOUS
370
25
 62
     2
100
AcDbLine
 10
164.827874
 20
389.027736
 11
164.827874
 21
395.927736
  0
LINE
  5
143
100
AcDbEntity
  8
M1
  6
CONTINUOUS
370
25
 62
     2
100
AcDbLine
 10
161.627874
 20
460.527739
 11
140.627874
 21
460.527739
  0
LINE
  5
144
100
AcDbEntity
  8
M1
  6
CONTINUOUS
370
25
 62
     2
100
AcDbLine
 10
115.627874
 20
408.027736
 11
115.627874
 21
453.027736
  0
LINE
  5
145
100
AcDbEntity
  8
M1
  6
CONTINUOUS
370
25
 62
     2
100
AcDbLine
 10
186.627877
 20
453.027736
 11
186.627877
 21
408.027736
  0
LINE
  5
146
100
AcDbEntity
  8
M1
  6
CONTINUOUS
370
25
 62
     2
100
AcDbLine
 10
147.427874
 20
395.927736
 11
147.427874
 21
389.027736
  0
LINE
  5
147
100
AcDbEntity
  8
M1
  6
CONTINUOUS
370
25
 62
     2
100
AcDbLine
 10
117.127874
 20
453.027736
 11
117.127874
 21
408.027736
  0
LINE
  5
148
100
AcDbEntity
  8
M1
  6
CONTINUOUS
370
25
 62
     2
100
AcDbLine
 10
184.127874
 20
408.027736
 11
179.627874
 21
408.027736
  0
CIRCLE
  5
149
100
AcDbEntity
  8
M1
  6
CONTINUOUS
370
25
 62
     2
100
AcDbCircle
 10
163.627874
 20
466.277736
 40
4.25
  0
CIRCLE
  5
14A
100
AcDbEntity
  8
M1
  6
CONTINUOUS
370
25
 62
     2
100
AcDbCircle
 10
138.627874
 20
466.277736
 40
4.25
  0
LINE
  5
14B
100
AcDbEntity
  8
M1
  6
CONTINUOUS
370
25
 62
     2
100
AcDbLine
 10
113.627874
 20
396.927736
 11
113.627874
 21
471.527739
  0
ARC
  5
14C
100
AcDbEntity
  8
M1
  6
CONTINUOUS
370
25
 62
     2
100
AcDbCircle
 10
114.627874
 20
396.927736
 40
1.0
100
AcDbArc
 50
180.0
 51
270.0
  0
ARC
  5
14D
100
AcDbEntity
  8
M1
  6
CONTINUOUS
370
25
 62
     2
100
AcDbCircle
 10
187.627874
 20
396.927736
 40
1.0
100
AcDbArc
 50
270.0
 51
360.0
  0
LINE
  5
14E
100
AcDbEntity
  8
M1
  6
CONTINUOUS
370
25
 62
     2
100
AcDbLine
 10
129.827877
 20
389.027736
 11
129.827877
 21
395.927736
  0
LINE
  5
14F
100
AcDbEntity
  8
M1
  6
CONTINUOUS
370
25
 62
     2
100
AcDbLine
 10
187.627874
 20
395.927736
 11
172.427874
 21
395.927736
  0
LINE
  5
150
100
AcDbEntity
  8
M1
  6
CONTINUOUS
370
25
 62
     2
100
AcDbLine
 10
164.827874
 20
395.275924
 11
172.427874
 21
395.275924
  0
LINE
  5
151
100
AcDbEntity
  8
M1
  6
CONTINUOUS
370
25
 62
     2
100
AcDbLine
 10
114.627877
 20
472.527734
 11
187.627874
 21
472.527734
  0
LINE
  5
152
100
AcDbEntity
  8
M1
  6
CONTINUOUS
370
25
 62
     2
100
AcDbLine
 10
129.827877
 20
395.927736
 11
114.627877
 21
395.927736
  0
LINE
  5
153
100
AcDbEntity
  8
M1
  6
CONTINUOUS
370
25
 62
     2
100
AcDbLine
 10
188.627877
 20
471.527739
 11
188.627877
 21
396.927736
  0
LINE
  5
154
100
AcDbEntity
  8
M1
  6
CONTINUOUS
370
25
 62
     2
100
AcDbLine
 10
129.827877
 20
395.275924
 11
147.427874
 21
395.275924
  0
LINE
  5
155
100
AcDbEntity
  8
M1
  6
CONTINUOUS
370
25
 62
     2
100
AcDbLine
 10
179.627874
 20
412.527736
 11
184.127874
 21
412.527736
  0
LINE
  5
156
100
AcDbEntity
  8
M1
  6
CONTINUOUS
370
25
 62
     2
100
AcDbLine
 10
139.127874
 20
404.027736
 11
139.127874
 21
459.027736
  0
ARC
  5
157
100
AcDbEntity
  8
M1
  6
CONTINUOUS
370
25
 62
     2
100
AcDbCircle
 10
139.627874
 20
404.027736
 40
0.5
100
AcDbArc
 50
180.0
 51
270.0
  0
ARC
  5
158
100
AcDbEntity
  8
M1
  6
CONTINUOUS
370
25
 62
     2
100
AcDbCircle
 10
184.127874
 20
453.027736
 40
2.5
100
AcDbArc
 50
0.0
 51
90.0
  0
ARC
  5
159
100
AcDbEntity
  8
M1
  6
CONTINUOUS
370
25
 62
     2
100
AcDbCircle
 10
184.127874
 20
453.027736
 40
1.0
100
AcDbArc
 50
0.0
 51
90.0
  0
ARC
  5
15A
100
AcDbEntity
  8
M1
  6
CONTINUOUS
370
25
 62
     2
100
AcDbCircle
 10
140.627874
 20
459.027736
 40
1.5
100
AcDbArc
 50
90.0
 51
180.0
  0
ARC
  5
15B
100
AcDbEntity
  8
M1
  6
CONTINUOUS
370
25
 62
     2
100
AcDbCircle
 10
184.127874
 20
408.027736
 40
1.0
100
AcDbArc
 50
270.0
 51
360.0
  0
ARC
  5
15C
100
AcDbEntity
  8
M1
  6
CONTINUOUS
370
25
 62
     2
100
AcDbCircle
 10
184.127874
 20
408.027736
 40
2.5
100
AcDbArc
 50
270.0
 51
360.0
  0
ARC
  5
15D
100
AcDbEntity
  8
M1
  6
CONTINUOUS
370
25
 62
     2
100
AcDbCircle
 10
118.127874
 20
408.027736
 40
1.0
100
AcDbArc
 50
180.0
 51
270.0
  0
ARC
  5
15E
100
AcDbEntity
  8
M1
  6
CONTINUOUS
370
25
 62
     2
100
AcDbCircle
 10
118.127874
 20
408.027736
 40
2.5
100
AcDbArc
 50
180.0
 51
270.0
  0
ARC
  5
15F
100
AcDbEntity
  8
M1
  6
CONTINUOUS
370
25
 62
     2
100
AcDbCircle
 10
162.627874
 20
404.027736
 40
0.5
100
AcDbArc
 50
270.0
 51
360.0
  0
ARC
  5
160
100
AcDbEntity
  8
M1
  6
CONTINUOUS
370
25
 62
     2
100
AcDbCircle
 10
118.127874
 20
453.027736
 40
2.5
100
AcDbArc
 50
90.0
 51
180.0
  0
ARC
  5
161
100
AcDbEntity
  8
M1
  6
CONTINUOUS
370
25
 62
     2
100
AcDbCircle
 10
161.627874
 20
459.027736
 40
1.5
100
AcDbArc
 50
0.0
 51
90.0
  0
ARC
  5
162
100
AcDbEntity
  8
M1
  6
CONTINUOUS
370
25
 62
     2
100
AcDbCircle
 10
114.627874
 20
471.527736
 40
1.0
100
AcDbArc
 50
90.0
 51
180.0
  0
ARC
  5
163
100
AcDbEntity
  8
M1
  6
CONTINUOUS
370
25
 62
     2
100
AcDbCircle
 10
118.127874
 20
453.027736
 40
1.0
100
AcDbArc
 50
90.0
 51
180.0
  0
ARC
  5
164
100
AcDbEntity
  8
M1
  6
CONTINUOUS
370
25
 62
     2
100
AcDbCircle
 10
187.627874
 20
471.527736
 40
1.0
100
AcDbArc
 50
0.0
 51
90.0
  0
LINE
  5
165
100
AcDbEntity
  8
M1
  6
CONTINUOUS
370
25
 62
     2
100
AcDbLine
 10
179.627874
 20
408.027736
 11
179.627874
 21
412.527736
  0
LINE
  5
166
100
AcDbEntity
  8
M1
  6
CONTINUOUS
370
25
 62
     2
100
AcDbLine
 10
164.827874
 20
389.027736
 11
172.427874
 21
389.027736
  0
LINE
  5
167
100
AcDbEntity
  8
M1
  6
CONTINUOUS
370
25
 62
     2
100
AcDbLine
 10
163.127874
 20
404.027736
 11
163.127874
 21
459.027736
  0
LINE
  5
168
100
AcDbEntity
  8
M1
  6
CONTINUOUS
370
25
 62
     2
100
AcDbLine
 10
184.127874
 20
412.527736
 11
184.127874
 21
408.027736
  0
LINE
  5
169
100
AcDbEntity
  8
M1
  6
CONTINUOUS
370
25
 62
     2
100
AcDbLine
 10
184.127874
 20
405.527736
 11
163.127874
 21
405.527736
  0
LINE
  5
16A
100
AcDbEntity
  8
M1
  6
CONTINUOUS
370
25
 62
   154
100
AcDbLine
 10
114.127874
 20
490.827736
 11
114.977874
 21
490.827736
  0
LINE
  5
16B
100
AcDbEntity
  8
M1
  6
CONTINUOUS
370
25
 62
   154
100
AcDbLine
 10
142.727874
 20
483.389241
 11
142.727874
 21
488.166231
  0
LINE
  5
16C
100
AcDbEntity
  8
M1
  6
CONTINUOUS
370
25
 62
   154
100
AcDbLine
 10
139.627874
 20
404.027736
 11
162.627874
 21
404.027736
  0
LINE
  5
16D
100
AcDbEntity
  8
M1
  6
CONTINUOUS
370
25
 62
   154
100
AcDbLine
 10
164.977874
 20
491.327736
 11
164.977874
 21
492.986111
  0
LINE
  5
16E
100
AcDbEntity
  8
M1
  6
CONTINUOUS
370
25
 62
   154
100
AcDbLine
 10
137.277874
 20
492.986111
 11
137.277874
 21
491.327736
  0
LINE
  5
16F
100
AcDbEntity
  8
M1
  6
CONTINUOUS
370
25
 62
   154
100
AcDbLine
 10
162.277874
 20
492.986111
 11
162.277874
 21
491.327736
  0
LINE
  5
170
100
AcDbEntity
  8
M1
  6
CONTINUOUS
370
25
 62
   154
100
AcDbLine
 10
168.627874
 20
494.527736
 11
168.627874
 21
482.527736
  0
LINE
  5
171
100
AcDbEntity
  8
M1
  6
CONTINUOUS
370
25
 62
   154
100
AcDbLine
 10
158.627874
 20
482.527736
 11
158.627874
 21
494.527736
  0
LINE
  5
172
100
AcDbEntity
  8
M1
  6
CONTINUOUS
370
25
 62
   154
100
AcDbLine
 10
187.277877
 20
490.827736
 11
188.127877
 21
490.827736
  0
LINE
  5
173
100
AcDbEntity
  8
M1
  6
CONTINUOUS
370
25
 62
   154
100
AcDbLine
 10
159.527874
 20
488.166231
 11
159.527874
 21
483.379299
  0
LINE
  5
174
100
AcDbEntity
  8
M1
  6
CONTINUOUS
370
25
 62
   154
100
AcDbLine
 10
167.727874
 20
483.379299
 11
167.727874
 21
488.166231
  0
ARC
  5
175
100
AcDbEntity
  8
M1
  6
CONTINUOUS
370
25
 62
   154
100
AcDbCircle
 10
117.627874
 20
494.527736
 40
1.0
100
AcDbArc
 50
0.0
 51
90.0
  0
ARC
  5
176
100
AcDbEntity
  8
M1
  6
CONTINUOUS
370
25
 62
   154
100
AcDbCircle
 10
134.627874
 20
494.527736
 40
1.0
100
AcDbArc
 50
90.0
 51
180.0
  0
ARC
  5
177
100
AcDbEntity
  8
M1
  6
CONTINUOUS
370
25
 62
   154
100
AcDbCircle
 10
142.627874
 20
494.527736
 40
1.0
100
AcDbArc
 50
0.0
 51
90.0
  0
ARC
  5
178
100
AcDbEntity
  8
M1
  6
CONTINUOUS
370
25
 62
   154
100
AcDbCircle
 10
159.627874
 20
494.527736
 40
1.0
100
AcDbArc
 50
90.0
 51
180.0
  0
ARC
  5
179
100
AcDbEntity
  8
M1
  6
CONTINUOUS
370
25
 62
   154
100
AcDbCircle
 10
138.627874
 20
485.777736
 40
4.75
100
AcDbArc
 50
210.326984
 51
329.673029
  0
ARC
  5
17A
100
AcDbEntity
  8
M1
  6
CONTINUOUS
370
25
 62
   154
100
AcDbCircle
 10
167.627874
 20
494.527736
 40
1.0
100
AcDbArc
 50
0.0
 51
90.0
  0
ARC
  5
17B
100
AcDbEntity
  8
M1
  6
CONTINUOUS
370
25
 62
   154
100
AcDbCircle
 10
163.627874
 20
485.777736
 40
4.75
100
AcDbArc
 50
210.326971
 51
329.673016
  0
SPLINE
  5
17C
100
AcDbEntity
  8
M1
  6
CONTINUOUS
370
25
 62
   154
100
AcDbSpline
210
0.0
220
0.0
230
-1.0
 70
     8
 71
     3
 72
    29
 73
    25
 43
0.0000001
 40
0.0
 40
0.0
 40
0.0
 40
0.0
 40
1.0
 40
1.0
 40
1.0
 40
2.0
 40
2.0
 40
2.0
 40
3.0
 40
3.0
 40
3.0
 40
4.0
 40
4.0
 40
4.0
 40
5.0
 40
5.0
 40
5.0
 40
6.0
 40
6.0
 40
6.0
 40
7.0
 40
7.0
 40
7.0
 40
8.0
 40
8.0
 40
8.0
 40
8.0
 10
162.777874
 20
490.827736
 10
162.848667
 20
490.827736
 10
162.919452
 20
490.827736
 10
162.990249
 20
490.827736
 10
163.061047
 20
490.827736
 10
163.131842
 20
490.827736
 10
163.202652
 20
490.827736
 10
163.273462
 20
490.827736
 10
163.344277
 20
490.827736
 10
163.415117
 20
490.827736
 10
163.485957
 20
490.827736
 10
163.556812
 20
490.827736
 10
163.627679
 20
490.827736
 10
163.698547
 20
490.827736
 10
163.769422
 20
490.827736
 10
163.840289
 20
490.827736
 10
163.911154
 20
490.827736
 10
163.982012
 20
490.827736
 10
164.052862
 20
490.827736
 10
164.123714
 20
490.827736
 10
164.194562
 20
490.827736
 10
164.265394
 20
490.827736
 10
164.336227
 20
490.827736
 10
164.407052
 20
490.827736
 10
164.477874
 20
490.827736
  0
SPLINE
  5
17D
100
AcDbEntity
  8
M1
  6
CONTINUOUS
370
25
 62
   154
100
AcDbSpline
210
0.0
220
0.0
230
-1.0
 70
     8
 71
     3
 72
     8
 73
     4
 43
0.0000001
 40
0.0
 40
0.0
 40
0.0
 40
0.0
 40
1.0
 40
1.0
 40
1.0
 40
1.0
 10
164.477874
 20
490.827736
 10
164.532784
 20
490.827736
 10
164.586367
 20
490.836519
 10
164.638777
 20
490.854331
  0
SPLINE
  5
17E
100
AcDbEntity
  8
M1
  6
CONTINUOUS
370
25
 62
   154
100
AcDbSpline
210
0.0
220
0.0
230
-1.0
 70
     8
 71
     3
 72
     8
 73
     4
 43
0.0000001
 40
0.0
 40
0.0
 40
0.0
 40
0.0
 40
1.0
 40
1.0
 40
1.0
 40
1.0
 10
139.477874
 20
490.827736
 10
139.532784
 20
490.827736
 10
139.586367
 20
490.836519
 10
139.638777
 20
490.854331
  0
SPLINE
  5
17F
100
AcDbEntity
  8
M1
  6
CONTINUOUS
370
25
 62
   154
100
AcDbSpline
210
0.0
220
0.0
230
-1.0
 70
     8
 71
     3
 72
    29
 73
    25
 43
0.0000001
 40
0.0
 40
0.0
 40
0.0
 40
0.0
 40
1.0
 40
1.0
 40
1.0
 40
2.0
 40
2.0
 40
2.0
 40
3.0
 40
3.0
 40
3.0
 40
4.0
 40
4.0
 40
4.0
 40
5.0
 40
5.0
 40
5.0
 40
6.0
 40
6.0
 40
6.0
 40
7.0
 40
7.0
 40
7.0
 40
8.0
 40
8.0
 40
8.0
 40
8.0
 10
137.777874
 20
490.827736
 10
137.848667
 20
490.827736
 10
137.919452
 20
490.827736
 10
137.990249
 20
490.827736
 10
138.061047
 20
490.827736
 10
138.131842
 20
490.827736
 10
138.202652
 20
490.827736
 10
138.273462
 20
490.827736
 10
138.344277
 20
490.827736
 10
138.415117
 20
490.827736
 10
138.485957
 20
490.827736
 10
138.556812
 20
490.827736
 10
138.627679
 20
490.827736
 10
138.698547
 20
490.827736
 10
138.769422
 20
490.827736
 10
138.840289
 20
490.827736
 10
138.911154
 20
490.827736
 10
138.982012
 20
490.827736
 10
139.052862
 20
490.827736
 10
139.123714
 20
490.827736
 10
139.194562
 20
490.827736
 10
139.265394
 20
490.827736
 10
139.336227
 20
490.827736
 10
139.407052
 20
490.827736
 10
139.477874
 20
490.827736
  0
ARC
  5
180
100
AcDbEntity
  8
M1
  6
CONTINUOUS
370
25
 62
   154
100
AcDbCircle
 10
184.627874
 20
494.527736
 40
1.0
100
AcDbArc
 50
90.0
 51
180.0
  0
SPLINE
  5
181
100
AcDbEntity
  8
M1
  6
CONTINUOUS
370
25
 62
   154
100
AcDbSpline
210
0.0
220
0.0
230
-1.0
 70
     8
 71
     3
 72
     8
 73
     4
 43
0.0000001
 40
0.0
 40
0.0
 40
0.0
 40
0.0
 40
1.0
 40
1.0
 40
1.0
 40
1.0
 10
162.616974
 20
490.854331
 10
162.669384
 20
490.836519
 10
162.722964
 20
490.827736
 10
162.777874
 20
490.827736
  0
ARC
  5
182
100
AcDbEntity
  8
M1
  6
CONTINUOUS
370
25
 62
   154
100
AcDbCircle
 10
142.127874
 20
407.527736
 40
2.0
100
AcDbArc
 50
180.0
 51
270.0
  0
LINE
  5
183
100
AcDbEntity
  8
M1
  6
CONTINUOUS
370
25
 62
   154
100
AcDbLine
 10
170.627874
 20
480.527736
 11
181.627874
 21
480.527736
  0
ARC
  5
184
100
AcDbEntity
  8
M1
  6
CONTINUOUS
370
25
 62
   154
100
AcDbCircle
 10
160.127874
 20
453.527736
 40
2.0
100
AcDbArc
 50
0.0
 51
90.0
  0
ARC
  5
185
100
AcDbEntity
  8
M1
  6
CONTINUOUS
370
25
 62
   154
100
AcDbCircle
 10
142.127874
 20
453.527736
 40
2.0
100
AcDbArc
 50
90.0
 51
180.0
  0
ARC
  5
186
100
AcDbEntity
  8
M1
  6
CONTINUOUS
370
25
 62
   154
100
AcDbCircle
 10
162.777874
 20
491.327736
 40
0.5
100
AcDbArc
 50
180.0
 51
251.228127
  0
ARC
  5
187
100
AcDbEntity
  8
M1
  6
CONTINUOUS
370
25
 62
   154
100
AcDbCircle
 10
139.477874
 20
491.327736
 40
0.5
100
AcDbArc
 50
288.771873
 51
360.0
  0
ARC
  5
188
100
AcDbEntity
  8
M1
  6
CONTINUOUS
370
25
 62
   154
100
AcDbCircle
 10
160.127874
 20
407.527736
 40
2.0
100
AcDbArc
 50
270.0
 51
360.0
  0
LINE
  5
189
100
AcDbEntity
  8
M1
  6
CONTINUOUS
370
25
 62
   154
100
AcDbLine
 10
133.627874
 20
482.527736
 11
133.627874
 21
494.527736
  0
SPLINE
  5
18A
100
AcDbEntity
  8
M1
  6
CONTINUOUS
370
25
 62
   154
100
AcDbSpline
210
0.0
220
0.0
230
-1.0
 70
     8
 71
     3
 72
     8
 73
     4
 43
0.0000001
 40
0.0
 40
0.0
 40
0.0
 40
0.0
 40
1.0
 40
1.0
 40
1.0
 40
1.0
 10
137.616974
 20
490.854331
 10
137.669384
 20
490.836519
 10
137.722964
 20
490.827736
 10
137.777874
 20
490.827736
  0
LINE
  5
18B
100
AcDbEntity
  8
M1
  6
CONTINUOUS
370
25
 62
   154
100
AcDbLine
 10
143.627874
 20
494.527736
 11
143.627874
 21
482.527736
  0
LINE
  5
18C
100
AcDbEntity
  8
M1
  6
CONTINUOUS
370
25
 62
   154
100
AcDbLine
 10
134.527874
 20
488.166231
 11
134.527874
 21
483.389241
  0
SPLINE
  5
18D
100
AcDbEntity
  8
M1
  6
CONTINUOUS
370
25
 62
   154
100
AcDbSpline
210
0.0
220
0.0
230
-1.0
 70
     8
 71
     3
 72
     8
 73
     4
 43
0.0000001
 40
0.0
 40
0.0
 40
0.0
 40
0.0
 40
1.0
 40
1.0
 40
1.0
 40
1.0
 10
142.727874
 20
372.889241
 10
142.697014
 20
372.830106
 10
142.663897
 20
372.772244
 10
142.627874
 20
372.715999
  0
SPLINE
  5
18E
100
AcDbEntity
  8
M1
  6
CONTINUOUS
370
25
 62
   154
100
AcDbSpline
210
0.0
220
0.0
230
-1.0
 70
     8
 71
     3
 72
     8
 73
     4
 43
0.0000001
 40
0.0
 40
0.0
 40
0.0
 40
0.0
 40
1.0
 40
1.0
 40
1.0
 40
1.0
 10
159.627874
 20
372.715999
 10
159.591854
 20
372.772244
 10
159.558734
 20
372.830106
 10
159.527874
 20
372.889241
  0
SPLINE
  5
18F
100
AcDbEntity
  8
M1
  6
CONTINUOUS
370
25
 62
   154
100
AcDbSpline
210
0.0
220
0.0
230
-1.0
 70
     8
 71
     3
 72
     8
 73
     4
 43
0.0000001
 40
0.0
 40
0.0
 40
0.0
 40
0.0
 40
1.0
 40
1.0
 40
1.0
 40
1.0
 10
137.777874
 20
370.617024
 10
137.670019
 20
370.633004
 10
137.562104
 20
370.647551
 10
137.456074
 20
370.674544
  0
SPLINE
  5
190
100
AcDbEntity
  8
M1
  6
CONTINUOUS
370
25
 62
   154
100
AcDbSpline
210
0.0
220
0.0
230
-1.0
 70
     8
 71
     3
 72
     8
 73
     4
 43
0.0000001
 40
0.0
 40
0.0
 40
0.0
 40
0.0
 40
1.0
 40
1.0
 40
1.0
 40
1.0
 10
139.799677
 20
370.674544
 10
139.693647
 20
370.647551
 10
139.585732
 20
370.633004
 10
139.477874
 20
370.617024
  0
SPLINE
  5
191
100
AcDbEntity
  8
M1
  6
CONTINUOUS
370
25
 62
   154
100
AcDbSpline
210
0.0
220
0.0
230
-1.0
 70
     8
 71
     3
 72
     8
 73
     4
 43
0.0000001
 40
0.0
 40
0.0
 40
0.0
 40
0.0
 40
1.0
 40
1.0
 40
1.0
 40
1.0
 10
134.627874
 20
372.715999
 10
134.591854
 20
372.772244
 10
134.558734
 20
372.830106
 10
134.527874
 20
372.889241
  0
SPLINE
  5
192
100
AcDbEntity
  8
M1
  6
CONTINUOUS
370
25
 62
   154
100
AcDbSpline
210
0.0
220
0.0
230
-1.0
 70
     8
 71
     3
 72
    29
 73
    25
 43
0.0000001
 40
0.0
 40
0.0
 40
0.0
 40
0.0
 40
1.0
 40
1.0
 40
1.0
 40
2.0
 40
2.0
 40
2.0
 40
3.0
 40
3.0
 40
3.0
 40
4.0
 40
4.0
 40
4.0
 40
5.0
 40
5.0
 40
5.0
 40
6.0
 40
6.0
 40
6.0
 40
7.0
 40
7.0
 40
7.0
 40
8.0
 40
8.0
 40
8.0
 40
8.0
 10
164.477874
 20
370.617024
 10
164.407374
 20
370.607451
 10
164.336872
 20
370.597886
 10
164.266262
 20
370.590124
 10
164.195652
 20
370.582361
 10
164.124934
 20
370.576411
 10
164.054144
 20
370.571654
 10
163.983354
 20
370.566894
 10
163.912494
 20
370.563336
 10
163.841547
 20
370.561009
 10
163.770599
 20
370.558679
 10
163.699569
 20
370.557586
 10
163.628494
 20
370.557579
 10
163.557422
 20
370.557574
 10
163.486307
 20
370.558664
 10
163.415239
 20
370.560986
 10
163.344172
 20
370.563309
 10
163.273152
 20
370.566879
 10
163.202199
 20
370.571636
 10
163.131247
 20
370.576396
 10
163.060362
 20
370.582356
 10
162.989652
 20
370.590119
 10
162.918944
 20
370.597881
 10
162.848409
 20
370.607456
 10
162.777874
 20
370.617024
  0
SPLINE
  5
193
100
AcDbEntity
  8
M1
  6
CONTINUOUS
370
25
 62
   154
100
AcDbSpline
210
0.0
220
0.0
230
-1.0
 70
     8
 71
     3
 72
     8
 73
     4
 43
0.0000001
 40
0.0
 40
0.0
 40
0.0
 40
0.0
 40
1.0
 40
1.0
 40
1.0
 40
1.0
 10
167.727874
 20
372.889241
 10
167.697014
 20
372.830106
 10
167.663897
 20
372.772244
 10
167.627874
 20
372.715999
  0
SPLINE
  5
194
100
AcDbEntity
  8
M1
  6
CONTINUOUS
370
25
 62
   154
100
AcDbSpline
210
0.0
220
0.0
230
-1.0
 70
     8
 71
     3
 72
     8
 73
     4
 43
0.0000001
 40
0.0
 40
0.0
 40
0.0
 40
0.0
 40
1.0
 40
1.0
 40
1.0
 40
1.0
 10
162.777874
 20
370.617024
 10
162.670019
 20
370.633004
 10
162.562104
 20
370.647551
 10
162.456074
 20
370.674544
  0
LINE
  5
195
100
AcDbEntity
  8
M1
  6
CONTINUOUS
370
25
 62
   154
100
AcDbLine
 10
183.627874
 20
366.527736
 11
183.627874
 21
379.027739
  0
LINE
  5
196
100
AcDbEntity
  8
M1
  6
CONTINUOUS
370
25
 62
   154
100
AcDbLine
 10
120.627874
 20
480.527736
 11
131.627874
 21
480.527736
  0
LINE
  5
197
100
AcDbEntity
  8
M1
  6
CONTINUOUS
370
25
 62
   154
100
AcDbLine
 10
145.627874
 20
480.527736
 11
156.627874
 21
480.527736
  0
ARC
  5
198
100
AcDbEntity
  8
M1
  6
CONTINUOUS
370
25
 62
   154
100
AcDbCircle
 10
162.127874
 20
459.027736
 40
1.0
100
AcDbArc
 50
0.0
 51
90.0
  0
SPLINE
  5
199
100
AcDbEntity
  8
M1
  6
CONTINUOUS
370
25
 62
   154
100
AcDbSpline
210
0.0
220
0.0
230
-1.0
 70
     8
 71
     3
 72
    29
 73
    25
 43
0.0000001
 40
0.0
 40
0.0
 40
0.0
 40
0.0
 40
1.0
 40
1.0
 40
1.0
 40
2.0
 40
2.0
 40
2.0
 40
3.0
 40
3.0
 40
3.0
 40
4.0
 40
4.0
 40
4.0
 40
5.0
 40
5.0
 40
5.0
 40
6.0
 40
6.0
 40
6.0
 40
7.0
 40
7.0
 40
7.0
 40
8.0
 40
8.0
 40
8.0
 40
8.0
 10
139.477874
 20
370.617024
 10
139.407374
 20
370.607451
 10
139.336872
 20
370.597886
 10
139.266262
 20
370.590124
 10
139.195652
 20
370.582361
 10
139.124934
 20
370.576411
 10
139.054144
 20
370.571654
 10
138.983354
 20
370.566894
 10
138.912494
 20
370.563336
 10
138.841547
 20
370.561009
 10
138.770599
 20
370.558679
 10
138.699569
 20
370.557586
 10
138.628494
 20
370.557579
 10
138.557422
 20
370.557574
 10
138.486307
 20
370.558664
 10
138.415239
 20
370.560986
 10
138.344172
 20
370.563309
 10
138.273152
 20
370.566879
 10
138.202199
 20
370.571636
 10
138.131247
 20
370.576396
 10
138.060362
 20
370.582356
 10
137.989652
 20
370.590119
 10
137.918944
 20
370.597881
 10
137.848409
 20
370.607456
 10
137.777874
 20
370.617024
  0
ARC
  5
19A
100
AcDbEntity
  8
M1
  6
CONTINUOUS
370
25
 62
   154
100
AcDbCircle
 10
140.127874
 20
459.027736
 40
1.0
100
AcDbArc
 50
90.0
 51
180.0
  0
ARC
  5
19B
100
AcDbEntity
  8
M1
  6
CONTINUOUS
370
25
 62
   154
100
AcDbCircle
 10
139.627874
 20
404.527736
 40
0.5
100
AcDbArc
 50
180.0
 51
270.0
  0
ARC
  5
19C
100
AcDbEntity
  8
M1
  6
CONTINUOUS
370
25
 62
   154
100
AcDbCircle
 10
162.627874
 20
404.527736
 40
0.5
100
AcDbArc
 50
270.0
 51
360.0
  0
ARC
  5
19D
100
AcDbEntity
  8
M1
  6
CONTINUOUS
370
25
 62
   154
100
AcDbCircle
 10
163.627874
 20
375.277736
 40
4.75
100
AcDbArc
 50
212.636898
 51
255.717979
  0
ARC
  5
19E
100
AcDbEntity
  8
M1
  6
CONTINUOUS
370
25
 62
   154
100
AcDbCircle
 10
138.627874
 20
375.277736
 40
4.75
100
AcDbArc
 50
284.282021
 51
327.363102
  0
SPLINE
  5
19F
100
AcDbEntity
  8
M1
  6
CONTINUOUS
370
25
 62
   154
100
AcDbSpline
210
0.0
220
0.0
230
-1.0
 70
     8
 71
     3
 72
     8
 73
     4
 43
0.0000001
 40
0.0
 40
0.0
 40
0.0
 40
0.0
 40
1.0
 40
1.0
 40
1.0
 40
1.0
 10
164.799677
 20
370.674544
 10
164.693647
 20
370.647551
 10
164.585732
 20
370.633004
 10
164.477874
 20
370.617024
  0
ARC
  5
1A0
100
AcDbEntity
  8
M1
  6
CONTINUOUS
370
25
 62
   154
100
AcDbCircle
 10
163.627874
 20
375.277736
 40
4.25
100
AcDbArc
 50
195.26773
 51
344.73227
  0
LINE
  5
1A1
100
AcDbEntity
  8
M1
  6
CONTINUOUS
370
25
 62
   154
100
AcDbLine
 10
139.977874
 20
491.327736
 11
139.977874
 21
492.986111
  0
LINE
  5
1A2
100
AcDbEntity
  8
M1
  6
CONTINUOUS
370
25
 62
   154
100
AcDbLine
 10
159.627877
 20
495.527736
 11
161.877874
 21
495.527736
  0
LINE
  5
1A3
100
AcDbEntity
  8
M1
  6
CONTINUOUS
370
25
 62
   154
100
AcDbLine
 10
184.627877
 20
495.527736
 11
186.877877
 21
495.527736
  0
LINE
  5
1A4
100
AcDbEntity
  8
M1
  6
CONTINUOUS
370
25
 62
   154
100
AcDbLine
 10
165.377874
 20
495.527736
 11
167.627874
 21
495.527736
  0
LINE
  5
1A5
100
AcDbEntity
  8
M1
  6
CONTINUOUS
370
25
 62
   154
100
AcDbLine
 10
187.277877
 20
492.986111
 11
187.277877
 21
490.827736
  0
LINE
  5
1A6
100
AcDbEntity
  8
M1
  6
CONTINUOUS
370
25
 62
   154
100
AcDbLine
 10
114.977874
 20
490.827736
 11
114.977874
 21
492.986111
  0
LINE
  5
1A7
100
AcDbEntity
  8
M1
  6
CONTINUOUS
370
25
 62
   154
100
AcDbLine
 10
117.627874
 20
495.527736
 11
115.377874
 21
495.527736
  0
LINE
  5
1A8
100
AcDbEntity
  8
M1
  6
CONTINUOUS
370
25
 62
   154
100
AcDbLine
 10
118.627877
 20
379.027739
 11
118.627877
 21
366.527736
  0
ARC
  5
1A9
100
AcDbEntity
  8
M1
  6
CONTINUOUS
370
25
 62
   154
100
AcDbCircle
 10
138.627874
 20
375.277736
 40
4.25
100
AcDbArc
 50
195.26773
 51
344.73227
  0
LINE
  5
1AA
100
AcDbEntity
  8
M1
  6
CONTINUOUS
370
25
 62
   154
100
AcDbLine
 10
164.977874
 20
368.527731
 11
164.977874
 21
369.727736
  0
LINE
  5
1AB
100
AcDbEntity
  8
M1
  6
CONTINUOUS
370
25
 62
   154
100
AcDbLine
 10
139.977874
 20
368.527731
 11
139.977874
 21
369.727736
  0
LINE
  5
1AC
100
AcDbEntity
  8
M1
  6
CONTINUOUS
370
25
 62
   154
100
AcDbLine
 10
139.977874
 20
368.069361
 11
139.977874
 21
368.527731
  0
LINE
  5
1AD
100
AcDbEntity
  8
M1
  6
CONTINUOUS
370
25
 62
   154
100
AcDbLine
 10
140.377874
 20
365.527741
 11
142.627874
 21
365.527741
  0
SPLINE
  5
1AE
100
AcDbEntity
  8
M1
  6
CONTINUOUS
370
25
 62
   154
100
AcDbSpline
210
0.0
220
0.0
230
-1.0
 70
     8
 71
     3
 72
     8
 73
     4
 43
0.0000001
 40
0.0
 40
0.0
 40
0.0
 40
0.0
 40
1.0
 40
1.0
 40
1.0
 40
1.0
 10
142.627874
 20
377.839474
 10
142.663897
 20
377.783229
 10
142.697014
 20
377.725364
 10
142.727874
 20
377.666231
  0
SPLINE
  5
1AF
100
AcDbEntity
  8
M1
  6
CONTINUOUS
370
25
 62
   154
100
AcDbSpline
210
0.0
220
0.0
230
-1.0
 70
     8
 71
     3
 72
    65
 73
    61
 43
0.0000001
 40
0.0
 40
0.0
 40
0.0
 40
0.0
 40
1.0
 40
1.0
 40
1.0
 40
2.0
 40
2.0
 40
2.0
 40
3.0
 40
3.0
 40
3.0
 40
4.0
 40
4.0
 40
4.0
 40
5.0
 40
5.0
 40
5.0
 40
6.0
 40
6.0
 40
6.0
 40
7.0
 40
7.0
 40
7.0
 40
8.0
 40
8.0
 40
8.0
 40
9.0
 40
9.0
 40
9.0
 40
10.0
 40
10.0
 40
10.0
 40
11.0
 40
11.0
 40
11.0
 40
12.0
 40
12.0
 40
12.0
 40
13.0
 40
13.0
 40
13.0
 40
14.0
 40
14.0
 40
14.0
 40
15.0
 40
15.0
 40
15.0
 40
16.0
 40
16.0
 40
16.0
 40
17.0
 40
17.0
 40
17.0
 40
18.0
 40
18.0
 40
18.0
 40
19.0
 40
19.0
 40
19.0
 40
20.0
 40
20.0
 40
20.0
 40
20.0
 10
183.104164
 20
382.504631
 10
183.128804
 20
382.467706
 10
183.153444
 20
382.430786
 10
183.178937
 20
382.394694
 10
183.204427
 20
382.358599
 10
183.230764
 20
382.323346
 10
183.256934
 20
382.289479
 10
183.283104
 20
382.255611
 10
183.309107
 20
382.223141
 10
183.338282
 20
382.188561
 10
183.367459
 20
382.153981
 10
183.399807
 20
382.117304
 10
183.423102
 20
382.091514
 10
183.440564
 20
382.072184
 10
183.452939
 20
382.058976
 10
183.466892
 20
382.044291
 10
183.480844
 20
382.029606
 10
183.496372
 20
382.013454
 10
183.511707
 20
381.997846
 10
183.527042
 20
381.982241
 10
183.542187
 20
381.967184
 10
183.557609
 20
381.952136
 10
183.573032
 20
381.937089
 10
183.588732
 20
381.922056
 10
183.604667
 20
381.907116
 10
183.620599
 20
381.892176
 10
183.636769
 20
381.877331
 10
183.653022
 20
381.862691
 10
183.669274
 20
381.848051
 10
183.685617
 20
381.833616
 10
183.702579
 20
381.818981
 10
183.719539
 20
381.804346
 10
183.737129
 20
381.789509
 10
183.753022
 20
381.776254
 10
183.768917
 20
381.762999
 10
183.783127
 20
381.751319
 10
183.804047
 20
381.734781
 10
183.831609
 20
381.712994
 10
183.870829
 20
381.682771
 10
183.907292
 20
381.655891
 10
183.943752
 20
381.629011
 10
183.977469
 20
381.605471
 10
184.012349
 20
381.582046
 10
184.047229
 20
381.558624
 10
184.083279
 20
381.535319
 10
184.119484
 20
381.512939
 10
184.155689
 20
381.490556
 10
184.192059
 20
381.469096
 10
184.228954
 20
381.448256
 10
184.265849
 20
381.427416
 10
184.303274
 20
381.407204
 10
184.341202
 20
381.387696
 10
184.379129
 20
381.368191
 10
184.417567
 20
381.349396
 10
184.456467
 20
381.331249
 10
184.495367
 20
381.313104
 10
184.534729
 20
381.295611
 10
184.574714
 20
381.279051
 10
184.614697
 20
381.262491
 10
184.655302
 20
381.246866
 10
184.695904
 20
381.231239
  0
SPLINE
  5
1B0
100
AcDbEntity
  8
M1
  6
CONTINUOUS
370
25
 62
   154
100
AcDbSpline
210
0.0
220
0.0
230
-1.0
 70
     8
 71
     3
 72
     8
 73
     4
 43
0.0000001
 40
0.0
 40
0.0
 40
0.0
 40
0.0
 40
1.0
 40
1.0
 40
1.0
 40
1.0
 10
159.527874
 20
377.666231
 10
159.558734
 20
377.725364
 10
159.591854
 20
377.783229
 10
159.627874
 20
377.839474
  0
SPLINE
  5
1B1
100
AcDbEntity
  8
M1
  6
CONTINUOUS
370
25
 62
   154
100
AcDbSpline
210
0.0
220
0.0
230
-1.0
 70
     8
 71
     3
 72
     8
 73
     4
 43
0.0000001
 40
0.0
 40
0.0
 40
0.0
 40
0.0
 40
1.0
 40
1.0
 40
1.0
 40
1.0
 10
167.627874
 20
377.839474
 10
167.663897
 20
377.783229
 10
167.697014
 20
377.725364
 10
167.727874
 20
377.666231
  0
SPLINE
  5
1B2
100
AcDbEntity
  8
M1
  6
CONTINUOUS
370
25
 62
   154
100
AcDbSpline
210
0.0
220
0.0
230
-1.0
 70
     8
 71
     3
 72
     8
 73
     4
 43
0.0000001
 40
0.0
 40
0.0
 40
0.0
 40
0.0
 40
1.0
 40
1.0
 40
1.0
 40
1.0
 10
134.527874
 20
377.666231
 10
134.558734
 20
377.725364
 10
134.591854
 20
377.783229
 10
134.627874
 20
377.839474
  0
LINE
  5
1B3
100
AcDbEntity
  8
M1
  6
CONTINUOUS
370
25
 62
   154
100
AcDbLine
 10
188.627877
 20
490.327736
 11
188.627877
 21
370.727736
  0
LINE
  5
1B4
100
AcDbEntity
  8
M1
  6
CONTINUOUS
370
25
 62
   154
100
AcDbLine
 10
113.627874
 20
370.727736
 11
113.627874
 21
490.327736
  0
ARC
  5
1B5
100
AcDbEntity
  8
M1
  6
CONTINUOUS
370
25
 62
   154
100
AcDbCircle
 10
114.127874
 20
370.727736
 40
0.5
100
AcDbArc
 50
180.0
 51
270.0
  0
CIRCLE
  5
1B6
100
AcDbEntity
  8
M1
  6
CONTINUOUS
370
25
 62
   154
100
AcDbCircle
 10
138.627874
 20
476.327736
 40
3.25
  0
ARC
  5
1B7
100
AcDbEntity
  8
M1
  6
CONTINUOUS
370
25
 62
   154
100
AcDbCircle
 10
188.127874
 20
370.727736
 40
0.5
100
AcDbArc
 50
270.0
 51
360.0
  0
LINE
  5
1B8
100
AcDbEntity
  8
M1
  6
CONTINUOUS
370
25
 62
   154
100
AcDbLine
 10
188.127877
 20
387.527734
 11
185.827874
 21
387.527734
  0
LINE
  5
1B9
100
AcDbEntity
  8
M1
  6
CONTINUOUS
370
25
 62
   154
100
AcDbLine
 10
164.627874
 20
395.927736
 11
164.627874
 21
389.027739
  0
CIRCLE
  5
1BA
100
AcDbEntity
  8
M1
  6
CONTINUOUS
370
25
 62
   154
100
AcDbCircle
 10
163.627874
 20
476.327736
 40
3.25
  0
LINE
  5
1BB
100
AcDbEntity
  8
M1
  6
CONTINUOUS
370
25
 62
   154
100
AcDbLine
 10
116.427877
 20
387.527734
 11
114.127874
 21
387.527734
  0
ARC
  5
1BC
100
AcDbEntity
  8
M1
  6
CONTINUOUS
370
25
 62
   154
100
AcDbCircle
 10
120.627874
 20
482.527736
 40
2.0
100
AcDbArc
 50
180.0
 51
270.0
  0
ARC
  5
1BD
100
AcDbEntity
  8
M1
  6
CONTINUOUS
370
25
 62
   154
100
AcDbCircle
 10
181.627874
 20
482.527736
 40
2.0
100
AcDbArc
 50
270.0
 51
360.0
  0
ARC
  5
1BE
100
AcDbEntity
  8
M1
  6
CONTINUOUS
370
25
 62
   154
100
AcDbCircle
 10
170.627874
 20
482.527736
 40
2.0
100
AcDbArc
 50
180.0
 51
270.0
  0
LINE
  5
1BF
100
AcDbEntity
  8
M1
  6
CONTINUOUS
370
25
 62
   154
100
AcDbLine
 10
137.277874
 20
369.727736
 11
137.277874
 21
368.527731
  0
LINE
  5
1C0
100
AcDbEntity
  8
M1
  6
CONTINUOUS
370
25
 62
   154
100
AcDbLine
 10
164.477874
 20
370.227731
 11
162.777874
 21
370.227731
  0
LINE
  5
1C1
100
AcDbEntity
  8
M1
  6
CONTINUOUS
370
25
 62
   154
100
AcDbLine
 10
159.527874
 20
377.666234
 11
159.527874
 21
372.889241
  0
LINE
  5
1C2
100
AcDbEntity
  8
M1
  6
CONTINUOUS
370
25
 62
   154
100
AcDbLine
 10
162.277874
 20
369.727736
 11
162.277874
 21
368.527731
  0
LINE
  5
1C3
100
AcDbEntity
  8
M1
  6
CONTINUOUS
370
25
 62
   154
100
AcDbLine
 10
134.527874
 20
377.666234
 11
134.527874
 21
372.889241
  0
LINE
  5
1C4
100
AcDbEntity
  8
M1
  6
CONTINUOUS
370
25
 62
   154
100
AcDbLine
 10
188.127877
 20
370.227731
 11
187.277877
 21
370.227731
  0
LINE
  5
1C5
100
AcDbEntity
  8
M1
  6
CONTINUOUS
370
25
 62
   154
100
AcDbLine
 10
139.477874
 20
370.227731
 11
137.777874
 21
370.227731
  0
ARC
  5
1C6
100
AcDbEntity
  8
M1
  6
CONTINUOUS
370
25
 62
   154
100
AcDbCircle
 10
131.627874
 20
482.527736
 40
2.0
100
AcDbArc
 50
270.0
 51
360.0
  0
ARC
  5
1C7
100
AcDbEntity
  8
M1
  6
CONTINUOUS
370
25
 62
   154
100
AcDbCircle
 10
163.627874
 20
485.777736
 40
4.75
100
AcDbArc
 50
32.636898
 51
149.673029
  0
ARC
  5
1C8
100
AcDbEntity
  8
M1
  6
CONTINUOUS
370
25
 62
   154
100
AcDbCircle
 10
145.627874
 20
482.527736
 40
2.0
100
AcDbArc
 50
180.0
 51
270.0
  0
ARC
  5
1C9
100
AcDbEntity
  8
M1
  6
CONTINUOUS
370
25
 62
   154
100
AcDbCircle
 10
138.627874
 20
485.777736
 40
4.25
100
AcDbArc
 50
195.26773
 51
344.73227
  0
ARC
  5
1CA
100
AcDbEntity
  8
M1
  6
CONTINUOUS
370
25
 62
   154
100
AcDbCircle
 10
164.477874
 20
491.327736
 40
0.5
100
AcDbArc
 50
288.771873
 51
360.0
  0
ARC
  5
1CB
100
AcDbEntity
  8
M1
  6
CONTINUOUS
370
25
 62
   154
100
AcDbCircle
 10
138.627874
 20
485.777736
 40
4.75
100
AcDbArc
 50
32.636898
 51
149.673016
  0
ARC
  5
1CC
100
AcDbEntity
  8
M1
  6
CONTINUOUS
370
25
 62
   154
100
AcDbCircle
 10
137.777874
 20
491.327736
 40
0.5
100
AcDbArc
 50
180.0
 51
251.228127
  0
ARC
  5
1CD
100
AcDbEntity
  8
M1
  6
CONTINUOUS
370
25
 62
   154
100
AcDbCircle
 10
163.627874
 20
485.777736
 40
4.25
100
AcDbArc
 50
15.26773
 51
164.73227
  0
ARC
  5
1CE
100
AcDbEntity
  8
M1
  6
CONTINUOUS
370
25
 62
   154
100
AcDbCircle
 10
163.627874
 20
485.777736
 40
4.25
100
AcDbArc
 50
195.26773
 51
344.73227
  0
SPLINE
  5
1CF
100
AcDbEntity
  8
M1
  6
CONTINUOUS
370
25
 62
   154
100
AcDbSpline
210
0.0
220
0.0
230
-1.0
 70
     8
 71
     3
 72
     8
 73
     4
 43
0.0000001
 40
0.0
 40
0.0
 40
0.0
 40
0.0
 40
1.0
 40
1.0
 40
1.0
 40
1.0
 10
167.627874
 20
488.339474
 10
167.663897
 20
488.283229
 10
167.697014
 20
488.225364
 10
167.727874
 20
488.166231
  0
SPLINE
  5
1D0
100
AcDbEntity
  8
M1
  6
CONTINUOUS
370
25
 62
   154
100
AcDbSpline
210
0.0
220
0.0
230
-1.0
 70
     8
 71
     3
 72
     8
 73
     4
 43
0.0000001
 40
0.0
 40
0.0
 40
0.0
 40
0.0
 40
1.0
 40
1.0
 40
1.0
 40
1.0
 10
142.627874
 20
488.339474
 10
142.663897
 20
488.283229
 10
142.697014
 20
488.225364
 10
142.727874
 20
488.166231
  0
ARC
  5
1D1
100
AcDbEntity
  8
M1
  6
CONTINUOUS
370
25
 62
   154
100
AcDbCircle
 10
188.127874
 20
490.327736
 40
0.5
100
AcDbArc
 50
0.0
 51
90.0
  0
ARC
  5
1D2
100
AcDbEntity
  8
M1
  6
CONTINUOUS
370
25
 62
   154
100
AcDbCircle
 10
156.627874
 20
482.527736
 40
2.0
100
AcDbArc
 50
270.0
 51
360.0
  0
ARC
  5
1D3
100
AcDbEntity
  8
M1
  6
CONTINUOUS
370
25
 62
   154
100
AcDbCircle
 10
138.627874
 20
485.777736
 40
4.25
100
AcDbArc
 50
15.26773
 51
164.73227
  0
ARC
  5
1D4
100
AcDbEntity
  8
M1
  6
CONTINUOUS
370
25
 62
   154
100
AcDbCircle
 10
138.627874
 20
375.277736
 40
4.25
100
AcDbArc
 50
15.26773
 51
164.73227
  0
ARC
  5
1D5
100
AcDbEntity
  8
M1
  6
CONTINUOUS
370
25
 62
   154
100
AcDbCircle
 10
188.127874
 20
380.527736
 40
0.5
100
AcDbArc
 50
0.0
 51
90.0
  0
ARC
  5
1D6
100
AcDbEntity
  8
M1
  6
CONTINUOUS
370
25
 62
   154
100
AcDbCircle
 10
188.127874
 20
388.027736
 40
0.5
100
AcDbArc
 50
270.0
 51
360.0
  0
ARC
  5
1D7
100
AcDbEntity
  8
M1
  6
CONTINUOUS
370
25
 62
   154
100
AcDbCircle
 10
163.627874
 20
375.277736
 40
4.25
100
AcDbArc
 50
15.26773
 51
164.73227
  0
ARC
  5
1D8
100
AcDbEntity
  8
M1
  6
CONTINUOUS
370
25
 62
   154
100
AcDbCircle
 10
114.127874
 20
380.527736
 40
0.5
100
AcDbArc
 50
90.0
 51
180.0
  0
ARC
  5
1D9
100
AcDbEntity
  8
M1
  6
CONTINUOUS
370
25
 62
   154
100
AcDbCircle
 10
120.627874
 20
379.027736
 40
2.0
100
AcDbArc
 50
90.0
 51
180.0
  0
ARC
  5
1DA
100
AcDbEntity
  8
M1
  6
CONTINUOUS
370
25
 62
   154
100
AcDbCircle
 10
156.627874
 20
379.027736
 40
2.0
100
AcDbArc
 50
0.0
 51
90.0
  0
ARC
  5
1DB
100
AcDbEntity
  8
M1
  6
CONTINUOUS
370
25
 62
   154
100
AcDbCircle
 10
170.627874
 20
379.027736
 40
2.0
100
AcDbArc
 50
90.0
 51
180.0
  0
ARC
  5
1DC
100
AcDbEntity
  8
M1
  6
CONTINUOUS
370
25
 62
   154
100
AcDbCircle
 10
131.627874
 20
379.027736
 40
2.0
100
AcDbArc
 50
0.0
 51
90.0
  0
ARC
  5
1DD
100
AcDbEntity
  8
M1
  6
CONTINUOUS
370
25
 62
   154
100
AcDbCircle
 10
145.627874
 20
379.027736
 40
2.0
100
AcDbArc
 50
90.0
 51
180.0
  0
ARC
  5
1DE
100
AcDbEntity
  8
M1
  6
CONTINUOUS
370
25
 62
   154
100
AcDbCircle
 10
185.827874
 20
384.277736
 40
3.25
100
AcDbArc
 50
249.61673
 51
270.0
  0
ARC
  5
1DF
100
AcDbEntity
  8
M1
  6
CONTINUOUS
370
25
 62
   154
100
AcDbCircle
 10
181.627874
 20
379.027736
 40
2.0
100
AcDbArc
 50
0.0
 51
90.0
  0
LINE
  5
1E0
100
AcDbEntity
  8
M1
  6
CONTINUOUS
370
25
 62
   154
100
AcDbLine
 10
114.127874
 20
381.027736
 11
116.427877
 21
381.027736
  0
LINE
  5
1E1
100
AcDbEntity
  8
M1
  6
CONTINUOUS
370
25
 62
   154
100
AcDbLine
 10
143.627874
 20
379.027739
 11
143.627874
 21
366.527736
  0
LINE
  5
1E2
100
AcDbEntity
  8
M1
  6
CONTINUOUS
370
25
 62
   154
100
AcDbLine
 10
167.727874
 20
372.889241
 11
167.727874
 21
377.666234
  0
LINE
  5
1E3
100
AcDbEntity
  8
M1
  6
CONTINUOUS
370
25
 62
   154
100
AcDbLine
 10
142.727874
 20
372.889241
 11
142.727874
 21
377.666234
  0
LINE
  5
1E4
100
AcDbEntity
  8
M1
  6
CONTINUOUS
370
25
 62
   154
100
AcDbLine
 10
158.627874
 20
366.527736
 11
158.627874
 21
379.027739
  0
ARC
  5
1E5
100
AcDbEntity
  8
M1
  6
CONTINUOUS
370
25
 62
   154
100
AcDbCircle
 10
114.127874
 20
490.327736
 40
0.5
100
AcDbArc
 50
90.0
 51
180.0
  0
LINE
  5
1E6
100
AcDbEntity
  8
M1
  6
CONTINUOUS
370
25
 62
   154
100
AcDbLine
 10
114.977874
 20
368.527731
 11
114.977874
 21
370.227731
  0
LINE
  5
1E7
100
AcDbEntity
  8
M1
  6
CONTINUOUS
370
25
 62
   154
100
AcDbLine
 10
114.977874
 20
370.227731
 11
114.127874
 21
370.227731
  0
LINE
  5
1E8
100
AcDbEntity
  8
M1
  6
CONTINUOUS
370
25
 62
   154
100
AcDbLine
 10
133.627874
 20
366.527736
 11
133.627874
 21
379.027739
  0
LINE
  5
1E9
100
AcDbEntity
  8
M1
  6
CONTINUOUS
370
25
 62
   154
100
AcDbLine
 10
181.627874
 20
381.027736
 11
170.627874
 21
381.027736
  0
LINE
  5
1EA
100
AcDbEntity
  8
M1
  6
CONTINUOUS
370
25
 62
   154
100
AcDbLine
 10
131.627874
 20
381.027736
 11
120.627874
 21
381.027736
  0
LINE
  5
1EB
100
AcDbEntity
  8
M1
  6
CONTINUOUS
370
25
 62
   154
100
AcDbLine
 10
168.627874
 20
379.027739
 11
168.627874
 21
366.527736
  0
LINE
  5
1EC
100
AcDbEntity
  8
M1
  6
CONTINUOUS
370
25
 62
   154
100
AcDbLine
 10
185.827874
 20
381.027736
 11
188.127877
 21
381.027736
  0
LINE
  5
1ED
100
AcDbEntity
  8
M1
  6
CONTINUOUS
370
25
 62
   154
100
AcDbLine
 10
156.627874
 20
381.027736
 11
145.627874
 21
381.027736
  0
LINE
  5
1EE
100
AcDbEntity
  8
M1
  6
CONTINUOUS
370
25
 62
   154
100
AcDbLine
 10
166.822012
 20
475.727736
 11
166.781307
 21
475.727736
  0
LINE
  5
1EF
100
AcDbEntity
  8
M1
  6
CONTINUOUS
370
25
 62
   154
100
AcDbLine
 10
166.781307
 20
475.541369
 11
166.781307
 21
475.727736
  0
LINE
  5
1F0
100
AcDbEntity
  8
M1
  6
CONTINUOUS
370
25
 62
   154
100
AcDbLine
 10
167.627874
 20
365.527741
 11
165.377874
 21
365.527741
  0
LINE
  5
1F1
100
AcDbEntity
  8
M1
  6
CONTINUOUS
370
25
 62
   154
100
AcDbLine
 10
114.977874
 20
368.069361
 11
114.977874
 21
368.527731
  0
LINE
  5
1F2
100
AcDbEntity
  8
M1
  6
CONTINUOUS
370
25
 62
   154
100
AcDbLine
 10
115.377874
 20
365.527741
 11
117.627874
 21
365.527741
  0
LINE
  5
1F3
100
AcDbEntity
  8
M1
  6
CONTINUOUS
370
25
 62
   154
100
AcDbLine
 10
162.277874
 20
368.527731
 11
162.277874
 21
368.069356
  0
LINE
  5
1F4
100
AcDbEntity
  8
M1
  6
CONTINUOUS
370
25
 62
   154
100
AcDbLine
 10
134.627874
 20
365.527741
 11
136.877874
 21
365.527741
  0
LINE
  5
1F5
100
AcDbEntity
  8
M1
  6
CONTINUOUS
370
25
 62
   154
100
AcDbLine
 10
186.877877
 20
365.527741
 11
184.627877
 21
365.527741
  0
LINE
  5
1F6
100
AcDbEntity
  8
M1
  6
CONTINUOUS
370
25
 62
   154
100
AcDbLine
 10
137.277874
 20
368.527731
 11
137.277874
 21
368.069361
  0
LINE
  5
1F7
100
AcDbEntity
  8
M1
  6
CONTINUOUS
370
25
 62
   154
100
AcDbLine
 10
187.277877
 20
370.227731
 11
187.277877
 21
368.069361
  0
ARC
  5
1F8
100
AcDbEntity
  8
M1
  6
CONTINUOUS
370
25
 62
   154
100
AcDbCircle
 10
184.627874
 20
366.527736
 40
1.0
100
AcDbArc
 50
180.0
 51
270.0
  0
ARC
  5
1F9
100
AcDbEntity
  8
M1
  6
CONTINUOUS
370
25
 62
   154
100
AcDbCircle
 10
117.627874
 20
366.527736
 40
1.0
100
AcDbArc
 50
270.0
 51
360.0
  0
ARC
  5
1FA
100
AcDbEntity
  8
M1
  6
CONTINUOUS
370
25
 62
   154
100
AcDbCircle
 10
134.627874
 20
366.527736
 40
1.0
100
AcDbArc
 50
180.0
 51
270.0
  0
ARC
  5
1FB
100
AcDbEntity
  8
M1
  6
CONTINUOUS
370
25
 62
   154
100
AcDbCircle
 10
167.627874
 20
366.527736
 40
1.0
100
AcDbArc
 50
270.0
 51
360.0
  0
ARC
  5
1FC
100
AcDbEntity
  8
M1
  6
CONTINUOUS
370
25
 62
   154
100
AcDbCircle
 10
142.627874
 20
366.527736
 40
1.0
100
AcDbArc
 50
270.0
 51
360.0
  0
ARC
  5
1FD
100
AcDbEntity
  8
M1
  6
CONTINUOUS
370
25
 62
   154
100
AcDbCircle
 10
159.627874
 20
366.527736
 40
1.0
100
AcDbArc
 50
180.0
 51
270.0
  0
ARC
  5
1FE
100
AcDbEntity
  8
M1
  6
CONTINUOUS
370
25
 62
   154
100
AcDbCircle
 10
138.627874
 20
375.277736
 40
4.75
100
AcDbArc
 50
212.636898
 51
255.717979
  0
LINE
  5
1FF
100
AcDbEntity
  8
M1
  6
CONTINUOUS
370
25
 62
   154
100
AcDbLine
 10
164.877874
 20
366.027734
 11
164.877874
 21
366.634911
  0
LINE
  5
200
100
AcDbEntity
  8
M1
  6
CONTINUOUS
370
25
 62
   154
100
AcDbLine
 10
162.377877
 20
366.634911
 11
162.377877
 21
366.027734
  0
LINE
  5
201
100
AcDbEntity
  8
M1
  6
CONTINUOUS
370
25
 62
   154
100
AcDbLine
 10
137.377874
 20
495.027736
 11
137.377874
 21
494.420556
  0
LINE
  5
202
100
AcDbEntity
  8
M1
  6
CONTINUOUS
370
25
 62
   154
100
AcDbLine
 10
187.377874
 20
495.027736
 11
187.377874
 21
494.420556
  0
LINE
  5
203
100
AcDbEntity
  8
M1
  6
CONTINUOUS
370
25
 62
   154
100
AcDbLine
 10
137.377874
 20
366.634911
 11
137.377874
 21
366.027734
  0
LINE
  5
204
100
AcDbEntity
  8
M1
  6
CONTINUOUS
370
25
 62
   154
100
AcDbLine
 10
164.877874
 20
494.420556
 11
164.877874
 21
495.027736
  0
ARC
  5
205
100
AcDbEntity
  8
M1
  6
CONTINUOUS
370
25
 62
   154
100
AcDbCircle
 10
186.877874
 20
366.027736
 40
0.5
100
AcDbArc
 50
270.0
 51
360.0
  0
ARC
  5
206
100
AcDbEntity
  8
M1
  6
CONTINUOUS
370
25
 62
   154
100
AcDbCircle
 10
136.877874
 20
495.027736
 40
0.5
100
AcDbArc
 50
0.0
 51
90.0
  0
LINE
  5
207
100
AcDbEntity
  8
M1
  6
CONTINUOUS
370
25
 62
   154
100
AcDbLine
 10
139.877874
 20
366.027734
 11
139.877874
 21
366.634911
  0
LINE
  5
208
100
AcDbEntity
  8
M1
  6
CONTINUOUS
370
25
 62
   154
100
AcDbLine
 10
187.377874
 20
366.634919
 11
187.377874
 21
366.027734
  0
LINE
  5
209
100
AcDbEntity
  8
M1
  6
CONTINUOUS
370
25
 62
   154
100
AcDbLine
 10
114.877877
 20
366.027734
 11
114.877877
 21
366.634911
  0
LINE
  5
20A
100
AcDbEntity
  8
M1
  6
CONTINUOUS
370
25
 62
   154
100
AcDbLine
 10
139.877874
 20
494.420556
 11
139.877874
 21
495.027736
  0
LINE
  5
20B
100
AcDbEntity
  8
M1
  6
CONTINUOUS
370
25
 62
   154
100
AcDbLine
 10
114.877877
 20
494.420556
 11
114.877877
 21
495.027736
  0
ARC
  5
20C
100
AcDbEntity
  8
M1
  6
CONTINUOUS
370
25
 62
   154
100
AcDbCircle
 10
163.627874
 20
375.277736
 40
4.75
100
AcDbArc
 50
32.636898
 51
147.363102
  0
ARC
  5
20D
100
AcDbEntity
  8
M1
  6
CONTINUOUS
370
25
 62
   154
100
AcDbCircle
 10
138.627874
 20
375.277736
 40
4.75
100
AcDbArc
 50
32.636898
 51
147.363102
  0
LINE
  5
20E
100
AcDbEntity
  8
M1
  6
CONTINUOUS
370
25
 62
   154
100
AcDbLine
 10
172.627877
 20
395.927736
 11
172.627877
 21
389.027739
  0
LINE
  5
20F
100
AcDbEntity
  8
M1
  6
CONTINUOUS
370
25
 62
   154
100
AcDbLine
 10
129.627874
 20
395.927736
 11
129.627874
 21
389.027739
  0
LINE
  5
210
100
AcDbEntity
  8
M1
  6
CONTINUOUS
370
25
 62
   154
100
AcDbLine
 10
147.627874
 20
395.927736
 11
147.627874
 21
389.027739
  0
ARC
  5
211
100
AcDbEntity
  8
M1
  6
CONTINUOUS
370
25
 62
   154
100
AcDbCircle
 10
115.377874
 20
366.027736
 40
0.5
100
AcDbArc
 50
180.0
 51
270.0
  0
ARC
  5
212
100
AcDbEntity
  8
M1
  6
CONTINUOUS
370
25
 62
   154
100
AcDbCircle
 10
115.377874
 20
495.027736
 40
0.5
100
AcDbArc
 50
90.0
 51
180.0
  0
ARC
  5
213
100
AcDbEntity
  8
M1
  6
CONTINUOUS
370
25
 62
   154
100
AcDbCircle
 10
161.877874
 20
495.027736
 40
0.5
100
AcDbArc
 50
0.0
 51
90.0
  0
ARC
  5
214
100
AcDbEntity
  8
M1
  6
CONTINUOUS
370
25
 62
   154
100
AcDbCircle
 10
140.377874
 20
366.027736
 40
0.5
100
AcDbArc
 50
180.0
 51
270.0
  0
ARC
  5
215
100
AcDbEntity
  8
M1
  6
CONTINUOUS
370
25
 62
   154
100
AcDbCircle
 10
140.377874
 20
495.027736
 40
0.5
100
AcDbArc
 50
90.0
 51
180.0
  0
LINE
  5
216
100
AcDbEntity
  8
M1
  6
CONTINUOUS
370
25
 62
   154
100
AcDbLine
 10
161.877874
 20
365.527741
 11
159.627877
 21
365.527741
  0
ARC
  5
217
100
AcDbEntity
  8
M1
  6
CONTINUOUS
370
25
 62
   154
100
AcDbCircle
 10
161.877874
 20
366.027736
 40
0.5
100
AcDbArc
 50
270.0
 51
360.0
  0
LINE
  5
218
100
AcDbEntity
  8
M1
  6
CONTINUOUS
370
25
 62
   154
100
AcDbLine
 10
162.377877
 20
495.027736
 11
162.377877
 21
494.420556
  0
LINE
  5
219
100
AcDbEntity
  8
M1
  6
CONTINUOUS
370
25
 62
   154
100
AcDbLine
 10
164.977874
 20
368.069356
 11
164.977874
 21
368.527731
  0
ARC
  5
21A
100
AcDbEntity
  8
M1
  6
CONTINUOUS
370
25
 62
   154
100
AcDbCircle
 10
186.877874
 20
495.027736
 40
0.5
100
AcDbArc
 50
0.0
 51
90.0
  0
ARC
  5
21B
100
AcDbEntity
  8
M1
  6
CONTINUOUS
370
25
 62
   154
100
AcDbCircle
 10
165.377874
 20
366.027736
 40
0.5
100
AcDbArc
 50
180.0
 51
270.0
  0
ARC
  5
21C
100
AcDbEntity
  8
M1
  6
CONTINUOUS
370
25
 62
   154
100
AcDbCircle
 10
136.877874
 20
366.027736
 40
0.5
100
AcDbArc
 50
270.0
 51
360.0
  0
ARC
  5
21D
100
AcDbEntity
  8
M1
  6
CONTINUOUS
370
25
 62
   154
100
AcDbCircle
 10
165.377874
 20
495.027736
 40
0.5
100
AcDbArc
 50
90.0
 51
180.0
  0
ARC
  5
21E
100
AcDbEntity
  8
M1
  6
CONTINUOUS
370
25
 62
   154
100
AcDbCircle
 10
185.827874
 20
384.277736
 40
3.25
100
AcDbArc
 50
90.0
 51
213.063653
  0
ARC
  5
21F
100
AcDbEntity
  8
M1
  6
CONTINUOUS
370
25
 62
   154
100
AcDbCircle
 10
116.427874
 20
384.277736
 40
3.25
100
AcDbArc
 50
270.0
 51
450.0
  0
ARC
  5
220
100
AcDbEntity
  8
M1
  6
CONTINUOUS
370
25
 62
   154
100
AcDbCircle
 10
114.127874
 20
388.027736
 40
0.5
100
AcDbArc
 50
180.0
 51
270.0
  0
LINE
  5
221
100
AcDbEntity
  8
M1
  6
CONTINUOUS
370
25
 62
   154
100
AcDbLine
 10
118.627877
 20
494.527736
 11
118.627877
 21
482.527736
  0
LINE
  5
222
100
AcDbEntity
  8
M1
  6
CONTINUOUS
370
25
 62
   154
100
AcDbLine
 10
183.627874
 20
482.527736
 11
183.627874
 21
494.527736
  0
LINE
  5
223
100
AcDbEntity
  8
M1
  6
CONTINUOUS
370
25
 62
   154
100
AcDbLine
 10
163.127874
 20
405.527734
 11
139.127874
 21
405.527734
  0
ARC
  5
224
100
AcDbEntity
  8
M1
  6
CONTINUOUS
370
25
 62
   154
100
AcDbCircle
 10
115.277874
 20
367.327741
 40
0.8
100
AcDbArc
 50
112.024326
 51
240.0
  0
ARC
  5
225
100
AcDbEntity
  8
M1
  6
CONTINUOUS
370
25
 62
   154
100
AcDbCircle
 10
186.977877
 20
367.327741
 40
0.8
100
AcDbArc
 50
300.0
 51
427.975674
  0
ARC
  5
226
100
AcDbEntity
  8
M1
  6
CONTINUOUS
370
25
 62
   154
100
AcDbCircle
 10
165.277874
 20
493.727731
 40
0.8
100
AcDbArc
 50
120.0
 51
247.975674
  0
ARC
  5
227
100
AcDbEntity
  8
M1
  6
CONTINUOUS
370
25
 62
   154
100
AcDbCircle
 10
186.977877
 20
493.727731
 40
0.8
100
AcDbArc
 50
292.024326
 51
420.0
  0
ARC
  5
228
100
AcDbEntity
  8
M1
  6
CONTINUOUS
370
25
 62
   154
100
AcDbCircle
 10
161.977874
 20
367.327741
 40
0.8
100
AcDbArc
 50
300.0
 51
427.975674
  0
ARC
  5
229
100
AcDbEntity
  8
M1
  6
CONTINUOUS
370
25
 62
   154
100
AcDbCircle
 10
165.277874
 20
367.327741
 40
0.8
100
AcDbArc
 50
112.024326
 51
240.0
  0
ARC
  5
22A
100
AcDbEntity
  8
M1
  6
CONTINUOUS
370
25
 62
   154
100
AcDbCircle
 10
140.277874
 20
367.327741
 40
0.8
100
AcDbArc
 50
112.024326
 51
240.0
  0
ARC
  5
22B
100
AcDbEntity
  8
M1
  6
CONTINUOUS
370
25
 62
   154
100
AcDbCircle
 10
136.977874
 20
367.327741
 40
0.8
100
AcDbArc
 50
300.0
 51
427.975674
  0
ARC
  5
22C
100
AcDbEntity
  8
M1
  6
CONTINUOUS
370
25
 62
   154
100
AcDbCircle
 10
140.277874
 20
493.727731
 40
0.8
100
AcDbArc
 50
120.0
 51
247.975674
  0
ARC
  5
22D
100
AcDbEntity
  8
M1
  6
CONTINUOUS
370
25
 62
   154
100
AcDbCircle
 10
161.977874
 20
493.727731
 40
0.8
100
AcDbArc
 50
292.024326
 51
420.0
  0
ARC
  5
22E
100
AcDbEntity
  8
M1
  6
CONTINUOUS
370
25
 62
   154
100
AcDbCircle
 10
115.277874
 20
493.727731
 40
0.8
100
AcDbArc
 50
120.0
 51
247.975674
  0
LINE
  5
22F
100
AcDbEntity
  8
M1
  6
CONTINUOUS
370
25
 62
   154
100
AcDbLine
 10
143.627874
 20
420.027739
 11
158.627874
 21
420.027739
  0
LINE
  5
230
100
AcDbEntity
  8
M1
  6
CONTINUOUS
370
25
 62
   154
100
AcDbLine
 10
139.127874
 20
455.527736
 11
163.127874
 21
455.527736
  0
LINE
  5
231
100
AcDbEntity
  8
M1
  6
CONTINUOUS
370
25
 62
   154
100
AcDbLine
 10
114.191987
 20
396.027736
 11
113.627874
 21
396.027736
  0
LINE
  5
232
100
AcDbEntity
  8
M1
  6
CONTINUOUS
370
25
 62
   154
100
AcDbLine
 10
188.063764
 20
396.027736
 11
188.627877
 21
396.027736
  0
LINE
  5
233
100
AcDbEntity
  8
M1
  6
CONTINUOUS
370
25
 62
   154
100
AcDbLine
 10
146.877874
 20
415.727734
 11
146.877874
 21
410.227739
  0
LINE
  5
234
100
AcDbEntity
  8
M1
  6
CONTINUOUS
370
25
 62
   154
100
AcDbLine
 10
158.627874
 20
449.027736
 11
143.627874
 21
449.027736
  0
LINE
  5
235
100
AcDbEntity
  8
M1
  6
CONTINUOUS
370
25
 62
   154
100
AcDbLine
 10
140.127874
 20
407.527736
 11
140.127874
 21
453.527736
  0
LINE
  5
236
100
AcDbEntity
  8
M1
  6
CONTINUOUS
370
25
 62
   154
100
AcDbLine
 10
143.627874
 20
419.450386
 11
143.627874
 21
449.027736
  0
ARC
  5
237
100
AcDbEntity
  8
M1
  6
CONTINUOUS
370
25
 62
   154
100
AcDbCircle
 10
139.477874
 20
369.727736
 40
0.5
100
AcDbArc
 50
0.0
 51
90.0
  0
ARC
  5
238
100
AcDbEntity
  8
M1
  6
CONTINUOUS
370
25
 62
   154
100
AcDbCircle
 10
137.777874
 20
369.727736
 40
0.5
100
AcDbArc
 50
90.0
 51
180.0
  0
ARC
  5
239
100
AcDbEntity
  8
M1
  6
CONTINUOUS
370
25
 62
   154
100
AcDbCircle
 10
163.627874
 20
375.277736
 40
4.75
100
AcDbArc
 50
284.282021
 51
327.363102
  0
ARC
  5
23A
100
AcDbEntity
  8
M1
  6
CONTINUOUS
370
25
 62
   154
100
AcDbCircle
 10
164.477874
 20
369.727736
 40
0.5
100
AcDbArc
 50
0.0
 51
90.0
  0
LINE
  5
23B
100
AcDbEntity
  8
M1
  6
CONTINUOUS
370
25
 62
   154
100
AcDbLine
 10
140.127874
 20
460.027734
 11
162.127874
 21
460.027734
  0
LINE
  5
23C
100
AcDbEntity
  8
M1
  6
CONTINUOUS
370
25
 62
   154
100
AcDbLine
 10
139.127874
 20
459.027736
 11
139.127874
 21
404.027736
  0
ARC
  5
23D
100
AcDbEntity
  8
M1
  6
CONTINUOUS
370
25
 62
   154
100
AcDbCircle
 10
162.777874
 20
369.727736
 40
0.5
100
AcDbArc
 50
90.0
 51
180.0
  0
LINE
  5
23E
100
AcDbEntity
  8
M1
  6
CONTINUOUS
370
25
 62
   154
100
AcDbLine
 10
163.127874
 20
459.027736
 11
163.127874
 21
404.027736
  0
ARC
  5
23F
100
AcDbEntity
  8
M1
  6
CONTINUOUS
370
25
 62
   154
100
AcDbCircle
 10
136.977874
 20
493.727731
 40
0.8
100
AcDbArc
 50
292.024326
 51
420.0
  0
LINE
  5
240
100
AcDbEntity
  8
M1
  6
CONTINUOUS
370
25
 62
   154
100
AcDbLine
 10
162.127874
 20
453.527736
 11
162.127874
 21
407.527736
  0
LINE
  5
241
100
AcDbEntity
  8
M1
  6
CONTINUOUS
370
25
 62
   154
100
AcDbLine
 10
155.377874
 20
415.727734
 11
146.877874
 21
415.727734
  0
LINE
  5
242
100
AcDbEntity
  8
M1
  6
CONTINUOUS
370
25
 62
   154
100
AcDbLine
 10
158.627874
 20
419.450386
 11
143.627874
 21
419.450386
  0
LINE
  5
243
100
AcDbEntity
  8
M1
  6
CONTINUOUS
370
25
 62
   154
100
AcDbLine
 10
158.627874
 20
419.450386
 11
158.627874
 21
449.027736
  0
LINE
  5
244
100
AcDbEntity
  8
M1
  6
CONTINUOUS
370
25
 62
   154
100
AcDbLine
 10
146.877874
 20
410.227739
 11
155.377874
 21
410.227739
  0
LINE
  5
245
100
AcDbEntity
  8
M1
  6
CONTINUOUS
370
25
 62
   154
100
AcDbLine
 10
142.627874
 20
495.527736
 11
140.377874
 21
495.527736
  0
LINE
  5
246
100
AcDbEntity
  8
M1
  6
CONTINUOUS
370
25
 62
   154
100
AcDbLine
 10
188.627877
 20
389.027739
 11
113.627874
 21
389.027739
  0
LINE
  5
247
100
AcDbEntity
  8
M1
  6
CONTINUOUS
370
25
 62
   154
100
AcDbLine
 10
136.877874
 20
495.527736
 11
134.627874
 21
495.527736
  0
CIRCLE
  5
248
100
AcDbEntity
  8
M1
  6
CONTINUOUS
370
25
 62
   154
100
AcDbCircle
 10
116.127874
 20
375.527736
 40
1.25
  0
CIRCLE
  5
249
100
AcDbEntity
  8
M1
  6
CONTINUOUS
370
25
 62
   154
100
AcDbCircle
 10
116.127874
 20
485.527736
 40
1.25
  0
CIRCLE
  5
24A
100
AcDbEntity
  8
M1
  6
CONTINUOUS
370
25
 62
   154
100
AcDbCircle
 10
186.127874
 20
485.527736
 40
1.55
  0
LINE
  5
24B
100
AcDbEntity
  8
M1
  6
CONTINUOUS
370
25
 62
   154
100
AcDbLine
 10
155.377874
 20
410.227739
 11
155.377874
 21
415.727734
  0
CIRCLE
  5
24C
100
AcDbEntity
  8
M1
  6
CONTINUOUS
370
25
 62
   154
100
AcDbCircle
 10
116.127874
 20
485.527736
 40
1.55
  0
CIRCLE
  5
24D
100
AcDbEntity
  8
M1
  6
CONTINUOUS
370
25
 62
   154
100
AcDbCircle
 10
186.127874
 20
375.527736
 40
1.25
  0
CIRCLE
  5
24E
100
AcDbEntity
  8
M1
  6
CONTINUOUS
370
25
 62
   154
100
AcDbCircle
 10
116.127874
 20
375.527736
 40
1.55
  0
CIRCLE
  5
24F
100
AcDbEntity
  8
M1
  6
CONTINUOUS
370
25
 62
   154
100
AcDbCircle
 10
186.127874
 20
485.527736
 40
1.25
  0
CIRCLE
  5
250
100
AcDbEntity
  8
M1
  6
CONTINUOUS
370
25
 62
   154
100
AcDbCircle
 10
186.127874
 20
375.527736
 40
1.55
  0
LINE
  5
251
100
AcDbEntity
  8
M1
  6
CONTINUOUS
370
25
100
AcDbLine
 10
164.652874
 20
476.627736
 11
165.052874
 21
476.627736
  0
CIRCLE
  5
252
100
AcDbEntity
  8
M1
  6
CONTINUOUS
370
25
100
AcDbCircle
 10
163.627874
 20
476.327736
 40
2.75
  0
LINE
  5
253
100
AcDbEntity
  8
M1
  6
CONTINUOUS
370
25
100
AcDbLine
 10
162.227874
 20
476.027736
 11
162.602874
 21
476.027736
  0
LINE
  5
254
100
AcDbEntity
  8
M1
  6
CONTINUOUS
370
25
100
AcDbLine
 10
165.052874
 20
476.627736
 11
165.052874
 21
476.027736
  0
LINE
  5
255
100
AcDbEntity
  8
M1
  6
CONTINUOUS
370
25
100
AcDbLine
 10
162.227874
 20
476.627736
 11
162.602874
 21
476.627736
  0
ARC
  5
256
100
AcDbEntity
  8
M1
  6
CONTINUOUS
370
25
100
AcDbCircle
 10
164.652874
 20
475.302736
 40
0.725
100
AcDbArc
 50
90.0
 51
180.0
  0
ARC
  5
257
100
AcDbEntity
  8
M1
  6
CONTINUOUS
370
25
100
AcDbCircle
 10
162.602874
 20
477.352736
 40
0.725
100
AcDbArc
 50
270.0
 51
360.0
  0
ARC
  5
258
100
AcDbEntity
  8
M1
  6
CONTINUOUS
370
25
100
AcDbCircle
 10
164.652874
 20
477.352736
 40
0.725
100
AcDbArc
 50
180.0
 51
270.0
  0
LINE
  5
259
100
AcDbEntity
  8
M1
  6
CONTINUOUS
370
25
100
AcDbLine
 10
163.927874
 20
477.727736
 11
163.927874
 21
477.331376
  0
LINE
  5
25A
100
AcDbEntity
  8
M1
  6
CONTINUOUS
370
25
100
AcDbLine
 10
162.227874
 20
476.627736
 11
162.227874
 21
476.027736
  0
LINE
  5
25B
100
AcDbEntity
  8
M1
  6
CONTINUOUS
370
25
100
AcDbLine
 10
163.927874
 20
474.927736
 11
163.927874
 21
475.324096
  0
LINE
  5
25C
100
AcDbEntity
  8
M1
  6
CONTINUOUS
370
25
100
AcDbLine
 10
163.327874
 20
477.727736
 11
163.327874
 21
477.331376
  0
LINE
  5
25D
100
AcDbEntity
  8
M1
  6
CONTINUOUS
370
25
100
AcDbLine
 10
163.327874
 20
474.927736
 11
163.327874
 21
475.324096
  0
LINE
  5
25E
100
AcDbEntity
  8
M1
  6
CONTINUOUS
370
25
100
AcDbLine
 10
163.327874
 20
477.727736
 11
163.927874
 21
477.727736
  0
ARC
  5
25F
100
AcDbEntity
  8
M1
  6
CONTINUOUS
370
25
100
AcDbCircle
 10
162.602874
 20
475.302736
 40
0.725
100
AcDbArc
 50
0.0
 51
90.0
  0
LINE
  5
260
100
AcDbEntity
  8
M1
  6
CONTINUOUS
370
25
100
AcDbLine
 10
164.652874
 20
476.027736
 11
165.052874
 21
476.027736
  0
LINE
  5
261
100
AcDbEntity
  8
M1
  6
CONTINUOUS
370
25
100
AcDbLine
 10
163.327874
 20
474.927736
 11
163.927874
 21
474.927736
  0
LINE
  5
262
100
AcDbEntity
  8
M1
  6
CONTINUOUS
370
25
100
AcDbLine
 10
139.652874
 20
476.627736
 11
140.052874
 21
476.627736
  0
CIRCLE
  5
263
100
AcDbEntity
  8
M1
  6
CONTINUOUS
370
25
100
AcDbCircle
 10
138.627874
 20
476.327736
 40
2.75
  0
LINE
  5
264
100
AcDbEntity
  8
M1
  6
CONTINUOUS
370
25
100
AcDbLine
 10
137.227874
 20
476.027736
 11
137.602874
 21
476.027736
  0
LINE
  5
265
100
AcDbEntity
  8
M1
  6
CONTINUOUS
370
25
100
AcDbLine
 10
140.052874
 20
476.627736
 11
140.052874
 21
476.027736
  0
LINE
  5
266
100
AcDbEntity
  8
M1
  6
CONTINUOUS
370
25
100
AcDbLine
 10
137.227874
 20
476.627736
 11
137.602874
 21
476.627736
  0
ARC
  5
267
100
AcDbEntity
  8
M1
  6
CONTINUOUS
370
25
100
AcDbCircle
 10
139.652874
 20
475.302736
 40
0.725
100
AcDbArc
 50
90.0
 51
180.0
  0
ARC
  5
268
100
AcDbEntity
  8
M1
  6
CONTINUOUS
370
25
100
AcDbCircle
 10
137.602874
 20
477.352736
 40
0.725
100
AcDbArc
 50
270.0
 51
360.0
  0
ARC
  5
269
100
AcDbEntity
  8
M1
  6
CONTINUOUS
370
25
100
AcDbCircle
 10
139.652874
 20
477.352736
 40
0.725
100
AcDbArc
 50
180.0
 51
270.0
  0
LINE
  5
26A
100
AcDbEntity
  8
M1
  6
CONTINUOUS
370
25
100
AcDbLine
 10
138.927874
 20
477.727736
 11
138.927874
 21
477.331376
  0
LINE
  5
26B
100
AcDbEntity
  8
M1
  6
CONTINUOUS
370
25
100
AcDbLine
 10
137.227874
 20
476.627736
 11
137.227874
 21
476.027736
  0
LINE
  5
26C
100
AcDbEntity
  8
M1
  6
CONTINUOUS
370
25
100
AcDbLine
 10
138.927874
 20
474.927736
 11
138.927874
 21
475.324096
  0
LINE
  5
26D
100
AcDbEntity
  8
M1
  6
CONTINUOUS
370
25
100
AcDbLine
 10
138.327874
 20
477.727736
 11
138.327874
 21
477.331376
  0
LINE
  5
26E
100
AcDbEntity
  8
M1
  6
CONTINUOUS
370
25
100
AcDbLine
 10
138.327874
 20
474.927736
 11
138.327874
 21
475.324096
  0
LINE
  5
26F
100
AcDbEntity
  8
M1
  6
CONTINUOUS
370
25
100
AcDbLine
 10
138.327874
 20
477.727736
 11
138.927874
 21
477.727736
  0
ARC
  5
270
100
AcDbEntity
  8
M1
  6
CONTINUOUS
370
25
100
AcDbCircle
 10
137.602874
 20
475.302736
 40
0.725
100
AcDbArc
 50
0.0
 51
90.0
  0
LINE
  5
271
100
AcDbEntity
  8
M1
  6
CONTINUOUS
370
25
100
AcDbLine
 10
139.652874
 20
476.027736
 11
140.052874
 21
476.027736
  0
LINE
  5
272
100
AcDbEntity
  8
M1
  6
CONTINUOUS
370
25
100
AcDbLine
 10
138.327874
 20
474.927736
 11
138.927874
 21
474.927736
  0
LINE
  5
273
100
AcDbEntity
  8
M1
  6
CONTINUOUS
370
25
100
AcDbLine
 10
186.852874
 20
384.577736
 11
187.252874
 21
384.577736
  0
CIRCLE
  5
274
100
AcDbEntity
  8
M1
  6
CONTINUOUS
370
25
100
AcDbCircle
 10
185.827874
 20
384.277736
 40
2.75
  0
LINE
  5
275
100
AcDbEntity
  8
M1
  6
CONTINUOUS
370
25
100
AcDbLine
 10
184.427874
 20
383.977736
 11
184.802874
 21
383.977736
  0
LINE
  5
276
100
AcDbEntity
  8
M1
  6
CONTINUOUS
370
25
100
AcDbLine
 10
187.252874
 20
384.577736
 11
187.252874
 21
383.977736
  0
LINE
  5
277
100
AcDbEntity
  8
M1
  6
CONTINUOUS
370
25
100
AcDbLine
 10
184.427874
 20
384.577736
 11
184.802874
 21
384.577736
  0
ARC
  5
278
100
AcDbEntity
  8
M1
  6
CONTINUOUS
370
25
100
AcDbCircle
 10
186.852874
 20
383.252736
 40
0.725
100
AcDbArc
 50
90.0
 51
180.0
  0
ARC
  5
279
100
AcDbEntity
  8
M1
  6
CONTINUOUS
370
25
100
AcDbCircle
 10
184.802874
 20
385.302736
 40
0.725
100
AcDbArc
 50
270.0
 51
360.0
  0
ARC
  5
27A
100
AcDbEntity
  8
M1
  6
CONTINUOUS
370
25
100
AcDbCircle
 10
186.852874
 20
385.302736
 40
0.725
100
AcDbArc
 50
180.0
 51
270.0
  0
LINE
  5
27B
100
AcDbEntity
  8
M1
  6
CONTINUOUS
370
25
100
AcDbLine
 10
186.127874
 20
385.677736
 11
186.127874
 21
385.281376
  0
LINE
  5
27C
100
AcDbEntity
  8
M1
  6
CONTINUOUS
370
25
100
AcDbLine
 10
184.427874
 20
384.577736
 11
184.427874
 21
383.977736
  0
LINE
  5
27D
100
AcDbEntity
  8
M1
  6
CONTINUOUS
370
25
100
AcDbLine
 10
186.127874
 20
382.877736
 11
186.127874
 21
383.274096
  0
LINE
  5
27E
100
AcDbEntity
  8
M1
  6
CONTINUOUS
370
25
100
AcDbLine
 10
185.527874
 20
385.677736
 11
185.527874
 21
385.281376
  0
LINE
  5
27F
100
AcDbEntity
  8
M1
  6
CONTINUOUS
370
25
100
AcDbLine
 10
185.527874
 20
382.877736
 11
185.527874
 21
383.274096
  0
LINE
  5
280
100
AcDbEntity
  8
M1
  6
CONTINUOUS
370
25
100
AcDbLine
 10
185.527874
 20
385.677736
 11
186.127874
 21
385.677736
  0
ARC
  5
281
100
AcDbEntity
  8
M1
  6
CONTINUOUS
370
25
100
AcDbCircle
 10
184.802874
 20
383.252736
 40
0.725
100
AcDbArc
 50
0.0
 51
90.0
  0
LINE
  5
282
100
AcDbEntity
  8
M1
  6
CONTINUOUS
370
25
100
AcDbLine
 10
186.852874
 20
383.977736
 11
187.252874
 21
383.977736
  0
LINE
  5
283
100
AcDbEntity
  8
M1
  6
CONTINUOUS
370
25
100
AcDbLine
 10
185.527874
 20
382.877736
 11
186.127874
 21
382.877736
  0
LINE
  5
284
100
AcDbEntity
  8
M1
  6
CONTINUOUS
370
25
100
AcDbLine
 10
117.452874
 20
384.577736
 11
117.852874
 21
384.577736
  0
CIRCLE
  5
285
100
AcDbEntity
  8
M1
  6
CONTINUOUS
370
25
100
AcDbCircle
 10
116.427874
 20
384.277736
 40
2.75
  0
LINE
  5
286
100
AcDbEntity
  8
M1
  6
CONTINUOUS
370
25
100
AcDbLine
 10
115.027874
 20
383.977736
 11
115.402874
 21
383.977736
  0
LINE
  5
287
100
AcDbEntity
  8
M1
  6
CONTINUOUS
370
25
100
AcDbLine
 10
117.852874
 20
384.577736
 11
117.852874
 21
383.977736
  0
LINE
  5
288
100
AcDbEntity
  8
M1
  6
CONTINUOUS
370
25
100
AcDbLine
 10
115.027874
 20
384.577736
 11
115.402874
 21
384.577736
  0
ARC
  5
289
100
AcDbEntity
  8
M1
  6
CONTINUOUS
370
25
100
AcDbCircle
 10
117.452874
 20
383.252736
 40
0.725
100
AcDbArc
 50
90.0
 51
180.0
  0
ARC
  5
28A
100
AcDbEntity
  8
M1
  6
CONTINUOUS
370
25
100
AcDbCircle
 10
115.402874
 20
385.302736
 40
0.725
100
AcDbArc
 50
270.0
 51
360.0
  0
ARC
  5
28B
100
AcDbEntity
  8
M1
  6
CONTINUOUS
370
25
100
AcDbCircle
 10
117.452874
 20
385.302736
 40
0.725
100
AcDbArc
 50
180.0
 51
270.0
  0
LINE
  5
28C
100
AcDbEntity
  8
M1
  6
CONTINUOUS
370
25
100
AcDbLine
 10
116.727874
 20
385.677736
 11
116.727874
 21
385.281376
  0
LINE
  5
28D
100
AcDbEntity
  8
M1
  6
CONTINUOUS
370
25
100
AcDbLine
 10
115.027874
 20
384.577736
 11
115.027874
 21
383.977736
  0
LINE
  5
28E
100
AcDbEntity
  8
M1
  6
CONTINUOUS
370
25
100
AcDbLine
 10
116.727874
 20
382.877736
 11
116.727874
 21
383.274096
  0
LINE
  5
28F
100
AcDbEntity
  8
M1
  6
CONTINUOUS
370
25
100
AcDbLine
 10
116.127874
 20
385.677736
 11
116.127874
 21
385.281376
  0
LINE
  5
290
100
AcDbEntity
  8
M1
  6
CONTINUOUS
370
25
100
AcDbLine
 10
116.127874
 20
382.877736
 11
116.127874
 21
383.274096
  0
LINE
  5
291
100
AcDbEntity
  8
M1
  6
CONTINUOUS
370
25
100
AcDbLine
 10
116.127874
 20
385.677736
 11
116.727874
 21
385.677736
  0
ARC
  5
292
100
AcDbEntity
  8
M1
  6
CONTINUOUS
370
25
100
AcDbCircle
 10
115.402874
 20
383.252736
 40
0.725
100
AcDbArc
 50
0.0
 51
90.0
  0
LINE
  5
293
100
AcDbEntity
  8
M1
  6
CONTINUOUS
370
25
100
AcDbLine
 10
117.452874
 20
383.977736
 11
117.852874
 21
383.977736
  0
LINE
  5
294
100
AcDbEntity
  8
M1
  6
CONTINUOUS
370
25
100
AcDbLine
 10
116.127874
 20
382.877736
 11
116.727874
 21
382.877736
  0
CIRCLE
  5
295
100
AcDbEntity
  8
M1
  6
CONTINUOUS
370
25
100
AcDbCircle
 10
163.627874
 20
466.277736
 40
4.15
  0
CIRCLE
  5
296
100
AcDbEntity
  8
M1
  6
CONTINUOUS
370
25
100
AcDbCircle
 10
163.627874
 20
466.277736
 40
4.25
  0
LINE
  5
297
100
AcDbEntity
  8
M1
  6
CONTINUOUS
370
25
100
AcDbLine
 10
165.466344
 20
467.409099
 11
164.759237
 21
468.116204
  0
LINE
  5
298
100
AcDbEntity
  8
M1
  6
CONTINUOUS
370
25
100
AcDbLine
 10
163.627874
 20
465.570629
 11
164.759279
 21
464.439224
  0
LINE
  5
299
100
AcDbEntity
  8
M1
  6
CONTINUOUS
370
25
100
AcDbLine
 10
164.759237
 20
468.116204
 11
163.627874
 21
466.984844
  0
LINE
  5
29A
100
AcDbEntity
  8
M1
  6
CONTINUOUS
370
25
100
AcDbLine
 10
162.496502
 20
464.439256
 11
163.627874
 21
465.570629
  0
LINE
  5
29B
100
AcDbEntity
  8
M1
  6
CONTINUOUS
370
25
100
AcDbLine
 10
161.789397
 20
465.146364
 11
162.496502
 21
464.439256
  0
LINE
  5
29C
100
AcDbEntity
  8
M1
  6
CONTINUOUS
370
25
100
AcDbLine
 10
162.920769
 20
466.277736
 11
161.789397
 21
465.146364
  0
LINE
  5
29D
100
AcDbEntity
  8
M1
  6
CONTINUOUS
370
25
100
AcDbLine
 10
165.466387
 20
465.146331
 11
164.334982
 21
466.277736
  0
LINE
  5
29E
100
AcDbEntity
  8
M1
  6
CONTINUOUS
370
25
100
AcDbLine
 10
164.334982
 20
466.277736
 11
165.466344
 21
467.409099
  0
LINE
  5
29F
100
AcDbEntity
  8
M1
  6
CONTINUOUS
370
25
100
AcDbLine
 10
162.496469
 20
468.116249
 11
161.789364
 21
467.409141
  0
LINE
  5
2A0
100
AcDbEntity
  8
M1
  6
CONTINUOUS
370
25
100
AcDbLine
 10
164.759279
 20
464.439224
 11
165.466387
 21
465.146331
  0
LINE
  5
2A1
100
AcDbEntity
  8
M1
  6
CONTINUOUS
370
25
100
AcDbLine
 10
161.789364
 20
467.409141
 11
162.920769
 21
466.277736
  0
LINE
  5
2A2
100
AcDbEntity
  8
M1
  6
CONTINUOUS
370
25
100
AcDbLine
 10
163.627874
 20
466.984844
 11
162.496469
 21
468.116249
  0
CIRCLE
  5
2A3
100
AcDbEntity
  8
M1
  6
CONTINUOUS
370
25
100
AcDbCircle
 10
138.627874
 20
466.277736
 40
4.15
  0
CIRCLE
  5
2A4
100
AcDbEntity
  8
M1
  6
CONTINUOUS
370
25
100
AcDbCircle
 10
138.627874
 20
466.277736
 40
4.25
  0
LINE
  5
2A5
100
AcDbEntity
  8
M1
  6
CONTINUOUS
370
25
100
AcDbLine
 10
140.466344
 20
467.409099
 11
139.759237
 21
468.116204
  0
LINE
  5
2A6
100
AcDbEntity
  8
M1
  6
CONTINUOUS
370
25
100
AcDbLine
 10
138.627874
 20
465.570629
 11
139.759279
 21
464.439224
  0
LINE
  5
2A7
100
AcDbEntity
  8
M1
  6
CONTINUOUS
370
25
100
AcDbLine
 10
139.759237
 20
468.116204
 11
138.627874
 21
466.984844
  0
LINE
  5
2A8
100
AcDbEntity
  8
M1
  6
CONTINUOUS
370
25
100
AcDbLine
 10
137.496502
 20
464.439256
 11
138.627874
 21
465.570629
  0
LINE
  5
2A9
100
AcDbEntity
  8
M1
  6
CONTINUOUS
370
25
100
AcDbLine
 10
136.789397
 20
465.146364
 11
137.496502
 21
464.439256
  0
LINE
  5
2AA
100
AcDbEntity
  8
M1
  6
CONTINUOUS
370
25
100
AcDbLine
 10
137.920769
 20
466.277736
 11
136.789397
 21
465.146364
  0
LINE
  5
2AB
100
AcDbEntity
  8
M1
  6
CONTINUOUS
370
25
100
AcDbLine
 10
140.466387
 20
465.146331
 11
139.334982
 21
466.277736
  0
LINE
  5
2AC
100
AcDbEntity
  8
M1
  6
CONTINUOUS
370
25
100
AcDbLine
 10
139.334982
 20
466.277736
 11
140.466344
 21
467.409099
  0
LINE
  5
2AD
100
AcDbEntity
  8
M1
  6
CONTINUOUS
370
25
100
AcDbLine
 10
137.496469
 20
468.116249
 11
136.789364
 21
467.409141
  0
LINE
  5
2AE
100
AcDbEntity
  8
M1
  6
CONTINUOUS
370
25
100
AcDbLine
 10
139.759279
 20
464.439224
 11
140.466387
 21
465.146331
  0
LINE
  5
2AF
100
AcDbEntity
  8
M1
  6
CONTINUOUS
370
25
100
AcDbLine
 10
136.789364
 20
467.409141
 11
137.920769
 21
466.277736
  0
LINE
  5
2B0
100
AcDbEntity
  8
M1
  6
CONTINUOUS
370
25
100
AcDbLine
 10
138.627874
 20
466.984844
 11
137.496469
 21
468.116249
  0
CIRCLE
  5
2B1
100
AcDbEntity
  8
M1
  6
CONTINUOUS
370
25
 62
   114
100
AcDbCircle
 10
176.127874
 20
373.027736
 40
7.0
  0
LINE
  5
2B2
100
AcDbEntity
  8
M1
  6
CONTINUOUS
370
25
 62
   114
100
AcDbLine
 10
177.259314
 20
373.027736
 11
181.610899
 21
377.379319
  0
LINE
  5
2B3
100
AcDbEntity
  8
M1
  6
CONTINUOUS
370
25
 62
   114
100
AcDbLine
 10
171.776282
 20
367.544701
 11
176.128047
 21
371.896469
  0
LINE
  5
2B4
100
AcDbEntity
  8
M1
  6
CONTINUOUS
370
25
 62
   114
100
AcDbLine
 10
174.996619
 20
373.027899
 11
170.644852
 21
368.676131
  0
LINE
  5
2B5
100
AcDbEntity
  8
M1
  6
CONTINUOUS
370
25
 62
   114
100
AcDbLine
 10
180.479459
 20
378.510759
 11
176.127887
 21
374.159166
  0
LINE
  5
2B6
100
AcDbEntity
  8
M1
  6
CONTINUOUS
370
25
 62
   114
100
AcDbLine
 10
176.127874
 20
374.159176
 11
173.971164
 21
376.315886
  0
LINE
  5
2B7
100
AcDbEntity
  8
M1
  6
CONTINUOUS
370
25
 62
   114
100
AcDbLine
 10
179.415852
 20
370.871199
 11
177.259314
 21
373.027736
  0
LINE
  5
2B8
100
AcDbEntity
  8
M1
  6
CONTINUOUS
370
25
 62
   114
100
AcDbLine
 10
176.128047
 20
371.896469
 11
178.284584
 21
369.739931
  0
LINE
  5
2B9
100
AcDbEntity
  8
M1
  6
CONTINUOUS
370
25
 62
   114
100
AcDbLine
 10
172.839897
 20
375.184619
 11
174.996607
 21
373.027909
  0
LINE
  5
2BA
100
AcDbEntity
  8
M1
  6
CONTINUOUS
370
25
 62
   114
100
AcDbLine
 10
178.284584
 20
369.739931
 11
179.415852
 21
370.871199
  0
LINE
  5
2BB
100
AcDbEntity
  8
M1
  6
CONTINUOUS
370
25
 62
   114
100
AcDbLine
 10
173.971164
 20
376.315886
 11
172.839897
 21
375.184619
  0
ARC
  5
2BC
100
AcDbEntity
  8
M1
  6
CONTINUOUS
370
25
 62
   114
100
AcDbCircle
 10
176.127874
 20
373.027736
 40
8.0
100
AcDbArc
 50
20.364159
 51
159.635864
  0
ARC
  5
2BD
100
AcDbEntity
  8
M1
  6
CONTINUOUS
370
25
 62
   114
100
AcDbCircle
 10
176.127874
 20
373.027736
 40
8.0
100
AcDbArc
 50
200.364136
 51
339.635841
  0
LINE
  5
2BE
100
AcDbEntity
  8
M1
  6
DASHDOT
370
13
 62
   114
100
AcDbLine
 10
176.127874
 20
360.027736
 11
176.127874
 21
386.027736
  0
CIRCLE
  5
2BF
100
AcDbEntity
  8
M1
  6
CONTINUOUS
370
25
 62
   114
100
AcDbCircle
 10
151.127874
 20
373.027736
 40
7.0
  0
LINE
  5
2C0
100
AcDbEntity
  8
M1
  6
CONTINUOUS
370
25
 62
   114
100
AcDbLine
 10
152.259314
 20
373.027736
 11
156.610899
 21
377.379319
  0
LINE
  5
2C1
100
AcDbEntity
  8
M1
  6
CONTINUOUS
370
25
 62
   114
100
AcDbLine
 10
146.776282
 20
367.544701
 11
151.128047
 21
371.896469
  0
LINE
  5
2C2
100
AcDbEntity
  8
M1
  6
CONTINUOUS
370
25
 62
   114
100
AcDbLine
 10
149.996619
 20
373.027899
 11
145.644852
 21
368.676131
  0
LINE
  5
2C3
100
AcDbEntity
  8
M1
  6
CONTINUOUS
370
25
 62
   114
100
AcDbLine
 10
155.479459
 20
378.510759
 11
151.127887
 21
374.159166
  0
LINE
  5
2C4
100
AcDbEntity
  8
M1
  6
CONTINUOUS
370
25
 62
   114
100
AcDbLine
 10
151.127874
 20
374.159176
 11
148.971164
 21
376.315886
  0
LINE
  5
2C5
100
AcDbEntity
  8
M1
  6
CONTINUOUS
370
25
 62
   114
100
AcDbLine
 10
154.415852
 20
370.871199
 11
152.259314
 21
373.027736
  0
LINE
  5
2C6
100
AcDbEntity
  8
M1
  6
CONTINUOUS
370
25
 62
   114
100
AcDbLine
 10
151.128047
 20
371.896469
 11
153.284584
 21
369.739931
  0
LINE
  5
2C7
100
AcDbEntity
  8
M1
  6
CONTINUOUS
370
25
 62
   114
100
AcDbLine
 10
147.839897
 20
375.184619
 11
149.996607
 21
373.027909
  0
LINE
  5
2C8
100
AcDbEntity
  8
M1
  6
CONTINUOUS
370
25
 62
   114
100
AcDbLine
 10
153.284584
 20
369.739931
 11
154.415852
 21
370.871199
  0
LINE
  5
2C9
100
AcDbEntity
  8
M1
  6
CONTINUOUS
370
25
 62
   114
100
AcDbLine
 10
148.971164
 20
376.315886
 11
147.839897
 21
375.184619
  0
ARC
  5
2CA
100
AcDbEntity
  8
M1
  6
CONTINUOUS
370
25
 62
   114
100
AcDbCircle
 10
151.127874
 20
373.027736
 40
8.0
100
AcDbArc
 50
20.364138
 51
159.635862
  0
ARC
  5
2CB
100
AcDbEntity
  8
M1
  6
CONTINUOUS
370
25
 62
   114
100
AcDbCircle
 10
151.127874
 20
373.027736
 40
8.0
100
AcDbArc
 50
200.364138
 51
339.635862
  0
CIRCLE
  5
2CC
100
AcDbEntity
  8
M1
  6
CONTINUOUS
370
25
 62
   114
100
AcDbCircle
 10
126.127874
 20
373.027736
 40
7.0
  0
LINE
  5
2CD
100
AcDbEntity
  8
M1
  6
CONTINUOUS
370
25
 62
   114
100
AcDbLine
 10
127.259314
 20
373.027736
 11
131.610899
 21
377.379319
  0
LINE
  5
2CE
100
AcDbEntity
  8
M1
  6
CONTINUOUS
370
25
 62
   114
100
AcDbLine
 10
121.776282
 20
367.544701
 11
126.128047
 21
371.896469
  0
LINE
  5
2CF
100
AcDbEntity
  8
M1
  6
CONTINUOUS
370
25
 62
   114
100
AcDbLine
 10
124.996619
 20
373.027899
 11
120.644852
 21
368.676131
  0
LINE
  5
2D0
100
AcDbEntity
  8
M1
  6
CONTINUOUS
370
25
 62
   114
100
AcDbLine
 10
130.479459
 20
378.510759
 11
126.127887
 21
374.159166
  0
LINE
  5
2D1
100
AcDbEntity
  8
M1
  6
CONTINUOUS
370
25
 62
   114
100
AcDbLine
 10
126.127874
 20
374.159176
 11
123.971164
 21
376.315886
  0
LINE
  5
2D2
100
AcDbEntity
  8
M1
  6
CONTINUOUS
370
25
 62
   114
100
AcDbLine
 10
129.415852
 20
370.871199
 11
127.259314
 21
373.027736
  0
LINE
  5
2D3
100
AcDbEntity
  8
M1
  6
CONTINUOUS
370
25
 62
   114
100
AcDbLine
 10
126.128047
 20
371.896469
 11
128.284584
 21
369.739931
  0
LINE
  5
2D4
100
AcDbEntity
  8
M1
  6
CONTINUOUS
370
25
 62
   114
100
AcDbLine
 10
122.839897
 20
375.184619
 11
124.996607
 21
373.027909
  0
LINE
  5
2D5
100
AcDbEntity
  8
M1
  6
CONTINUOUS
370
25
 62
   114
100
AcDbLine
 10
128.284584
 20
369.739931
 11
129.415852
 21
370.871199
  0
LINE
  5
2D6
100
AcDbEntity
  8
M1
  6
CONTINUOUS
370
25
 62
   114
100
AcDbLine
 10
123.971164
 20
376.315886
 11
122.839897
 21
375.184619
  0
ARC
  5
2D7
100
AcDbEntity
  8
M1
  6
CONTINUOUS
370
25
 62
   114
100
AcDbCircle
 10
126.127874
 20
373.027736
 40
8.0
100
AcDbArc
 50
200.364159
 51
339.635864
  0
ARC
  5
2D8
100
AcDbEntity
  8
M1
  6
CONTINUOUS
370
25
 62
   114
100
AcDbCircle
 10
126.127874
 20
373.027736
 40
8.0
100
AcDbArc
 50
20.364136
 51
159.635841
  0
LINE
  5
2D9
100
AcDbEntity
  8
M1
  6
DASHDOT
370
13
 62
   114
100
AcDbLine
 10
113.127874
 20
373.027736
 11
189.127874
 21
373.027736
  0
LINE
  5
2DA
100
AcDbEntity
  8
M1
  6
DASHDOT
370
13
 62
   114
100
AcDbLine
 10
126.127874
 20
360.027736
 11
126.127874
 21
386.027736
  0
CIRCLE
  5
2DB
100
AcDbEntity
  8
M1
  6
CONTINUOUS
370
25
 62
   114
100
AcDbCircle
 10
176.127874
 20
488.027736
 40
7.0
  0
LINE
  5
2DC
100
AcDbEntity
  8
M1
  6
CONTINUOUS
370
25
 62
   114
100
AcDbLine
 10
177.259314
 20
488.027736
 11
181.610899
 21
492.379319
  0
LINE
  5
2DD
100
AcDbEntity
  8
M1
  6
CONTINUOUS
370
25
 62
   114
100
AcDbLine
 10
171.776282
 20
482.544701
 11
176.128047
 21
486.896469
  0
LINE
  5
2DE
100
AcDbEntity
  8
M1
  6
CONTINUOUS
370
25
 62
   114
100
AcDbLine
 10
174.996619
 20
488.027899
 11
170.644852
 21
483.676131
  0
LINE
  5
2DF
100
AcDbEntity
  8
M1
  6
CONTINUOUS
370
25
 62
   114
100
AcDbLine
 10
180.479459
 20
493.510759
 11
176.127887
 21
489.159166
  0
LINE
  5
2E0
100
AcDbEntity
  8
M1
  6
CONTINUOUS
370
25
 62
   114
100
AcDbLine
 10
176.127874
 20
489.159176
 11
173.971164
 21
491.315886
  0
LINE
  5
2E1
100
AcDbEntity
  8
M1
  6
CONTINUOUS
370
25
 62
   114
100
AcDbLine
 10
179.415852
 20
485.871199
 11
177.259314
 21
488.027736
  0
LINE
  5
2E2
100
AcDbEntity
  8
M1
  6
CONTINUOUS
370
25
 62
   114
100
AcDbLine
 10
176.128047
 20
486.896469
 11
178.284584
 21
484.739931
  0
LINE
  5
2E3
100
AcDbEntity
  8
M1
  6
CONTINUOUS
370
25
 62
   114
100
AcDbLine
 10
172.839897
 20
490.184619
 11
174.996607
 21
488.027909
  0
LINE
  5
2E4
100
AcDbEntity
  8
M1
  6
CONTINUOUS
370
25
 62
   114
100
AcDbLine
 10
178.284584
 20
484.739931
 11
179.415852
 21
485.871199
  0
LINE
  5
2E5
100
AcDbEntity
  8
M1
  6
CONTINUOUS
370
25
 62
   114
100
AcDbLine
 10
173.971164
 20
491.315886
 11
172.839897
 21
490.184619
  0
ARC
  5
2E6
100
AcDbEntity
  8
M1
  6
CONTINUOUS
370
25
 62
   114
100
AcDbCircle
 10
176.127874
 20
488.027736
 40
8.0
100
AcDbArc
 50
20.364159
 51
159.635864
  0
ARC
  5
2E7
100
AcDbEntity
  8
M1
  6
CONTINUOUS
370
25
 62
   114
100
AcDbCircle
 10
176.127874
 20
488.027736
 40
8.0
100
AcDbArc
 50
200.364136
 51
249.635858
  0
ARC
  5
2E8
100
AcDbEntity
  8
M1
  6
CONTINUOUS
370
25
 62
   114
100
AcDbCircle
 10
176.127874
 20
488.027736
 40
8.0
100
AcDbArc
 50
290.364142
 51
339.635841
  0
LINE
  5
2E9
100
AcDbEntity
  8
M1
  6
DASHDOT
370
13
 62
   114
100
AcDbLine
 10
176.127874
 20
475.027736
 11
176.127874
 21
501.027736
  0
CIRCLE
  5
2EA
100
AcDbEntity
  8
M1
  6
CONTINUOUS
370
25
 62
   114
100
AcDbCircle
 10
151.127874
 20
488.027736
 40
7.0
  0
LINE
  5
2EB
100
AcDbEntity
  8
M1
  6
CONTINUOUS
370
25
 62
   114
100
AcDbLine
 10
152.259314
 20
488.027736
 11
156.610899
 21
492.379319
  0
LINE
  5
2EC
100
AcDbEntity
  8
M1
  6
CONTINUOUS
370
25
 62
   114
100
AcDbLine
 10
146.776282
 20
482.544701
 11
151.128047
 21
486.896469
  0
LINE
  5
2ED
100
AcDbEntity
  8
M1
  6
CONTINUOUS
370
25
 62
   114
100
AcDbLine
 10
149.996619
 20
488.027899
 11
145.644852
 21
483.676131
  0
LINE
  5
2EE
100
AcDbEntity
  8
M1
  6
CONTINUOUS
370
25
 62
   114
100
AcDbLine
 10
155.479459
 20
493.510759
 11
151.127887
 21
489.159166
  0
LINE
  5
2EF
100
AcDbEntity
  8
M1
  6
CONTINUOUS
370
25
 62
   114
100
AcDbLine
 10
151.127874
 20
489.159176
 11
148.971164
 21
491.315886
  0
LINE
  5
2F0
100
AcDbEntity
  8
M1
  6
CONTINUOUS
370
25
 62
   114
100
AcDbLine
 10
154.415852
 20
485.871199
 11
152.259314
 21
488.027736
  0
LINE
  5
2F1
100
AcDbEntity
  8
M1
  6
CONTINUOUS
370
25
 62
   114
100
AcDbLine
 10
151.128047
 20
486.896469
 11
153.284584
 21
484.739931
  0
LINE
  5
2F2
100
AcDbEntity
  8
M1
  6
CONTINUOUS
370
25
 62
   114
100
AcDbLine
 10
147.839897
 20
490.184619
 11
149.996607
 21
488.027909
  0
LINE
  5
2F3
100
AcDbEntity
  8
M1
  6
CONTINUOUS
370
25
 62
   114
100
AcDbLine
 10
153.284584
 20
484.739931
 11
154.415852
 21
485.871199
  0
LINE
  5
2F4
100
AcDbEntity
  8
M1
  6
CONTINUOUS
370
25
 62
   114
100
AcDbLine
 10
148.971164
 20
491.315886
 11
147.839897
 21
490.184619
  0
ARC
  5
2F5
100
AcDbEntity
  8
M1
  6
CONTINUOUS
370
25
 62
   114
100
AcDbCircle
 10
151.127874
 20
488.027736
 40
8.0
100
AcDbArc
 50
200.364138
 51
249.635858
  0
ARC
  5
2F6
100
AcDbEntity
  8
M1
  6
CONTINUOUS
370
25
 62
   114
100
AcDbCircle
 10
151.127874
 20
488.027736
 40
8.0
100
AcDbArc
 50
20.364138
 51
159.635862
  0
ARC
  5
2F7
100
AcDbEntity
  8
M1
  6
CONTINUOUS
370
25
 62
   114
100
AcDbCircle
 10
151.127874
 20
488.027736
 40
8.0
100
AcDbArc
 50
290.364142
 51
339.635862
  0
CIRCLE
  5
2F8
100
AcDbEntity
  8
M1
  6
CONTINUOUS
370
25
 62
   114
100
AcDbCircle
 10
126.127874
 20
488.027736
 40
7.0
  0
LINE
  5
2F9
100
AcDbEntity
  8
M1
  6
CONTINUOUS
370
25
 62
   114
100
AcDbLine
 10
127.259314
 20
488.027736
 11
131.610899
 21
492.379319
  0
LINE
  5
2FA
100
AcDbEntity
  8
M1
  6
CONTINUOUS
370
25
 62
   114
100
AcDbLine
 10
121.776282
 20
482.544701
 11
126.128047
 21
486.896469
  0
LINE
  5
2FB
100
AcDbEntity
  8
M1
  6
CONTINUOUS
370
25
 62
   114
100
AcDbLine
 10
124.996619
 20
488.027899
 11
120.644852
 21
483.676131
  0
LINE
  5
2FC
100
AcDbEntity
  8
M1
  6
CONTINUOUS
370
25
 62
   114
100
AcDbLine
 10
130.479459
 20
493.510759
 11
126.127887
 21
489.159166
  0
LINE
  5
2FD
100
AcDbEntity
  8
M1
  6
CONTINUOUS
370
25
 62
   114
100
AcDbLine
 10
126.127874
 20
489.159176
 11
123.971164
 21
491.315886
  0
LINE
  5
2FE
100
AcDbEntity
  8
M1
  6
CONTINUOUS
370
25
 62
   114
100
AcDbLine
 10
129.415852
 20
485.871199
 11
127.259314
 21
488.027736
  0
LINE
  5
2FF
100
AcDbEntity
  8
M1
  6
CONTINUOUS
370
25
 62
   114
100
AcDbLine
 10
126.128047
 20
486.896469
 11
128.284584
 21
484.739931
  0
LINE
  5
300
100
AcDbEntity
  8
M1
  6
CONTINUOUS
370
25
 62
   114
100
AcDbLine
 10
122.839897
 20
490.184619
 11
124.996607
 21
488.027909
  0
LINE
  5
301
100
AcDbEntity
  8
M1
  6
CONTINUOUS
370
25
 62
   114
100
AcDbLine
 10
128.284584
 20
484.739931
 11
129.415852
 21
485.871199
  0
LINE
  5
302
100
AcDbEntity
  8
M1
  6
CONTINUOUS
370
25
 62
   114
100
AcDbLine
 10
123.971164
 20
491.315886
 11
122.839897
 21
490.184619
  0
ARC
  5
303
100
AcDbEntity
  8
M1
  6
CONTINUOUS
370
25
 62
   114
100
AcDbCircle
 10
126.127874
 20
488.027736
 40
8.0
100
AcDbArc
 50
290.364142
 51
339.635864
  0
ARC
  5
304
100
AcDbEntity
  8
M1
  6
CONTINUOUS
370
25
 62
   114
100
AcDbCircle
 10
126.127874
 20
488.027736
 40
8.0
100
AcDbArc
 50
20.364136
 51
159.635841
  0
ARC
  5
305
100
AcDbEntity
  8
M1
  6
CONTINUOUS
370
25
 62
   114
100
AcDbCircle
 10
126.127874
 20
488.027736
 40
8.0
100
AcDbArc
 50
200.364159
 51
249.635858
  0
LINE
  5
306
100
AcDbEntity
  8
M1
  6
DASHDOT
370
13
 62
   114
100
AcDbLine
 10
113.127874
 20
488.027736
 11
189.127874
 21
488.027736
  0
LINE
  5
307
100
AcDbEntity
  8
M1
  6
DASHDOT
370
13
 62
   114
100
AcDbLine
 10
126.127874
 20
475.027736
 11
126.127874
 21
501.027736
  0
LINE
  5
308
100
AcDbEntity
  8
M1
  6
DIVIDE
370
13
 62
     3
100
AcDbLine
 10
166.127874
 20
497.527736
 11
166.127874
 21
495.527736
  0
LINE
  5
309
100
AcDbEntity
  8
M1
  6
DIVIDE
370
13
 62
     3
100
AcDbLine
 10
164.627874
 20
497.527736
 11
166.127874
 21
497.527736
  0
LINE
  5
30A
100
AcDbEntity
  8
M1
  6
DIVIDE
370
13
 62
     3
100
AcDbLine
 10
164.627874
 20
497.527736
 11
164.627874
 21
545.527736
  0
LINE
  5
30B
100
AcDbEntity
  8
M1
  6
DIVIDE
370
13
 62
     3
100
AcDbLine
 10
162.627874
 20
497.527736
 11
162.627874
 21
545.527736
  0
LINE
  5
30C
100
AcDbEntity
  8
M1
  6
DIVIDE
370
13
 62
     3
100
AcDbLine
 10
161.127874
 20
497.527736
 11
161.127874
 21
495.527736
  0
LINE
  5
30D
100
AcDbEntity
  8
M1
  6
DIVIDE
370
13
 62
     3
100
AcDbLine
 10
161.127874
 20
497.527736
 11
162.627874
 21
497.527736
  0
LINE
  5
30E
100
AcDbEntity
  8
M1
  6
DIVIDE
370
13
 62
     3
100
AcDbLine
 10
162.627874
 20
545.527736
 11
164.627874
 21
545.527736
  0
LINE
  5
30F
100
AcDbEntity
  8
M1
  6
DIVIDE
370
13
 62
     3
100
AcDbLine
 10
141.127874
 20
497.527736
 11
141.127874
 21
495.527736
  0
LINE
  5
310
100
AcDbEntity
  8
M1
  6
DIVIDE
370
13
 62
     3
100
AcDbLine
 10
139.627874
 20
497.527736
 11
141.127874
 21
497.527736
  0
LINE
  5
311
100
AcDbEntity
  8
M1
  6
DIVIDE
370
13
 62
     3
100
AcDbLine
 10
139.627874
 20
497.527736
 11
139.627874
 21
545.527736
  0
LINE
  5
312
100
AcDbEntity
  8
M1
  6
DIVIDE
370
13
 62
     3
100
AcDbLine
 10
137.627874
 20
497.527736
 11
137.627874
 21
545.527736
  0
LINE
  5
313
100
AcDbEntity
  8
M1
  6
DIVIDE
370
13
 62
     3
100
AcDbLine
 10
136.127874
 20
497.527736
 11
136.127874
 21
495.527736
  0
LINE
  5
314
100
AcDbEntity
  8
M1
  6
DIVIDE
370
13
 62
     3
100
AcDbLine
 10
136.127874
 20
497.527736
 11
137.627874
 21
497.527736
  0
LINE
  5
315
100
AcDbEntity
  8
M1
  6
DIVIDE
370
13
 62
     3
100
AcDbLine
 10
137.627874
 20
545.527736
 11
139.627874
 21
545.527736
  0
LINE
  5
316
100
AcDbEntity
  8
M2
  6
CONTINUOUS
370
25
100
AcDbLine
 10
-99.361082
 20
96.744992
 11
-99.361082
 21
96.344992
  0
LINE
  5
317
100
AcDbEntity
  8
M2
  6
CONTINUOUS
370
25
100
AcDbLine
 10
-99.361082
 20
96.344992
 11
-98.961082
 21
96.344992
  0
LINE
  5
318
100
AcDbEntity
  8
M3
  6
CONTINUOUS
370
50
 62
     7
100
AcDbLine
 10
398.680412
 20
19.601204
 11
398.680412
 21
569.601204
  0
LINE
  5
319
100
AcDbEntity
  8
M3
  6
CONTINUOUS
370
50
 62
     7
100
AcDbLine
 10
18.680412
 20
569.601204
 11
398.680412
 21
569.601204
  0
LINE
  5
31A
100
AcDbEntity
  8
M3
  6
CONTINUOUS
370
50
 62
     7
100
AcDbLine
 10
18.680412
 20
569.601204
 11
18.680412
 21
19.601204
  0
LINE
  5
31B
100
AcDbEntity
  8
M3
  6
CONTINUOUS
370
50
 62
     7
100
AcDbLine
 10
18.680412
 20
19.601204
 11
398.680412
 21
19.601204
  0
LINE
  5
31C
100
AcDbEntity
  8
M4
  6
DASHDOT
370
13
100
AcDbLine
 10
177.627874
 20
410.277736
 11
186.127874
 21
410.277736
  0
LINE
  5
31D
100
AcDbEntity
  8
M4
  6
DASHDOT
370
13
100
AcDbLine
 10
108.627874
 20
430.527736
 11
193.627877
 21
430.527736
  0
LINE
  5
31E
100
AcDbEntity
  8
M4
  6
DASHDOT
370
13
100
AcDbLine
 10
181.877874
 20
414.527736
 11
181.877874
 21
406.027736
  0
LINE
  5
31F
100
AcDbEntity
  8
M4
  6
CONTINUOUS
370
25
 62
   154
100
AcDbLine
 10
307.072792
 20
447.327904
 11
307.072792
 21
437.677904
  0
ARC
  5
320
100
AcDbEntity
  8
M4
  6
DIVIDE
370
13
100
AcDbCircle
 10
284.572792
 20
430.677901
 40
58.69523
100
AcDbArc
 50
162.460206
 51
180.0
  0
LINE
  5
321
100
AcDbEntity
  8
M4
  6
DASHDOT
370
13
100
AcDbLine
 10
284.572792
 20
425.677901
 11
284.572792
 21
435.677901
  0
LINE
  5
322
100
AcDbEntity
  8
M4
  6
DASHDOT
370
13
100
AcDbLine
 10
225.877564
 20
430.677901
 11
311.072792
 21
430.677901
  0
LINE
  5
323
100
AcDbEntity
  8
M4
  6
DASHED
370
13
100
AcDbLine
 10
289.372792
 20
380.677906
 11
289.372792
 21
365.677906
  0
LINE
  5
324
100
AcDbEntity
  8
M4
  6
DASHED
370
13
100
AcDbLine
 10
287.072792
 20
365.677906
 11
287.072792
 21
380.677906
  0
LINE
  5
325
100
AcDbEntity
  8
M4
  6
DASHDOT
370
13
100
AcDbLine
 10
151.127874
 20
500.527736
 11
151.127874
 21
360.527741
  0
LINE
  5
326
100
AcDbEntity
  8
M4
  6
CONTINUOUS
370
25
 62
   154
100
AcDbLine
 10
307.072792
 20
437.677904
 11
274.572792
 21
437.677904
  0
LINE
  5
327
100
AcDbEntity
  8
M4
  6
CONTINUOUS
370
25
100
AcDbLine
 10
280.119806
 20
269.473778
 11
280.119806
 21
223.473778
  0
CIRCLE
  5
328
100
AcDbEntity
  8
M4
  6
CONTINUOUS
370
25
100
AcDbCircle
 10
138.627874
 20
301.473778
 40
2.0
  0
LINE
  5
329
100
AcDbEntity
  8
M4
  6
DIVIDE
370
13
100
AcDbLine
 10
354.119808
 20
311.473778
 11
354.119808
 21
181.473778
  0
LINE
  5
32A
100
AcDbEntity
  8
M4
  6
DIVIDE
370
13
100
AcDbLine
 10
279.119806
 20
311.473778
 11
279.119806
 21
181.473778
  0
LINE
  5
32B
100
AcDbEntity
  8
M4
  6
CONTINUOUS
370
25
100
AcDbLine
 10
350.119806
 20
272.473778
 11
283.119806
 21
272.473778
  0
LINE
  5
32C
100
AcDbEntity
  8
M4
  6
CONTINUOUS
370
25
100
AcDbLine
 10
350.119806
 20
220.473778
 11
283.119806
 21
220.473778
  0
ARC
  5
32D
100
AcDbEntity
  8
M4
  6
CONTINUOUS
370
25
100
AcDbCircle
 10
283.119806
 20
269.473778
 40
3.0
100
AcDbArc
 50
90.0
 51
180.0
  0
ARC
  5
32E
100
AcDbEntity
  8
M4
  6
CONTINUOUS
370
25
100
AcDbCircle
 10
350.119806
 20
269.473778
 40
3.0
100
AcDbArc
 50
0.0
 51
90.0
  0
ARC
  5
32F
100
AcDbEntity
  8
M4
  6
CONTINUOUS
370
25
100
AcDbCircle
 10
283.119806
 20
223.473778
 40
3.0
100
AcDbArc
 50
180.0
 51
270.0
  0
ARC
  5
330
100
AcDbEntity
  8
M4
  6
CONTINUOUS
370
25
100
AcDbCircle
 10
350.119806
 20
223.473778
 40
3.0
100
AcDbArc
 50
270.0
 51
360.0
  0
CIRCLE
  5
331
100
AcDbEntity
  8
M4
  6
CONTINUOUS
370
25
100
AcDbCircle
 10
163.627874
 20
191.473778
 40
2.0
  0
LINE
  5
332
100
AcDbEntity
  8
M4
  6
CONTINUOUS
370
25
100
AcDbLine
 10
353.119806
 20
269.473778
 11
353.119806
 21
223.473778
  0
LINE
  5
333
100
AcDbEntity
  8
M4
  6
DIVIDE
370
13
100
AcDbLine
 10
188.627874
 20
311.473778
 11
188.627874
 21
181.473778
  0
LINE
  5
334
100
AcDbEntity
  8
M4
  6
DIVIDE
370
13
100
AcDbLine
 10
113.627871
 20
311.473778
 11
113.627871
 21
181.473778
  0
LINE
  5
335
100
AcDbEntity
  8
M4
  6
DIVIDE
370
13
100
AcDbLine
 10
113.627871
 20
311.473778
 11
188.627874
 21
311.473778
  0
LINE
  5
336
100
AcDbEntity
  8
M4
  6
DIVIDE
370
13
100
AcDbLine
 10
188.627874
 20
181.473778
 11
113.627871
 21
181.473778
  0
LINE
  5
337
100
AcDbEntity
  8
M4
  6
DIVIDE
370
13
100
AcDbLine
 10
354.119808
 20
181.473778
 11
279.119806
 21
181.473778
  0
LINE
  5
338
100
AcDbEntity
  8
M4
  6
DIVIDE
370
13
100
AcDbLine
 10
279.119806
 20
311.473778
 11
354.119808
 21
311.473778
  0
LINE
  5
339
100
AcDbEntity
  8
M4
  6
DASHDOT
370
13
100
AcDbLine
 10
131.627874
 20
301.473778
 11
145.627874
 21
301.473778
  0
LINE
  5
33A
100
AcDbEntity
  8
M4
  6
DASHDOT
370
13
100
AcDbLine
 10
138.627874
 20
294.473778
 11
138.627874
 21
308.473778
  0
LINE
  5
33B
100
AcDbEntity
  8
M4
  6
DASHDOT
370
13
100
AcDbLine
 10
163.627874
 20
184.473778
 11
163.627874
 21
198.473778
  0
LINE
  5
33C
100
AcDbEntity
  8
M4
  6
DASHDOT
370
13
100
AcDbLine
 10
156.627874
 20
191.473778
 11
170.627874
 21
191.473778
  0
LINE
  5
33D
100
AcDbEntity
  8
M4
  6
DASHDOT
370
13
100
AcDbLine
 10
284.071251
 20
246.473778
 11
369.071253
 21
246.473778
  0
LINE
  5
33E
100
AcDbEntity
  8
M4
  6
DASHDOT
370
13
100
AcDbLine
 10
151.127874
 20
316.473778
 11
151.127874
 21
176.473778
  0
LINE
  5
33F
100
AcDbEntity
  8
M4
  6
DASHDOT
370
13
100
AcDbLine
 10
316.619806
 20
316.473778
 11
316.619806
 21
176.473778
  0
LINE
  5
340
100
AcDbEntity
  8
M4
  6
DASHED
370
13
100
AcDbLine
 10
268.572792
 20
488.677901
 11
310.572792
 21
488.677901
  0
LINE
  5
341
100
AcDbEntity
  8
M4
  6
DASHED
370
13
100
AcDbLine
 10
310.572792
 20
483.177901
 11
268.572792
 21
483.177901
  0
LINE
  5
342
100
AcDbEntity
  8
M4
  6
DASHED
370
13
100
AcDbLine
 10
268.572792
 20
490.177901
 11
268.572792
 21
481.677901
  0
LINE
  5
343
100
AcDbEntity
  8
M4
  6
DASHED
370
13
100
AcDbLine
 10
254.572794
 20
490.177901
 11
268.572792
 21
490.177901
  0
LINE
  5
344
100
AcDbEntity
  8
M4
  6
DASHED
370
13
100
AcDbLine
 10
254.572794
 20
481.677901
 11
268.572792
 21
481.677901
  0
LINE
  5
345
100
AcDbEntity
  8
M4
  6
CONTINUOUS
370
25
 62
     7
100
AcDbLine
 10
228.606429
 20
448.366774
 11
227.940507
 21
444.904451
  0
ARC
  5
346
100
AcDbEntity
  8
M4
  6
CONTINUOUS
370
25
 62
     7
100
AcDbCircle
 10
228.922509
 20
444.715579
 40
1.0
100
AcDbArc
 50
169.113015
 51
257.616705
  0
ARC
  5
347
100
AcDbEntity
  8
M4
  6
CONTINUOUS
370
25
 62
     7
100
AcDbCircle
 10
229.588432
 20
448.177901
 40
1.0
100
AcDbArc
 50
79.113015
 51
169.113015
  0
ARC
  5
348
100
AcDbEntity
  8
M4
  6
CONTINUOUS
370
25
 62
     7
100
AcDbCircle
 10
243.412407
 20
461.812331
 40
15.0
100
AcDbArc
 50
259.113015
 51
268.702659
  0
LINE
  5
349
100
AcDbEntity
  8
M4
  6
CONTINUOUS
370
25
 62
     7
100
AcDbLine
 10
240.579322
 20
447.082306
 11
229.777304
 21
449.159904
  0
LINE
  5
34A
100
AcDbEntity
  8
M4
  6
CONTINUOUS
370
25
 62
     7
100
AcDbLine
 10
228.708057
 20
443.738844
 11
243.072794
 21
440.584944
  0
LINE
  5
34B
100
AcDbEntity
  8
M4
  6
CONTINUOUS
370
25
 62
   154
100
AcDbLine
 10
310.572792
 20
366.177906
 11
310.572792
 21
365.977906
  0
LINE
  5
34C
100
AcDbEntity
  8
M4
  6
CONTINUOUS
370
25
 62
   154
100
AcDbLine
 10
310.572792
 20
412.577906
 11
310.572792
 21
412.377909
  0
ARC
  5
34D
100
AcDbEntity
  8
M4
  6
CONTINUOUS
370
25
 62
   154
100
AcDbCircle
 10
307.072792
 20
447.627906
 40
0.3
100
AcDbArc
 50
270.0
 51
360.0
  0
ARC
  5
34E
100
AcDbEntity
  8
M4
  6
CONTINUOUS
370
25
 62
   154
100
AcDbCircle
 10
310.272792
 20
489.877906
 40
0.3
100
AcDbArc
 50
0.0
 51
90.0
  0
ARC
  5
34F
100
AcDbEntity
  8
M4
  6
CONTINUOUS
370
25
 62
   154
100
AcDbCircle
 10
310.272792
 20
412.577906
 40
0.3
100
AcDbArc
 50
0.0
 51
90.0
  0
ARC
  5
350
100
AcDbEntity
  8
M4
  6
CONTINUOUS
370
25
 62
   154
100
AcDbCircle
 10
292.572792
 20
417.677906
 40
5.0
100
AcDbArc
 50
6.513776E-012
 51
90.0
  0
ARC
  5
351
100
AcDbEntity
  8
M4
  6
CONTINUOUS
370
25
 62
   154
100
AcDbCircle
 10
310.272792
 20
495.377906
 40
0.3
100
AcDbArc
 50
1.085629E-011
 51
90.0
  0
ARC
  5
352
100
AcDbEntity
  8
M4
  6
CONTINUOUS
370
25
 62
   154
100
AcDbCircle
 10
292.572792
 20
376.177906
 40
5.0
100
AcDbArc
 50
270.0
 51
360.0
  0
ARC
  5
353
100
AcDbEntity
  8
M4
  6
CONTINUOUS
370
25
 62
   154
100
AcDbCircle
 10
310.272792
 20
365.977906
 40
0.3
100
AcDbArc
 50
270.0
 51
360.0
  0
ARC
  5
354
100
AcDbEntity
  8
M4
  6
CONTINUOUS
370
25
 62
   154
100
AcDbCircle
 10
310.272792
 20
448.777906
 40
0.3
100
AcDbArc
 50
270.0
 51
360.0
  0
LINE
  5
355
100
AcDbEntity
  8
M4
  6
CONTINUOUS
370
25
 62
   154
100
AcDbLine
 10
311.072792
 20
489.927909
 11
311.072792
 21
489.877909
  0
LINE
  5
356
100
AcDbEntity
  8
M4
  6
CONTINUOUS
370
25
 62
   154
100
AcDbLine
 10
310.572792
 20
365.977906
 11
311.072792
 21
365.977906
  0
LINE
  5
357
100
AcDbEntity
  8
M4
  6
CONTINUOUS
370
25
 62
   154
100
AcDbLine
 10
311.072792
 20
489.927909
 11
310.572792
 21
489.927909
  0
LINE
  5
358
100
AcDbEntity
  8
M4
  6
CONTINUOUS
370
25
 62
   154
100
AcDbLine
 10
274.572792
 20
490.177906
 11
310.272792
 21
490.177906
  0
LINE
  5
359
100
AcDbEntity
  8
M4
  6
CONTINUOUS
370
25
 62
   154
100
AcDbLine
 10
307.372792
 20
448.519646
 11
307.372792
 21
412.877909
  0
LINE
  5
35A
100
AcDbEntity
  8
M4
  6
CONTINUOUS
370
25
 62
   154
100
AcDbLine
 10
274.572792
 20
365.677906
 11
274.572792
 21
387.977906
  0
LINE
  5
35B
100
AcDbEntity
  8
M4
  6
CONTINUOUS
370
25
 62
   154
100
AcDbLine
 10
310.272792
 20
448.477909
 11
307.372792
 21
448.477909
  0
LINE
  5
35C
100
AcDbEntity
  8
M4
  6
CONTINUOUS
370
25
 62
   154
100
AcDbLine
 10
311.072792
 20
489.877909
 11
310.572792
 21
489.877909
  0
LINE
  5
35D
100
AcDbEntity
  8
M4
  6
CONTINUOUS
370
25
 62
   154
100
AcDbLine
 10
310.572792
 20
482.777906
 11
311.072792
 21
482.777906
  0
LINE
  5
35E
100
AcDbEntity
  8
M4
  6
CONTINUOUS
370
25
 62
   154
100
AcDbLine
 10
268.372792
 20
389.977906
 11
268.372792
 21
418.477906
  0
ARC
  5
35F
100
AcDbEntity
  8
M4
  6
CONTINUOUS
370
25
 62
   154
100
AcDbCircle
 10
307.072792
 20
443.727906
 40
0.3
100
AcDbArc
 50
4.342517E-011
 51
90.0
  0
LINE
  5
360
100
AcDbEntity
  8
M4
  6
CONTINUOUS
370
25
 62
   154
100
AcDbLine
 10
274.572792
 20
422.677906
 11
292.572792
 21
422.677906
  0
LINE
  5
361
100
AcDbEntity
  8
M4
  6
CONTINUOUS
370
25
 62
   154
100
AcDbLine
 10
292.572792
 20
371.177906
 11
274.572792
 21
371.177906
  0
LINE
  5
362
100
AcDbEntity
  8
M4
  6
CONTINUOUS
370
25
 62
   154
100
AcDbLine
 10
297.572792
 20
417.677909
 11
297.572792
 21
376.177906
  0
LINE
  5
363
100
AcDbEntity
  8
M4
  6
CONTINUOUS
370
25
 62
   154
100
AcDbLine
 10
274.572792
 20
387.977909
 11
268.372794
 21
389.977906
  0
LINE
  5
364
100
AcDbEntity
  8
M4
  6
CONTINUOUS
370
25
 62
   154
100
AcDbLine
 10
310.272792
 20
365.677906
 11
274.572792
 21
365.677906
  0
LINE
  5
365
100
AcDbEntity
  8
M4
  6
CONTINUOUS
370
25
 62
   154
100
AcDbLine
 10
311.072792
 20
489.877909
 11
311.072792
 21
481.927909
  0
LINE
  5
366
100
AcDbEntity
  8
M4
  6
CONTINUOUS
370
25
 62
   154
100
AcDbLine
 10
276.572789
 20
437.677904
 11
276.572789
 21
422.677906
  0
LINE
  5
367
100
AcDbEntity
  8
M4
  6
CONTINUOUS
370
25
 62
   154
100
AcDbLine
 10
311.072792
 20
379.427906
 11
311.072792
 21
365.977906
  0
LINE
  5
368
100
AcDbEntity
  8
M4
  6
CONTINUOUS
370
25
 62
   154
100
AcDbLine
 10
310.572792
 20
412.377909
 11
310.572792
 21
365.977906
  0
LINE
  5
369
100
AcDbEntity
  8
M4
  6
CONTINUOUS
370
25
 62
   154
100
AcDbLine
 10
307.372792
 20
412.877909
 11
310.272792
 21
412.877909
  0
LINE
  5
36A
100
AcDbEntity
  8
M4
  6
CONTINUOUS
370
25
 62
   154
100
AcDbLine
 10
307.672792
 20
442.977904
 11
307.372792
 21
442.477911
  0
LINE
  5
36B
100
AcDbEntity
  8
M4
  6
CONTINUOUS
370
25
 62
   154
100
AcDbLine
 10
274.572792
 20
495.677901
 11
310.272792
 21
495.677901
  0
LINE
  5
36C
100
AcDbEntity
  8
M4
  6
CONTINUOUS
370
25
 62
   154
100
AcDbLine
 10
274.572792
 20
420.477906
 11
274.572792
 21
495.677901
  0
LINE
  5
36D
100
AcDbEntity
  8
M4
  6
CONTINUOUS
370
25
 62
   154
100
AcDbLine
 10
307.372792
 20
445.977911
 11
307.672792
 21
444.977909
  0
LINE
  5
36E
100
AcDbEntity
  8
M4
  6
CONTINUOUS
370
25
 62
   154
100
AcDbLine
 10
310.572792
 20
481.927909
 11
311.072792
 21
481.927909
  0
LINE
  5
36F
100
AcDbEntity
  8
M4
  6
CONTINUOUS
370
25
 62
   154
100
AcDbLine
 10
307.672792
 20
444.977909
 11
307.672792
 21
442.977904
  0
LINE
  5
370
100
AcDbEntity
  8
M4
  6
CONTINUOUS
370
25
 62
   154
100
AcDbLine
 10
311.072792
 20
379.427906
 11
310.572792
 21
379.427906
  0
LINE
  5
371
100
AcDbEntity
  8
M4
  6
CONTINUOUS
370
25
 62
   154
100
AcDbLine
 10
311.072792
 20
375.377906
 11
310.572792
 21
375.377906
  0
LINE
  5
372
100
AcDbEntity
  8
M4
  6
CONTINUOUS
370
25
 62
   154
100
AcDbLine
 10
274.572792
 20
420.477906
 11
268.372792
 21
418.477906
  0
LINE
  5
373
100
AcDbEntity
  8
M4
  6
CONTINUOUS
370
25
 62
   154
100
AcDbLine
 10
310.572792
 20
495.377911
 11
310.572792
 21
448.777906
  0
LINE
  5
374
100
AcDbEntity
  8
M4
  6
CONTINUOUS
370
25
 62
   154
100
AcDbLine
 10
274.572792
 20
490.977901
 11
255.572794
 21
490.977901
  0
ARC
  5
375
100
AcDbEntity
  8
M4
  6
CONTINUOUS
370
25
 62
   154
100
AcDbCircle
 10
255.572794
 20
388.677901
 40
1.0
100
AcDbArc
 50
180.0
 51
270.0
  0
LINE
  5
376
100
AcDbEntity
  8
M4
  6
CONTINUOUS
370
25
 62
   154
100
AcDbLine
 10
262.572794
 20
381.177901
 11
255.572794
 21
381.177901
  0
ARC
  5
377
100
AcDbEntity
  8
M4
  6
CONTINUOUS
370
25
 62
   154
100
AcDbCircle
 10
268.072794
 20
438.677904
 40
1.0
100
AcDbArc
 50
180.0
 51
270.0
  0
SPLINE
  5
378
100
AcDbEntity
  8
M4
  6
CONTINUOUS
370
25
 62
   154
100
AcDbSpline
210
0.0
220
0.0
230
-1.0
 70
     8
 71
     3
 72
    29
 73
    25
 43
0.0000001
 40
0.0
 40
0.0
 40
0.0
 40
0.0
 40
1.0
 40
1.0
 40
1.0
 40
2.0
 40
2.0
 40
2.0
 40
3.0
 40
3.0
 40
3.0
 40
4.0
 40
4.0
 40
4.0
 40
5.0
 40
5.0
 40
5.0
 40
6.0
 40
6.0
 40
6.0
 40
7.0
 40
7.0
 40
7.0
 40
8.0
 40
8.0
 40
8.0
 40
8.0
 10
255.556474
 20
494.619209
 10
255.570359
 20
494.615514
 10
255.584249
 20
494.611824
 10
255.598687
 20
494.608316
 10
255.613124
 20
494.604809
 10
255.628119
 20
494.601491
 10
255.643419
 20
494.598371
 10
255.658721
 20
494.595249
 10
255.674341
 20
494.592334
 10
255.690267
 20
494.589676
 10
255.706194
 20
494.587019
 10
255.722434
 20
494.584629
 10
255.738824
 20
494.582539
 10
255.755214
 20
494.580449
 10
255.771762
 20
494.578671
 10
255.788372
 20
494.577174
 10
255.804982
 20
494.575676
 10
255.821659
 20
494.574469
 10
255.838404
 20
494.573501
 10
255.855149
 20
494.572536
 10
255.871967
 20
494.571819
 10
255.888849
 20
494.571396
 10
255.905729
 20
494.570971
 10
255.922679
 20
494.570849
 10
255.939627
 20
494.570724
  0
ARC
  5
379
100
AcDbEntity
  8
M4
  6
CONTINUOUS
370
25
 62
   154
100
AcDbCircle
 10
255.572794
 20
441.177901
 40
1.0
100
AcDbArc
 50
180.0
 51
270.0
  0
ARC
  5
37A
100
AcDbEntity
  8
M4
  6
CONTINUOUS
370
25
 62
   154
100
AcDbCircle
 10
255.572794
 20
489.977901
 40
1.0
100
AcDbArc
 50
90.0
 51
180.0
  0
ARC
  5
37B
100
AcDbEntity
  8
M4
  6
CONTINUOUS
370
25
 62
   154
100
AcDbCircle
 10
255.572794
 20
494.177901
 40
0.5
100
AcDbArc
 50
131.280533
 51
142.996957
  0
SPLINE
  5
37C
100
AcDbEntity
  8
M4
  6
CONTINUOUS
370
25
 62
   154
100
AcDbSpline
210
0.0
220
0.0
230
-1.0
 70
     8
 71
     3
 72
     8
 73
     4
 43
0.0000001
 40
0.0
 40
0.0
 40
0.0
 40
0.0
 40
1.0
 40
1.0
 40
1.0
 40
1.0
 10
255.118722
 20
493.154899
 10
255.161249
 20
493.142464
 10
255.204672
 20
493.136281
 10
255.248979
 20
493.136281
  0
SPLINE
  5
37D
100
AcDbEntity
  8
M4
  6
CONTINUOUS
370
25
 62
   154
100
AcDbSpline
210
0.0
220
0.0
230
-1.0
 70
     8
 71
     3
 72
   125
 73
   121
 43
0.0000001
 40
0.0
 40
0.0
 40
0.0
 40
0.0
 40
1.0
 40
1.0
 40
1.0
 40
2.0
 40
2.0
 40
2.0
 40
3.0
 40
3.0
 40
3.0
 40
4.0
 40
4.0
 40
4.0
 40
5.0
 40
5.0
 40
5.0
 40
6.0
 40
6.0
 40
6.0
 40
7.0
 40
7.0
 40
7.0
 40
8.0
 40
8.0
 40
8.0
 40
9.0
 40
9.0
 40
9.0
 40
10.0
 40
10.0
 40
10.0
 40
11.0
 40
11.0
 40
11.0
 40
12.0
 40
12.0
 40
12.0
 40
13.0
 40
13.0
 40
13.0
 40
14.0
 40
14.0
 40
14.0
 40
15.0
 40
15.0
 40
15.0
 40
16.0
 40
16.0
 40
16.0
 40
17.0
 40
17.0
 40
17.0
 40
18.0
 40
18.0
 40
18.0
 40
19.0
 40
19.0
 40
19.0
 40
20.0
 40
20.0
 40
20.0
 40
21.0
 40
21.0
 40
21.0
 40
22.0
 40
22.0
 40
22.0
 40
23.0
 40
23.0
 40
23.0
 40
24.0
 40
24.0
 40
24.0
 40
25.0
 40
25.0
 40
25.0
 40
26.0
 40
26.0
 40
26.0
 40
27.0
 40
27.0
 40
27.0
 40
28.0
 40
28.0
 40
28.0
 40
29.0
 40
29.0
 40
29.0
 40
30.0
 40
30.0
 40
30.0
 40
31.0
 40
31.0
 40
31.0
 40
32.0
 40
32.0
 40
32.0
 40
33.0
 40
33.0
 40
33.0
 40
34.0
 40
34.0
 40
34.0
 40
35.0
 40
35.0
 40
35.0
 40
36.0
 40
36.0
 40
36.0
 40
37.0
 40
37.0
 40
37.0
 40
38.0
 40
38.0
 40
38.0
 40
39.0
 40
39.0
 40
39.0
 40
40.0
 40
40.0
 40
40.0
 40
40.0
 10
254.777129
 20
367.589681
 10
254.777004
 20
367.589996
 10
254.776882
 20
367.590314
 10
254.776759
 20
367.590621
 10
254.776639
 20
367.590931
 10
254.776522
 20
367.591234
 10
254.776402
 20
367.591536
 10
254.776284
 20
367.591841
 10
254.776164
 20
367.592144
 10
254.776067
 20
367.592399
 10
254.775967
 20
367.592654
 10
254.775887
 20
367.592859
 10
254.775759
 20
367.593184
 10
254.775582
 20
367.593636
 10
254.775314
 20
367.594324
 10
254.775114
 20
367.594834
 10
254.774917
 20
367.595346
 10
254.774787
 20
367.595681
 10
254.774666
 20
367.595989
 10
254.774547
 20
367.596296
 10
254.774439
 20
367.596576
 10
254.774312
 20
367.596914
 10
254.774182
 20
367.597249
 10
254.774032
 20
367.597641
 10
254.773944
 20
367.597876
 10
254.773917
 20
367.597951
 10
254.773894
 20
367.598009
 10
254.773867
 20
367.598079
 10
254.773842
 20
367.598149
 10
254.773809
 20
367.598229
 10
254.773777
 20
367.598314
 10
254.773744
 20
367.598399
 10
254.773712
 20
367.598486
 10
254.773664
 20
367.598606
 10
254.773619
 20
367.598726
 10
254.773562
 20
367.598879
 10
254.773522
 20
367.598979
 10
254.773492
 20
367.599059
 10
254.773472
 20
367.599106
 10
254.773449
 20
367.599169
 10
254.773424
 20
367.599234
 10
254.773394
 20
367.599309
 10
254.773364
 20
367.599389
 10
254.773334
 20
367.599466
 10
254.773302
 20
367.599549
 10
254.773267
 20
367.599644
 10
254.773229
 20
367.599741
 10
254.773187
 20
367.599854
 10
254.773149
 20
367.599949
 10
254.773114
 20
367.600044
 10
254.773084
 20
367.600121
 10
254.773049
 20
367.600211
 10
254.773017
 20
367.600299
 10
254.772979
 20
367.600396
 10
254.772939
 20
367.600501
 10
254.772899
 20
367.600606
 10
254.772857
 20
367.600719
 10
254.772817
 20
367.600824
 10
254.772776
 20
367.600926
 10
254.772739
 20
367.601026
 10
254.772687
 20
367.601171
 10
254.772629
 20
367.601324
 10
254.772549
 20
367.601529
 10
254.772474
 20
367.601729
 10
254.772399
 20
367.601929
 10
254.772326
 20
367.602126
 10
254.772249
 20
367.602331
 10
254.772172
 20
367.602539
 10
254.772089
 20
367.602756
 10
254.772012
 20
367.602964
 10
254.771934
 20
367.603171
 10
254.771859
 20
367.603369
 10
254.771769
 20
367.603614
 10
254.771504
 20
367.604324
 10
254.771094
 20
367.605431
 10
254.770726
 20
367.606439
 10
254.770357
 20
367.607446
 10
254.770029
 20
367.608359
 10
254.769684
 20
367.609321
 10
254.769342
 20
367.610284
 10
254.768982
 20
367.611299
 10
254.768652
 20
367.612239
 10
254.768322
 20
367.613179
 10
254.768017
 20
367.614049
 10
254.767632
 20
367.615176
 10
254.766734
 20
367.617806
 10
254.765387
 20
367.621851
 10
254.764219
 20
367.625494
 10
254.763049
 20
367.629136
 10
254.762056
 20
367.632384
 10
254.761044
 20
367.635836
 10
254.760029
 20
367.639289
 10
254.758994
 20
367.642949
 10
254.758089
 20
367.646221
 10
254.757184
 20
367.649491
 10
254.756409
 20
367.652389
 10
254.755337
 20
367.656661
 10
254.754027
 20
367.661886
 10
254.752277
 20
367.669174
 10
254.750799
 20
367.675944
 10
254.749319
 20
367.682711
 10
254.748112
 20
367.688974
 10
254.747014
 20
367.695419
 10
254.745914
 20
367.701864
 10
254.744929
 20
367.708494
 10
254.744127
 20
367.715036
 10
254.743324
 20
367.721579
 10
254.742709
 20
367.728041
 10
254.742282
 20
367.734744
 10
254.741854
 20
367.741446
 10
254.741619
 20
367.748394
 10
254.741549
 20
367.755279
 10
254.741479
 20
367.762166
 10
254.741577
 20
367.768996
 10
254.741779
 20
367.775846
 10
254.741982
 20
367.782694
 10
254.742292
 20
367.789564
 10
254.742652
 20
367.796431
 10
254.743014
 20
367.803299
 10
254.743432
 20
367.810164
 10
254.743847
 20
367.817029
  0
LINE
  5
37E
100
AcDbEntity
  8
M4
  6
CONTINUOUS
370
25
 62
   154
100
AcDbLine
 10
246.072792
 20
454.677901
 11
246.072792
 21
406.677901
  0
LINE
  5
37F
100
AcDbEntity
  8
M4
  6
CONTINUOUS
370
25
 62
   154
100
AcDbLine
 10
251.072794
 20
460.177901
 11
251.072794
 21
455.677904
  0
SPLINE
  5
380
100
AcDbEntity
  8
M4
  6
CONTINUOUS
370
25
 62
   154
100
AcDbSpline
210
0.0
220
0.0
230
-1.0
 70
     8
 71
     3
 72
    65
 73
    61
 43
0.0000001
 40
0.0
 40
0.0
 40
0.0
 40
0.0
 40
1.0
 40
1.0
 40
1.0
 40
2.0
 40
2.0
 40
2.0
 40
3.0
 40
3.0
 40
3.0
 40
4.0
 40
4.0
 40
4.0
 40
5.0
 40
5.0
 40
5.0
 40
6.0
 40
6.0
 40
6.0
 40
7.0
 40
7.0
 40
7.0
 40
8.0
 40
8.0
 40
8.0
 40
9.0
 40
9.0
 40
9.0
 40
10.0
 40
10.0
 40
10.0
 40
11.0
 40
11.0
 40
11.0
 40
12.0
 40
12.0
 40
12.0
 40
13.0
 40
13.0
 40
13.0
 40
14.0
 40
14.0
 40
14.0
 40
15.0
 40
15.0
 40
15.0
 40
16.0
 40
16.0
 40
16.0
 40
17.0
 40
17.0
 40
17.0
 40
18.0
 40
18.0
 40
18.0
 40
19.0
 40
19.0
 40
19.0
 40
20.0
 40
20.0
 40
20.0
 40
20.0
 10
255.118722
 20
368.200896
 10
255.107014
 20
368.196711
 10
255.095307
 20
368.192529
 10
255.083669
 20
368.188264
 10
255.072032
 20
368.183999
 10
255.060459
 20
368.179656
 10
255.049031
 20
368.175156
 10
255.037602
 20
368.170654
 10
255.026312
 20
368.165999
 10
255.015224
 20
368.161101
 10
255.004139
 20
368.156204
 10
254.993252
 20
368.151071
 10
254.982664
 20
368.145629
 10
254.972077
 20
368.140186
 10
254.961782
 20
368.134441
 10
254.951794
 20
368.128424
 10
254.941807
 20
368.122406
 10
254.932119
 20
368.116121
 10
254.922744
 20
368.109574
 10
254.913369
 20
368.103026
 10
254.904299
 20
368.096224
 10
254.895684
 20
368.089316
 10
254.887069
 20
368.082409
 10
254.878902
 20
368.075404
 10
254.870777
 20
368.067889
 10
254.862654
 20
368.060374
 10
254.854564
 20
368.052356
 10
254.846984
 20
368.044286
 10
254.839407
 20
368.036216
 10
254.832329
 20
368.028099
 10
254.825547
 20
368.019759
 10
254.818764
 20
368.011416
 10
254.812266
 20
368.002856
 10
254.806239
 20
367.994419
 10
254.800214
 20
367.985981
 10
254.794649
 20
367.977671
 10
254.788839
 20
367.968379
 10
254.783032
 20
367.959086
 10
254.776972
 20
367.948814
 10
254.771632
 20
367.938524
 10
254.766292
 20
367.928234
 10
254.761662
 20
367.917924
 10
254.757744
 20
367.907746
 10
254.753827
 20
367.897569
 10
254.750614
 20
367.887524
 10
254.748404
 20
367.875864
 10
254.746192
 20
367.864204
 10
254.744979
 20
367.850926
 10
254.744824
 20
367.842689
 10
254.744779
 20
367.840326
 10
254.744822
 20
367.838376
 10
254.744882
 20
367.836306
 10
254.744942
 20
367.834239
 10
254.745022
 20
367.832051
 10
254.745124
 20
367.829889
 10
254.745227
 20
367.827726
 10
254.745354
 20
367.825589
 10
254.745489
 20
367.823441
 10
254.745624
 20
367.821296
 10
254.745769
 20
367.819139
 10
254.745917
 20
367.816984
  0
LINE
  5
381
100
AcDbEntity
  8
M4
  6
CONTINUOUS
370
25
 62
   154
100
AcDbLine
 10
251.072794
 20
455.677904
 11
244.072794
 21
455.677904
  0
LINE
  5
382
100
AcDbEntity
  8
M4
  6
CONTINUOUS
370
25
 62
   154
100
AcDbLine
 10
268.372794
 20
389.777906
 11
274.572792
 21
387.777901
  0
LINE
  5
383
100
AcDbEntity
  8
M4
  6
CONTINUOUS
370
25
 62
   154
100
AcDbLine
 10
243.072794
 20
406.677901
 11
243.072794
 21
454.677901
  0
LINE
  5
384
100
AcDbEntity
  8
M4
  6
CONTINUOUS
370
25
 62
   154
100
AcDbLine
 10
267.072794
 20
421.677901
 11
267.072794
 21
420.177906
  0
LINE
  5
385
100
AcDbEntity
  8
M4
  6
CONTINUOUS
370
25
 62
   154
100
AcDbLine
 10
244.072794
 20
405.677899
 11
251.072794
 21
405.677899
  0
LINE
  5
386
100
AcDbEntity
  8
M4
  6
CONTINUOUS
370
25
 62
   154
100
AcDbLine
 10
274.572792
 20
422.677904
 11
268.072794
 21
422.677904
  0
ARC
  5
387
100
AcDbEntity
  8
M4
  6
CONTINUOUS
370
25
 62
   154
100
AcDbCircle
 10
257.572794
 20
368.677901
 40
3.0
100
AcDbArc
 50
202.143917
 51
216.454553
  0
ARC
  5
388
100
AcDbEntity
  8
M4
  6
CONTINUOUS
370
25
 62
   154
100
AcDbCircle
 10
247.072794
 20
406.677901
 40
1.0
100
AcDbArc
 50
180.0
 51
270.0
  0
ARC
  5
389
100
AcDbEntity
  8
M4
  6
CONTINUOUS
370
25
 62
   154
100
AcDbCircle
 10
247.072794
 20
454.677901
 40
1.0
100
AcDbArc
 50
90.0
 51
180.0
  0
ARC
  5
38A
100
AcDbEntity
  8
M4
  6
CONTINUOUS
370
25
 62
   154
100
AcDbCircle
 10
244.072794
 20
454.677901
 40
1.0
100
AcDbArc
 50
90.0
 51
180.0
  0
LINE
  5
38B
100
AcDbEntity
  8
M4
  6
CONTINUOUS
370
25
 62
   154
100
AcDbLine
 10
274.572792
 20
495.677901
 11
257.572794
 21
495.677901
  0
LINE
  5
38C
100
AcDbEntity
  8
M4
  6
CONTINUOUS
370
25
 62
   154
100
AcDbLine
 10
274.572792
 20
495.177901
 11
274.572792
 21
494.570724
  0
SPLINE
  5
38D
100
AcDbEntity
  8
M4
  6
CONTINUOUS
370
25
 62
   154
100
AcDbSpline
210
0.0
220
0.0
230
-1.0
 70
     8
 71
     3
 72
   113
 73
   109
 43
0.0000001
 40
0.0
 40
0.0
 40
0.0
 40
0.0
 40
1.0
 40
1.0
 40
1.0
 40
2.0
 40
2.0
 40
2.0
 40
3.0
 40
3.0
 40
3.0
 40
4.0
 40
4.0
 40
4.0
 40
5.0
 40
5.0
 40
5.0
 40
6.0
 40
6.0
 40
6.0
 40
7.0
 40
7.0
 40
7.0
 40
8.0
 40
8.0
 40
8.0
 40
9.0
 40
9.0
 40
9.0
 40
10.0
 40
10.0
 40
10.0
 40
11.0
 40
11.0
 40
11.0
 40
12.0
 40
12.0
 40
12.0
 40
13.0
 40
13.0
 40
13.0
 40
14.0
 40
14.0
 40
14.0
 40
15.0
 40
15.0
 40
15.0
 40
16.0
 40
16.0
 40
16.0
 40
17.0
 40
17.0
 40
17.0
 40
18.0
 40
18.0
 40
18.0
 40
19.0
 40
19.0
 40
19.0
 40
20.0
 40
20.0
 40
20.0
 40
21.0
 40
21.0
 40
21.0
 40
22.0
 40
22.0
 40
22.0
 40
23.0
 40
23.0
 40
23.0
 40
24.0
 40
24.0
 40
24.0
 40
25.0
 40
25.0
 40
25.0
 40
26.0
 40
26.0
 40
26.0
 40
27.0
 40
27.0
 40
27.0
 40
28.0
 40
28.0
 40
28.0
 40
29.0
 40
29.0
 40
29.0
 40
30.0
 40
30.0
 40
30.0
 40
31.0
 40
31.0
 40
31.0
 40
32.0
 40
32.0
 40
32.0
 40
33.0
 40
33.0
 40
33.0
 40
34.0
 40
34.0
 40
34.0
 40
35.0
 40
35.0
 40
35.0
 40
36.0
 40
36.0
 40
36.0
 40
36.0
 10
254.775869
 20
493.762881
 10
254.776139
 20
493.763579
 10
254.776407
 20
493.764274
 10
254.776691
 20
493.765009
 10
254.776974
 20
493.765744
 10
254.777274
 20
493.766514
 10
254.777609
 20
493.767379
 10
254.777944
 20
493.768241
 10
254.778317
 20
493.769194
 10
254.778724
 20
493.770236
 10
254.779132
 20
493.771279
 10
254.779574
 20
493.772409
 10
254.780132
 20
493.773826
 10
254.781019
 20
493.776086
 10
254.782194
 20
493.779064
 10
254.783517
 20
493.782399
 10
254.784837
 20
493.785734
 10
254.786304
 20
493.789416
 10
254.787944
 20
493.793509
 10
254.789584
 20
493.797599
 10
254.791397
 20
493.802094
 10
254.793241
 20
493.806644
 10
254.795087
 20
493.811194
 10
254.796964
 20
493.815796
 10
254.799232
 20
493.821296
 10
254.801499
 20
493.826799
 10
254.804154
 20
493.833191
 10
254.806837
 20
493.839584
 10
254.809519
 20
493.845976
 10
254.812227
 20
493.852364
 10
254.815114
 20
493.859096
 10
254.817999
 20
493.865831
 10
254.821062
 20
493.872901
 10
254.824039
 20
493.879714
 10
254.827014
 20
493.886526
 10
254.829899
 20
493.893074
 10
254.833589
 20
493.901316
 10
254.837279
 20
493.909559
 10
254.841769
 20
493.919486
 10
254.846207
 20
493.929159
 10
254.850644
 20
493.938834
 10
254.855024
 20
493.948244
 10
254.859652
 20
493.958039
 10
254.864279
 20
493.967834
 10
254.869147
 20
493.978006
 10
254.873827
 20
493.987674
 10
254.878507
 20
493.997344
 10
254.882997
 20
494.006506
 10
254.888637
 20
494.017789
 10
254.894277
 20
494.029071
 10
254.901064
 20
494.042464
 10
254.907684
 20
494.055291
 10
254.914302
 20
494.068119
 10
254.920754
 20
494.080376
 10
254.927454
 20
494.092891
 10
254.934157
 20
494.105404
 10
254.941102
 20
494.118169
 10
254.947852
 20
494.130384
 10
254.954602
 20
494.142596
 10
254.961149
 20
494.154261
 10
254.968777
 20
494.167564
 10
254.976402
 20
494.180864
 10
254.985104
 20
494.195799
 10
254.993624
 20
494.210136
 10
255.002144
 20
494.224471
 10
255.010484
 20
494.238216
 10
255.018729
 20
494.251604
 10
255.026977
 20
494.264991
 10
255.035132
 20
494.278029
 10
255.043774
 20
494.291566
 10
255.052419
 20
494.305104
 10
255.061554
 20
494.319149
 10
255.068437
 20
494.329621
 10
255.075157
 20
494.339846
 10
255.079736
 20
494.346679
 10
255.084807
 20
494.354186
 10
255.089877
 20
494.361694
 10
255.095444
 20
494.369884
 10
255.100664
 20
494.377486
 10
255.105884
 20
494.385089
 10
255.110764
 20
494.392121
 10
255.115819
 20
494.399324
 10
255.120874
 20
494.406529
 10
255.126107
 20
494.413919
 10
255.130084
 20
494.419504
 10
255.134064
 20
494.425089
 10
255.136797
 20
494.428884
 10
255.139694
 20
494.432891
 10
255.142592
 20
494.436901
 10
255.145662
 20
494.441134
 10
255.148442
 20
494.444949
 10
255.151222
 20
494.448764
 10
255.153717
 20
494.452171
 10
255.156027
 20
494.455314
 10
255.158334
 20
494.458454
 10
255.160459
 20
494.461336
 10
255.162149
 20
494.463621
 10
255.163809
 20
494.465869
 10
255.165052
 20
494.467546
 10
255.166174
 20
494.469059
 10
255.167299
 20
494.470571
 10
255.168304
 20
494.471921
 10
255.169182
 20
494.473094
 10
255.170059
 20
494.474269
 10
255.170809
 20
494.475269
 10
255.171506
 20
494.476196
 10
255.172204
 20
494.477124
 10
255.172849
 20
494.477979
 10
255.173492
 20
494.478831
  0
LINE
  5
38E
100
AcDbEntity
  8
M4
  6
CONTINUOUS
370
25
 62
   154
100
AcDbLine
 10
267.072794
 20
440.177901
 11
267.072794
 21
438.677904
  0
ARC
  5
38F
100
AcDbEntity
  8
M4
  6
CONTINUOUS
370
25
 62
   154
100
AcDbCircle
 10
244.072794
 20
406.677901
 40
1.0
100
AcDbArc
 50
180.0
 51
270.0
  0
SPLINE
  5
390
100
AcDbEntity
  8
M4
  6
CONTINUOUS
370
25
 62
   154
100
AcDbSpline
210
0.0
220
0.0
230
-1.0
 70
     8
 71
     3
 72
   125
 73
   121
 43
0.0000001
 40
0.0
 40
0.0
 40
0.0
 40
0.0
 40
1.0
 40
1.0
 40
1.0
 40
2.0
 40
2.0
 40
2.0
 40
3.0
 40
3.0
 40
3.0
 40
4.0
 40
4.0
 40
4.0
 40
5.0
 40
5.0
 40
5.0
 40
6.0
 40
6.0
 40
6.0
 40
7.0
 40
7.0
 40
7.0
 40
8.0
 40
8.0
 40
8.0
 40
9.0
 40
9.0
 40
9.0
 40
10.0
 40
10.0
 40
10.0
 40
11.0
 40
11.0
 40
11.0
 40
12.0
 40
12.0
 40
12.0
 40
13.0
 40
13.0
 40
13.0
 40
14.0
 40
14.0
 40
14.0
 40
15.0
 40
15.0
 40
15.0
 40
16.0
 40
16.0
 40
16.0
 40
17.0
 40
17.0
 40
17.0
 40
18.0
 40
18.0
 40
18.0
 40
19.0
 40
19.0
 40
19.0
 40
20.0
 40
20.0
 40
20.0
 40
21.0
 40
21.0
 40
21.0
 40
22.0
 40
22.0
 40
22.0
 40
23.0
 40
23.0
 40
23.0
 40
24.0
 40
24.0
 40
24.0
 40
25.0
 40
25.0
 40
25.0
 40
26.0
 40
26.0
 40
26.0
 40
27.0
 40
27.0
 40
27.0
 40
28.0
 40
28.0
 40
28.0
 40
29.0
 40
29.0
 40
29.0
 40
30.0
 40
30.0
 40
30.0
 40
31.0
 40
31.0
 40
31.0
 40
32.0
 40
32.0
 40
32.0
 40
33.0
 40
33.0
 40
33.0
 40
34.0
 40
34.0
 40
34.0
 40
35.0
 40
35.0
 40
35.0
 40
36.0
 40
36.0
 40
36.0
 40
37.0
 40
37.0
 40
37.0
 40
38.0
 40
38.0
 40
38.0
 40
39.0
 40
39.0
 40
39.0
 40
40.0
 40
40.0
 40
40.0
 40
40.0
 10
255.243719
 20
366.802586
 10
255.241304
 20
366.804679
 10
255.238892
 20
366.806771
 10
255.236487
 20
366.808869
 10
255.234084
 20
366.810969
 10
255.231692
 20
366.813079
 10
255.229314
 20
366.815206
 10
255.226937
 20
366.817336
 10
255.224577
 20
366.819489
 10
255.222254
 20
366.821651
 10
255.219934
 20
366.823816
 10
255.217657
 20
366.825999
 10
255.215369
 20
366.828261
 10
255.213084
 20
366.830524
 10
255.210792
 20
366.832871
 10
255.208532
 20
366.835254
 10
255.206272
 20
366.837639
 10
255.204049
 20
366.840059
 10
255.201894
 20
366.842451
 10
255.199742
 20
366.844846
 10
255.197667
 20
366.847209
 10
255.195417
 20
366.849831
 10
255.193169
 20
366.852451
 10
255.190762
 20
366.855321
 10
255.189059
 20
366.857364
 10
255.187787
 20
366.858891
 10
255.186917
 20
366.859951
 10
255.185934
 20
366.861156
 10
255.184952
 20
366.862361
 10
255.183866
 20
366.863699
 10
255.182847
 20
366.864961
 10
255.181829
 20
366.866226
 10
255.180884
 20
366.867414
 10
255.179822
 20
366.868761
 10
255.178759
 20
366.870109
 10
255.177592
 20
366.871606
 10
255.176877
 20
366.872534
 10
255.176702
 20
366.872761
 10
255.176552
 20
366.872951
 10
255.176399
 20
366.873151
 10
255.176244
 20
366.873351
 10
255.176087
 20
366.873559
 10
255.175934
 20
366.873756
 10
255.175781
 20
366.873954
 10
255.175639
 20
366.874141
 10
255.175492
 20
366.874334
 10
255.175344
 20
366.874529
 10
255.175194
 20
366.874726
 10
255.175082
 20
366.874874
 10
255.174997
 20
366.874986
 10
255.174937
 20
366.875066
 10
255.174872
 20
366.875151
 10
255.174807
 20
366.875236
 10
255.174739
 20
366.875326
 10
255.174674
 20
366.875411
 10
255.174609
 20
366.875496
 10
255.174552
 20
366.875576
 10
255.174492
 20
366.875651
 10
255.174434
 20
366.875729
 10
255.174379
 20
366.875804
 10
255.174327
 20
366.875871
 10
255.174274
 20
366.875939
 10
255.174227
 20
366.876001
 10
255.174182
 20
366.876061
 10
255.174137
 20
366.876121
 10
255.174094
 20
366.876179
 10
255.174052
 20
366.876234
 10
255.174009
 20
366.876289
 10
255.173969
 20
366.876341
 10
255.173934
 20
366.876386
 10
255.173899
 20
366.876434
 10
255.173869
 20
366.876469
 10
255.173827
 20
366.876526
 10
255.173784
 20
366.876584
 10
255.173727
 20
366.876659
 10
255.173677
 20
366.876724
 10
255.173629
 20
366.876789
 10
255.173587
 20
366.876841
 10
255.173547
 20
366.876896
 10
255.173507
 20
366.876949
 10
255.173467
 20
366.877001
 10
255.173434
 20
366.877046
 10
255.173399
 20
366.877091
 10
255.173374
 20
366.877126
 10
255.173332
 20
366.877181
 10
255.173277
 20
366.877256
 10
255.173194
 20
366.877364
 10
255.173129
 20
366.877451
 10
255.173062
 20
366.877541
 10
255.173007
 20
366.877611
 10
255.172954
 20
366.877681
 10
255.172902
 20
366.877751
 10
255.172849
 20
366.877819
 10
255.172804
 20
366.877879
 10
255.172757
 20
366.877941
 10
255.172717
 20
366.877994
 10
255.172664
 20
366.878061
 10
255.172527
 20
366.878244
 10
255.172304
 20
366.878536
 10
255.172109
 20
366.878796
 10
255.171912
 20
366.879056
 10
255.171736
 20
366.879291
 10
255.171537
 20
366.879559
 10
255.171339
 20
366.879826
 10
255.171112
 20
366.880131
 10
255.170867
 20
366.880461
 10
255.170619
 20
366.880794
 10
255.170349
 20
366.881161
 10
255.170007
 20
366.881624
 10
255.169519
 20
366.882281
 10
255.168877
 20
366.883149
 10
255.168169
 20
366.884109
 10
255.167459
 20
366.885069
 10
255.166672
 20
366.886136
 10
255.165829
 20
366.887274
 10
255.164987
 20
366.888414
 10
255.164081
 20
366.889636
 10
255.163154
 20
366.890891
 10
255.162227
 20
366.892146
 10
255.161269
 20
366.893444
 10
255.160314
 20
366.894736
  0
SPLINE
  5
391
100
AcDbEntity
  8
M4
  6
CONTINUOUS
370
25
 62
   154
100
AcDbSpline
210
0.0
220
0.0
230
-1.0
 70
     8
 71
     3
 72
    65
 73
    61
 43
0.0000001
 40
0.0
 40
0.0
 40
0.0
 40
0.0
 40
1.0
 40
1.0
 40
1.0
 40
2.0
 40
2.0
 40
2.0
 40
3.0
 40
3.0
 40
3.0
 40
4.0
 40
4.0
 40
4.0
 40
5.0
 40
5.0
 40
5.0
 40
6.0
 40
6.0
 40
6.0
 40
7.0
 40
7.0
 40
7.0
 40
8.0
 40
8.0
 40
8.0
 40
9.0
 40
9.0
 40
9.0
 40
10.0
 40
10.0
 40
10.0
 40
11.0
 40
11.0
 40
11.0
 40
12.0
 40
12.0
 40
12.0
 40
13.0
 40
13.0
 40
13.0
 40
14.0
 40
14.0
 40
14.0
 40
15.0
 40
15.0
 40
15.0
 40
16.0
 40
16.0
 40
16.0
 40
17.0
 40
17.0
 40
17.0
 40
18.0
 40
18.0
 40
18.0
 40
19.0
 40
19.0
 40
19.0
 40
20.0
 40
20.0
 40
20.0
 40
20.0
 10
254.745917
 20
493.538839
 10
254.745772
 20
493.536679
 10
254.745627
 20
493.534521
 10
254.745489
 20
493.532374
 10
254.745354
 20
493.530226
 10
254.745227
 20
493.528089
 10
254.745124
 20
493.525924
 10
254.745022
 20
493.523759
 10
254.744942
 20
493.521571
 10
254.744882
 20
493.519501
 10
254.744822
 20
493.517431
 10
254.744779
 20
493.515481
 10
254.744824
 20
493.513116
 10
254.744982
 20
493.504874
 10
254.746192
 20
493.491601
 10
254.748404
 20
493.479944
 10
254.750617
 20
493.468284
 10
254.753827
 20
493.458239
 10
254.757747
 20
493.448059
 10
254.761667
 20
493.437881
 10
254.766287
 20
493.427571
 10
254.771632
 20
493.417281
 10
254.776974
 20
493.406991
 10
254.783029
 20
493.396719
 10
254.788839
 20
493.387426
 10
254.794652
 20
493.378134
 10
254.800209
 20
493.369824
 10
254.806239
 20
493.361389
 10
254.812269
 20
493.352954
 10
254.818762
 20
493.344389
 10
254.825547
 20
493.336051
 10
254.832332
 20
493.327711
 10
254.839404
 20
493.319594
 10
254.846987
 20
493.311526
 10
254.854567
 20
493.303456
 10
254.862652
 20
493.295436
 10
254.870777
 20
493.287921
 10
254.878904
 20
493.280409
 10
254.887067
 20
493.273401
 10
254.895684
 20
493.266494
 10
254.904302
 20
493.259589
 10
254.913367
 20
493.252781
 10
254.922744
 20
493.246236
 10
254.932122
 20
493.239689
 10
254.941804
 20
493.233401
 10
254.951794
 20
493.227384
 10
254.961784
 20
493.221366
 10
254.972074
 20
493.215619
 10
254.982664
 20
493.210179
 10
254.993254
 20
493.204736
 10
255.004137
 20
493.199599
 10
255.015224
 20
493.194704
 10
255.026312
 20
493.189806
 10
255.037602
 20
493.185146
 10
255.049031
 20
493.180646
 10
255.060462
 20
493.176146
 10
255.072029
 20
493.171801
 10
255.083669
 20
493.167536
 10
255.095307
 20
493.163271
 10
255.107012
 20
493.159086
 10
255.118722
 20
493.154901
  0
LINE
  5
392
100
AcDbEntity
  8
M4
  6
CONTINUOUS
370
25
 62
   154
100
AcDbLine
 10
254.572794
 20
419.177904
 11
254.572794
 21
397.065386
  0
LINE
  5
393
100
AcDbEntity
  8
M4
  6
CONTINUOUS
370
25
 62
   154
100
AcDbLine
 10
254.572794
 20
388.709276
 11
254.572794
 21
388.677901
  0
ARC
  5
394
100
AcDbEntity
  8
M4
  6
CONTINUOUS
370
25
 62
   154
100
AcDbCircle
 10
268.072794
 20
421.677901
 40
1.0
100
AcDbArc
 50
90.0
 51
180.0
  0
ARC
  5
395
100
AcDbEntity
  8
M4
  6
CONTINUOUS
370
25
 62
   154
100
AcDbCircle
 10
253.572794
 20
397.065384
 40
1.0
100
AcDbArc
 50
282.839588
 51
360.0
  0
SPLINE
  5
396
100
AcDbEntity
  8
M4
  6
CONTINUOUS
370
25
 62
   154
100
AcDbSpline
210
0.0
220
0.0
230
-1.0
 70
     8
 71
     3
 72
    41
 73
    37
 43
0.0000001
 40
0.0
 40
0.0
 40
0.0
 40
0.0
 40
1.0
 40
1.0
 40
1.0
 40
2.0
 40
2.0
 40
2.0
 40
3.0
 40
3.0
 40
3.0
 40
4.0
 40
4.0
 40
4.0
 40
5.0
 40
5.0
 40
5.0
 40
6.0
 40
6.0
 40
6.0
 40
7.0
 40
7.0
 40
7.0
 40
8.0
 40
8.0
 40
8.0
 40
9.0
 40
9.0
 40
9.0
 40
10.0
 40
10.0
 40
10.0
 40
11.0
 40
11.0
 40
11.0
 40
12.0
 40
12.0
 40
12.0
 40
12.0
 10
255.247489
 20
366.806759
 10
255.251444
 20
366.802849
 10
255.255394
 20
366.798936
 10
255.259334
 20
366.795096
 10
255.263274
 20
366.791254
 10
255.267199
 20
366.787481
 10
255.271289
 20
366.783734
 10
255.275377
 20
366.779984
 10
255.279624
 20
366.776256
 10
255.283454
 20
366.772971
 10
255.287284
 20
366.769689
 10
255.290694
 20
366.766844
 10
255.295939
 20
366.763114
 10
255.303084
 20
366.758034
 10
255.313619
 20
366.751306
 10
255.323624
 20
366.746086
 10
255.333629
 20
366.740866
 10
255.343094
 20
366.737146
 10
255.353057
 20
366.734001
 10
255.363017
 20
366.730856
 10
255.373461
 20
366.728279
 10
255.384084
 20
366.726439
 10
255.394707
 20
366.724601
 10
255.405499
 20
366.723489
 10
255.416557
 20
366.722986
 10
255.427617
 20
366.722481
 10
255.438929
 20
366.722574
 10
255.450397
 20
366.723139
 10
255.461867
 20
366.723706
 10
255.473484
 20
366.724736
 10
255.485214
 20
366.726076
 10
255.496944
 20
366.727419
 10
255.508787
 20
366.729066
 10
255.520681
 20
366.730869
 10
255.532577
 20
366.732674
 10
255.544524
 20
366.734631
 10
255.556474
 20
366.736589
  0
LINE
  5
397
100
AcDbEntity
  8
M4
  6
CONTINUOUS
370
25
 62
   154
100
AcDbLine
 10
267.072794
 20
420.177906
 11
255.572794
 21
420.177906
  0
LINE
  5
398
100
AcDbEntity
  8
M4
  6
CONTINUOUS
370
25
 62
   154
100
AcDbLine
 10
262.572794
 20
387.677899
 11
262.572794
 21
381.177901
  0
LINE
  5
399
100
AcDbEntity
  8
M4
  6
CONTINUOUS
370
25
 62
   154
100
AcDbLine
 10
274.572792
 20
366.785079
 11
255.939627
 21
366.785079
  0
LINE
  5
39A
100
AcDbEntity
  8
M4
  6
CONTINUOUS
370
25
 62
   154
100
AcDbLine
 10
268.372794
 20
389.777906
 11
268.372794
 21
418.677904
  0
ARC
  5
39B
100
AcDbEntity
  8
M4
  6
CONTINUOUS
370
25
 62
   154
100
AcDbCircle
 10
254.572794
 20
392.677901
 40
3.5
100
AcDbArc
 50
102.839588
 51
180.0
  0
LINE
  5
39C
100
AcDbEntity
  8
M4
  6
CONTINUOUS
370
25
 62
   154
100
AcDbLine
 10
255.572794
 20
440.177901
 11
267.072794
 21
440.177901
  0
LINE
  5
39D
100
AcDbEntity
  8
M4
  6
CONTINUOUS
370
25
 62
   154
100
AcDbLine
 10
254.572794
 20
388.677901
 11
254.572794
 21
368.677901
  0
LINE
  5
39E
100
AcDbEntity
  8
M4
  6
CONTINUOUS
370
25
 62
   154
100
AcDbLine
 10
274.572792
 20
420.477906
 11
274.572792
 21
495.677901
  0
LINE
  5
39F
100
AcDbEntity
  8
M4
  6
CONTINUOUS
370
25
 62
   154
100
AcDbLine
 10
257.572794
 20
365.677906
 11
274.572792
 21
365.677906
  0
LINE
  5
3A0
100
AcDbEntity
  8
M4
  6
CONTINUOUS
370
25
 62
   154
100
AcDbLine
 10
255.248979
 20
368.219524
 11
274.572792
 21
368.219524
  0
SPLINE
  5
3A1
100
AcDbEntity
  8
M4
  6
CONTINUOUS
370
25
 62
   154
100
AcDbSpline
210
0.0
220
0.0
230
-1.0
 70
     8
 71
     3
 72
     8
 73
     4
 43
0.0000001
 40
0.0
 40
0.0
 40
0.0
 40
0.0
 40
1.0
 40
1.0
 40
1.0
 40
1.0
 10
255.248979
 20
368.219521
 10
255.204672
 20
368.219521
 10
255.161249
 20
368.213341
 10
255.118722
 20
368.200904
  0
ARC
  5
3A2
100
AcDbEntity
  8
M4
  6
CONTINUOUS
370
25
 62
   154
100
AcDbCircle
 10
254.072794
 20
388.709276
 40
0.5
100
AcDbArc
 50
0.0
 51
82.819244
  0
SPLINE
  5
3A3
100
AcDbEntity
  8
M4
  6
CONTINUOUS
370
25
 62
   154
100
AcDbSpline
210
0.0
220
0.0
230
-1.0
 70
     8
 71
     3
 72
    29
 73
    25
 43
0.0000001
 40
0.0
 40
0.0
 40
0.0
 40
0.0
 40
1.0
 40
1.0
 40
1.0
 40
2.0
 40
2.0
 40
2.0
 40
3.0
 40
3.0
 40
3.0
 40
4.0
 40
4.0
 40
4.0
 40
5.0
 40
5.0
 40
5.0
 40
6.0
 40
6.0
 40
6.0
 40
7.0
 40
7.0
 40
7.0
 40
8.0
 40
8.0
 40
8.0
 40
8.0
 10
255.939627
 20
366.785081
 10
255.922657
 20
366.784959
 10
255.905689
 20
366.784829
 10
255.888812
 20
366.784409
 10
255.871937
 20
366.783986
 10
255.855157
 20
366.783264
 10
255.838457
 20
366.782306
 10
255.821757
 20
366.781346
 10
255.805144
 20
366.780136
 10
255.788622
 20
366.778654
 10
255.772099
 20
366.777171
 10
255.755669
 20
366.775401
 10
255.739367
 20
366.773334
 10
255.723062
 20
366.771264
 10
255.706892
 20
366.768884
 10
255.690972
 20
366.766236
 10
255.675054
 20
366.763591
 10
255.659394
 20
366.760669
 10
255.644019
 20
366.757544
 10
255.628644
 20
366.754419
 10
255.613562
 20
366.751086
 10
255.599017
 20
366.747561
 10
255.584472
 20
366.744036
 10
255.570477
 20
366.740314
 10
255.556474
 20
366.736596
  0
LINE
  5
3A4
100
AcDbEntity
  8
M4
  6
CONTINUOUS
370
25
 62
   154
100
AcDbLine
 10
274.572792
 20
494.570724
 11
255.939627
 21
494.570724
  0
LINE
  5
3A5
100
AcDbEntity
  8
M4
  6
CONTINUOUS
370
25
 62
   154
100
AcDbLine
 10
255.248979
 20
493.136281
 11
274.572792
 21
493.136281
  0
ARC
  5
3A6
100
AcDbEntity
  8
M4
  6
CONTINUOUS
370
25
 62
   154
100
AcDbCircle
 10
255.572794
 20
380.177901
 40
1.0
100
AcDbArc
 50
90.0
 51
180.0
  0
LINE
  5
3A7
100
AcDbEntity
  8
M4
  6
CONTINUOUS
370
25
 62
   154
100
AcDbLine
 10
254.572794
 20
492.677901
 11
254.572794
 21
441.177901
  0
LINE
  5
3A8
100
AcDbEntity
  8
M4
  6
CONTINUOUS
370
25
 62
   154
100
AcDbLine
 10
272.572792
 20
422.677904
 11
272.572792
 21
437.677904
  0
LINE
  5
3A9
100
AcDbEntity
  8
M4
  6
CONTINUOUS
370
25
 62
   154
100
AcDbLine
 10
255.572794
 20
370.377896
 11
274.572792
 21
370.377896
  0
ARC
  5
3AA
100
AcDbEntity
  8
M4
  6
CONTINUOUS
370
25
 62
   154
100
AcDbCircle
 10
257.572794
 20
492.677901
 40
3.0
100
AcDbArc
 50
157.010821
 51
180.0
  0
ARC
  5
3AB
100
AcDbEntity
  8
M4
  6
CONTINUOUS
370
25
 62
   154
100
AcDbCircle
 10
255.572794
 20
419.177901
 40
1.0
100
AcDbArc
 50
90.0
 51
180.0
  0
ARC
  5
3AC
100
AcDbEntity
  8
M4
  6
CONTINUOUS
370
25
 62
   154
100
AcDbCircle
 10
257.572794
 20
368.677901
 40
3.0
100
AcDbArc
 50
216.379943
 51
270.0
  0
ARC
  5
3AD
100
AcDbEntity
  8
M4
  6
CONTINUOUS
370
25
 62
   154
100
AcDbCircle
 10
254.572794
 20
392.677901
 40
3.5
100
AcDbArc
 50
180.0
 51
262.819244
  0
ARC
  5
3AE
100
AcDbEntity
  8
M4
  6
CONTINUOUS
370
25
 62
   154
100
AcDbCircle
 10
255.572794
 20
371.377901
 40
1.0
100
AcDbArc
 50
180.0
 51
270.0
  0
SPLINE
  5
3AF
100
AcDbEntity
  8
M4
  6
CONTINUOUS
370
25
 62
   154
100
AcDbSpline
210
0.0
220
0.0
230
-1.0
 70
     8
 71
     3
 72
    41
 73
    37
 43
0.0000001
 40
0.0
 40
0.0
 40
0.0
 40
0.0
 40
1.0
 40
1.0
 40
1.0
 40
2.0
 40
2.0
 40
2.0
 40
3.0
 40
3.0
 40
3.0
 40
4.0
 40
4.0
 40
4.0
 40
5.0
 40
5.0
 40
5.0
 40
6.0
 40
6.0
 40
6.0
 40
7.0
 40
7.0
 40
7.0
 40
8.0
 40
8.0
 40
8.0
 40
9.0
 40
9.0
 40
9.0
 40
10.0
 40
10.0
 40
10.0
 40
11.0
 40
11.0
 40
11.0
 40
12.0
 40
12.0
 40
12.0
 40
12.0
 10
255.556474
 20
494.619209
 10
255.544479
 20
494.621169
 10
255.532484
 20
494.623131
 10
255.520544
 20
494.624936
 10
255.508607
 20
494.626739
 10
255.496719
 20
494.628389
 10
255.484944
 20
494.629726
 10
255.473172
 20
494.631064
 10
255.461509
 20
494.632096
 10
255.450002
 20
494.632651
 10
255.438494
 20
494.633206
 10
255.427134
 20
494.633294
 10
255.416042
 20
494.632771
 10
255.404949
 20
494.632249
 10
255.394117
 20
494.631124
 10
255.383462
 20
494.629256
 10
255.372807
 20
494.627386
 10
255.362322
 20
494.624784
 10
255.352337
 20
494.621601
 10
255.342352
 20
494.618419
 10
255.332857
 20
494.614664
 10
255.322822
 20
494.609384
 10
255.312789
 20
494.604101
 10
255.302212
 20
494.597301
 10
255.295072
 20
494.592176
 10
255.289912
 20
494.588474
 10
255.286539
 20
494.585649
 10
255.282759
 20
494.582389
 10
255.278982
 20
494.579126
 10
255.274792
 20
494.575434
 10
255.270762
 20
494.571716
 10
255.266732
 20
494.568001
 10
255.262857
 20
494.564264
 10
255.258969
 20
494.560459
 10
255.255084
 20
494.556651
 10
255.251182
 20
494.552779
 10
255.247284
 20
494.548906
  0
LINE
  5
3B0
100
AcDbEntity
  8
M4
  6
CONTINUOUS
370
25
 62
   154
100
AcDbLine
 10
255.572794
 20
387.677899
 11
262.572794
 21
387.677899
  0
ARC
  5
3B1
100
AcDbEntity
  8
M4
  6
CONTINUOUS
370
25
 62
   154
100
AcDbCircle
 10
257.572794
 20
492.677901
 40
3.0
100
AcDbArc
 50
90.0
 51
143.620057
  0
ARC
  5
3B2
100
AcDbEntity
  8
M4
  6
CONTINUOUS
370
25
 62
   154
100
AcDbCircle
 10
257.572794
 20
368.677901
 40
3.0
100
AcDbArc
 50
180.0
 51
202.989179
  0
LINE
  5
3B3
100
AcDbEntity
  8
M4
  6
CONTINUOUS
370
25
 62
   154
100
AcDbLine
 10
251.072794
 20
404.677904
 11
251.072794
 21
404.177904
  0
LINE
  5
3B4
100
AcDbEntity
  8
M4
  6
CONTINUOUS
370
25
 62
   154
100
AcDbLine
 10
254.572794
 20
490.677841
 11
254.554269
 21
490.628411
  0
LINE
  5
3B5
100
AcDbEntity
  8
M4
  6
CONTINUOUS
370
25
 62
   154
100
AcDbLine
 10
268.072794
 20
437.677904
 11
274.572792
 21
437.677904
  0
LINE
  5
3B6
100
AcDbEntity
  8
M4
  6
CONTINUOUS
370
25
 62
   154
100
AcDbLine
 10
274.572792
 20
420.677899
 11
268.372794
 21
418.677904
  0
LINE
  5
3B7
100
AcDbEntity
  8
M4
  6
CONTINUOUS
370
25
 62
   154
100
AcDbLine
 10
274.572792
 20
387.777901
 11
274.572792
 21
365.677906
  0
LINE
  5
3B8
100
AcDbEntity
  8
M4
  6
CONTINUOUS
370
25
 62
   154
100
AcDbLine
 10
255.157784
 20
494.457716
 11
255.078384
 21
494.344614
  0
LINE
  5
3B9
100
AcDbEntity
  8
M4
  6
CONTINUOUS
370
25
 62
   154
100
AcDbLine
 10
255.078384
 20
494.344614
 11
254.822297
 21
493.875721
  0
ARC
  5
3BA
100
AcDbEntity
  8
M4
  6
CONTINUOUS
370
25
 62
     6
100
AcDbCircle
 10
261.812702
 20
386.107581
 40
1.0
100
AcDbArc
 50
94.999105
 51
163.742547
  0
ARC
  5
3BB
100
AcDbEntity
  8
M4
  6
CONTINUOUS
370
25
 62
     6
100
AcDbCircle
 10
267.572794
 20
384.427901
 40
7.0
100
AcDbArc
 50
163.742886
 51
196.257039
  0
ARC
  5
3BC
100
AcDbEntity
  8
M4
  6
CONTINUOUS
370
25
 62
     6
100
AcDbCircle
 10
261.812702
 20
382.748221
 40
1.0
100
AcDbArc
 50
196.257348
 51
265.000019
  0
LINE
  5
3BD
100
AcDbEntity
  8
M4
  6
CONTINUOUS
370
25
 62
     6
100
AcDbLine
 10
262.572794
 20
381.677901
 11
262.572794
 21
387.177901
  0
LINE
  5
3BE
100
AcDbEntity
  8
M4
  6
CONTINUOUS
370
25
 62
     6
100
AcDbLine
 10
262.572794
 20
381.677901
 11
261.725547
 21
381.752026
  0
LINE
  5
3BF
100
AcDbEntity
  8
M4
  6
CONTINUOUS
370
25
 62
     6
100
AcDbLine
 10
262.572794
 20
387.177901
 11
261.725547
 21
387.103776
  0
ARC
  5
3C0
100
AcDbEntity
  8
M4
  6
CONTINUOUS
370
25
 62
     2
100
AcDbCircle
 10
247.072794
 20
406.677904
 40
1.0
100
AcDbArc
 50
180.0
 51
270.0
  0
ARC
  5
3C1
100
AcDbEntity
  8
M4
  6
CONTINUOUS
370
25
 62
     2
100
AcDbCircle
 10
254.572794
 20
467.177904
 40
1.0
100
AcDbArc
 50
90.0
 51
180.0
  0
ARC
  5
3C2
100
AcDbEntity
  8
M4
  6
CONTINUOUS
370
25
 62
     2
100
AcDbCircle
 10
254.572794
 20
459.677904
 40
1.0
100
AcDbArc
 50
180.0
 51
270.0
  0
LINE
  5
3C3
100
AcDbEntity
  8
M4
  6
CONTINUOUS
370
25
 62
     2
100
AcDbLine
 10
254.572794
 20
421.177904
 11
257.572794
 21
422.177904
  0
LINE
  5
3C4
100
AcDbEntity
  8
M4
  6
CONTINUOUS
370
25
 62
     2
100
AcDbLine
 10
253.572794
 20
460.877001
 11
254.572794
 21
460.877001
  0
LINE
  5
3C5
100
AcDbEntity
  8
M4
  6
CONTINUOUS
370
25
 62
     2
100
AcDbLine
 10
254.572794
 20
397.577904
 11
254.572794
 21
421.177904
  0
LINE
  5
3C6
100
AcDbEntity
  8
M4
  6
CONTINUOUS
370
25
 62
     2
100
AcDbLine
 10
246.072792
 20
454.677904
 11
246.072792
 21
406.677904
  0
ARC
  5
3C7
100
AcDbEntity
  8
M4
  6
CONTINUOUS
370
25
 62
     2
100
AcDbCircle
 10
247.072794
 20
454.677904
 40
1.0
100
AcDbArc
 50
90.0
 51
180.0
  0
ARC
  5
3C8
100
AcDbEntity
  8
M4
  6
CONTINUOUS
370
25
 62
     2
100
AcDbCircle
 10
251.072794
 20
395.506331
 40
1.0
100
AcDbArc
 50
321.057559
 51
355.397698
  0
ARC
  5
3C9
100
AcDbEntity
  8
M4
  6
CONTINUOUS
370
25
 62
     2
100
AcDbCircle
 10
251.072794
 20
395.345854
 40
1.0
100
AcDbArc
 50
4.602302
 51
60.0
  0
ARC
  5
3CA
100
AcDbEntity
  8
M4
  6
CONTINUOUS
370
25
 62
     2
100
AcDbCircle
 10
252.072794
 20
397.077904
 40
1.0
100
AcDbArc
 50
180.0
 51
270.0
  0
ARC
  5
3CB
100
AcDbEntity
  8
M4
  6
CONTINUOUS
370
25
 62
     2
100
AcDbCircle
 10
254.572794
 20
392.677904
 40
3.5
100
AcDbArc
 50
141.057559
 51
262.819249
  0
ARC
  5
3CC
100
AcDbEntity
  8
M4
  6
CONTINUOUS
370
25
 62
     2
100
AcDbCircle
 10
252.072794
 20
471.677904
 40
1.0
100
AcDbArc
 50
90.0
 51
180.0
  0
LINE
  5
3CD
100
AcDbEntity
  8
M4
  6
CONTINUOUS
370
25
 62
     2
100
AcDbLine
 10
254.572794
 20
439.177906
 11
254.572794
 21
472.677901
  0
LINE
  5
3CE
100
AcDbEntity
  8
M4
  6
CONTINUOUS
370
25
 62
     2
100
AcDbLine
 10
254.572794
 20
472.677901
 11
252.072794
 21
472.677901
  0
LINE
  5
3CF
100
AcDbEntity
  8
M4
  6
CONTINUOUS
370
25
 62
     2
100
AcDbLine
 10
253.572794
 20
459.677906
 11
253.572794
 21
467.177906
  0
LINE
  5
3D0
100
AcDbEntity
  8
M4
  6
CONTINUOUS
370
25
 62
     2
100
AcDbLine
 10
247.072794
 20
405.677904
 11
251.072794
 21
405.677904
  0
LINE
  5
3D1
100
AcDbEntity
  8
M4
  6
CONTINUOUS
370
25
 62
     2
100
AcDbLine
 10
252.572794
 20
396.077904
 11
254.572794
 21
397.577904
  0
LINE
  5
3D2
100
AcDbEntity
  8
M4
  6
CONTINUOUS
370
25
 62
     2
100
AcDbLine
 10
257.572794
 20
438.177904
 11
254.572794
 21
439.177906
  0
LINE
  5
3D3
100
AcDbEntity
  8
M4
  6
CONTINUOUS
370
25
 62
     2
100
AcDbLine
 10
252.072794
 20
396.077904
 11
252.572794
 21
396.077904
  0
LINE
  5
3D4
100
AcDbEntity
  8
M4
  6
CONTINUOUS
370
25
 62
     2
100
AcDbLine
 10
257.572794
 20
440.177901
 11
257.572794
 21
420.177904
  0
LINE
  5
3D5
100
AcDbEntity
  8
M4
  6
CONTINUOUS
370
25
 62
     2
100
AcDbLine
 10
251.072794
 20
471.677909
 11
251.072794
 21
397.077904
  0
LINE
  5
3D6
100
AcDbEntity
  8
M4
  6
CONTINUOUS
370
25
 62
     2
100
AcDbLine
 10
251.072794
 20
455.677906
 11
247.072794
 21
455.677906
  0
LINE
  5
3D7
100
AcDbEntity
  8
M4
  6
CONTINUOUS
370
25
 62
     7
100
AcDbLine
 10
143.627874
 20
420.577356
 11
158.627874
 21
420.577356
  0
LINE
  5
3D8
100
AcDbEntity
  8
M4
  6
CONTINUOUS
370
25
 62
     7
100
AcDbLine
 10
145.727874
 20
421.407351
 11
156.527874
 21
421.407351
  0
LINE
  5
3D9
100
AcDbEntity
  8
M4
  6
CONTINUOUS
370
25
 62
     7
100
AcDbLine
 10
145.727874
 20
421.448936
 11
156.527874
 21
421.448936
  0
LINE
  5
3DA
100
AcDbEntity
  8
M4
  6
CONTINUOUS
370
25
 62
     7
100
AcDbLine
 10
158.627874
 20
420.840011
 11
143.627874
 21
420.840011
  0
LINE
  5
3DB
100
AcDbEntity
  8
M4
  6
CONTINUOUS
370
25
 62
     7
100
AcDbLine
 10
145.727874
 20
421.407351
 11
145.727874
 21
430.677901
  0
LINE
  5
3DC
100
AcDbEntity
  8
M4
  6
CONTINUOUS
370
25
 62
     7
100
AcDbLine
 10
146.727874
 20
431.677901
 11
145.725702
 21
430.675729
  0
LINE
  5
3DD
100
AcDbEntity
  8
M4
  6
CONTINUOUS
370
25
 62
     7
100
AcDbLine
 10
144.127874
 20
445.477901
 11
144.127874
 21
448.027736
  0
LINE
  5
3DE
100
AcDbEntity
  8
M4
  6
CONTINUOUS
370
25
 62
     7
100
AcDbLine
 10
157.127874
 20
449.027736
 11
145.127874
 21
449.027736
  0
ARC
  5
3DF
100
AcDbEntity
  8
M4
  6
CONTINUOUS
370
25
 62
     7
100
AcDbCircle
 10
145.127874
 20
448.027736
 40
1.0
100
AcDbArc
 50
90.0
 51
180.0
  0
ARC
  5
3E0
100
AcDbEntity
  8
M4
  6
CONTINUOUS
370
25
 62
     7
100
AcDbCircle
 10
157.127874
 20
448.027736
 40
1.0
100
AcDbArc
 50
0.0
 51
90.0
  0
ARC
  5
3E1
100
AcDbEntity
  8
M4
  6
CONTINUOUS
370
25
 62
     7
100
AcDbCircle
 10
145.127704
 20
441.529684
 40
0.99983
100
AcDbArc
 50
180.009772
 51
270.009769
  0
ARC
  5
3E2
100
AcDbEntity
  8
M4
  6
CONTINUOUS
370
25
 62
     7
100
AcDbCircle
 10
157.128047
 20
441.529684
 40
0.99983
100
AcDbArc
 50
269.990231
 51
359.990228
  0
LINE
  5
3E3
100
AcDbEntity
  8
M4
  6
CONTINUOUS
370
25
 62
     7
100
AcDbLine
 10
158.127874
 20
445.477901
 11
158.127874
 21
448.027736
  0
LINE
  5
3E4
100
AcDbEntity
  8
M4
  6
CONTINUOUS
370
25
 62
     7
100
AcDbLine
 10
144.127874
 20
441.952121
 11
144.127874
 21
445.477901
  0
LINE
  5
3E5
100
AcDbEntity
  8
M4
  6
CONTINUOUS
370
25
 62
     7
100
AcDbLine
 10
145.127874
 20
440.529854
 11
157.127874
 21
440.529854
  0
LINE
  5
3E6
100
AcDbEntity
  8
M4
  6
CONTINUOUS
370
25
 62
     7
100
AcDbLine
 10
144.127874
 20
441.529514
 11
144.127874
 21
441.952121
  0
ARC
  5
3E7
100
AcDbEntity
  8
M4
  6
CONTINUOUS
370
25
 62
     7
100
AcDbCircle
 10
145.127704
 20
444.502126
 40
0.99983
100
AcDbArc
 50
180.009772
 51
270.009769
  0
LINE
  5
3E8
100
AcDbEntity
  8
M4
  6
CONTINUOUS
370
25
 62
     7
100
AcDbLine
 10
158.127874
 20
441.529514
 11
158.127874
 21
441.952121
  0
ARC
  5
3E9
100
AcDbEntity
  8
M4
  6
CONTINUOUS
370
25
 62
     7
100
AcDbCircle
 10
157.128047
 20
444.502126
 40
0.99983
100
AcDbArc
 50
269.990231
 51
359.990228
  0
LINE
  5
3EA
100
AcDbEntity
  8
M4
  6
CONTINUOUS
370
25
 62
     7
100
AcDbLine
 10
158.127874
 20
441.952121
 11
158.127874
 21
445.477901
  0
LINE
  5
3EB
100
AcDbEntity
  8
M4
  6
CONTINUOUS
370
25
 62
     7
100
AcDbLine
 10
157.127874
 20
443.502296
 11
145.127874
 21
443.502296
  0
LINE
  5
3EC
100
AcDbEntity
  8
M4
  6
CONTINUOUS
370
25
 62
     7
100
AcDbLine
 10
158.627874
 20
431.677901
 11
143.627874
 21
431.677901
  0
LINE
  5
3ED
100
AcDbEntity
  8
M4
  6
CONTINUOUS
370
25
 62
     7
100
AcDbLine
 10
156.527874
 20
421.407351
 11
156.527874
 21
431.677901
  0
CIRCLE
  5
3EE
100
AcDbEntity
  8
M4
  6
CONTINUOUS
370
25
 62
   154
100
AcDbCircle
 10
163.627874
 20
485.777736
 40
2.75
  0
CIRCLE
  5
3EF
100
AcDbEntity
  8
M4
  6
CONTINUOUS
370
25
 62
   154
100
AcDbCircle
 10
138.627874
 20
485.777736
 40
2.75
  0
CIRCLE
  5
3F0
100
AcDbEntity
  8
M4
  6
CONTINUOUS
370
25
 62
   154
100
AcDbCircle
 10
138.627874
 20
375.277736
 40
2.75
  0
CIRCLE
  5
3F1
100
AcDbEntity
  8
M4
  6
CONTINUOUS
370
25
 62
   154
100
AcDbCircle
 10
163.627874
 20
375.277736
 40
2.75
  0
LINE
  5
3F2
100
AcDbEntity
  8
M4
  6
CONTINUOUS
370
25
 62
   154
100
AcDbLine
 10
167.627874
 20
495.527736
 11
173.343992
 21
495.527736
  0
LINE
  5
3F3
100
AcDbEntity
  8
M4
  6
CONTINUOUS
370
25
 62
   154
100
AcDbLine
 10
142.627874
 20
495.527736
 11
148.343992
 21
495.527736
  0
LINE
  5
3F4
100
AcDbEntity
  8
M4
  6
CONTINUOUS
370
25
 62
   154
100
AcDbLine
 10
117.627874
 20
495.527736
 11
123.343992
 21
495.527736
  0
LINE
  5
3F5
100
AcDbEntity
  8
M4
  6
CONTINUOUS
370
25
 62
   154
100
AcDbLine
 10
117.627874
 20
365.527741
 11
123.343979
 21
365.527741
  0
LINE
  5
3F6
100
AcDbEntity
  8
M4
  6
CONTINUOUS
370
25
 62
   154
100
AcDbLine
 10
142.627874
 20
365.527741
 11
148.343979
 21
365.527741
  0
LINE
  5
3F7
100
AcDbEntity
  8
M4
  6
CONTINUOUS
370
25
 62
   154
100
AcDbLine
 10
167.627874
 20
365.527741
 11
173.343979
 21
365.527741
  0
LINE
  5
3F8
100
AcDbEntity
  8
M4
  6
CONTINUOUS
370
25
 62
   154
100
AcDbLine
 10
128.911769
 20
365.527741
 11
134.627874
 21
365.527741
  0
LINE
  5
3F9
100
AcDbEntity
  8
M4
  6
CONTINUOUS
370
25
 62
   154
100
AcDbLine
 10
153.911769
 20
365.527741
 11
159.627874
 21
365.527741
  0
LINE
  5
3FA
100
AcDbEntity
  8
M4
  6
CONTINUOUS
370
25
 62
   154
100
AcDbLine
 10
178.911769
 20
365.527741
 11
184.627874
 21
365.527741
  0
LINE
  5
3FB
100
AcDbEntity
  8
M4
  6
CONTINUOUS
370
25
 62
   154
100
AcDbLine
 10
178.911757
 20
495.527736
 11
184.627874
 21
495.527736
  0
LINE
  5
3FC
100
AcDbEntity
  8
M4
  6
CONTINUOUS
370
25
 62
   154
100
AcDbLine
 10
153.911757
 20
495.527736
 11
159.627874
 21
495.527736
  0
LINE
  5
3FD
100
AcDbEntity
  8
M4
  6
CONTINUOUS
370
25
 62
   154
100
AcDbLine
 10
128.911757
 20
495.527736
 11
134.627874
 21
495.527736
  0
LINE
  5
3FE
100
AcDbEntity
  8
M4
  6
DASHDOT
370
13
100
AcDbLine
 10
155.877874
 20
485.777736
 11
171.377874
 21
485.777736
  0
LINE
  5
3FF
100
AcDbEntity
  8
M4
  6
DASHDOT
370
13
100
AcDbLine
 10
163.627874
 20
478.027736
 11
163.627874
 21
493.527736
  0
LINE
  5
400
100
AcDbEntity
  8
M4
  6
DASHDOT
370
13
100
AcDbLine
 10
130.877874
 20
485.777736
 11
146.377874
 21
485.777736
  0
LINE
  5
401
100
AcDbEntity
  8
M4
  6
DASHDOT
370
13
100
AcDbLine
 10
138.627874
 20
478.027736
 11
138.627874
 21
493.527736
  0
LINE
  5
402
100
AcDbEntity
  8
M4
  6
DASHDOT
370
13
100
AcDbLine
 10
155.877874
 20
375.277736
 11
171.377874
 21
375.277736
  0
LINE
  5
403
100
AcDbEntity
  8
M4
  6
DASHDOT
370
13
100
AcDbLine
 10
163.627874
 20
367.527736
 11
163.627874
 21
383.027736
  0
LINE
  5
404
100
AcDbEntity
  8
M4
  6
DASHDOT
370
13
100
AcDbLine
 10
130.877874
 20
375.277736
 11
146.377874
 21
375.277736
  0
LINE
  5
405
100
AcDbEntity
  8
M4
  6
DASHDOT
370
13
100
AcDbLine
 10
138.627874
 20
367.527736
 11
138.627874
 21
383.027736
  0
LINE
  5
406
100
AcDbEntity
  8
M4
  6
CONTINUOUS
370
25
 62
     2
100
AcDbLine
 10
118.127874
 20
455.527736
 11
139.127874
 21
455.527736
  0
LINE
  5
407
100
AcDbEntity
  8
M4
  6
CONTINUOUS
370
25
 62
     2
100
AcDbLine
 10
184.127874
 20
454.027736
 11
163.127874
 21
454.027736
  0
LINE
  5
408
100
AcDbEntity
  8
M4
  6
CONTINUOUS
370
25
 62
     2
100
AcDbLine
 10
185.127877
 20
408.027736
 11
185.127877
 21
453.027736
  0
LINE
  5
409
100
AcDbEntity
  8
M4
  6
CONTINUOUS
370
25
 62
     2
100
AcDbLine
 10
139.127874
 20
454.027736
 11
118.127874
 21
454.027736
  0
LINE
  5
40A
100
AcDbEntity
  8
M4
  6
CONTINUOUS
370
25
 62
     2
100
AcDbLine
 10
163.127874
 20
455.527736
 11
184.127874
 21
455.527736
  0
LINE
  5
40B
100
AcDbEntity
  8
M4
  6
CONTINUOUS
370
25
 62
     2
100
AcDbLine
 10
129.827877
 20
389.027736
 11
147.427874
 21
389.027736
  0
LINE
  5
40C
100
AcDbEntity
  8
M4
  6
CONTINUOUS
370
25
 62
     2
100
AcDbLine
 10
118.127874
 20
407.027736
 11
139.127874
 21
407.027736
  0
LINE
  5
40D
100
AcDbEntity
  8
M4
  6
CONTINUOUS
370
25
 62
     2
100
AcDbLine
 10
163.127874
 20
407.027736
 11
184.127874
 21
407.027736
  0
LINE
  5
40E
100
AcDbEntity
  8
M4
  6
CONTINUOUS
370
25
 62
     2
100
AcDbLine
 10
139.627874
 20
403.527736
 11
162.627874
 21
403.527736
  0
LINE
  5
40F
100
AcDbEntity
  8
M4
  6
CONTINUOUS
370
25
 62
     2
100
AcDbLine
 10
164.827874
 20
395.927736
 11
147.427874
 21
395.927736
  0
LINE
  5
410
100
AcDbEntity
  8
M4
  6
CONTINUOUS
370
25
 62
     2
100
AcDbLine
 10
139.127874
 20
405.527736
 11
118.127874
 21
405.527736
  0
LINE
  5
411
100
AcDbEntity
  8
M4
  6
CONTINUOUS
370
25
 62
     2
100
AcDbLine
 10
172.427874
 20
389.027736
 11
172.427874
 21
395.927736
  0
LINE
  5
412
100
AcDbEntity
  8
M4
  6
CONTINUOUS
370
25
 62
     2
100
AcDbLine
 10
164.827874
 20
389.027736
 11
164.827874
 21
395.927736
  0
LINE
  5
413
100
AcDbEntity
  8
M4
  6
CONTINUOUS
370
25
 62
     2
100
AcDbLine
 10
161.627874
 20
460.527739
 11
140.627874
 21
460.527739
  0
LINE
  5
414
100
AcDbEntity
  8
M4
  6
CONTINUOUS
370
25
 62
     2
100
AcDbLine
 10
115.627874
 20
408.027736
 11
115.627874
 21
453.027736
  0
LINE
  5
415
100
AcDbEntity
  8
M4
  6
CONTINUOUS
370
25
 62
     2
100
AcDbLine
 10
186.627877
 20
453.027736
 11
186.627877
 21
408.027736
  0
LINE
  5
416
100
AcDbEntity
  8
M4
  6
CONTINUOUS
370
25
 62
     2
100
AcDbLine
 10
147.427874
 20
395.927736
 11
147.427874
 21
389.027736
  0
LINE
  5
417
100
AcDbEntity
  8
M4
  6
CONTINUOUS
370
25
 62
     2
100
AcDbLine
 10
117.127874
 20
453.027736
 11
117.127874
 21
408.027736
  0
LINE
  5
418
100
AcDbEntity
  8
M4
  6
CONTINUOUS
370
25
 62
     2
100
AcDbLine
 10
184.127874
 20
408.027736
 11
179.627874
 21
408.027736
  0
CIRCLE
  5
419
100
AcDbEntity
  8
M4
  6
CONTINUOUS
370
25
 62
     2
100
AcDbCircle
 10
163.627874
 20
466.277736
 40
4.25
  0
CIRCLE
  5
41A
100
AcDbEntity
  8
M4
  6
CONTINUOUS
370
25
 62
     2
100
AcDbCircle
 10
138.627874
 20
466.277736
 40
4.25
  0
LINE
  5
41B
100
AcDbEntity
  8
M4
  6
CONTINUOUS
370
25
 62
     2
100
AcDbLine
 10
113.627874
 20
396.927736
 11
113.627874
 21
471.527739
  0
ARC
  5
41C
100
AcDbEntity
  8
M4
  6
CONTINUOUS
370
25
 62
     2
100
AcDbCircle
 10
114.627874
 20
396.927736
 40
1.0
100
AcDbArc
 50
180.0
 51
270.0
  0
ARC
  5
41D
100
AcDbEntity
  8
M4
  6
CONTINUOUS
370
25
 62
     2
100
AcDbCircle
 10
187.627874
 20
396.927736
 40
1.0
100
AcDbArc
 50
270.0
 51
360.0
  0
LINE
  5
41E
100
AcDbEntity
  8
M4
  6
CONTINUOUS
370
25
 62
     2
100
AcDbLine
 10
129.827877
 20
389.027736
 11
129.827877
 21
395.927736
  0
LINE
  5
41F
100
AcDbEntity
  8
M4
  6
CONTINUOUS
370
25
 62
     2
100
AcDbLine
 10
187.627874
 20
395.927736
 11
172.427874
 21
395.927736
  0
LINE
  5
420
100
AcDbEntity
  8
M4
  6
CONTINUOUS
370
25
 62
     2
100
AcDbLine
 10
164.827874
 20
395.275924
 11
172.427874
 21
395.275924
  0
LINE
  5
421
100
AcDbEntity
  8
M4
  6
CONTINUOUS
370
25
 62
     2
100
AcDbLine
 10
114.627877
 20
472.527734
 11
187.627874
 21
472.527734
  0
LINE
  5
422
100
AcDbEntity
  8
M4
  6
CONTINUOUS
370
25
 62
     2
100
AcDbLine
 10
129.827877
 20
395.927736
 11
114.627877
 21
395.927736
  0
LINE
  5
423
100
AcDbEntity
  8
M4
  6
CONTINUOUS
370
25
 62
     2
100
AcDbLine
 10
188.627877
 20
471.527739
 11
188.627877
 21
396.927736
  0
LINE
  5
424
100
AcDbEntity
  8
M4
  6
CONTINUOUS
370
25
 62
     2
100
AcDbLine
 10
129.827877
 20
395.275924
 11
147.427874
 21
395.275924
  0
LINE
  5
425
100
AcDbEntity
  8
M4
  6
CONTINUOUS
370
25
 62
     2
100
AcDbLine
 10
179.627874
 20
412.527736
 11
184.127874
 21
412.527736
  0
LINE
  5
426
100
AcDbEntity
  8
M4
  6
CONTINUOUS
370
25
 62
     2
100
AcDbLine
 10
139.127874
 20
404.027736
 11
139.127874
 21
459.027736
  0
ARC
  5
427
100
AcDbEntity
  8
M4
  6
CONTINUOUS
370
25
 62
     2
100
AcDbCircle
 10
139.627874
 20
404.027736
 40
0.5
100
AcDbArc
 50
180.0
 51
270.0
  0
ARC
  5
428
100
AcDbEntity
  8
M4
  6
CONTINUOUS
370
25
 62
     2
100
AcDbCircle
 10
184.127874
 20
453.027736
 40
2.5
100
AcDbArc
 50
0.0
 51
90.0
  0
ARC
  5
429
100
AcDbEntity
  8
M4
  6
CONTINUOUS
370
25
 62
     2
100
AcDbCircle
 10
184.127874
 20
453.027736
 40
1.0
100
AcDbArc
 50
0.0
 51
90.0
  0
ARC
  5
42A
100
AcDbEntity
  8
M4
  6
CONTINUOUS
370
25
 62
     2
100
AcDbCircle
 10
140.627874
 20
459.027736
 40
1.5
100
AcDbArc
 50
90.0
 51
180.0
  0
ARC
  5
42B
100
AcDbEntity
  8
M4
  6
CONTINUOUS
370
25
 62
     2
100
AcDbCircle
 10
184.127874
 20
408.027736
 40
1.0
100
AcDbArc
 50
270.0
 51
360.0
  0
ARC
  5
42C
100
AcDbEntity
  8
M4
  6
CONTINUOUS
370
25
 62
     2
100
AcDbCircle
 10
184.127874
 20
408.027736
 40
2.5
100
AcDbArc
 50
270.0
 51
360.0
  0
ARC
  5
42D
100
AcDbEntity
  8
M4
  6
CONTINUOUS
370
25
 62
     2
100
AcDbCircle
 10
118.127874
 20
408.027736
 40
1.0
100
AcDbArc
 50
180.0
 51
270.0
  0
ARC
  5
42E
100
AcDbEntity
  8
M4
  6
CONTINUOUS
370
25
 62
     2
100
AcDbCircle
 10
118.127874
 20
408.027736
 40
2.5
100
AcDbArc
 50
180.0
 51
270.0
  0
ARC
  5
42F
100
AcDbEntity
  8
M4
  6
CONTINUOUS
370
25
 62
     2
100
AcDbCircle
 10
162.627874
 20
404.027736
 40
0.5
100
AcDbArc
 50
270.0
 51
360.0
  0
ARC
  5
430
100
AcDbEntity
  8
M4
  6
CONTINUOUS
370
25
 62
     2
100
AcDbCircle
 10
118.127874
 20
453.027736
 40
2.5
100
AcDbArc
 50
90.0
 51
180.0
  0
ARC
  5
431
100
AcDbEntity
  8
M4
  6
CONTINUOUS
370
25
 62
     2
100
AcDbCircle
 10
161.627874
 20
459.027736
 40
1.5
100
AcDbArc
 50
0.0
 51
90.0
  0
ARC
  5
432
100
AcDbEntity
  8
M4
  6
CONTINUOUS
370
25
 62
     2
100
AcDbCircle
 10
114.627874
 20
471.527736
 40
1.0
100
AcDbArc
 50
90.0
 51
180.0
  0
ARC
  5
433
100
AcDbEntity
  8
M4
  6
CONTINUOUS
370
25
 62
     2
100
AcDbCircle
 10
118.127874
 20
453.027736
 40
1.0
100
AcDbArc
 50
90.0
 51
180.0
  0
ARC
  5
434
100
AcDbEntity
  8
M4
  6
CONTINUOUS
370
25
 62
     2
100
AcDbCircle
 10
187.627874
 20
471.527736
 40
1.0
100
AcDbArc
 50
0.0
 51
90.0
  0
LINE
  5
435
100
AcDbEntity
  8
M4
  6
CONTINUOUS
370
25
 62
     2
100
AcDbLine
 10
179.627874
 20
408.027736
 11
179.627874
 21
412.527736
  0
LINE
  5
436
100
AcDbEntity
  8
M4
  6
CONTINUOUS
370
25
 62
     2
100
AcDbLine
 10
164.827874
 20
389.027736
 11
172.427874
 21
389.027736
  0
LINE
  5
437
100
AcDbEntity
  8
M4
  6
CONTINUOUS
370
25
 62
     2
100
AcDbLine
 10
163.127874
 20
404.027736
 11
163.127874
 21
459.027736
  0
LINE
  5
438
100
AcDbEntity
  8
M4
  6
CONTINUOUS
370
25
 62
     2
100
AcDbLine
 10
184.127874
 20
412.527736
 11
184.127874
 21
408.027736
  0
LINE
  5
439
100
AcDbEntity
  8
M4
  6
CONTINUOUS
370
25
 62
     2
100
AcDbLine
 10
184.127874
 20
405.527736
 11
163.127874
 21
405.527736
  0
LINE
  5
43A
100
AcDbEntity
  8
M4
  6
CONTINUOUS
370
25
 62
   154
100
AcDbLine
 10
114.127874
 20
490.827736
 11
114.977874
 21
490.827736
  0
LINE
  5
43B
100
AcDbEntity
  8
M4
  6
CONTINUOUS
370
25
 62
   154
100
AcDbLine
 10
142.727874
 20
483.389241
 11
142.727874
 21
488.166231
  0
LINE
  5
43C
100
AcDbEntity
  8
M4
  6
CONTINUOUS
370
25
 62
   154
100
AcDbLine
 10
139.627874
 20
404.027736
 11
162.627874
 21
404.027736
  0
LINE
  5
43D
100
AcDbEntity
  8
M4
  6
CONTINUOUS
370
25
 62
   154
100
AcDbLine
 10
164.977874
 20
491.327736
 11
164.977874
 21
492.986111
  0
LINE
  5
43E
100
AcDbEntity
  8
M4
  6
CONTINUOUS
370
25
 62
   154
100
AcDbLine
 10
137.277874
 20
492.986111
 11
137.277874
 21
491.327736
  0
LINE
  5
43F
100
AcDbEntity
  8
M4
  6
CONTINUOUS
370
25
 62
   154
100
AcDbLine
 10
162.277874
 20
492.986111
 11
162.277874
 21
491.327736
  0
LINE
  5
440
100
AcDbEntity
  8
M4
  6
CONTINUOUS
370
25
 62
   154
100
AcDbLine
 10
168.627874
 20
494.527736
 11
168.627874
 21
482.527736
  0
LINE
  5
441
100
AcDbEntity
  8
M4
  6
CONTINUOUS
370
25
 62
   154
100
AcDbLine
 10
158.627874
 20
482.527736
 11
158.627874
 21
494.527736
  0
LINE
  5
442
100
AcDbEntity
  8
M4
  6
CONTINUOUS
370
25
 62
   154
100
AcDbLine
 10
187.277877
 20
490.827736
 11
188.127877
 21
490.827736
  0
LINE
  5
443
100
AcDbEntity
  8
M4
  6
CONTINUOUS
370
25
 62
   154
100
AcDbLine
 10
159.527874
 20
488.166231
 11
159.527874
 21
483.379299
  0
LINE
  5
444
100
AcDbEntity
  8
M4
  6
CONTINUOUS
370
25
 62
   154
100
AcDbLine
 10
167.727874
 20
483.379299
 11
167.727874
 21
488.166231
  0
ARC
  5
445
100
AcDbEntity
  8
M4
  6
CONTINUOUS
370
25
 62
   154
100
AcDbCircle
 10
117.627874
 20
494.527736
 40
1.0
100
AcDbArc
 50
0.0
 51
90.0
  0
ARC
  5
446
100
AcDbEntity
  8
M4
  6
CONTINUOUS
370
25
 62
   154
100
AcDbCircle
 10
134.627874
 20
494.527736
 40
1.0
100
AcDbArc
 50
90.0
 51
180.0
  0
ARC
  5
447
100
AcDbEntity
  8
M4
  6
CONTINUOUS
370
25
 62
   154
100
AcDbCircle
 10
142.627874
 20
494.527736
 40
1.0
100
AcDbArc
 50
0.0
 51
90.0
  0
ARC
  5
448
100
AcDbEntity
  8
M4
  6
CONTINUOUS
370
25
 62
   154
100
AcDbCircle
 10
159.627874
 20
494.527736
 40
1.0
100
AcDbArc
 50
90.0
 51
180.0
  0
ARC
  5
449
100
AcDbEntity
  8
M4
  6
CONTINUOUS
370
25
 62
   154
100
AcDbCircle
 10
138.627874
 20
485.777736
 40
4.75
100
AcDbArc
 50
210.326984
 51
329.673029
  0
ARC
  5
44A
100
AcDbEntity
  8
M4
  6
CONTINUOUS
370
25
 62
   154
100
AcDbCircle
 10
167.627874
 20
494.527736
 40
1.0
100
AcDbArc
 50
0.0
 51
90.0
  0
ARC
  5
44B
100
AcDbEntity
  8
M4
  6
CONTINUOUS
370
25
 62
   154
100
AcDbCircle
 10
163.627874
 20
485.777736
 40
4.75
100
AcDbArc
 50
210.326971
 51
329.673016
  0
SPLINE
  5
44C
100
AcDbEntity
  8
M4
  6
CONTINUOUS
370
25
 62
   154
100
AcDbSpline
210
0.0
220
0.0
230
-1.0
 70
     8
 71
     3
 72
    29
 73
    25
 43
0.0000001
 40
0.0
 40
0.0
 40
0.0
 40
0.0
 40
1.0
 40
1.0
 40
1.0
 40
2.0
 40
2.0
 40
2.0
 40
3.0
 40
3.0
 40
3.0
 40
4.0
 40
4.0
 40
4.0
 40
5.0
 40
5.0
 40
5.0
 40
6.0
 40
6.0
 40
6.0
 40
7.0
 40
7.0
 40
7.0
 40
8.0
 40
8.0
 40
8.0
 40
8.0
 10
162.777874
 20
490.827736
 10
162.848667
 20
490.827736
 10
162.919452
 20
490.827736
 10
162.990249
 20
490.827736
 10
163.061047
 20
490.827736
 10
163.131842
 20
490.827736
 10
163.202652
 20
490.827736
 10
163.273462
 20
490.827736
 10
163.344277
 20
490.827736
 10
163.415117
 20
490.827736
 10
163.485957
 20
490.827736
 10
163.556812
 20
490.827736
 10
163.627679
 20
490.827736
 10
163.698547
 20
490.827736
 10
163.769422
 20
490.827736
 10
163.840289
 20
490.827736
 10
163.911154
 20
490.827736
 10
163.982012
 20
490.827736
 10
164.052862
 20
490.827736
 10
164.123714
 20
490.827736
 10
164.194562
 20
490.827736
 10
164.265394
 20
490.827736
 10
164.336227
 20
490.827736
 10
164.407052
 20
490.827736
 10
164.477874
 20
490.827736
  0
SPLINE
  5
44D
100
AcDbEntity
  8
M4
  6
CONTINUOUS
370
25
 62
   154
100
AcDbSpline
210
0.0
220
0.0
230
-1.0
 70
     8
 71
     3
 72
     8
 73
     4
 43
0.0000001
 40
0.0
 40
0.0
 40
0.0
 40
0.0
 40
1.0
 40
1.0
 40
1.0
 40
1.0
 10
164.477874
 20
490.827736
 10
164.532784
 20
490.827736
 10
164.586367
 20
490.836519
 10
164.638777
 20
490.854331
  0
SPLINE
  5
44E
100
AcDbEntity
  8
M4
  6
CONTINUOUS
370
25
 62
   154
100
AcDbSpline
210
0.0
220
0.0
230
-1.0
 70
     8
 71
     3
 72
     8
 73
     4
 43
0.0000001
 40
0.0
 40
0.0
 40
0.0
 40
0.0
 40
1.0
 40
1.0
 40
1.0
 40
1.0
 10
139.477874
 20
490.827736
 10
139.532784
 20
490.827736
 10
139.586367
 20
490.836519
 10
139.638777
 20
490.854331
  0
SPLINE
  5
44F
100
AcDbEntity
  8
M4
  6
CONTINUOUS
370
25
 62
   154
100
AcDbSpline
210
0.0
220
0.0
230
-1.0
 70
     8
 71
     3
 72
    29
 73
    25
 43
0.0000001
 40
0.0
 40
0.0
 40
0.0
 40
0.0
 40
1.0
 40
1.0
 40
1.0
 40
2.0
 40
2.0
 40
2.0
 40
3.0
 40
3.0
 40
3.0
 40
4.0
 40
4.0
 40
4.0
 40
5.0
 40
5.0
 40
5.0
 40
6.0
 40
6.0
 40
6.0
 40
7.0
 40
7.0
 40
7.0
 40
8.0
 40
8.0
 40
8.0
 40
8.0
 10
137.777874
 20
490.827736
 10
137.848667
 20
490.827736
 10
137.919452
 20
490.827736
 10
137.990249
 20
490.827736
 10
138.061047
 20
490.827736
 10
138.131842
 20
490.827736
 10
138.202652
 20
490.827736
 10
138.273462
 20
490.827736
 10
138.344277
 20
490.827736
 10
138.415117
 20
490.827736
 10
138.485957
 20
490.827736
 10
138.556812
 20
490.827736
 10
138.627679
 20
490.827736
 10
138.698547
 20
490.827736
 10
138.769422
 20
490.827736
 10
138.840289
 20
490.827736
 10
138.911154
 20
490.827736
 10
138.982012
 20
490.827736
 10
139.052862
 20
490.827736
 10
139.123714
 20
490.827736
 10
139.194562
 20
490.827736
 10
139.265394
 20
490.827736
 10
139.336227
 20
490.827736
 10
139.407052
 20
490.827736
 10
139.477874
 20
490.827736
  0
ARC
  5
450
100
AcDbEntity
  8
M4
  6
CONTINUOUS
370
25
 62
   154
100
AcDbCircle
 10
184.627874
 20
494.527736
 40
1.0
100
AcDbArc
 50
90.0
 51
180.0
  0
SPLINE
  5
451
100
AcDbEntity
  8
M4
  6
CONTINUOUS
370
25
 62
   154
100
AcDbSpline
210
0.0
220
0.0
230
-1.0
 70
     8
 71
     3
 72
     8
 73
     4
 43
0.0000001
 40
0.0
 40
0.0
 40
0.0
 40
0.0
 40
1.0
 40
1.0
 40
1.0
 40
1.0
 10
162.616974
 20
490.854331
 10
162.669384
 20
490.836519
 10
162.722964
 20
490.827736
 10
162.777874
 20
490.827736
  0
ARC
  5
452
100
AcDbEntity
  8
M4
  6
CONTINUOUS
370
25
 62
   154
100
AcDbCircle
 10
142.127874
 20
407.527736
 40
2.0
100
AcDbArc
 50
180.0
 51
270.0
  0
LINE
  5
453
100
AcDbEntity
  8
M4
  6
CONTINUOUS
370
25
 62
   154
100
AcDbLine
 10
170.627874
 20
480.527736
 11
181.627874
 21
480.527736
  0
ARC
  5
454
100
AcDbEntity
  8
M4
  6
CONTINUOUS
370
25
 62
   154
100
AcDbCircle
 10
160.127874
 20
453.527736
 40
2.0
100
AcDbArc
 50
0.0
 51
90.0
  0
ARC
  5
455
100
AcDbEntity
  8
M4
  6
CONTINUOUS
370
25
 62
   154
100
AcDbCircle
 10
142.127874
 20
453.527736
 40
2.0
100
AcDbArc
 50
90.0
 51
180.0
  0
ARC
  5
456
100
AcDbEntity
  8
M4
  6
CONTINUOUS
370
25
 62
   154
100
AcDbCircle
 10
162.777874
 20
491.327736
 40
0.5
100
AcDbArc
 50
180.0
 51
251.228127
  0
ARC
  5
457
100
AcDbEntity
  8
M4
  6
CONTINUOUS
370
25
 62
   154
100
AcDbCircle
 10
139.477874
 20
491.327736
 40
0.5
100
AcDbArc
 50
288.771873
 51
360.0
  0
ARC
  5
458
100
AcDbEntity
  8
M4
  6
CONTINUOUS
370
25
 62
   154
100
AcDbCircle
 10
160.127874
 20
407.527736
 40
2.0
100
AcDbArc
 50
270.0
 51
360.0
  0
LINE
  5
459
100
AcDbEntity
  8
M4
  6
CONTINUOUS
370
25
 62
   154
100
AcDbLine
 10
133.627874
 20
482.527736
 11
133.627874
 21
494.527736
  0
SPLINE
  5
45A
100
AcDbEntity
  8
M4
  6
CONTINUOUS
370
25
 62
   154
100
AcDbSpline
210
0.0
220
0.0
230
-1.0
 70
     8
 71
     3
 72
     8
 73
     4
 43
0.0000001
 40
0.0
 40
0.0
 40
0.0
 40
0.0
 40
1.0
 40
1.0
 40
1.0
 40
1.0
 10
137.616974
 20
490.854331
 10
137.669384
 20
490.836519
 10
137.722964
 20
490.827736
 10
137.777874
 20
490.827736
  0
LINE
  5
45B
100
AcDbEntity
  8
M4
  6
CONTINUOUS
370
25
 62
   154
100
AcDbLine
 10
143.627874
 20
494.527736
 11
143.627874
 21
482.527736
  0
LINE
  5
45C
100
AcDbEntity
  8
M4
  6
CONTINUOUS
370
25
 62
   154
100
AcDbLine
 10
134.527874
 20
488.166231
 11
134.527874
 21
483.389241
  0
SPLINE
  5
45D
100
AcDbEntity
  8
M4
  6
CONTINUOUS
370
25
 62
   154
100
AcDbSpline
210
0.0
220
0.0
230
-1.0
 70
     8
 71
     3
 72
     8
 73
     4
 43
0.0000001
 40
0.0
 40
0.0
 40
0.0
 40
0.0
 40
1.0
 40
1.0
 40
1.0
 40
1.0
 10
142.727874
 20
372.889241
 10
142.697014
 20
372.830106
 10
142.663897
 20
372.772244
 10
142.627874
 20
372.715999
  0
SPLINE
  5
45E
100
AcDbEntity
  8
M4
  6
CONTINUOUS
370
25
 62
   154
100
AcDbSpline
210
0.0
220
0.0
230
-1.0
 70
     8
 71
     3
 72
     8
 73
     4
 43
0.0000001
 40
0.0
 40
0.0
 40
0.0
 40
0.0
 40
1.0
 40
1.0
 40
1.0
 40
1.0
 10
159.627874
 20
372.715999
 10
159.591854
 20
372.772244
 10
159.558734
 20
372.830106
 10
159.527874
 20
372.889241
  0
SPLINE
  5
45F
100
AcDbEntity
  8
M4
  6
CONTINUOUS
370
25
 62
   154
100
AcDbSpline
210
0.0
220
0.0
230
-1.0
 70
     8
 71
     3
 72
     8
 73
     4
 43
0.0000001
 40
0.0
 40
0.0
 40
0.0
 40
0.0
 40
1.0
 40
1.0
 40
1.0
 40
1.0
 10
137.777874
 20
370.617024
 10
137.670019
 20
370.633004
 10
137.562104
 20
370.647551
 10
137.456074
 20
370.674544
  0
SPLINE
  5
460
100
AcDbEntity
  8
M4
  6
CONTINUOUS
370
25
 62
   154
100
AcDbSpline
210
0.0
220
0.0
230
-1.0
 70
     8
 71
     3
 72
     8
 73
     4
 43
0.0000001
 40
0.0
 40
0.0
 40
0.0
 40
0.0
 40
1.0
 40
1.0
 40
1.0
 40
1.0
 10
139.799677
 20
370.674544
 10
139.693647
 20
370.647551
 10
139.585732
 20
370.633004
 10
139.477874
 20
370.617024
  0
SPLINE
  5
461
100
AcDbEntity
  8
M4
  6
CONTINUOUS
370
25
 62
   154
100
AcDbSpline
210
0.0
220
0.0
230
-1.0
 70
     8
 71
     3
 72
     8
 73
     4
 43
0.0000001
 40
0.0
 40
0.0
 40
0.0
 40
0.0
 40
1.0
 40
1.0
 40
1.0
 40
1.0
 10
134.627874
 20
372.715999
 10
134.591854
 20
372.772244
 10
134.558734
 20
372.830106
 10
134.527874
 20
372.889241
  0
SPLINE
  5
462
100
AcDbEntity
  8
M4
  6
CONTINUOUS
370
25
 62
   154
100
AcDbSpline
210
0.0
220
0.0
230
-1.0
 70
     8
 71
     3
 72
    29
 73
    25
 43
0.0000001
 40
0.0
 40
0.0
 40
0.0
 40
0.0
 40
1.0
 40
1.0
 40
1.0
 40
2.0
 40
2.0
 40
2.0
 40
3.0
 40
3.0
 40
3.0
 40
4.0
 40
4.0
 40
4.0
 40
5.0
 40
5.0
 40
5.0
 40
6.0
 40
6.0
 40
6.0
 40
7.0
 40
7.0
 40
7.0
 40
8.0
 40
8.0
 40
8.0
 40
8.0
 10
164.477874
 20
370.617024
 10
164.407374
 20
370.607451
 10
164.336872
 20
370.597886
 10
164.266262
 20
370.590124
 10
164.195652
 20
370.582361
 10
164.124934
 20
370.576411
 10
164.054144
 20
370.571654
 10
163.983354
 20
370.566894
 10
163.912494
 20
370.563336
 10
163.841547
 20
370.561009
 10
163.770599
 20
370.558679
 10
163.699569
 20
370.557586
 10
163.628494
 20
370.557579
 10
163.557422
 20
370.557574
 10
163.486307
 20
370.558664
 10
163.415239
 20
370.560986
 10
163.344172
 20
370.563309
 10
163.273152
 20
370.566879
 10
163.202199
 20
370.571636
 10
163.131247
 20
370.576396
 10
163.060362
 20
370.582356
 10
162.989652
 20
370.590119
 10
162.918944
 20
370.597881
 10
162.848409
 20
370.607456
 10
162.777874
 20
370.617024
  0
SPLINE
  5
463
100
AcDbEntity
  8
M4
  6
CONTINUOUS
370
25
 62
   154
100
AcDbSpline
210
0.0
220
0.0
230
-1.0
 70
     8
 71
     3
 72
     8
 73
     4
 43
0.0000001
 40
0.0
 40
0.0
 40
0.0
 40
0.0
 40
1.0
 40
1.0
 40
1.0
 40
1.0
 10
167.727874
 20
372.889241
 10
167.697014
 20
372.830106
 10
167.663897
 20
372.772244
 10
167.627874
 20
372.715999
  0
SPLINE
  5
464
100
AcDbEntity
  8
M4
  6
CONTINUOUS
370
25
 62
   154
100
AcDbSpline
210
0.0
220
0.0
230
-1.0
 70
     8
 71
     3
 72
     8
 73
     4
 43
0.0000001
 40
0.0
 40
0.0
 40
0.0
 40
0.0
 40
1.0
 40
1.0
 40
1.0
 40
1.0
 10
162.777874
 20
370.617024
 10
162.670019
 20
370.633004
 10
162.562104
 20
370.647551
 10
162.456074
 20
370.674544
  0
LINE
  5
465
100
AcDbEntity
  8
M4
  6
CONTINUOUS
370
25
 62
   154
100
AcDbLine
 10
183.627874
 20
366.527736
 11
183.627874
 21
379.027739
  0
LINE
  5
466
100
AcDbEntity
  8
M4
  6
CONTINUOUS
370
25
 62
   154
100
AcDbLine
 10
120.627874
 20
480.527736
 11
131.627874
 21
480.527736
  0
LINE
  5
467
100
AcDbEntity
  8
M4
  6
CONTINUOUS
370
25
 62
   154
100
AcDbLine
 10
145.627874
 20
480.527736
 11
156.627874
 21
480.527736
  0
ARC
  5
468
100
AcDbEntity
  8
M4
  6
CONTINUOUS
370
25
 62
   154
100
AcDbCircle
 10
162.127874
 20
459.027736
 40
1.0
100
AcDbArc
 50
0.0
 51
90.0
  0
SPLINE
  5
469
100
AcDbEntity
  8
M4
  6
CONTINUOUS
370
25
 62
   154
100
AcDbSpline
210
0.0
220
0.0
230
-1.0
 70
     8
 71
     3
 72
    29
 73
    25
 43
0.0000001
 40
0.0
 40
0.0
 40
0.0
 40
0.0
 40
1.0
 40
1.0
 40
1.0
 40
2.0
 40
2.0
 40
2.0
 40
3.0
 40
3.0
 40
3.0
 40
4.0
 40
4.0
 40
4.0
 40
5.0
 40
5.0
 40
5.0
 40
6.0
 40
6.0
 40
6.0
 40
7.0
 40
7.0
 40
7.0
 40
8.0
 40
8.0
 40
8.0
 40
8.0
 10
139.477874
 20
370.617024
 10
139.407374
 20
370.607451
 10
139.336872
 20
370.597886
 10
139.266262
 20
370.590124
 10
139.195652
 20
370.582361
 10
139.124934
 20
370.576411
 10
139.054144
 20
370.571654
 10
138.983354
 20
370.566894
 10
138.912494
 20
370.563336
 10
138.841547
 20
370.561009
 10
138.770599
 20
370.558679
 10
138.699569
 20
370.557586
 10
138.628494
 20
370.557579
 10
138.557422
 20
370.557574
 10
138.486307
 20
370.558664
 10
138.415239
 20
370.560986
 10
138.344172
 20
370.563309
 10
138.273152
 20
370.566879
 10
138.202199
 20
370.571636
 10
138.131247
 20
370.576396
 10
138.060362
 20
370.582356
 10
137.989652
 20
370.590119
 10
137.918944
 20
370.597881
 10
137.848409
 20
370.607456
 10
137.777874
 20
370.617024
  0
ARC
  5
46A
100
AcDbEntity
  8
M4
  6
CONTINUOUS
370
25
 62
   154
100
AcDbCircle
 10
140.127874
 20
459.027736
 40
1.0
100
AcDbArc
 50
90.0
 51
180.0
  0
ARC
  5
46B
100
AcDbEntity
  8
M4
  6
CONTINUOUS
370
25
 62
   154
100
AcDbCircle
 10
139.627874
 20
404.527736
 40
0.5
100
AcDbArc
 50
180.0
 51
270.0
  0
ARC
  5
46C
100
AcDbEntity
  8
M4
  6
CONTINUOUS
370
25
 62
   154
100
AcDbCircle
 10
162.627874
 20
404.527736
 40
0.5
100
AcDbArc
 50
270.0
 51
360.0
  0
ARC
  5
46D
100
AcDbEntity
  8
M4
  6
CONTINUOUS
370
25
 62
   154
100
AcDbCircle
 10
163.627874
 20
375.277736
 40
4.75
100
AcDbArc
 50
212.636898
 51
255.717979
  0
ARC
  5
46E
100
AcDbEntity
  8
M4
  6
CONTINUOUS
370
25
 62
   154
100
AcDbCircle
 10
138.627874
 20
375.277736
 40
4.75
100
AcDbArc
 50
284.282021
 51
327.363102
  0
SPLINE
  5
46F
100
AcDbEntity
  8
M4
  6
CONTINUOUS
370
25
 62
   154
100
AcDbSpline
210
0.0
220
0.0
230
-1.0
 70
     8
 71
     3
 72
     8
 73
     4
 43
0.0000001
 40
0.0
 40
0.0
 40
0.0
 40
0.0
 40
1.0
 40
1.0
 40
1.0
 40
1.0
 10
164.799677
 20
370.674544
 10
164.693647
 20
370.647551
 10
164.585732
 20
370.633004
 10
164.477874
 20
370.617024
  0
ARC
  5
470
100
AcDbEntity
  8
M4
  6
CONTINUOUS
370
25
 62
   154
100
AcDbCircle
 10
163.627874
 20
375.277736
 40
4.25
100
AcDbArc
 50
195.26773
 51
344.73227
  0
LINE
  5
471
100
AcDbEntity
  8
M4
  6
CONTINUOUS
370
25
 62
   154
100
AcDbLine
 10
139.977874
 20
491.327736
 11
139.977874
 21
492.986111
  0
LINE
  5
472
100
AcDbEntity
  8
M4
  6
CONTINUOUS
370
25
 62
   154
100
AcDbLine
 10
159.627877
 20
495.527736
 11
161.877874
 21
495.527736
  0
LINE
  5
473
100
AcDbEntity
  8
M4
  6
CONTINUOUS
370
25
 62
   154
100
AcDbLine
 10
184.627877
 20
495.527736
 11
186.877877
 21
495.527736
  0
LINE
  5
474
100
AcDbEntity
  8
M4
  6
CONTINUOUS
370
25
 62
   154
100
AcDbLine
 10
165.377874
 20
495.527736
 11
167.627874
 21
495.527736
  0
LINE
  5
475
100
AcDbEntity
  8
M4
  6
CONTINUOUS
370
25
 62
   154
100
AcDbLine
 10
187.277877
 20
492.986111
 11
187.277877
 21
490.827736
  0
LINE
  5
476
100
AcDbEntity
  8
M4
  6
CONTINUOUS
370
25
 62
   154
100
AcDbLine
 10
114.977874
 20
490.827736
 11
114.977874
 21
492.986111
  0
LINE
  5
477
100
AcDbEntity
  8
M4
  6
CONTINUOUS
370
25
 62
   154
100
AcDbLine
 10
117.627874
 20
495.527736
 11
115.377874
 21
495.527736
  0
LINE
  5
478
100
AcDbEntity
  8
M4
  6
CONTINUOUS
370
25
 62
   154
100
AcDbLine
 10
118.627877
 20
379.027739
 11
118.627877
 21
366.527736
  0
ARC
  5
479
100
AcDbEntity
  8
M4
  6
CONTINUOUS
370
25
 62
   154
100
AcDbCircle
 10
138.627874
 20
375.277736
 40
4.25
100
AcDbArc
 50
195.26773
 51
344.73227
  0
LINE
  5
47A
100
AcDbEntity
  8
M4
  6
CONTINUOUS
370
25
 62
   154
100
AcDbLine
 10
164.977874
 20
368.527731
 11
164.977874
 21
369.727736
  0
LINE
  5
47B
100
AcDbEntity
  8
M4
  6
CONTINUOUS
370
25
 62
   154
100
AcDbLine
 10
139.977874
 20
368.527731
 11
139.977874
 21
369.727736
  0
LINE
  5
47C
100
AcDbEntity
  8
M4
  6
CONTINUOUS
370
25
 62
   154
100
AcDbLine
 10
139.977874
 20
368.069361
 11
139.977874
 21
368.527731
  0
LINE
  5
47D
100
AcDbEntity
  8
M4
  6
CONTINUOUS
370
25
 62
   154
100
AcDbLine
 10
140.377874
 20
365.527741
 11
142.627874
 21
365.527741
  0
SPLINE
  5
47E
100
AcDbEntity
  8
M4
  6
CONTINUOUS
370
25
 62
   154
100
AcDbSpline
210
0.0
220
0.0
230
-1.0
 70
     8
 71
     3
 72
     8
 73
     4
 43
0.0000001
 40
0.0
 40
0.0
 40
0.0
 40
0.0
 40
1.0
 40
1.0
 40
1.0
 40
1.0
 10
142.627874
 20
377.839474
 10
142.663897
 20
377.783229
 10
142.697014
 20
377.725364
 10
142.727874
 20
377.666231
  0
SPLINE
  5
47F
100
AcDbEntity
  8
M4
  6
CONTINUOUS
370
25
 62
   154
100
AcDbSpline
210
0.0
220
0.0
230
-1.0
 70
     8
 71
     3
 72
    65
 73
    61
 43
0.0000001
 40
0.0
 40
0.0
 40
0.0
 40
0.0
 40
1.0
 40
1.0
 40
1.0
 40
2.0
 40
2.0
 40
2.0
 40
3.0
 40
3.0
 40
3.0
 40
4.0
 40
4.0
 40
4.0
 40
5.0
 40
5.0
 40
5.0
 40
6.0
 40
6.0
 40
6.0
 40
7.0
 40
7.0
 40
7.0
 40
8.0
 40
8.0
 40
8.0
 40
9.0
 40
9.0
 40
9.0
 40
10.0
 40
10.0
 40
10.0
 40
11.0
 40
11.0
 40
11.0
 40
12.0
 40
12.0
 40
12.0
 40
13.0
 40
13.0
 40
13.0
 40
14.0
 40
14.0
 40
14.0
 40
15.0
 40
15.0
 40
15.0
 40
16.0
 40
16.0
 40
16.0
 40
17.0
 40
17.0
 40
17.0
 40
18.0
 40
18.0
 40
18.0
 40
19.0
 40
19.0
 40
19.0
 40
20.0
 40
20.0
 40
20.0
 40
20.0
 10
183.104164
 20
382.504631
 10
183.128804
 20
382.467706
 10
183.153444
 20
382.430786
 10
183.178937
 20
382.394694
 10
183.204427
 20
382.358599
 10
183.230764
 20
382.323346
 10
183.256934
 20
382.289479
 10
183.283104
 20
382.255611
 10
183.309107
 20
382.223141
 10
183.338282
 20
382.188561
 10
183.367459
 20
382.153981
 10
183.399807
 20
382.117304
 10
183.423102
 20
382.091514
 10
183.440564
 20
382.072184
 10
183.452939
 20
382.058976
 10
183.466892
 20
382.044291
 10
183.480844
 20
382.029606
 10
183.496372
 20
382.013454
 10
183.511707
 20
381.997846
 10
183.527042
 20
381.982241
 10
183.542187
 20
381.967184
 10
183.557609
 20
381.952136
 10
183.573032
 20
381.937089
 10
183.588732
 20
381.922056
 10
183.604667
 20
381.907116
 10
183.620599
 20
381.892176
 10
183.636769
 20
381.877331
 10
183.653022
 20
381.862691
 10
183.669274
 20
381.848051
 10
183.685617
 20
381.833616
 10
183.702579
 20
381.818981
 10
183.719539
 20
381.804346
 10
183.737129
 20
381.789509
 10
183.753022
 20
381.776254
 10
183.768917
 20
381.762999
 10
183.783127
 20
381.751319
 10
183.804047
 20
381.734781
 10
183.831609
 20
381.712994
 10
183.870829
 20
381.682771
 10
183.907292
 20
381.655891
 10
183.943752
 20
381.629011
 10
183.977469
 20
381.605471
 10
184.012349
 20
381.582046
 10
184.047229
 20
381.558624
 10
184.083279
 20
381.535319
 10
184.119484
 20
381.512939
 10
184.155689
 20
381.490556
 10
184.192059
 20
381.469096
 10
184.228954
 20
381.448256
 10
184.265849
 20
381.427416
 10
184.303274
 20
381.407204
 10
184.341202
 20
381.387696
 10
184.379129
 20
381.368191
 10
184.417567
 20
381.349396
 10
184.456467
 20
381.331249
 10
184.495367
 20
381.313104
 10
184.534729
 20
381.295611
 10
184.574714
 20
381.279051
 10
184.614697
 20
381.262491
 10
184.655302
 20
381.246866
 10
184.695904
 20
381.231239
  0
SPLINE
  5
480
100
AcDbEntity
  8
M4
  6
CONTINUOUS
370
25
 62
   154
100
AcDbSpline
210
0.0
220
0.0
230
-1.0
 70
     8
 71
     3
 72
     8
 73
     4
 43
0.0000001
 40
0.0
 40
0.0
 40
0.0
 40
0.0
 40
1.0
 40
1.0
 40
1.0
 40
1.0
 10
159.527874
 20
377.666231
 10
159.558734
 20
377.725364
 10
159.591854
 20
377.783229
 10
159.627874
 20
377.839474
  0
SPLINE
  5
481
100
AcDbEntity
  8
M4
  6
CONTINUOUS
370
25
 62
   154
100
AcDbSpline
210
0.0
220
0.0
230
-1.0
 70
     8
 71
     3
 72
     8
 73
     4
 43
0.0000001
 40
0.0
 40
0.0
 40
0.0
 40
0.0
 40
1.0
 40
1.0
 40
1.0
 40
1.0
 10
167.627874
 20
377.839474
 10
167.663897
 20
377.783229
 10
167.697014
 20
377.725364
 10
167.727874
 20
377.666231
  0
SPLINE
  5
482
100
AcDbEntity
  8
M4
  6
CONTINUOUS
370
25
 62
   154
100
AcDbSpline
210
0.0
220
0.0
230
-1.0
 70
     8
 71
     3
 72
     8
 73
     4
 43
0.0000001
 40
0.0
 40
0.0
 40
0.0
 40
0.0
 40
1.0
 40
1.0
 40
1.0
 40
1.0
 10
134.527874
 20
377.666231
 10
134.558734
 20
377.725364
 10
134.591854
 20
377.783229
 10
134.627874
 20
377.839474
  0
LINE
  5
483
100
AcDbEntity
  8
M4
  6
CONTINUOUS
370
25
 62
   154
100
AcDbLine
 10
188.627877
 20
490.327736
 11
188.627877
 21
370.727736
  0
LINE
  5
484
100
AcDbEntity
  8
M4
  6
CONTINUOUS
370
25
 62
   154
100
AcDbLine
 10
113.627874
 20
370.727736
 11
113.627874
 21
490.327736
  0
ARC
  5
485
100
AcDbEntity
  8
M4
  6
CONTINUOUS
370
25
 62
   154
100
AcDbCircle
 10
114.127874
 20
370.727736
 40
0.5
100
AcDbArc
 50
180.0
 51
270.0
  0
CIRCLE
  5
486
100
AcDbEntity
  8
M4
  6
CONTINUOUS
370
25
 62
   154
100
AcDbCircle
 10
138.627874
 20
476.327736
 40
3.25
  0
ARC
  5
487
100
AcDbEntity
  8
M4
  6
CONTINUOUS
370
25
 62
   154
100
AcDbCircle
 10
188.127874
 20
370.727736
 40
0.5
100
AcDbArc
 50
270.0
 51
360.0
  0
LINE
  5
488
100
AcDbEntity
  8
M4
  6
CONTINUOUS
370
25
 62
   154
100
AcDbLine
 10
188.127877
 20
387.527734
 11
185.827874
 21
387.527734
  0
LINE
  5
489
100
AcDbEntity
  8
M4
  6
CONTINUOUS
370
25
 62
   154
100
AcDbLine
 10
164.627874
 20
395.927736
 11
164.627874
 21
389.027739
  0
CIRCLE
  5
48A
100
AcDbEntity
  8
M4
  6
CONTINUOUS
370
25
 62
   154
100
AcDbCircle
 10
163.627874
 20
476.327736
 40
3.25
  0
LINE
  5
48B
100
AcDbEntity
  8
M4
  6
CONTINUOUS
370
25
 62
   154
100
AcDbLine
 10
116.427877
 20
387.527734
 11
114.127874
 21
387.527734
  0
ARC
  5
48C
100
AcDbEntity
  8
M4
  6
CONTINUOUS
370
25
 62
   154
100
AcDbCircle
 10
120.627874
 20
482.527736
 40
2.0
100
AcDbArc
 50
180.0
 51
270.0
  0
ARC
  5
48D
100
AcDbEntity
  8
M4
  6
CONTINUOUS
370
25
 62
   154
100
AcDbCircle
 10
181.627874
 20
482.527736
 40
2.0
100
AcDbArc
 50
270.0
 51
360.0
  0
ARC
  5
48E
100
AcDbEntity
  8
M4
  6
CONTINUOUS
370
25
 62
   154
100
AcDbCircle
 10
170.627874
 20
482.527736
 40
2.0
100
AcDbArc
 50
180.0
 51
270.0
  0
LINE
  5
48F
100
AcDbEntity
  8
M4
  6
CONTINUOUS
370
25
 62
   154
100
AcDbLine
 10
137.277874
 20
369.727736
 11
137.277874
 21
368.527731
  0
LINE
  5
490
100
AcDbEntity
  8
M4
  6
CONTINUOUS
370
25
 62
   154
100
AcDbLine
 10
164.477874
 20
370.227731
 11
162.777874
 21
370.227731
  0
LINE
  5
491
100
AcDbEntity
  8
M4
  6
CONTINUOUS
370
25
 62
   154
100
AcDbLine
 10
159.527874
 20
377.666234
 11
159.527874
 21
372.889241
  0
LINE
  5
492
100
AcDbEntity
  8
M4
  6
CONTINUOUS
370
25
 62
   154
100
AcDbLine
 10
162.277874
 20
369.727736
 11
162.277874
 21
368.527731
  0
LINE
  5
493
100
AcDbEntity
  8
M4
  6
CONTINUOUS
370
25
 62
   154
100
AcDbLine
 10
134.527874
 20
377.666234
 11
134.527874
 21
372.889241
  0
LINE
  5
494
100
AcDbEntity
  8
M4
  6
CONTINUOUS
370
25
 62
   154
100
AcDbLine
 10
188.127877
 20
370.227731
 11
187.277877
 21
370.227731
  0
LINE
  5
495
100
AcDbEntity
  8
M4
  6
CONTINUOUS
370
25
 62
   154
100
AcDbLine
 10
139.477874
 20
370.227731
 11
137.777874
 21
370.227731
  0
ARC
  5
496
100
AcDbEntity
  8
M4
  6
CONTINUOUS
370
25
 62
   154
100
AcDbCircle
 10
131.627874
 20
482.527736
 40
2.0
100
AcDbArc
 50
270.0
 51
360.0
  0
ARC
  5
497
100
AcDbEntity
  8
M4
  6
CONTINUOUS
370
25
 62
   154
100
AcDbCircle
 10
163.627874
 20
485.777736
 40
4.75
100
AcDbArc
 50
32.636898
 51
149.673029
  0
ARC
  5
498
100
AcDbEntity
  8
M4
  6
CONTINUOUS
370
25
 62
   154
100
AcDbCircle
 10
145.627874
 20
482.527736
 40
2.0
100
AcDbArc
 50
180.0
 51
270.0
  0
ARC
  5
499
100
AcDbEntity
  8
M4
  6
CONTINUOUS
370
25
 62
   154
100
AcDbCircle
 10
138.627874
 20
485.777736
 40
4.25
100
AcDbArc
 50
195.26773
 51
344.73227
  0
ARC
  5
49A
100
AcDbEntity
  8
M4
  6
CONTINUOUS
370
25
 62
   154
100
AcDbCircle
 10
164.477874
 20
491.327736
 40
0.5
100
AcDbArc
 50
288.771873
 51
360.0
  0
ARC
  5
49B
100
AcDbEntity
  8
M4
  6
CONTINUOUS
370
25
 62
   154
100
AcDbCircle
 10
138.627874
 20
485.777736
 40
4.75
100
AcDbArc
 50
32.636898
 51
149.673016
  0
ARC
  5
49C
100
AcDbEntity
  8
M4
  6
CONTINUOUS
370
25
 62
   154
100
AcDbCircle
 10
137.777874
 20
491.327736
 40
0.5
100
AcDbArc
 50
180.0
 51
251.228127
  0
ARC
  5
49D
100
AcDbEntity
  8
M4
  6
CONTINUOUS
370
25
 62
   154
100
AcDbCircle
 10
163.627874
 20
485.777736
 40
4.25
100
AcDbArc
 50
15.26773
 51
164.73227
  0
ARC
  5
49E
100
AcDbEntity
  8
M4
  6
CONTINUOUS
370
25
 62
   154
100
AcDbCircle
 10
163.627874
 20
485.777736
 40
4.25
100
AcDbArc
 50
195.26773
 51
344.73227
  0
SPLINE
  5
49F
100
AcDbEntity
  8
M4
  6
CONTINUOUS
370
25
 62
   154
100
AcDbSpline
210
0.0
220
0.0
230
-1.0
 70
     8
 71
     3
 72
     8
 73
     4
 43
0.0000001
 40
0.0
 40
0.0
 40
0.0
 40
0.0
 40
1.0
 40
1.0
 40
1.0
 40
1.0
 10
167.627874
 20
488.339474
 10
167.663897
 20
488.283229
 10
167.697014
 20
488.225364
 10
167.727874
 20
488.166231
  0
SPLINE
  5
4A0
100
AcDbEntity
  8
M4
  6
CONTINUOUS
370
25
 62
   154
100
AcDbSpline
210
0.0
220
0.0
230
-1.0
 70
     8
 71
     3
 72
     8
 73
     4
 43
0.0000001
 40
0.0
 40
0.0
 40
0.0
 40
0.0
 40
1.0
 40
1.0
 40
1.0
 40
1.0
 10
142.627874
 20
488.339474
 10
142.663897
 20
488.283229
 10
142.697014
 20
488.225364
 10
142.727874
 20
488.166231
  0
ARC
  5
4A1
100
AcDbEntity
  8
M4
  6
CONTINUOUS
370
25
 62
   154
100
AcDbCircle
 10
188.127874
 20
490.327736
 40
0.5
100
AcDbArc
 50
0.0
 51
90.0
  0
ARC
  5
4A2
100
AcDbEntity
  8
M4
  6
CONTINUOUS
370
25
 62
   154
100
AcDbCircle
 10
156.627874
 20
482.527736
 40
2.0
100
AcDbArc
 50
270.0
 51
360.0
  0
ARC
  5
4A3
100
AcDbEntity
  8
M4
  6
CONTINUOUS
370
25
 62
   154
100
AcDbCircle
 10
138.627874
 20
485.777736
 40
4.25
100
AcDbArc
 50
15.26773
 51
164.73227
  0
ARC
  5
4A4
100
AcDbEntity
  8
M4
  6
CONTINUOUS
370
25
 62
   154
100
AcDbCircle
 10
138.627874
 20
375.277736
 40
4.25
100
AcDbArc
 50
15.26773
 51
164.73227
  0
ARC
  5
4A5
100
AcDbEntity
  8
M4
  6
CONTINUOUS
370
25
 62
   154
100
AcDbCircle
 10
188.127874
 20
380.527736
 40
0.5
100
AcDbArc
 50
0.0
 51
90.0
  0
ARC
  5
4A6
100
AcDbEntity
  8
M4
  6
CONTINUOUS
370
25
 62
   154
100
AcDbCircle
 10
188.127874
 20
388.027736
 40
0.5
100
AcDbArc
 50
270.0
 51
360.0
  0
ARC
  5
4A7
100
AcDbEntity
  8
M4
  6
CONTINUOUS
370
25
 62
   154
100
AcDbCircle
 10
163.627874
 20
375.277736
 40
4.25
100
AcDbArc
 50
15.26773
 51
164.73227
  0
ARC
  5
4A8
100
AcDbEntity
  8
M4
  6
CONTINUOUS
370
25
 62
   154
100
AcDbCircle
 10
114.127874
 20
380.527736
 40
0.5
100
AcDbArc
 50
90.0
 51
180.0
  0
ARC
  5
4A9
100
AcDbEntity
  8
M4
  6
CONTINUOUS
370
25
 62
   154
100
AcDbCircle
 10
120.627874
 20
379.027736
 40
2.0
100
AcDbArc
 50
90.0
 51
180.0
  0
ARC
  5
4AA
100
AcDbEntity
  8
M4
  6
CONTINUOUS
370
25
 62
   154
100
AcDbCircle
 10
156.627874
 20
379.027736
 40
2.0
100
AcDbArc
 50
0.0
 51
90.0
  0
ARC
  5
4AB
100
AcDbEntity
  8
M4
  6
CONTINUOUS
370
25
 62
   154
100
AcDbCircle
 10
170.627874
 20
379.027736
 40
2.0
100
AcDbArc
 50
90.0
 51
180.0
  0
ARC
  5
4AC
100
AcDbEntity
  8
M4
  6
CONTINUOUS
370
25
 62
   154
100
AcDbCircle
 10
131.627874
 20
379.027736
 40
2.0
100
AcDbArc
 50
0.0
 51
90.0
  0
ARC
  5
4AD
100
AcDbEntity
  8
M4
  6
CONTINUOUS
370
25
 62
   154
100
AcDbCircle
 10
145.627874
 20
379.027736
 40
2.0
100
AcDbArc
 50
90.0
 51
180.0
  0
ARC
  5
4AE
100
AcDbEntity
  8
M4
  6
CONTINUOUS
370
25
 62
   154
100
AcDbCircle
 10
185.827874
 20
384.277736
 40
3.25
100
AcDbArc
 50
249.61673
 51
270.0
  0
ARC
  5
4AF
100
AcDbEntity
  8
M4
  6
CONTINUOUS
370
25
 62
   154
100
AcDbCircle
 10
181.627874
 20
379.027736
 40
2.0
100
AcDbArc
 50
0.0
 51
90.0
  0
LINE
  5
4B0
100
AcDbEntity
  8
M4
  6
CONTINUOUS
370
25
 62
   154
100
AcDbLine
 10
114.127874
 20
381.027736
 11
116.427877
 21
381.027736
  0
LINE
  5
4B1
100
AcDbEntity
  8
M4
  6
CONTINUOUS
370
25
 62
   154
100
AcDbLine
 10
143.627874
 20
379.027739
 11
143.627874
 21
366.527736
  0
LINE
  5
4B2
100
AcDbEntity
  8
M4
  6
CONTINUOUS
370
25
 62
   154
100
AcDbLine
 10
167.727874
 20
372.889241
 11
167.727874
 21
377.666234
  0
LINE
  5
4B3
100
AcDbEntity
  8
M4
  6
CONTINUOUS
370
25
 62
   154
100
AcDbLine
 10
142.727874
 20
372.889241
 11
142.727874
 21
377.666234
  0
LINE
  5
4B4
100
AcDbEntity
  8
M4
  6
CONTINUOUS
370
25
 62
   154
100
AcDbLine
 10
158.627874
 20
366.527736
 11
158.627874
 21
379.027739
  0
ARC
  5
4B5
100
AcDbEntity
  8
M4
  6
CONTINUOUS
370
25
 62
   154
100
AcDbCircle
 10
114.127874
 20
490.327736
 40
0.5
100
AcDbArc
 50
90.0
 51
180.0
  0
LINE
  5
4B6
100
AcDbEntity
  8
M4
  6
CONTINUOUS
370
25
 62
   154
100
AcDbLine
 10
114.977874
 20
368.527731
 11
114.977874
 21
370.227731
  0
LINE
  5
4B7
100
AcDbEntity
  8
M4
  6
CONTINUOUS
370
25
 62
   154
100
AcDbLine
 10
114.977874
 20
370.227731
 11
114.127874
 21
370.227731
  0
LINE
  5
4B8
100
AcDbEntity
  8
M4
  6
CONTINUOUS
370
25
 62
   154
100
AcDbLine
 10
133.627874
 20
366.527736
 11
133.627874
 21
379.027739
  0
LINE
  5
4B9
100
AcDbEntity
  8
M4
  6
CONTINUOUS
370
25
 62
   154
100
AcDbLine
 10
181.627874
 20
381.027736
 11
170.627874
 21
381.027736
  0
LINE
  5
4BA
100
AcDbEntity
  8
M4
  6
CONTINUOUS
370
25
 62
   154
100
AcDbLine
 10
131.627874
 20
381.027736
 11
120.627874
 21
381.027736
  0
LINE
  5
4BB
100
AcDbEntity
  8
M4
  6
CONTINUOUS
370
25
 62
   154
100
AcDbLine
 10
168.627874
 20
379.027739
 11
168.627874
 21
366.527736
  0
LINE
  5
4BC
100
AcDbEntity
  8
M4
  6
CONTINUOUS
370
25
 62
   154
100
AcDbLine
 10
185.827874
 20
381.027736
 11
188.127877
 21
381.027736
  0
LINE
  5
4BD
100
AcDbEntity
  8
M4
  6
CONTINUOUS
370
25
 62
   154
100
AcDbLine
 10
156.627874
 20
381.027736
 11
145.627874
 21
381.027736
  0
LINE
  5
4BE
100
AcDbEntity
  8
M4
  6
CONTINUOUS
370
25
 62
   154
100
AcDbLine
 10
166.822012
 20
475.727736
 11
166.781307
 21
475.727736
  0
LINE
  5
4BF
100
AcDbEntity
  8
M4
  6
CONTINUOUS
370
25
 62
   154
100
AcDbLine
 10
166.781307
 20
475.541369
 11
166.781307
 21
475.727736
  0
LINE
  5
4C0
100
AcDbEntity
  8
M4
  6
CONTINUOUS
370
25
 62
   154
100
AcDbLine
 10
167.627874
 20
365.527741
 11
165.377874
 21
365.527741
  0
LINE
  5
4C1
100
AcDbEntity
  8
M4
  6
CONTINUOUS
370
25
 62
   154
100
AcDbLine
 10
114.977874
 20
368.069361
 11
114.977874
 21
368.527731
  0
LINE
  5
4C2
100
AcDbEntity
  8
M4
  6
CONTINUOUS
370
25
 62
   154
100
AcDbLine
 10
115.377874
 20
365.527741
 11
117.627874
 21
365.527741
  0
LINE
  5
4C3
100
AcDbEntity
  8
M4
  6
CONTINUOUS
370
25
 62
   154
100
AcDbLine
 10
162.277874
 20
368.527731
 11
162.277874
 21
368.069356
  0
LINE
  5
4C4
100
AcDbEntity
  8
M4
  6
CONTINUOUS
370
25
 62
   154
100
AcDbLine
 10
134.627874
 20
365.527741
 11
136.877874
 21
365.527741
  0
LINE
  5
4C5
100
AcDbEntity
  8
M4
  6
CONTINUOUS
370
25
 62
   154
100
AcDbLine
 10
186.877877
 20
365.527741
 11
184.627877
 21
365.527741
  0
LINE
  5
4C6
100
AcDbEntity
  8
M4
  6
CONTINUOUS
370
25
 62
   154
100
AcDbLine
 10
137.277874
 20
368.527731
 11
137.277874
 21
368.069361
  0
LINE
  5
4C7
100
AcDbEntity
  8
M4
  6
CONTINUOUS
370
25
 62
   154
100
AcDbLine
 10
187.277877
 20
370.227731
 11
187.277877
 21
368.069361
  0
ARC
  5
4C8
100
AcDbEntity
  8
M4
  6
CONTINUOUS
370
25
 62
   154
100
AcDbCircle
 10
184.627874
 20
366.527736
 40
1.0
100
AcDbArc
 50
180.0
 51
270.0
  0
ARC
  5
4C9
100
AcDbEntity
  8
M4
  6
CONTINUOUS
370
25
 62
   154
100
AcDbCircle
 10
117.627874
 20
366.527736
 40
1.0
100
AcDbArc
 50
270.0
 51
360.0
  0
ARC
  5
4CA
100
AcDbEntity
  8
M4
  6
CONTINUOUS
370
25
 62
   154
100
AcDbCircle
 10
134.627874
 20
366.527736
 40
1.0
100
AcDbArc
 50
180.0
 51
270.0
  0
ARC
  5
4CB
100
AcDbEntity
  8
M4
  6
CONTINUOUS
370
25
 62
   154
100
AcDbCircle
 10
167.627874
 20
366.527736
 40
1.0
100
AcDbArc
 50
270.0
 51
360.0
  0
ARC
  5
4CC
100
AcDbEntity
  8
M4
  6
CONTINUOUS
370
25
 62
   154
100
AcDbCircle
 10
142.627874
 20
366.527736
 40
1.0
100
AcDbArc
 50
270.0
 51
360.0
  0
ARC
  5
4CD
100
AcDbEntity
  8
M4
  6
CONTINUOUS
370
25
 62
   154
100
AcDbCircle
 10
159.627874
 20
366.527736
 40
1.0
100
AcDbArc
 50
180.0
 51
270.0
  0
ARC
  5
4CE
100
AcDbEntity
  8
M4
  6
CONTINUOUS
370
25
 62
   154
100
AcDbCircle
 10
138.627874
 20
375.277736
 40
4.75
100
AcDbArc
 50
212.636898
 51
255.717979
  0
LINE
  5
4CF
100
AcDbEntity
  8
M4
  6
CONTINUOUS
370
25
 62
   154
100
AcDbLine
 10
164.877874
 20
366.027734
 11
164.877874
 21
366.634911
  0
LINE
  5
4D0
100
AcDbEntity
  8
M4
  6
CONTINUOUS
370
25
 62
   154
100
AcDbLine
 10
162.377877
 20
366.634911
 11
162.377877
 21
366.027734
  0
LINE
  5
4D1
100
AcDbEntity
  8
M4
  6
CONTINUOUS
370
25
 62
   154
100
AcDbLine
 10
137.377874
 20
495.027736
 11
137.377874
 21
494.420556
  0
LINE
  5
4D2
100
AcDbEntity
  8
M4
  6
CONTINUOUS
370
25
 62
   154
100
AcDbLine
 10
187.377874
 20
495.027736
 11
187.377874
 21
494.420556
  0
LINE
  5
4D3
100
AcDbEntity
  8
M4
  6
CONTINUOUS
370
25
 62
   154
100
AcDbLine
 10
137.377874
 20
366.634911
 11
137.377874
 21
366.027734
  0
LINE
  5
4D4
100
AcDbEntity
  8
M4
  6
CONTINUOUS
370
25
 62
   154
100
AcDbLine
 10
164.877874
 20
494.420556
 11
164.877874
 21
495.027736
  0
ARC
  5
4D5
100
AcDbEntity
  8
M4
  6
CONTINUOUS
370
25
 62
   154
100
AcDbCircle
 10
186.877874
 20
366.027736
 40
0.5
100
AcDbArc
 50
270.0
 51
360.0
  0
ARC
  5
4D6
100
AcDbEntity
  8
M4
  6
CONTINUOUS
370
25
 62
   154
100
AcDbCircle
 10
136.877874
 20
495.027736
 40
0.5
100
AcDbArc
 50
0.0
 51
90.0
  0
LINE
  5
4D7
100
AcDbEntity
  8
M4
  6
CONTINUOUS
370
25
 62
   154
100
AcDbLine
 10
139.877874
 20
366.027734
 11
139.877874
 21
366.634911
  0
LINE
  5
4D8
100
AcDbEntity
  8
M4
  6
CONTINUOUS
370
25
 62
   154
100
AcDbLine
 10
187.377874
 20
366.634919
 11
187.377874
 21
366.027734
  0
LINE
  5
4D9
100
AcDbEntity
  8
M4
  6
CONTINUOUS
370
25
 62
   154
100
AcDbLine
 10
114.877877
 20
366.027734
 11
114.877877
 21
366.634911
  0
LINE
  5
4DA
100
AcDbEntity
  8
M4
  6
CONTINUOUS
370
25
 62
   154
100
AcDbLine
 10
139.877874
 20
494.420556
 11
139.877874
 21
495.027736
  0
LINE
  5
4DB
100
AcDbEntity
  8
M4
  6
CONTINUOUS
370
25
 62
   154
100
AcDbLine
 10
114.877877
 20
494.420556
 11
114.877877
 21
495.027736
  0
ARC
  5
4DC
100
AcDbEntity
  8
M4
  6
CONTINUOUS
370
25
 62
   154
100
AcDbCircle
 10
163.627874
 20
375.277736
 40
4.75
100
AcDbArc
 50
32.636898
 51
147.363102
  0
ARC
  5
4DD
100
AcDbEntity
  8
M4
  6
CONTINUOUS
370
25
 62
   154
100
AcDbCircle
 10
138.627874
 20
375.277736
 40
4.75
100
AcDbArc
 50
32.636898
 51
147.363102
  0
LINE
  5
4DE
100
AcDbEntity
  8
M4
  6
CONTINUOUS
370
25
 62
   154
100
AcDbLine
 10
172.627877
 20
395.927736
 11
172.627877
 21
389.027739
  0
LINE
  5
4DF
100
AcDbEntity
  8
M4
  6
CONTINUOUS
370
25
 62
   154
100
AcDbLine
 10
129.627874
 20
395.927736
 11
129.627874
 21
389.027739
  0
LINE
  5
4E0
100
AcDbEntity
  8
M4
  6
CONTINUOUS
370
25
 62
   154
100
AcDbLine
 10
147.627874
 20
395.927736
 11
147.627874
 21
389.027739
  0
ARC
  5
4E1
100
AcDbEntity
  8
M4
  6
CONTINUOUS
370
25
 62
   154
100
AcDbCircle
 10
115.377874
 20
366.027736
 40
0.5
100
AcDbArc
 50
180.0
 51
270.0
  0
ARC
  5
4E2
100
AcDbEntity
  8
M4
  6
CONTINUOUS
370
25
 62
   154
100
AcDbCircle
 10
115.377874
 20
495.027736
 40
0.5
100
AcDbArc
 50
90.0
 51
180.0
  0
ARC
  5
4E3
100
AcDbEntity
  8
M4
  6
CONTINUOUS
370
25
 62
   154
100
AcDbCircle
 10
161.877874
 20
495.027736
 40
0.5
100
AcDbArc
 50
0.0
 51
90.0
  0
ARC
  5
4E4
100
AcDbEntity
  8
M4
  6
CONTINUOUS
370
25
 62
   154
100
AcDbCircle
 10
140.377874
 20
366.027736
 40
0.5
100
AcDbArc
 50
180.0
 51
270.0
  0
ARC
  5
4E5
100
AcDbEntity
  8
M4
  6
CONTINUOUS
370
25
 62
   154
100
AcDbCircle
 10
140.377874
 20
495.027736
 40
0.5
100
AcDbArc
 50
90.0
 51
180.0
  0
LINE
  5
4E6
100
AcDbEntity
  8
M4
  6
CONTINUOUS
370
25
 62
   154
100
AcDbLine
 10
161.877874
 20
365.527741
 11
159.627877
 21
365.527741
  0
ARC
  5
4E7
100
AcDbEntity
  8
M4
  6
CONTINUOUS
370
25
 62
   154
100
AcDbCircle
 10
161.877874
 20
366.027736
 40
0.5
100
AcDbArc
 50
270.0
 51
360.0
  0
LINE
  5
4E8
100
AcDbEntity
  8
M4
  6
CONTINUOUS
370
25
 62
   154
100
AcDbLine
 10
162.377877
 20
495.027736
 11
162.377877
 21
494.420556
  0
LINE
  5
4E9
100
AcDbEntity
  8
M4
  6
CONTINUOUS
370
25
 62
   154
100
AcDbLine
 10
164.977874
 20
368.069356
 11
164.977874
 21
368.527731
  0
ARC
  5
4EA
100
AcDbEntity
  8
M4
  6
CONTINUOUS
370
25
 62
   154
100
AcDbCircle
 10
186.877874
 20
495.027736
 40
0.5
100
AcDbArc
 50
0.0
 51
90.0
  0
ARC
  5
4EB
100
AcDbEntity
  8
M4
  6
CONTINUOUS
370
25
 62
   154
100
AcDbCircle
 10
165.377874
 20
366.027736
 40
0.5
100
AcDbArc
 50
180.0
 51
270.0
  0
ARC
  5
4EC
100
AcDbEntity
  8
M4
  6
CONTINUOUS
370
25
 62
   154
100
AcDbCircle
 10
136.877874
 20
366.027736
 40
0.5
100
AcDbArc
 50
270.0
 51
360.0
  0
ARC
  5
4ED
100
AcDbEntity
  8
M4
  6
CONTINUOUS
370
25
 62
   154
100
AcDbCircle
 10
165.377874
 20
495.027736
 40
0.5
100
AcDbArc
 50
90.0
 51
180.0
  0
ARC
  5
4EE
100
AcDbEntity
  8
M4
  6
CONTINUOUS
370
25
 62
   154
100
AcDbCircle
 10
185.827874
 20
384.277736
 40
3.25
100
AcDbArc
 50
90.0
 51
213.063653
  0
ARC
  5
4EF
100
AcDbEntity
  8
M4
  6
CONTINUOUS
370
25
 62
   154
100
AcDbCircle
 10
116.427874
 20
384.277736
 40
3.25
100
AcDbArc
 50
270.0
 51
450.0
  0
ARC
  5
4F0
100
AcDbEntity
  8
M4
  6
CONTINUOUS
370
25
 62
   154
100
AcDbCircle
 10
114.127874
 20
388.027736
 40
0.5
100
AcDbArc
 50
180.0
 51
270.0
  0
LINE
  5
4F1
100
AcDbEntity
  8
M4
  6
CONTINUOUS
370
25
 62
   154
100
AcDbLine
 10
118.627877
 20
494.527736
 11
118.627877
 21
482.527736
  0
LINE
  5
4F2
100
AcDbEntity
  8
M4
  6
CONTINUOUS
370
25
 62
   154
100
AcDbLine
 10
183.627874
 20
482.527736
 11
183.627874
 21
494.527736
  0
LINE
  5
4F3
100
AcDbEntity
  8
M4
  6
CONTINUOUS
370
25
 62
   154
100
AcDbLine
 10
163.127874
 20
405.527734
 11
139.127874
 21
405.527734
  0
ARC
  5
4F4
100
AcDbEntity
  8
M4
  6
CONTINUOUS
370
25
 62
   154
100
AcDbCircle
 10
115.277874
 20
367.327741
 40
0.8
100
AcDbArc
 50
112.024326
 51
240.0
  0
ARC
  5
4F5
100
AcDbEntity
  8
M4
  6
CONTINUOUS
370
25
 62
   154
100
AcDbCircle
 10
186.977877
 20
367.327741
 40
0.8
100
AcDbArc
 50
300.0
 51
427.975674
  0
ARC
  5
4F6
100
AcDbEntity
  8
M4
  6
CONTINUOUS
370
25
 62
   154
100
AcDbCircle
 10
165.277874
 20
493.727731
 40
0.8
100
AcDbArc
 50
120.0
 51
247.975674
  0
ARC
  5
4F7
100
AcDbEntity
  8
M4
  6
CONTINUOUS
370
25
 62
   154
100
AcDbCircle
 10
186.977877
 20
493.727731
 40
0.8
100
AcDbArc
 50
292.024326
 51
420.0
  0
ARC
  5
4F8
100
AcDbEntity
  8
M4
  6
CONTINUOUS
370
25
 62
   154
100
AcDbCircle
 10
161.977874
 20
367.327741
 40
0.8
100
AcDbArc
 50
300.0
 51
427.975674
  0
ARC
  5
4F9
100
AcDbEntity
  8
M4
  6
CONTINUOUS
370
25
 62
   154
100
AcDbCircle
 10
165.277874
 20
367.327741
 40
0.8
100
AcDbArc
 50
112.024326
 51
240.0
  0
ARC
  5
4FA
100
AcDbEntity
  8
M4
  6
CONTINUOUS
370
25
 62
   154
100
AcDbCircle
 10
140.277874
 20
367.327741
 40
0.8
100
AcDbArc
 50
112.024326
 51
240.0
  0
ARC
  5
4FB
100
AcDbEntity
  8
M4
  6
CONTINUOUS
370
25
 62
   154
100
AcDbCircle
 10
136.977874
 20
367.327741
 40
0.8
100
AcDbArc
 50
300.0
 51
427.975674
  0
ARC
  5
4FC
100
AcDbEntity
  8
M4
  6
CONTINUOUS
370
25
 62
   154
100
AcDbCircle
 10
140.277874
 20
493.727731
 40
0.8
100
AcDbArc
 50
120.0
 51
247.975674
  0
ARC
  5
4FD
100
AcDbEntity
  8
M4
  6
CONTINUOUS
370
25
 62
   154
100
AcDbCircle
 10
161.977874
 20
493.727731
 40
0.8
100
AcDbArc
 50
292.024326
 51
420.0
  0
ARC
  5
4FE
100
AcDbEntity
  8
M4
  6
CONTINUOUS
370
25
 62
   154
100
AcDbCircle
 10
115.277874
 20
493.727731
 40
0.8
100
AcDbArc
 50
120.0
 51
247.975674
  0
LINE
  5
4FF
100
AcDbEntity
  8
M4
  6
CONTINUOUS
370
25
 62
   154
100
AcDbLine
 10
143.627874
 20
420.027739
 11
158.627874
 21
420.027739
  0
LINE
  5
500
100
AcDbEntity
  8
M4
  6
CONTINUOUS
370
25
 62
   154
100
AcDbLine
 10
139.127874
 20
455.527736
 11
163.127874
 21
455.527736
  0
LINE
  5
501
100
AcDbEntity
  8
M4
  6
CONTINUOUS
370
25
 62
   154
100
AcDbLine
 10
114.191987
 20
396.027736
 11
113.627874
 21
396.027736
  0
LINE
  5
502
100
AcDbEntity
  8
M4
  6
CONTINUOUS
370
25
 62
   154
100
AcDbLine
 10
188.063764
 20
396.027736
 11
188.627877
 21
396.027736
  0
LINE
  5
503
100
AcDbEntity
  8
M4
  6
CONTINUOUS
370
25
 62
   154
100
AcDbLine
 10
146.877874
 20
415.727734
 11
146.877874
 21
410.227739
  0
LINE
  5
504
100
AcDbEntity
  8
M4
  6
CONTINUOUS
370
25
 62
   154
100
AcDbLine
 10
158.627874
 20
449.027736
 11
143.627874
 21
449.027736
  0
LINE
  5
505
100
AcDbEntity
  8
M4
  6
CONTINUOUS
370
25
 62
   154
100
AcDbLine
 10
140.127874
 20
407.527736
 11
140.127874
 21
453.527736
  0
LINE
  5
506
100
AcDbEntity
  8
M4
  6
CONTINUOUS
370
25
 62
   154
100
AcDbLine
 10
143.627874
 20
419.450386
 11
143.627874
 21
449.027736
  0
ARC
  5
507
100
AcDbEntity
  8
M4
  6
CONTINUOUS
370
25
 62
   154
100
AcDbCircle
 10
139.477874
 20
369.727736
 40
0.5
100
AcDbArc
 50
0.0
 51
90.0
  0
ARC
  5
508
100
AcDbEntity
  8
M4
  6
CONTINUOUS
370
25
 62
   154
100
AcDbCircle
 10
137.777874
 20
369.727736
 40
0.5
100
AcDbArc
 50
90.0
 51
180.0
  0
ARC
  5
509
100
AcDbEntity
  8
M4
  6
CONTINUOUS
370
25
 62
   154
100
AcDbCircle
 10
163.627874
 20
375.277736
 40
4.75
100
AcDbArc
 50
284.282021
 51
327.363102
  0
ARC
  5
50A
100
AcDbEntity
  8
M4
  6
CONTINUOUS
370
25
 62
   154
100
AcDbCircle
 10
164.477874
 20
369.727736
 40
0.5
100
AcDbArc
 50
0.0
 51
90.0
  0
LINE
  5
50B
100
AcDbEntity
  8
M4
  6
CONTINUOUS
370
25
 62
   154
100
AcDbLine
 10
140.127874
 20
460.027734
 11
162.127874
 21
460.027734
  0
LINE
  5
50C
100
AcDbEntity
  8
M4
  6
CONTINUOUS
370
25
 62
   154
100
AcDbLine
 10
139.127874
 20
459.027736
 11
139.127874
 21
404.027736
  0
ARC
  5
50D
100
AcDbEntity
  8
M4
  6
CONTINUOUS
370
25
 62
   154
100
AcDbCircle
 10
162.777874
 20
369.727736
 40
0.5
100
AcDbArc
 50
90.0
 51
180.0
  0
LINE
  5
50E
100
AcDbEntity
  8
M4
  6
CONTINUOUS
370
25
 62
   154
100
AcDbLine
 10
163.127874
 20
459.027736
 11
163.127874
 21
404.027736
  0
ARC
  5
50F
100
AcDbEntity
  8
M4
  6
CONTINUOUS
370
25
 62
   154
100
AcDbCircle
 10
136.977874
 20
493.727731
 40
0.8
100
AcDbArc
 50
292.024326
 51
420.0
  0
LINE
  5
510
100
AcDbEntity
  8
M4
  6
CONTINUOUS
370
25
 62
   154
100
AcDbLine
 10
162.127874
 20
453.527736
 11
162.127874
 21
407.527736
  0
LINE
  5
511
100
AcDbEntity
  8
M4
  6
CONTINUOUS
370
25
 62
   154
100
AcDbLine
 10
155.377874
 20
415.727734
 11
146.877874
 21
415.727734
  0
LINE
  5
512
100
AcDbEntity
  8
M4
  6
CONTINUOUS
370
25
 62
   154
100
AcDbLine
 10
158.627874
 20
419.450386
 11
143.627874
 21
419.450386
  0
LINE
  5
513
100
AcDbEntity
  8
M4
  6
CONTINUOUS
370
25
 62
   154
100
AcDbLine
 10
158.627874
 20
419.450386
 11
158.627874
 21
449.027736
  0
LINE
  5
514
100
AcDbEntity
  8
M4
  6
CONTINUOUS
370
25
 62
   154
100
AcDbLine
 10
146.877874
 20
410.227739
 11
155.377874
 21
410.227739
  0
LINE
  5
515
100
AcDbEntity
  8
M4
  6
CONTINUOUS
370
25
 62
   154
100
AcDbLine
 10
142.627874
 20
495.527736
 11
140.377874
 21
495.527736
  0
LINE
  5
516
100
AcDbEntity
  8
M4
  6
CONTINUOUS
370
25
 62
   154
100
AcDbLine
 10
188.627877
 20
389.027739
 11
113.627874
 21
389.027739
  0
LINE
  5
517
100
AcDbEntity
  8
M4
  6
CONTINUOUS
370
25
 62
   154
100
AcDbLine
 10
136.877874
 20
495.527736
 11
134.627874
 21
495.527736
  0
CIRCLE
  5
518
100
AcDbEntity
  8
M4
  6
CONTINUOUS
370
25
 62
   154
100
AcDbCircle
 10
116.127874
 20
375.527736
 40
1.25
  0
CIRCLE
  5
519
100
AcDbEntity
  8
M4
  6
CONTINUOUS
370
25
 62
   154
100
AcDbCircle
 10
116.127874
 20
485.527736
 40
1.25
  0
CIRCLE
  5
51A
100
AcDbEntity
  8
M4
  6
CONTINUOUS
370
25
 62
   154
100
AcDbCircle
 10
186.127874
 20
485.527736
 40
1.55
  0
LINE
  5
51B
100
AcDbEntity
  8
M4
  6
CONTINUOUS
370
25
 62
   154
100
AcDbLine
 10
155.377874
 20
410.227739
 11
155.377874
 21
415.727734
  0
CIRCLE
  5
51C
100
AcDbEntity
  8
M4
  6
CONTINUOUS
370
25
 62
   154
100
AcDbCircle
 10
116.127874
 20
485.527736
 40
1.55
  0
CIRCLE
  5
51D
100
AcDbEntity
  8
M4
  6
CONTINUOUS
370
25
 62
   154
100
AcDbCircle
 10
186.127874
 20
375.527736
 40
1.25
  0
CIRCLE
  5
51E
100
AcDbEntity
  8
M4
  6
CONTINUOUS
370
25
 62
   154
100
AcDbCircle
 10
116.127874
 20
375.527736
 40
1.55
  0
CIRCLE
  5
51F
100
AcDbEntity
  8
M4
  6
CONTINUOUS
370
25
 62
   154
100
AcDbCircle
 10
186.127874
 20
485.527736
 40
1.25
  0
CIRCLE
  5
520
100
AcDbEntity
  8
M4
  6
CONTINUOUS
370
25
 62
   154
100
AcDbCircle
 10
186.127874
 20
375.527736
 40
1.55
  0
LINE
  5
521
100
AcDbEntity
  8
M4
  6
CONTINUOUS
370
25
 62
     7
100
AcDbLine
 10
164.652874
 20
476.627736
 11
165.052874
 21
476.627736
  0
CIRCLE
  5
522
100
AcDbEntity
  8
M4
  6
CONTINUOUS
370
25
 62
     7
100
AcDbCircle
 10
163.627874
 20
476.327736
 40
2.75
  0
LINE
  5
523
100
AcDbEntity
  8
M4
  6
CONTINUOUS
370
25
 62
     7
100
AcDbLine
 10
162.227874
 20
476.027736
 11
162.602874
 21
476.027736
  0
LINE
  5
524
100
AcDbEntity
  8
M4
  6
CONTINUOUS
370
25
 62
     7
100
AcDbLine
 10
165.052874
 20
476.627736
 11
165.052874
 21
476.027736
  0
LINE
  5
525
100
AcDbEntity
  8
M4
  6
CONTINUOUS
370
25
 62
     7
100
AcDbLine
 10
162.227874
 20
476.627736
 11
162.602874
 21
476.627736
  0
ARC
  5
526
100
AcDbEntity
  8
M4
  6
CONTINUOUS
370
25
 62
     7
100
AcDbCircle
 10
164.652874
 20
475.302736
 40
0.725
100
AcDbArc
 50
90.0
 51
180.0
  0
ARC
  5
527
100
AcDbEntity
  8
M4
  6
CONTINUOUS
370
25
 62
     7
100
AcDbCircle
 10
162.602874
 20
477.352736
 40
0.725
100
AcDbArc
 50
270.0
 51
360.0
  0
ARC
  5
528
100
AcDbEntity
  8
M4
  6
CONTINUOUS
370
25
 62
     7
100
AcDbCircle
 10
164.652874
 20
477.352736
 40
0.725
100
AcDbArc
 50
180.0
 51
270.0
  0
LINE
  5
529
100
AcDbEntity
  8
M4
  6
CONTINUOUS
370
25
 62
     7
100
AcDbLine
 10
163.927874
 20
477.727736
 11
163.927874
 21
477.331376
  0
LINE
  5
52A
100
AcDbEntity
  8
M4
  6
CONTINUOUS
370
25
 62
     7
100
AcDbLine
 10
162.227874
 20
476.627736
 11
162.227874
 21
476.027736
  0
LINE
  5
52B
100
AcDbEntity
  8
M4
  6
CONTINUOUS
370
25
 62
     7
100
AcDbLine
 10
163.927874
 20
474.927736
 11
163.927874
 21
475.324096
  0
LINE
  5
52C
100
AcDbEntity
  8
M4
  6
CONTINUOUS
370
25
 62
     7
100
AcDbLine
 10
163.327874
 20
477.727736
 11
163.327874
 21
477.331376
  0
LINE
  5
52D
100
AcDbEntity
  8
M4
  6
CONTINUOUS
370
25
 62
     7
100
AcDbLine
 10
163.327874
 20
474.927736
 11
163.327874
 21
475.324096
  0
LINE
  5
52E
100
AcDbEntity
  8
M4
  6
CONTINUOUS
370
25
 62
     7
100
AcDbLine
 10
163.327874
 20
477.727736
 11
163.927874
 21
477.727736
  0
ARC
  5
52F
100
AcDbEntity
  8
M4
  6
CONTINUOUS
370
25
 62
     7
100
AcDbCircle
 10
162.602874
 20
475.302736
 40
0.725
100
AcDbArc
 50
0.0
 51
90.0
  0
LINE
  5
530
100
AcDbEntity
  8
M4
  6
CONTINUOUS
370
25
 62
     7
100
AcDbLine
 10
164.652874
 20
476.027736
 11
165.052874
 21
476.027736
  0
LINE
  5
531
100
AcDbEntity
  8
M4
  6
CONTINUOUS
370
25
 62
     7
100
AcDbLine
 10
163.327874
 20
474.927736
 11
163.927874
 21
474.927736
  0
LINE
  5
532
100
AcDbEntity
  8
M4
  6
CONTINUOUS
370
25
 62
     7
100
AcDbLine
 10
139.652874
 20
476.627736
 11
140.052874
 21
476.627736
  0
CIRCLE
  5
533
100
AcDbEntity
  8
M4
  6
CONTINUOUS
370
25
 62
     7
100
AcDbCircle
 10
138.627874
 20
476.327736
 40
2.75
  0
LINE
  5
534
100
AcDbEntity
  8
M4
  6
CONTINUOUS
370
25
 62
     7
100
AcDbLine
 10
137.227874
 20
476.027736
 11
137.602874
 21
476.027736
  0
LINE
  5
535
100
AcDbEntity
  8
M4
  6
CONTINUOUS
370
25
 62
     7
100
AcDbLine
 10
140.052874
 20
476.627736
 11
140.052874
 21
476.027736
  0
LINE
  5
536
100
AcDbEntity
  8
M4
  6
CONTINUOUS
370
25
 62
     7
100
AcDbLine
 10
137.227874
 20
476.627736
 11
137.602874
 21
476.627736
  0
ARC
  5
537
100
AcDbEntity
  8
M4
  6
CONTINUOUS
370
25
 62
     7
100
AcDbCircle
 10
139.652874
 20
475.302736
 40
0.725
100
AcDbArc
 50
90.0
 51
180.0
  0
ARC
  5
538
100
AcDbEntity
  8
M4
  6
CONTINUOUS
370
25
 62
     7
100
AcDbCircle
 10
137.602874
 20
477.352736
 40
0.725
100
AcDbArc
 50
270.0
 51
360.0
  0
ARC
  5
539
100
AcDbEntity
  8
M4
  6
CONTINUOUS
370
25
 62
     7
100
AcDbCircle
 10
139.652874
 20
477.352736
 40
0.725
100
AcDbArc
 50
180.0
 51
270.0
  0
LINE
  5
53A
100
AcDbEntity
  8
M4
  6
CONTINUOUS
370
25
 62
     7
100
AcDbLine
 10
138.927874
 20
477.727736
 11
138.927874
 21
477.331376
  0
LINE
  5
53B
100
AcDbEntity
  8
M4
  6
CONTINUOUS
370
25
 62
     7
100
AcDbLine
 10
137.227874
 20
476.627736
 11
137.227874
 21
476.027736
  0
LINE
  5
53C
100
AcDbEntity
  8
M4
  6
CONTINUOUS
370
25
 62
     7
100
AcDbLine
 10
138.927874
 20
474.927736
 11
138.927874
 21
475.324096
  0
LINE
  5
53D
100
AcDbEntity
  8
M4
  6
CONTINUOUS
370
25
 62
     7
100
AcDbLine
 10
138.327874
 20
477.727736
 11
138.327874
 21
477.331376
  0
LINE
  5
53E
100
AcDbEntity
  8
M4
  6
CONTINUOUS
370
25
 62
     7
100
AcDbLine
 10
138.327874
 20
474.927736
 11
138.327874
 21
475.324096
  0
LINE
  5
53F
100
AcDbEntity
  8
M4
  6
CONTINUOUS
370
25
 62
     7
100
AcDbLine
 10
138.327874
 20
477.727736
 11
138.927874
 21
477.727736
  0
ARC
  5
540
100
AcDbEntity
  8
M4
  6
CONTINUOUS
370
25
 62
     7
100
AcDbCircle
 10
137.602874
 20
475.302736
 40
0.725
100
AcDbArc
 50
0.0
 51
90.0
  0
LINE
  5
541
100
AcDbEntity
  8
M4
  6
CONTINUOUS
370
25
 62
     7
100
AcDbLine
 10
139.652874
 20
476.027736
 11
140.052874
 21
476.027736
  0
LINE
  5
542
100
AcDbEntity
  8
M4
  6
CONTINUOUS
370
25
 62
     7
100
AcDbLine
 10
138.327874
 20
474.927736
 11
138.927874
 21
474.927736
  0
LINE
  5
543
100
AcDbEntity
  8
M4
  6
CONTINUOUS
370
25
 62
     7
100
AcDbLine
 10
186.852874
 20
384.577736
 11
187.252874
 21
384.577736
  0
CIRCLE
  5
544
100
AcDbEntity
  8
M4
  6
CONTINUOUS
370
25
 62
     7
100
AcDbCircle
 10
185.827874
 20
384.277736
 40
2.75
  0
LINE
  5
545
100
AcDbEntity
  8
M4
  6
CONTINUOUS
370
25
 62
     7
100
AcDbLine
 10
184.427874
 20
383.977736
 11
184.802874
 21
383.977736
  0
LINE
  5
546
100
AcDbEntity
  8
M4
  6
CONTINUOUS
370
25
 62
     7
100
AcDbLine
 10
187.252874
 20
384.577736
 11
187.252874
 21
383.977736
  0
LINE
  5
547
100
AcDbEntity
  8
M4
  6
CONTINUOUS
370
25
 62
     7
100
AcDbLine
 10
184.427874
 20
384.577736
 11
184.802874
 21
384.577736
  0
ARC
  5
548
100
AcDbEntity
  8
M4
  6
CONTINUOUS
370
25
 62
     7
100
AcDbCircle
 10
186.852874
 20
383.252736
 40
0.725
100
AcDbArc
 50
90.0
 51
180.0
  0
ARC
  5
549
100
AcDbEntity
  8
M4
  6
CONTINUOUS
370
25
 62
     7
100
AcDbCircle
 10
184.802874
 20
385.302736
 40
0.725
100
AcDbArc
 50
270.0
 51
360.0
  0
ARC
  5
54A
100
AcDbEntity
  8
M4
  6
CONTINUOUS
370
25
 62
     7
100
AcDbCircle
 10
186.852874
 20
385.302736
 40
0.725
100
AcDbArc
 50
180.0
 51
270.0
  0
LINE
  5
54B
100
AcDbEntity
  8
M4
  6
CONTINUOUS
370
25
 62
     7
100
AcDbLine
 10
186.127874
 20
385.677736
 11
186.127874
 21
385.281376
  0
LINE
  5
54C
100
AcDbEntity
  8
M4
  6
CONTINUOUS
370
25
 62
     7
100
AcDbLine
 10
184.427874
 20
384.577736
 11
184.427874
 21
383.977736
  0
LINE
  5
54D
100
AcDbEntity
  8
M4
  6
CONTINUOUS
370
25
 62
     7
100
AcDbLine
 10
186.127874
 20
382.877736
 11
186.127874
 21
383.274096
  0
LINE
  5
54E
100
AcDbEntity
  8
M4
  6
CONTINUOUS
370
25
 62
     7
100
AcDbLine
 10
185.527874
 20
385.677736
 11
185.527874
 21
385.281376
  0
LINE
  5
54F
100
AcDbEntity
  8
M4
  6
CONTINUOUS
370
25
 62
     7
100
AcDbLine
 10
185.527874
 20
382.877736
 11
185.527874
 21
383.274096
  0
LINE
  5
550
100
AcDbEntity
  8
M4
  6
CONTINUOUS
370
25
 62
     7
100
AcDbLine
 10
185.527874
 20
385.677736
 11
186.127874
 21
385.677736
  0
ARC
  5
551
100
AcDbEntity
  8
M4
  6
CONTINUOUS
370
25
 62
     7
100
AcDbCircle
 10
184.802874
 20
383.252736
 40
0.725
100
AcDbArc
 50
0.0
 51
90.0
  0
LINE
  5
552
100
AcDbEntity
  8
M4
  6
CONTINUOUS
370
25
 62
     7
100
AcDbLine
 10
186.852874
 20
383.977736
 11
187.252874
 21
383.977736
  0
LINE
  5
553
100
AcDbEntity
  8
M4
  6
CONTINUOUS
370
25
 62
     7
100
AcDbLine
 10
185.527874
 20
382.877736
 11
186.127874
 21
382.877736
  0
LINE
  5
554
100
AcDbEntity
  8
M4
  6
CONTINUOUS
370
25
 62
     7
100
AcDbLine
 10
117.452874
 20
384.577736
 11
117.852874
 21
384.577736
  0
CIRCLE
  5
555
100
AcDbEntity
  8
M4
  6
CONTINUOUS
370
25
 62
     7
100
AcDbCircle
 10
116.427874
 20
384.277736
 40
2.75
  0
LINE
  5
556
100
AcDbEntity
  8
M4
  6
CONTINUOUS
370
25
 62
     7
100
AcDbLine
 10
115.027874
 20
383.977736
 11
115.402874
 21
383.977736
  0
LINE
  5
557
100
AcDbEntity
  8
M4
  6
CONTINUOUS
370
25
 62
     7
100
AcDbLine
 10
117.852874
 20
384.577736
 11
117.852874
 21
383.977736
  0
LINE
  5
558
100
AcDbEntity
  8
M4
  6
CONTINUOUS
370
25
 62
     7
100
AcDbLine
 10
115.027874
 20
384.577736
 11
115.402874
 21
384.577736
  0
ARC
  5
559
100
AcDbEntity
  8
M4
  6
CONTINUOUS
370
25
 62
     7
100
AcDbCircle
 10
117.452874
 20
383.252736
 40
0.725
100
AcDbArc
 50
90.0
 51
180.0
  0
ARC
  5
55A
100
AcDbEntity
  8
M4
  6
CONTINUOUS
370
25
 62
     7
100
AcDbCircle
 10
115.402874
 20
385.302736
 40
0.725
100
AcDbArc
 50
270.0
 51
360.0
  0
ARC
  5
55B
100
AcDbEntity
  8
M4
  6
CONTINUOUS
370
25
 62
     7
100
AcDbCircle
 10
117.452874
 20
385.302736
 40
0.725
100
AcDbArc
 50
180.0
 51
270.0
  0
LINE
  5
55C
100
AcDbEntity
  8
M4
  6
CONTINUOUS
370
25
 62
     7
100
AcDbLine
 10
116.727874
 20
385.677736
 11
116.727874
 21
385.281376
  0
LINE
  5
55D
100
AcDbEntity
  8
M4
  6
CONTINUOUS
370
25
 62
     7
100
AcDbLine
 10
115.027874
 20
384.577736
 11
115.027874
 21
383.977736
  0
LINE
  5
55E
100
AcDbEntity
  8
M4
  6
CONTINUOUS
370
25
 62
     7
100
AcDbLine
 10
116.727874
 20
382.877736
 11
116.727874
 21
383.274096
  0
LINE
  5
55F
100
AcDbEntity
  8
M4
  6
CONTINUOUS
370
25
 62
     7
100
AcDbLine
 10
116.127874
 20
385.677736
 11
116.127874
 21
385.281376
  0
LINE
  5
560
100
AcDbEntity
  8
M4
  6
CONTINUOUS
370
25
 62
     7
100
AcDbLine
 10
116.127874
 20
382.877736
 11
116.127874
 21
383.274096
  0
LINE
  5
561
100
AcDbEntity
  8
M4
  6
CONTINUOUS
370
25
 62
     7
100
AcDbLine
 10
116.127874
 20
385.677736
 11
116.727874
 21
385.677736
  0
ARC
  5
562
100
AcDbEntity
  8
M4
  6
CONTINUOUS
370
25
 62
     7
100
AcDbCircle
 10
115.402874
 20
383.252736
 40
0.725
100
AcDbArc
 50
0.0
 51
90.0
  0
LINE
  5
563
100
AcDbEntity
  8
M4
  6
CONTINUOUS
370
25
 62
     7
100
AcDbLine
 10
117.452874
 20
383.977736
 11
117.852874
 21
383.977736
  0
LINE
  5
564
100
AcDbEntity
  8
M4
  6
CONTINUOUS
370
25
 62
     7
100
AcDbLine
 10
116.127874
 20
382.877736
 11
116.727874
 21
382.877736
  0
CIRCLE
  5
565
100
AcDbEntity
  8
M4
  6
CONTINUOUS
370
25
 62
     7
100
AcDbCircle
 10
163.627874
 20
466.277736
 40
4.15
  0
CIRCLE
  5
566
100
AcDbEntity
  8
M4
  6
CONTINUOUS
370
25
 62
     7
100
AcDbCircle
 10
163.627874
 20
466.277736
 40
4.25
  0
LINE
  5
567
100
AcDbEntity
  8
M4
  6
CONTINUOUS
370
25
 62
     7
100
AcDbLine
 10
165.466344
 20
467.409099
 11
164.759237
 21
468.116204
  0
LINE
  5
568
100
AcDbEntity
  8
M4
  6
CONTINUOUS
370
25
 62
     7
100
AcDbLine
 10
163.627874
 20
465.570629
 11
164.759279
 21
464.439224
  0
LINE
  5
569
100
AcDbEntity
  8
M4
  6
CONTINUOUS
370
25
 62
     7
100
AcDbLine
 10
164.759237
 20
468.116204
 11
163.627874
 21
466.984844
  0
LINE
  5
56A
100
AcDbEntity
  8
M4
  6
CONTINUOUS
370
25
 62
     7
100
AcDbLine
 10
162.496502
 20
464.439256
 11
163.627874
 21
465.570629
  0
LINE
  5
56B
100
AcDbEntity
  8
M4
  6
CONTINUOUS
370
25
 62
     7
100
AcDbLine
 10
161.789397
 20
465.146364
 11
162.496502
 21
464.439256
  0
LINE
  5
56C
100
AcDbEntity
  8
M4
  6
CONTINUOUS
370
25
 62
     7
100
AcDbLine
 10
162.920769
 20
466.277736
 11
161.789397
 21
465.146364
  0
LINE
  5
56D
100
AcDbEntity
  8
M4
  6
CONTINUOUS
370
25
 62
     7
100
AcDbLine
 10
165.466387
 20
465.146331
 11
164.334982
 21
466.277736
  0
LINE
  5
56E
100
AcDbEntity
  8
M4
  6
CONTINUOUS
370
25
 62
     7
100
AcDbLine
 10
164.334982
 20
466.277736
 11
165.466344
 21
467.409099
  0
LINE
  5
56F
100
AcDbEntity
  8
M4
  6
CONTINUOUS
370
25
 62
     7
100
AcDbLine
 10
162.496469
 20
468.116249
 11
161.789364
 21
467.409141
  0
LINE
  5
570
100
AcDbEntity
  8
M4
  6
CONTINUOUS
370
25
 62
     7
100
AcDbLine
 10
164.759279
 20
464.439224
 11
165.466387
 21
465.146331
  0
LINE
  5
571
100
AcDbEntity
  8
M4
  6
CONTINUOUS
370
25
 62
     7
100
AcDbLine
 10
161.789364
 20
467.409141
 11
162.920769
 21
466.277736
  0
LINE
  5
572
100
AcDbEntity
  8
M4
  6
CONTINUOUS
370
25
 62
     7
100
AcDbLine
 10
163.627874
 20
466.984844
 11
162.496469
 21
468.116249
  0
CIRCLE
  5
573
100
AcDbEntity
  8
M4
  6
CONTINUOUS
370
25
 62
     7
100
AcDbCircle
 10
138.627874
 20
466.277736
 40
4.15
  0
CIRCLE
  5
574
100
AcDbEntity
  8
M4
  6
CONTINUOUS
370
25
 62
     7
100
AcDbCircle
 10
138.627874
 20
466.277736
 40
4.25
  0
LINE
  5
575
100
AcDbEntity
  8
M4
  6
CONTINUOUS
370
25
 62
     7
100
AcDbLine
 10
140.466344
 20
467.409099
 11
139.759237
 21
468.116204
  0
LINE
  5
576
100
AcDbEntity
  8
M4
  6
CONTINUOUS
370
25
 62
     7
100
AcDbLine
 10
138.627874
 20
465.570629
 11
139.759279
 21
464.439224
  0
LINE
  5
577
100
AcDbEntity
  8
M4
  6
CONTINUOUS
370
25
 62
     7
100
AcDbLine
 10
139.759237
 20
468.116204
 11
138.627874
 21
466.984844
  0
LINE
  5
578
100
AcDbEntity
  8
M4
  6
CONTINUOUS
370
25
 62
     7
100
AcDbLine
 10
137.496502
 20
464.439256
 11
138.627874
 21
465.570629
  0
LINE
  5
579
100
AcDbEntity
  8
M4
  6
CONTINUOUS
370
25
 62
     7
100
AcDbLine
 10
136.789397
 20
465.146364
 11
137.496502
 21
464.439256
  0
LINE
  5
57A
100
AcDbEntity
  8
M4
  6
CONTINUOUS
370
25
 62
     7
100
AcDbLine
 10
137.920769
 20
466.277736
 11
136.789397
 21
465.146364
  0
LINE
  5
57B
100
AcDbEntity
  8
M4
  6
CONTINUOUS
370
25
 62
     7
100
AcDbLine
 10
140.466387
 20
465.146331
 11
139.334982
 21
466.277736
  0
LINE
  5
57C
100
AcDbEntity
  8
M4
  6
CONTINUOUS
370
25
 62
     7
100
AcDbLine
 10
139.334982
 20
466.277736
 11
140.466344
 21
467.409099
  0
LINE
  5
57D
100
AcDbEntity
  8
M4
  6
CONTINUOUS
370
25
 62
     7
100
AcDbLine
 10
137.496469
 20
468.116249
 11
136.789364
 21
467.409141
  0
LINE
  5
57E
100
AcDbEntity
  8
M4
  6
CONTINUOUS
370
25
 62
     7
100
AcDbLine
 10
139.759279
 20
464.439224
 11
140.466387
 21
465.146331
  0
LINE
  5
57F
100
AcDbEntity
  8
M4
  6
CONTINUOUS
370
25
 62
     7
100
AcDbLine
 10
136.789364
 20
467.409141
 11
137.920769
 21
466.277736
  0
LINE
  5
580
100
AcDbEntity
  8
M4
  6
CONTINUOUS
370
25
 62
     7
100
AcDbLine
 10
138.627874
 20
466.984844
 11
137.496469
 21
468.116249
  0
CIRCLE
  5
581
100
AcDbEntity
  8
M4
  6
CONTINUOUS
370
25
 62
   114
100
AcDbCircle
 10
176.127874
 20
373.027736
 40
7.0
  0
LINE
  5
582
100
AcDbEntity
  8
M4
  6
CONTINUOUS
370
25
 62
   114
100
AcDbLine
 10
177.259314
 20
373.027736
 11
181.610899
 21
377.379319
  0
LINE
  5
583
100
AcDbEntity
  8
M4
  6
CONTINUOUS
370
25
 62
   114
100
AcDbLine
 10
171.776282
 20
367.544701
 11
176.128047
 21
371.896469
  0
LINE
  5
584
100
AcDbEntity
  8
M4
  6
CONTINUOUS
370
25
 62
   114
100
AcDbLine
 10
174.996619
 20
373.027899
 11
170.644852
 21
368.676131
  0
LINE
  5
585
100
AcDbEntity
  8
M4
  6
CONTINUOUS
370
25
 62
   114
100
AcDbLine
 10
180.479459
 20
378.510759
 11
176.127887
 21
374.159166
  0
LINE
  5
586
100
AcDbEntity
  8
M4
  6
CONTINUOUS
370
25
 62
   114
100
AcDbLine
 10
176.127874
 20
374.159176
 11
173.971164
 21
376.315886
  0
LINE
  5
587
100
AcDbEntity
  8
M4
  6
CONTINUOUS
370
25
 62
   114
100
AcDbLine
 10
179.415852
 20
370.871199
 11
177.259314
 21
373.027736
  0
LINE
  5
588
100
AcDbEntity
  8
M4
  6
CONTINUOUS
370
25
 62
   114
100
AcDbLine
 10
176.128047
 20
371.896469
 11
178.284584
 21
369.739931
  0
LINE
  5
589
100
AcDbEntity
  8
M4
  6
CONTINUOUS
370
25
 62
   114
100
AcDbLine
 10
172.839897
 20
375.184619
 11
174.996607
 21
373.027909
  0
LINE
  5
58A
100
AcDbEntity
  8
M4
  6
CONTINUOUS
370
25
 62
   114
100
AcDbLine
 10
178.284584
 20
369.739931
 11
179.415852
 21
370.871199
  0
LINE
  5
58B
100
AcDbEntity
  8
M4
  6
CONTINUOUS
370
25
 62
   114
100
AcDbLine
 10
173.971164
 20
376.315886
 11
172.839897
 21
375.184619
  0
ARC
  5
58C
100
AcDbEntity
  8
M4
  6
CONTINUOUS
370
25
 62
   114
100
AcDbCircle
 10
176.127874
 20
373.027736
 40
8.0
100
AcDbArc
 50
20.364159
 51
159.635864
  0
ARC
  5
58D
100
AcDbEntity
  8
M4
  6
CONTINUOUS
370
25
 62
   114
100
AcDbCircle
 10
176.127874
 20
373.027736
 40
8.0
100
AcDbArc
 50
200.364136
 51
339.635841
  0
LINE
  5
58E
100
AcDbEntity
  8
M4
  6
DASHDOT
370
13
 62
   114
100
AcDbLine
 10
176.127874
 20
360.027736
 11
176.127874
 21
386.027736
  0
CIRCLE
  5
58F
100
AcDbEntity
  8
M4
  6
CONTINUOUS
370
25
 62
   114
100
AcDbCircle
 10
151.127874
 20
373.027736
 40
7.0
  0
LINE
  5
590
100
AcDbEntity
  8
M4
  6
CONTINUOUS
370
25
 62
   114
100
AcDbLine
 10
152.259314
 20
373.027736
 11
156.610899
 21
377.379319
  0
LINE
  5
591
100
AcDbEntity
  8
M4
  6
CONTINUOUS
370
25
 62
   114
100
AcDbLine
 10
146.776282
 20
367.544701
 11
151.128047
 21
371.896469
  0
LINE
  5
592
100
AcDbEntity
  8
M4
  6
CONTINUOUS
370
25
 62
   114
100
AcDbLine
 10
149.996619
 20
373.027899
 11
145.644852
 21
368.676131
  0
LINE
  5
593
100
AcDbEntity
  8
M4
  6
CONTINUOUS
370
25
 62
   114
100
AcDbLine
 10
155.479459
 20
378.510759
 11
151.127887
 21
374.159166
  0
LINE
  5
594
100
AcDbEntity
  8
M4
  6
CONTINUOUS
370
25
 62
   114
100
AcDbLine
 10
151.127874
 20
374.159176
 11
148.971164
 21
376.315886
  0
LINE
  5
595
100
AcDbEntity
  8
M4
  6
CONTINUOUS
370
25
 62
   114
100
AcDbLine
 10
154.415852
 20
370.871199
 11
152.259314
 21
373.027736
  0
LINE
  5
596
100
AcDbEntity
  8
M4
  6
CONTINUOUS
370
25
 62
   114
100
AcDbLine
 10
151.128047
 20
371.896469
 11
153.284584
 21
369.739931
  0
LINE
  5
597
100
AcDbEntity
  8
M4
  6
CONTINUOUS
370
25
 62
   114
100
AcDbLine
 10
147.839897
 20
375.184619
 11
149.996607
 21
373.027909
  0
LINE
  5
598
100
AcDbEntity
  8
M4
  6
CONTINUOUS
370
25
 62
   114
100
AcDbLine
 10
153.284584
 20
369.739931
 11
154.415852
 21
370.871199
  0
LINE
  5
599
100
AcDbEntity
  8
M4
  6
CONTINUOUS
370
25
 62
   114
100
AcDbLine
 10
148.971164
 20
376.315886
 11
147.839897
 21
375.184619
  0
ARC
  5
59A
100
AcDbEntity
  8
M4
  6
CONTINUOUS
370
25
 62
   114
100
AcDbCircle
 10
151.127874
 20
373.027736
 40
8.0
100
AcDbArc
 50
20.364138
 51
159.635862
  0
ARC
  5
59B
100
AcDbEntity
  8
M4
  6
CONTINUOUS
370
25
 62
   114
100
AcDbCircle
 10
151.127874
 20
373.027736
 40
8.0
100
AcDbArc
 50
200.364138
 51
339.635862
  0
CIRCLE
  5
59C
100
AcDbEntity
  8
M4
  6
CONTINUOUS
370
25
 62
   114
100
AcDbCircle
 10
126.127874
 20
373.027736
 40
7.0
  0
LINE
  5
59D
100
AcDbEntity
  8
M4
  6
CONTINUOUS
370
25
 62
   114
100
AcDbLine
 10
127.259314
 20
373.027736
 11
131.610899
 21
377.379319
  0
LINE
  5
59E
100
AcDbEntity
  8
M4
  6
CONTINUOUS
370
25
 62
   114
100
AcDbLine
 10
121.776282
 20
367.544701
 11
126.128047
 21
371.896469
  0
LINE
  5
59F
100
AcDbEntity
  8
M4
  6
CONTINUOUS
370
25
 62
   114
100
AcDbLine
 10
124.996619
 20
373.027899
 11
120.644852
 21
368.676131
  0
LINE
  5
5A0
100
AcDbEntity
  8
M4
  6
CONTINUOUS
370
25
 62
   114
100
AcDbLine
 10
130.479459
 20
378.510759
 11
126.127887
 21
374.159166
  0
LINE
  5
5A1
100
AcDbEntity
  8
M4
  6
CONTINUOUS
370
25
 62
   114
100
AcDbLine
 10
126.127874
 20
374.159176
 11
123.971164
 21
376.315886
  0
LINE
  5
5A2
100
AcDbEntity
  8
M4
  6
CONTINUOUS
370
25
 62
   114
100
AcDbLine
 10
129.415852
 20
370.871199
 11
127.259314
 21
373.027736
  0
LINE
  5
5A3
100
AcDbEntity
  8
M4
  6
CONTINUOUS
370
25
 62
   114
100
AcDbLine
 10
126.128047
 20
371.896469
 11
128.284584
 21
369.739931
  0
LINE
  5
5A4
100
AcDbEntity
  8
M4
  6
CONTINUOUS
370
25
 62
   114
100
AcDbLine
 10
122.839897
 20
375.184619
 11
124.996607
 21
373.027909
  0
LINE
  5
5A5
100
AcDbEntity
  8
M4
  6
CONTINUOUS
370
25
 62
   114
100
AcDbLine
 10
128.284584
 20
369.739931
 11
129.415852
 21
370.871199
  0
LINE
  5
5A6
100
AcDbEntity
  8
M4
  6
CONTINUOUS
370
25
 62
   114
100
AcDbLine
 10
123.971164
 20
376.315886
 11
122.839897
 21
375.184619
  0
ARC
  5
5A7
100
AcDbEntity
  8
M4
  6
CONTINUOUS
370
25
 62
   114
100
AcDbCircle
 10
126.127874
 20
373.027736
 40
8.0
100
AcDbArc
 50
200.364159
 51
339.635864
  0
ARC
  5
5A8
100
AcDbEntity
  8
M4
  6
CONTINUOUS
370
25
 62
   114
100
AcDbCircle
 10
126.127874
 20
373.027736
 40
8.0
100
AcDbArc
 50
20.364136
 51
159.635841
  0
LINE
  5
5A9
100
AcDbEntity
  8
M4
  6
DASHDOT
370
13
 62
   114
100
AcDbLine
 10
113.127874
 20
373.027736
 11
189.127874
 21
373.027736
  0
LINE
  5
5AA
100
AcDbEntity
  8
M4
  6
DASHDOT
370
13
 62
   114
100
AcDbLine
 10
126.127874
 20
360.027736
 11
126.127874
 21
386.027736
  0
CIRCLE
  5
5AB
100
AcDbEntity
  8
M4
  6
CONTINUOUS
370
25
 62
   114
100
AcDbCircle
 10
176.127874
 20
488.027736
 40
7.0
  0
LINE
  5
5AC
100
AcDbEntity
  8
M4
  6
CONTINUOUS
370
25
 62
   114
100
AcDbLine
 10
177.259314
 20
488.027736
 11
181.610899
 21
492.379319
  0
LINE
  5
5AD
100
AcDbEntity
  8
M4
  6
CONTINUOUS
370
25
 62
   114
100
AcDbLine
 10
171.776282
 20
482.544701
 11
176.128047
 21
486.896469
  0
LINE
  5
5AE
100
AcDbEntity
  8
M4
  6
CONTINUOUS
370
25
 62
   114
100
AcDbLine
 10
174.996619
 20
488.027899
 11
170.644852
 21
483.676131
  0
LINE
  5
5AF
100
AcDbEntity
  8
M4
  6
CONTINUOUS
370
25
 62
   114
100
AcDbLine
 10
180.479459
 20
493.510759
 11
176.127887
 21
489.159166
  0
LINE
  5
5B0
100
AcDbEntity
  8
M4
  6
CONTINUOUS
370
25
 62
   114
100
AcDbLine
 10
176.127874
 20
489.159176
 11
173.971164
 21
491.315886
  0
LINE
  5
5B1
100
AcDbEntity
  8
M4
  6
CONTINUOUS
370
25
 62
   114
100
AcDbLine
 10
179.415852
 20
485.871199
 11
177.259314
 21
488.027736
  0
LINE
  5
5B2
100
AcDbEntity
  8
M4
  6
CONTINUOUS
370
25
 62
   114
100
AcDbLine
 10
176.128047
 20
486.896469
 11
178.284584
 21
484.739931
  0
LINE
  5
5B3
100
AcDbEntity
  8
M4
  6
CONTINUOUS
370
25
 62
   114
100
AcDbLine
 10
172.839897
 20
490.184619
 11
174.996607
 21
488.027909
  0
LINE
  5
5B4
100
AcDbEntity
  8
M4
  6
CONTINUOUS
370
25
 62
   114
100
AcDbLine
 10
178.284584
 20
484.739931
 11
179.415852
 21
485.871199
  0
LINE
  5
5B5
100
AcDbEntity
  8
M4
  6
CONTINUOUS
370
25
 62
   114
100
AcDbLine
 10
173.971164
 20
491.315886
 11
172.839897
 21
490.184619
  0
ARC
  5
5B6
100
AcDbEntity
  8
M4
  6
CONTINUOUS
370
25
 62
   114
100
AcDbCircle
 10
176.127874
 20
488.027736
 40
8.0
100
AcDbArc
 50
20.364159
 51
159.635864
  0
ARC
  5
5B7
100
AcDbEntity
  8
M4
  6
CONTINUOUS
370
25
 62
   114
100
AcDbCircle
 10
176.127874
 20
488.027736
 40
8.0
100
AcDbArc
 50
200.364136
 51
249.635858
  0
ARC
  5
5B8
100
AcDbEntity
  8
M4
  6
CONTINUOUS
370
25
 62
   114
100
AcDbCircle
 10
176.127874
 20
488.027736
 40
8.0
100
AcDbArc
 50
290.364142
 51
339.635841
  0
LINE
  5
5B9
100
AcDbEntity
  8
M4
  6
DASHDOT
370
13
 62
   114
100
AcDbLine
 10
176.127874
 20
475.027736
 11
176.127874
 21
501.027736
  0
CIRCLE
  5
5BA
100
AcDbEntity
  8
M4
  6
CONTINUOUS
370
25
 62
   114
100
AcDbCircle
 10
151.127874
 20
488.027736
 40
7.0
  0
LINE
  5
5BB
100
AcDbEntity
  8
M4
  6
CONTINUOUS
370
25
 62
   114
100
AcDbLine
 10
152.259314
 20
488.027736
 11
156.610899
 21
492.379319
  0
LINE
  5
5BC
100
AcDbEntity
  8
M4
  6
CONTINUOUS
370
25
 62
   114
100
AcDbLine
 10
146.776282
 20
482.544701
 11
151.128047
 21
486.896469
  0
LINE
  5
5BD
100
AcDbEntity
  8
M4
  6
CONTINUOUS
370
25
 62
   114
100
AcDbLine
 10
149.996619
 20
488.027899
 11
145.644852
 21
483.676131
  0
LINE
  5
5BE
100
AcDbEntity
  8
M4
  6
CONTINUOUS
370
25
 62
   114
100
AcDbLine
 10
155.479459
 20
493.510759
 11
151.127887
 21
489.159166
  0
LINE
  5
5BF
100
AcDbEntity
  8
M4
  6
CONTINUOUS
370
25
 62
   114
100
AcDbLine
 10
151.127874
 20
489.159176
 11
148.971164
 21
491.315886
  0
LINE
  5
5C0
100
AcDbEntity
  8
M4
  6
CONTINUOUS
370
25
 62
   114
100
AcDbLine
 10
154.415852
 20
485.871199
 11
152.259314
 21
488.027736
  0
LINE
  5
5C1
100
AcDbEntity
  8
M4
  6
CONTINUOUS
370
25
 62
   114
100
AcDbLine
 10
151.128047
 20
486.896469
 11
153.284584
 21
484.739931
  0
LINE
  5
5C2
100
AcDbEntity
  8
M4
  6
CONTINUOUS
370
25
 62
   114
100
AcDbLine
 10
147.839897
 20
490.184619
 11
149.996607
 21
488.027909
  0
LINE
  5
5C3
100
AcDbEntity
  8
M4
  6
CONTINUOUS
370
25
 62
   114
100
AcDbLine
 10
153.284584
 20
484.739931
 11
154.415852
 21
485.871199
  0
LINE
  5
5C4
100
AcDbEntity
  8
M4
  6
CONTINUOUS
370
25
 62
   114
100
AcDbLine
 10
148.971164
 20
491.315886
 11
147.839897
 21
490.184619
  0
ARC
  5
5C5
100
AcDbEntity
  8
M4
  6
CONTINUOUS
370
25
 62
   114
100
AcDbCircle
 10
151.127874
 20
488.027736
 40
8.0
100
AcDbArc
 50
200.364138
 51
249.635858
  0
ARC
  5
5C6
100
AcDbEntity
  8
M4
  6
CONTINUOUS
370
25
 62
   114
100
AcDbCircle
 10
151.127874
 20
488.027736
 40
8.0
100
AcDbArc
 50
20.364138
 51
159.635862
  0
ARC
  5
5C7
100
AcDbEntity
  8
M4
  6
CONTINUOUS
370
25
 62
   114
100
AcDbCircle
 10
151.127874
 20
488.027736
 40
8.0
100
AcDbArc
 50
290.364142
 51
339.635862
  0
CIRCLE
  5
5C8
100
AcDbEntity
  8
M4
  6
CONTINUOUS
370
25
 62
   114
100
AcDbCircle
 10
126.127874
 20
488.027736
 40
7.0
  0
LINE
  5
5C9
100
AcDbEntity
  8
M4
  6
CONTINUOUS
370
25
 62
   114
100
AcDbLine
 10
127.259314
 20
488.027736
 11
131.610899
 21
492.379319
  0
LINE
  5
5CA
100
AcDbEntity
  8
M4
  6
CONTINUOUS
370
25
 62
   114
100
AcDbLine
 10
121.776282
 20
482.544701
 11
126.128047
 21
486.896469
  0
LINE
  5
5CB
100
AcDbEntity
  8
M4
  6
CONTINUOUS
370
25
 62
   114
100
AcDbLine
 10
124.996619
 20
488.027899
 11
120.644852
 21
483.676131
  0
LINE
  5
5CC
100
AcDbEntity
  8
M4
  6
CONTINUOUS
370
25
 62
   114
100
AcDbLine
 10
130.479459
 20
493.510759
 11
126.127887
 21
489.159166
  0
LINE
  5
5CD
100
AcDbEntity
  8
M4
  6
CONTINUOUS
370
25
 62
   114
100
AcDbLine
 10
126.127874
 20
489.159176
 11
123.971164
 21
491.315886
  0
LINE
  5
5CE
100
AcDbEntity
  8
M4
  6
CONTINUOUS
370
25
 62
   114
100
AcDbLine
 10
129.415852
 20
485.871199
 11
127.259314
 21
488.027736
  0
LINE
  5
5CF
100
AcDbEntity
  8
M4
  6
CONTINUOUS
370
25
 62
   114
100
AcDbLine
 10
126.128047
 20
486.896469
 11
128.284584
 21
484.739931
  0
LINE
  5
5D0
100
AcDbEntity
  8
M4
  6
CONTINUOUS
370
25
 62
   114
100
AcDbLine
 10
122.839897
 20
490.184619
 11
124.996607
 21
488.027909
  0
LINE
  5
5D1
100
AcDbEntity
  8
M4
  6
CONTINUOUS
370
25
 62
   114
100
AcDbLine
 10
128.284584
 20
484.739931
 11
129.415852
 21
485.871199
  0
LINE
  5
5D2
100
AcDbEntity
  8
M4
  6
CONTINUOUS
370
25
 62
   114
100
AcDbLine
 10
123.971164
 20
491.315886
 11
122.839897
 21
490.184619
  0
ARC
  5
5D3
100
AcDbEntity
  8
M4
  6
CONTINUOUS
370
25
 62
   114
100
AcDbCircle
 10
126.127874
 20
488.027736
 40
8.0
100
AcDbArc
 50
290.364142
 51
339.635864
  0
ARC
  5
5D4
100
AcDbEntity
  8
M4
  6
CONTINUOUS
370
25
 62
   114
100
AcDbCircle
 10
126.127874
 20
488.027736
 40
8.0
100
AcDbArc
 50
20.364136
 51
159.635841
  0
ARC
  5
5D5
100
AcDbEntity
  8
M4
  6
CONTINUOUS
370
25
 62
   114
100
AcDbCircle
 10
126.127874
 20
488.027736
 40
8.0
100
AcDbArc
 50
200.364159
 51
249.635858
  0
LINE
  5
5D6
100
AcDbEntity
  8
M4
  6
DASHDOT
370
13
 62
   114
100
AcDbLine
 10
113.127874
 20
488.027736
 11
189.127874
 21
488.027736
  0
LINE
  5
5D7
100
AcDbEntity
  8
M4
  6
DASHDOT
370
13
 62
   114
100
AcDbLine
 10
126.127874
 20
475.027736
 11
126.127874
 21
501.027736
  0
LINE
  5
5D8
100
AcDbEntity
  8
M4
  6
DIVIDE
370
13
100
AcDbLine
 10
166.127874
 20
497.527736
 11
166.127874
 21
495.527736
  0
LINE
  5
5D9
100
AcDbEntity
  8
M4
  6
DIVIDE
370
13
100
AcDbLine
 10
164.627874
 20
497.527736
 11
166.127874
 21
497.527736
  0
LINE
  5
5DA
100
AcDbEntity
  8
M4
  6
DIVIDE
370
13
100
AcDbLine
 10
164.627874
 20
497.527736
 11
164.627874
 21
545.527736
  0
LINE
  5
5DB
100
AcDbEntity
  8
M4
  6
DIVIDE
370
13
100
AcDbLine
 10
162.627874
 20
497.527736
 11
162.627874
 21
545.527736
  0
LINE
  5
5DC
100
AcDbEntity
  8
M4
  6
DIVIDE
370
13
100
AcDbLine
 10
161.127874
 20
497.527736
 11
161.127874
 21
495.527736
  0
LINE
  5
5DD
100
AcDbEntity
  8
M4
  6
DIVIDE
370
13
100
AcDbLine
 10
161.127874
 20
497.527736
 11
162.627874
 21
497.527736
  0
LINE
  5
5DE
100
AcDbEntity
  8
M4
  6
DIVIDE
370
13
100
AcDbLine
 10
162.627874
 20
545.527736
 11
164.627874
 21
545.527736
  0
LINE
  5
5DF
100
AcDbEntity
  8
M4
  6
DIVIDE
370
13
100
AcDbLine
 10
141.127874
 20
497.527736
 11
141.127874
 21
495.527736
  0
LINE
  5
5E0
100
AcDbEntity
  8
M4
  6
DIVIDE
370
13
100
AcDbLine
 10
139.627874
 20
497.527736
 11
141.127874
 21
497.527736
  0
LINE
  5
5E1
100
AcDbEntity
  8
M4
  6
DIVIDE
370
13
100
AcDbLine
 10
139.627874
 20
497.527736
 11
139.627874
 21
545.527736
  0
LINE
  5
5E2
100
AcDbEntity
  8
M4
  6
DIVIDE
370
13
100
AcDbLine
 10
137.627874
 20
497.527736
 11
137.627874
 21
545.527736
  0
LINE
  5
5E3
100
AcDbEntity
  8
M4
  6
DIVIDE
370
13
100
AcDbLine
 10
136.127874
 20
497.527736
 11
136.127874
 21
495.527736
  0
LINE
  5
5E4
100
AcDbEntity
  8
M4
  6
DIVIDE
370
13
100
AcDbLine
 10
136.127874
 20
497.527736
 11
137.627874
 21
497.527736
  0
LINE
  5
5E5
100
AcDbEntity
  8
M4
  6
DIVIDE
370
13
100
AcDbLine
 10
137.627874
 20
545.527736
 11
139.627874
 21
545.527736
  0
LINE
  5
5E6
100
AcDbEntity
  8
M5
  6
CONTINUOUS
370
50
100
AcDbLine
 10
144.814054
 20
151.639402
 11
159.094054
 21
151.639402
  0
TEXT
  5
5E7
100
AcDbEntity
  8
M5
100
AcDbText
 10
145.47905
 20
152.479393
 40
8.4
  1
３Ｐ
 41
0.625
  7
STANDARD
100
AcDbText
  0
LINE
  5
5E8
100
AcDbEntity
  8
M5
  6
CONTINUOUS
370
50
100
AcDbLine
 10
311.602996
 20
151.639402
 11
325.882994
 21
151.639402
  0
TEXT
  5
5E9
100
AcDbEntity
  8
M5
100
AcDbText
 10
312.267975
 20
152.479393
 40
8.4
  1
３Ｐ
 41
0.625
  7
STANDARD
100
AcDbText
  0
ENDSEC
  0
SECTION
  2
OBJECTS
  0
DICTIONARY
  5
C
100
AcDbDictionary
  3
ACAD_GROUP
350
D
  3
ACAD_MLINESTYLE
350
E
  0
DICTIONARY
  5
D
102
{ACAD_REACTORS
330
C
102
}
100
AcDbDictionary
  0
DICTIONARY
  5
E
102
{ACAD_REACTORS
330
C
102
}
100
AcDbDictionary
  3
STANDARD
350
13
  0
MLINESTYLE
  5
13
102
{ACAD_REACTORS
330
E
102
}
100
AcDbMlineStyle
  2
STANDARD
 70
     0
  3

 62
     0
 51
90.0
 52
90.0
 71
     2
 49
0.5
 62
   256
  6
BYLAYER
 49
-0.5
 62
   256
  6
BYLAYER
  0
ENDSEC
  0
EOF
