  0
SECTION
  2
HEADER
  9
$ACADVER
  1
AC1015
  9
$INSBASE
 10
0.000000
 20
0.000000
 30
0.0
  9
$VIEWCTR
 10
7.531722
 20
4.5
  9
$VIEWSIZE
 40
9.0
  9
$SNAPMODE
 70
     0
  9
$SNAPUNIT
 10
1.0
 20
1.0
  9
$SNAPBASE
 10
0.0
 20
0.0
  9
$SNAPANG
 50
0.0
  9
$SNAPSTYLE
 70
     0
  9
$SNAPISOPAIR
 70
     0
  9
$GRIDMODE
 70
     0
  9
$GRIDUNIT
 10
0.0
 20
0.0
  9
$ORTHOMODE
 70
     0
  9
$REGENMODE
 70
     1
  9
$FILLMODE
 70
     1
  9
$QTEXTMODE
 70
     0
  9
$DRAGMODE
 70
     2
  9
$LTSCALE
  40
     1.000000
  9
$OSMODE
 70
     0
  9
$ATTMODE
 70
     1
  9
$TEXTSIZE
 40
0.2
  9
$TRACEWID
 40
0.05
  9
$TEXTSTYLE
  7
STANDARD
  9
$CELTYPE
  6
BYLAYER
  9
$CECOLOR
 62
   256
  9
$DIMSCALE
 40
1.0
  9
$DIMASZ
 40
0.18
  9
$DIMEXO
 40
0.0625
  9
$DIMDLI
 40
0.38
  9
$DIMRND
 40
0.0
  9
$DIMDLE
 40
0.0
  9
$DIMEXE
 40
0.18
  9
$DIMTP
 40
0.0
  9
$DIMTM
 40
0.0
  9
$DIMTXT
 40
0.18
  9
$DIMCEN
 40
0.09
  9
$DIMTSZ
 40
0.0
  9
$DIMADEC
 70
     0
  9
$DIMALTRND
 40
0.000000
  9
$DIMAZIN
 70
     0
  9
$DIMDSEP
 70
    46
  9
$DIMATFIT
 70
     3
  9
$DIMFRAC
 70
     0
  9
$DIMLDRBLK
  1

  9
$DIMLUNIT
 70
     2
  9
$DIMLWD
 70
   13
  9
$DIMLWE
 70
   13
  9
$DIMTMOVE
 70
     0
  9
$CELWEIGHT
370
    25
  9
$LWDISPLAY
290
    1
  9
$EXTNAMES
290
    1
  9
$DIMTOL
 70
     0
  9
$DIMLIM
 70
     0
  9
$DIMTIH
 70
     1
  9
$DIMTOH
 70
     1
  9
$DIMSE1
 70
     0
  9
$DIMSE2
 70
     0
  9
$DIMTAD
 70
     0
  9
$DIMZIN
 70
     0
  9
$DIMBLK
  1

  9
$LUNITS
 70
     2
  9
$LUPREC
 70
     4
  9
$AXISMODE
 70
     0
  9
$AXISUNIT
 10
0.0
 20
0.0
  9
$SKETCHINC
 40
0.1
  9
$FILLETRAD
 40
0.0
  9
$AUNITS
 70
     0
  9
$AUPREC
 70
     0
  9
$MENU
  1
ACAD
  9
$ELEVATION
 40
0.0
  9
$THICKNESS
 40
0.0
  9
$VIEWDIR
 10
0.0
 20
0.0
 30
1.0
  9
$LIMCHECK
 70
     0
  9
$BLIPMODE
 70
     1
  9
$CHAMFERA
 40
0.0
  9
$CHAMFERB
 40
0.0
  9
$FASTZOOM
 70
     1
  9
$SKPOLY
 70
     0
  9
$TDCREATE
 40
0000000.0000000000
  9
$TDUPDATE
 40
0000000.0000000000
  9
$TDINDWG
 40
0.0000000000
  9
$TDUSRTIMER
 40
0.0000000000
  9
$USRTIMER
 70
     1
  9
$ANGBASE
 50
0.0
  9
$ANGDIR
 70
     0
  9
$PDMODE
 70
     0
  9
$PDSIZE
 40
0.0
  9
$PLINEWID
 40
0.0
  9
$COORDS
 70
     0
  9
$USERI1
 70
     0
  9
$USERI2
 70
     0
  9
$USERI3
 70
     0
  9
$USERI4
 70
     0
  9
$USERI5
 70
     0
  9
$USERR1
 40
0.0
  9
$USERR2
 40
0.0
  9
$USERR3
 40
0.0
  9
$USERR4
 40
0.0
  9
$USERR5
 40
0.0
  9
$CLAYER
  8
M1
  9
$EXTMIN
 10
0.0
 20
0.0
  9
$EXTMAX
 10
841.0
 20
594.0
  9
$LIMMIN
 10
0.0
 20
0.0
  9
$LIMMAX
 10
841.0
 20
594.0
  9
$HANDSEED
  5
E5
  0
ENDSEC
  0
SECTION
  2
CLASSES
  0
CLASS
  1
DIMASSOC
  2
AcDbDimAssoc
  3
"AcDbDimAssoc|Product Desc:     AcDim ARX App For Dimension|Company:          Autodesk, Inc.|WEB Address:      www.autodesk.com"
 90
        0
280
     0
281
     0
  0
ENDSEC
  0
SECTION
  2
TABLES
  0
TABLE
  2
VPORT
  5
8
100
AcDbSymbolTable
 70
     2
  0
VPORT
  5
14
100
AcDbSymbolTableRecord
100
AcDbViewportTableRecord
  2
*ACTIVE
 70
     0
 10
0.0
 20
0.0
 11
1.0
 21
1.0
 12
484.0
 22
297.0
 13
0.0
 23
0.0
 14
1.0
 24
1.0
 15
0.0
 25
0.0
 16
0.0
 26
0.0
 36
1.0
 17
0.0
 27
0.0
 37
0.0
 40
594.0
 41
2.0
 42
50.0
 43
0.0
 44
0.0
 50
0.0
 51
0.0
 71
     0
 72
   100
 73
     1
 74
     1
 75
     0
 76
     0
 77
     0
 78
     0
  0
ENDTAB
  0
TABLE
  2
LTYPE
  5
5
100
AcDbSymbolTable
 70
     5
  0
LTYPE
  5
15
100
AcDbSymbolTableRecord
100
AcDbLinetypeTableRecord
  2
BYBLOCK
 70
     0
  3

 72
    65
 73
     0
 40
0.0
  0
LTYPE
  5
16
100
AcDbSymbolTableRecord
100
AcDbLinetypeTableRecord
  2
BYLAYER
 70
     0
  3

 72
    65
 73
     0
 40
0.0
  0
LTYPE
  5
17
100
AcDbSymbolTableRecord
100
AcDbLinetypeTableRecord
  2
CONTINUOUS
 70
    64
  3
Solid line
 72
    65
 73
     0
 40
0.0
  0
LTYPE
  5
18
100
AcDbSymbolTableRecord
100
AcDbLinetypeTableRecord
  2
DASHED
 70
    64
  3
__ __ __ __ __ __ __ __ __ __ __ __ __ __ __ __
 72
    65
 73
     2
 40
0.75
 49
0.5
 74
     0
 49
-0.25
 74
     0
  0
LTYPE
  5
19
100
AcDbSymbolTableRecord
100
AcDbLinetypeTableRecord
  2
DASHDOT
 70
    64
  3
__ . __ . __ . __ . __ . __ . __ . __ . __ . __
 72
    65
 73
     4
 40
1.0
 49
0.5
 74
     0
 49
-0.25
 74
     0
 49
0.0
 74
     0
 49
-0.25
 74
     0
  0
LTYPE
  5
1A
100
AcDbSymbolTableRecord
100
AcDbLinetypeTableRecord
  2
DIVIDE
 70
    64
  3
____ . . ____ . . ____ . . ____ . . ____ . . __
 72
    65
 73
     6
 40
1.25
 49
0.5
 74
     0
 49
-0.25
 74
     0
 49
0.0
 74
     0
 49
-0.25
 74
     0
 49
0.0
 74
     0
 49
-0.25
 74
     0
  0
LTYPE
  5
1B
100
AcDbSymbolTableRecord
100
AcDbLinetypeTableRecord
  2
DOT
 70
    64
  3
. . . . . . . . . . . . . . . . . . . . . . . .
 72
    65
 73
     2
 40
0.25
 49
0.0
 74
     0
 49
-0.25
 74
     0
  0
ENDTAB
  0
TABLE
  2
LAYER
  5
2
100
AcDbSymbolTable
 70
   102
  0
LAYER
  5
F
100
AcDbSymbolTableRecord
100
AcDbLayerTableRecord
  2
0
 70
     0
 62
     7
  6
CONTINUOUS
370
     -3
390
F
  0
LAYER
  5
1C
100
AcDbSymbolTableRecord
100
AcDbLayerTableRecord
  2
M1
 70
     0
 62
     3
  6
CONTINUOUS
370
     -3
390
F
  0
LAYER
  5
1D
100
AcDbSymbolTableRecord
100
AcDbLayerTableRecord
  2
M2
 70
     0
 62
     4
  6
CONTINUOUS
370
     -3
390
F
  0
LAYER
  5
1E
100
AcDbSymbolTableRecord
100
AcDbLayerTableRecord
  2
M3
 70
     0
 62
     7
  6
CONTINUOUS
370
     -3
390
F
  0
ENDTAB
  0
TABLE
  2
STYLE
  5
3
100
AcDbSymbolTable
 70
     2
  0
STYLE
  5
10
100
AcDbSymbolTableRecord
100
AcDbTextStyleTableRecord
  2
STANDARD
 70
     0
 40
0.0
 41
1.0
 50
0.0
 71
     0
 42
0.2
  3
txt
  4
BIGFONT
  0
ENDTAB
  0
TABLE
  2
VIEW
  5
6
100
AcDbSymbolTable
 70
     0
  0
ENDTAB
  0
TABLE
  2
UCS
  5
7
100
AcDbSymbolTable
 70
     0
  0
ENDTAB
  0
TABLE
  2
APPID
  5
9
100
AcDbSymbolTable
 70
     1
  0
APPID
  5
11
100
AcDbSymbolTableRecord
100
AcDbRegAppTableRecord
  2
ACAD
 70
     0
  0
ENDTAB
  0
TABLE
  2
DIMSTYLE
  5
A
100
AcDbSymbolTable
 70
     2
100
AcDbDimStyleTable
 71
     1
  0
DIMSTYLE
105
47
100
AcDbSymbolTableRecord
100
AcDbDimStyleTableRecord
  2
STANDARD
 70
     0
  3

  4

  5

  6
_OPEN
  7
_OPEN
 40
1.0
 41
3.0
 42
0.0
 43
8.0
 44
1.5
 45
0.0
 46
0.0
 47
0.0
 48
0.0
140
3.2
141
0.09
142
0.0
143
0.03937
144
1.0
145
0.0
146
1.0
147
1.0
148
0.000000
 71
     0
 72
     0
 73
     1
 74
     1
 75
     0
 76
     0
 77
     3
 78
     8
170
     0
171
     2
172
     0
173
     1
174
     0
175
     0
176
     0
177
     0
178
     0
270
     2
271
     2
272
     4
273
     2
274
     2
340
10
275
     0
278
    46
280
     0
281
     0
282
     0
283
     1
284
     0
285
     0
286
     0
287
     3
288
     0
371
   13
372
   13
  0
DIMSTYLE
105
48
100
AcDbSymbolTableRecord
100
AcDbDimStyleTableRecord
  2
LEADSTYL
 70
     0
  3

  4

  5

  6
_OPEN
  7
_OPEN
 40
1.0
 41
3.0
 42
0.0625
 43
0.38
 44
0.18
 45
0.0
 46
0.0
 47
0.0
 48
0.0
140
3.2
141
0.09
142
0.0
143
25.4
144
1.0
145
0.0
146
1.0
147
1.0
 71
     0
 72
     0
 73
     1
 74
     1
 75
     0
 76
     0
 77
     0
 78
     0
170
     0
171
     2
172
     0
173
     1
174
     0
175
     0
176
     0
177
     0
178
     0
270
     2
271
     4
272
     4
273
     2
274
     2
340
10
275
     0
280
     0
281
     0
282
     0
283
     1
284
     0
285
     0
286
     0
287
     3
288
     0
  0
ENDTAB
  0
TABLE
  2
BLOCK_RECORD
  5
1
100
AcDbSymbolTable
 70
     6
  0
BLOCK_RECORD
  5
1F
100
AcDbSymbolTableRecord
100
AcDbBlockTableRecord
  2
*MODEL_SPACE
  0
BLOCK_RECORD
  5
22
100
AcDbSymbolTableRecord
100
AcDbBlockTableRecord
  2
*PAPER_SPACE
  0
BLOCK_RECORD
  5
25
100
AcDbSymbolTableRecord
100
AcDbBlockTableRecord
  2
_NONE
  0
BLOCK_RECORD
  5
29
100
AcDbSymbolTableRecord
100
AcDbBlockTableRecord
  2
_OPEN
  0
BLOCK_RECORD
  5
2F
100
AcDbSymbolTableRecord
100
AcDbBlockTableRecord
  2
_CLOSED
  0
BLOCK_RECORD
  5
36
100
AcDbSymbolTableRecord
100
AcDbBlockTableRecord
  2
_ORIGIN
  0
BLOCK_RECORD
  5
3B
100
AcDbSymbolTableRecord
100
AcDbBlockTableRecord
  2
_DOT
  0
BLOCK_RECORD
  5
43
100
AcDbSymbolTableRecord
100
AcDbBlockTableRecord
  2
_OBLIQUE
  0
ENDTAB
  0
ENDSEC
  0
SECTION
  2
BLOCKS
  0
BLOCK
  5
20
100
AcDbEntity
  8
0
100
AcDbBlockBegin
  2
*MODEL_SPACE
 70
     0
 10
0.0
 20
0.0
 30
0.0
  3
*MODEL_SPACE
  1

  0
ENDBLK
  5
21
100
AcDbEntity
  8
0
100
AcDbBlockEnd
  0
BLOCK
  5
23
100
AcDbEntity
 67
     1
  8
0
100
AcDbBlockBegin
  2
*PAPER_SPACE
 70
     0
 10
0.0
 20
0.0
 30
0.0
  3
*PAPER_SPACE
  1

  0
ENDBLK
  5
24
100
AcDbEntity
 67
     1
  8
0
100
AcDbBlockEnd
  0
BLOCK
  5
26
100
AcDbEntity
  8
0
100
AcDbBlockBegin
  2
_NONE
 70
     0
 10
0.0
 20
0.0
  0
CIRCLE
  5
27
100
AcDbEntity
  8
0
 62
     0
370
13
100
AcDbCircle
 10
0.0
 20
0.0
 40
0.25
  0
ENDBLK
  5
28
100
AcDbEntity
  8
0
100
AcDbBlockEnd
  0
BLOCK
  5
2A
100
AcDbEntity
  8
0
100
AcDbBlockBegin
  2
_OPEN
 70
     0
 10
0.0
 20
0.0
  0
LINE
  5
2B
100
AcDbEntity
  8
0
 62
     0
370
13
100
AcDbLine
 10
-0.965926
 20
0.258819
 11
0.0
 21
0.0
  0
LINE
  5
2C
100
AcDbEntity
  8
0
 62
     0
370
13
100
AcDbLine
 10
0.0
 20
0.0
 11
-0.965926
 21
-0.258819
  0
LINE
  5
2D
100
AcDbEntity
  8
0
 62
     0
370
13
100
AcDbLine
 10
0.0
 20
0.0
 11
-1.0
 21
0.0
  0
ENDBLK
  5
2E
100
AcDbEntity
  8
0
100
AcDbBlockEnd
  0
BLOCK
  5
30
100
AcDbEntity
  8
0
100
AcDbBlockBegin
  2
_CLOSED
 70
     0
 10
0.0
 20
0.0
  0
LINE
  5
31
100
AcDbEntity
  8
0
 62
     0
370
13
100
AcDbLine
 10
-0.965926
 20
0.258819
 11
0.0
 21
0.0
  0
LINE
  5
32
100
AcDbEntity
  8
0
 62
     0
370
13
100
AcDbLine
 10
0.0
 20
0.0
 11
-0.965926
 21
-0.258819
  0
LINE
  5
33
100
AcDbEntity
  8
0
 62
     0
370
13
100
AcDbLine
 10
-0.965926
 20
0.258819
 11
-0.965926
 21
-0.258819
  0
LINE
  5
34
100
AcDbEntity
  8
0
 62
     0
370
13
100
AcDbLine
 10
0.0
 20
0.0
 11
-1.0
 21
0.0
  0
ENDBLK
  5
35
100
AcDbEntity
  8
0
100
AcDbBlockEnd
  0
BLOCK
  5
37
100
AcDbEntity
  8
0
100
AcDbBlockBegin
  2
_ORIGIN
 70
     0
 10
0.0
 20
0.0
  0
CIRCLE
  5
38
100
AcDbEntity
  8
0
 62
     0
370
13
100
AcDbCircle
 10
0.0
 20
0.0
 40
0.5
  0
LINE
  5
39
100
AcDbEntity
  8
0
 62
     0
370
13
100
AcDbLine
 10
0.0
 20
0.0
 11
-1.0
 21
0.0
  0
ENDBLK
  5
3A
100
AcDbEntity
  8
0
100
AcDbBlockEnd
  0
BLOCK
  5
3C
100
AcDbEntity
  8
0
100
AcDbBlockBegin
  2
_DOT
 70
     0
 10
0.0
 20
0.0
  0
POLYLINE
  5
3D
100
AcDbEntity
  8
0
 62
     0
100
AcDb2dPolyline
 66
     1
 70
     1
 40
0.5
 41
0.5
  0
VERTEX
  5
3E
100
AcDbEntity
  8
0
 62
     0
100
AcDbVertex
100
AcDb2dVertex
 10
-0.25
 20
0.0
 42
1.0
  0
VERTEX
  5
3F
100
AcDbEntity
  8
0
 62
     0
100
AcDbVertex
100
AcDb2dVertex
 10
0.25
 20
0.0
 42
1.0
  0
SEQEND
  5
40
100
AcDbEntity
  8
0
 62
     0
  0
LINE
  5
41
100
AcDbEntity
  8
0
 62
     0
370
13
100
AcDbLine
 10
-0.5
 20
0.0
 11
-1.0
 21
0.0
  0
ENDBLK
  5
42
100
AcDbEntity
  8
0
100
AcDbBlockEnd
  0
BLOCK
  5
44
100
AcDbEntity
  8
0
100
AcDbBlockBegin
  2
_OBLIQUE
 70
     0
 10
0.0
 20
0.0
  0
LINE
  5
45
100
AcDbEntity
  8
0
 62
     0
370
13
100
AcDbLine
 10
-0.353553
 20
-0.353553
 11
0.353553
 21
0.353553
  0
ENDBLK
  5
46
100
AcDbEntity
  8
0
100
AcDbBlockEnd
  0
ENDSEC
  0
SECTION
  2
ENTITIES
  0
LINE
  5
49
100
AcDbEntity
  8
M1
  6
CONTINUOUS
370
25
 62
     7
100
AcDbLine
 10
280.047869
 20
137.449847
 11
332.547869
 21
137.449847
  0
LINE
  5
4A
100
AcDbEntity
  8
M1
  6
CONTINUOUS
370
25
 62
     7
100
AcDbLine
 10
280.047869
 20
189.449847
 11
332.547869
 21
189.449847
  0
LINE
  5
4B
100
AcDbEntity
  8
M1
  6
CONTINUOUS
370
25
 62
     7
100
AcDbLine
 10
335.547869
 20
186.449847
 11
335.547869
 21
140.449847
  0
LINE
  5
4C
100
AcDbEntity
  8
M1
  6
CONTINUOUS
370
25
 62
     7
100
AcDbLine
 10
277.047869
 20
186.449847
 11
277.047869
 21
140.449847
  0
ARC
  5
4D
100
AcDbEntity
  8
M1
  6
CONTINUOUS
370
25
 62
     7
100
AcDbCircle
 10
332.547869
 20
186.449847
 40
3.0
100
AcDbArc
 50
0.0
 51
90.0
  0
ARC
  5
4E
100
AcDbEntity
  8
M1
  6
CONTINUOUS
370
25
 62
     7
100
AcDbCircle
 10
280.047869
 20
140.449847
 40
3.0
100
AcDbArc
 50
180.0
 51
270.0
  0
ARC
  5
4F
100
AcDbEntity
  8
M1
  6
CONTINUOUS
370
25
 62
     7
100
AcDbCircle
 10
280.047869
 20
186.449847
 40
3.0
100
AcDbArc
 50
90.0
 51
180.0
  0
ARC
  5
50
100
AcDbEntity
  8
M1
  6
CONTINUOUS
370
25
 62
     7
100
AcDbCircle
 10
332.547869
 20
140.449847
 40
3.0
100
AcDbArc
 50
270.0
 51
360.0
  0
LINE
  5
51
100
AcDbEntity
  8
M1
  6
DASHDOT
370
25
 62
     2
100
AcDbLine
 10
314.047946
 20
348.019276
 11
314.047956
 21
364.442116
  0
LINE
  5
52
100
AcDbEntity
  8
M1
  6
DASHDOT
370
25
 62
     2
100
AcDbLine
 10
326.166361
 20
356.312658
 11
304.30624
 21
356.312658
  0
LINE
  5
53
100
AcDbEntity
  8
M1
  6
DASHDOT
370
25
 62
     2
100
AcDbLine
 10
314.047946
 20
499.606041
 11
314.047956
 21
483.1832
  0
LINE
  5
54
100
AcDbEntity
  8
M1
  6
DASHDOT
370
25
 62
     2
100
AcDbLine
 10
326.166361
 20
491.312658
 11
304.30624
 21
491.312658
  0
LINE
  5
55
100
AcDbEntity
  8
M1
  6
DASHDOT
370
25
100
AcDbLine
 10
285.86749
 20
488.812658
 11
338.047869
 21
488.812658
  0
LINE
  5
56
100
AcDbEntity
  8
M1
  6
DASHDOT
370
25
100
AcDbLine
 10
293.547869
 20
493.062658
 11
293.547869
 21
484.562658
  0
LINE
  5
57
100
AcDbEntity
  8
M1
  6
DASHDOT
370
25
100
AcDbLine
 10
285.86749
 20
358.812658
 11
338.047869
 21
358.812658
  0
LINE
  5
58
100
AcDbEntity
  8
M1
  6
DASHDOT
370
25
100
AcDbLine
 10
293.547869
 20
354.562658
 11
293.547869
 21
363.062658
  0
CIRCLE
  5
59
100
AcDbEntity
  8
M1
  6
CONTINUOUS
370
25
100
AcDbCircle
 10
50.029339
 20
228.449847
 40
2.5
  0
CIRCLE
  5
5A
100
AcDbEntity
  8
M1
  6
CONTINUOUS
370
25
100
AcDbCircle
 10
50.029339
 20
98.449847
 40
2.5
  0
LINE
  5
5B
100
AcDbEntity
  8
M1
  6
DASHDOT
370
25
100
AcDbLine
 10
42.266181
 20
228.449847
 11
57.792497
 21
228.449847
  0
LINE
  5
5C
100
AcDbEntity
  8
M1
  6
DASHDOT
370
25
100
AcDbLine
 10
42.266181
 20
98.449847
 11
57.792497
 21
98.449847
  0
LINE
  5
5D
100
AcDbEntity
  8
M1
  6
DASHDOT
370
25
 62
     4
100
AcDbLine
 10
50.029339
 20
70.140531
 11
50.029339
 21
257.336895
  0
LINE
  5
5E
100
AcDbEntity
  8
M1
  6
DASHDOT
370
25
 62
     4
100
AcDbLine
 10
-1.421085E-014
 20
163.449847
 11
95.615617
 21
163.449847
  0
LINE
  5
5F
100
AcDbEntity
  8
M1
  6
DASHDOT
370
25
 62
     4
100
AcDbLine
 10
80.029339
 20
88.449847
 11
80.029339
 21
238.449847
  0
LINE
  5
60
100
AcDbEntity
  8
M1
  6
DASHDOT
370
25
 62
     4
100
AcDbLine
 10
80.029339
 20
238.449847
 11
20.029339
 21
238.449847
  0
LINE
  5
61
100
AcDbEntity
  8
M1
  6
DASHDOT
370
25
 62
     4
100
AcDbLine
 10
20.029339
 20
238.449847
 11
20.029339
 21
88.449847
  0
LINE
  5
62
100
AcDbEntity
  8
M1
  6
DASHDOT
370
25
 62
     4
100
AcDbLine
 10
20.029339
 20
88.449847
 11
80.029339
 21
88.449847
  0
LINE
  5
63
100
AcDbEntity
  8
M1
  6
DASHDOT
370
25
 62
     4
100
AcDbLine
 10
308.047869
 20
70.140531
 11
308.047869
 21
257.336895
  0
LINE
  5
64
100
AcDbEntity
  8
M1
  6
DASHDOT
370
25
 62
     4
100
AcDbLine
 10
258.018531
 20
163.449847
 11
353.634147
 21
163.449847
  0
LINE
  5
65
100
AcDbEntity
  8
M1
  6
DASHDOT
370
25
 62
     4
100
AcDbLine
 10
338.047869
 20
88.449847
 11
338.047869
 21
238.449847
  0
LINE
  5
66
100
AcDbEntity
  8
M1
  6
DASHDOT
370
25
 62
     4
100
AcDbLine
 10
338.047869
 20
238.449847
 11
278.047869
 21
238.449847
  0
LINE
  5
67
100
AcDbEntity
  8
M1
  6
DASHDOT
370
25
 62
     4
100
AcDbLine
 10
278.047869
 20
238.449847
 11
278.047869
 21
88.449847
  0
LINE
  5
68
100
AcDbEntity
  8
M1
  6
DASHDOT
370
25
 62
     4
100
AcDbLine
 10
278.047869
 20
88.449847
 11
338.047869
 21
88.449847
  0
ARC
  5
69
100
AcDbEntity
  8
M1
  6
DASHDOT
370
25
 62
     4
100
AcDbCircle
 10
305.547869
 20
424.812658
 40
60.607623
100
AcDbArc
 50
160.21122
 51
184.893607
  0
LINE
  5
6A
100
AcDbEntity
  8
M1
  6
CONTINUOUS
370
25
 62
     4
100
AcDbLine
 10
266.047821
 20
398.812658
 11
266.047821
 21
448.812658
  0
LINE
  5
6B
100
AcDbEntity
  8
M1
  6
CONTINUOUS
370
25
 62
     4
100
AcDbLine
 10
266.047821
 20
448.812658
 11
270.047821
 21
448.812658
  0
LINE
  5
6C
100
AcDbEntity
  8
M1
  6
CONTINUOUS
370
25
 62
     4
100
AcDbLine
 10
301.047863
 20
498.812795
 11
280.047821
 21
498.812795
  0
LINE
  5
6D
100
AcDbEntity
  8
M1
  6
CONTINUOUS
370
25
 62
     4
100
AcDbLine
 10
301.047848
 20
348.812551
 11
280.047821
 21
348.812551
  0
LINE
  5
6E
100
AcDbEntity
  8
M1
  6
CONTINUOUS
370
25
 62
     4
100
AcDbLine
 10
262.047821
 20
448.812658
 11
270.047821
 21
448.812658
  0
LINE
  5
6F
100
AcDbEntity
  8
M1
  6
CONTINUOUS
370
25
 62
     4
100
AcDbLine
 10
262.047821
 20
398.812658
 11
270.047821
 21
398.812658
  0
LINE
  5
70
100
AcDbEntity
  8
M1
  6
CONTINUOUS
370
25
 62
     4
100
AcDbLine
 10
277.047821
 20
495.812795
 11
277.047821
 21
469.812658
  0
ARC
  5
71
100
AcDbEntity
  8
M1
  6
CONTINUOUS
370
25
 62
     4
100
AcDbCircle
 10
280.047821
 20
495.812795
 40
3.0
100
AcDbArc
 50
90.0
 51
180.0
  0
LINE
  5
72
100
AcDbEntity
  8
M1
  6
CONTINUOUS
370
25
 62
     4
100
AcDbLine
 10
273.047821
 20
377.812658
 11
277.047821
 21
377.812658
  0
LINE
  5
73
100
AcDbEntity
  8
M1
  6
CONTINUOUS
370
25
 62
     4
100
AcDbLine
 10
262.047821
 20
398.812658
 11
262.047821
 21
448.812658
  0
LINE
  5
74
100
AcDbEntity
  8
M1
  6
DASHDOT
370
25
 62
     4
100
AcDbLine
 10
341.047821
 20
423.812658
 11
240.831911
 21
423.812658
  0
LINE
  5
75
100
AcDbEntity
  8
M1
  6
CONTINUOUS
370
25
 62
     4
100
AcDbLine
 10
273.047821
 20
469.812658
 11
277.047821
 21
469.812658
  0
ARC
  5
76
100
AcDbEntity
  8
M1
  6
CONTINUOUS
370
25
 62
     4
100
AcDbCircle
 10
273.047821
 20
466.812658
 40
3.0
100
AcDbArc
 50
90.0
 51
180.0
  0
LINE
  5
77
100
AcDbEntity
  8
M1
  6
CONTINUOUS
370
25
 62
     4
100
AcDbLine
 10
270.047821
 20
466.812658
 11
270.047821
 21
380.812658
  0
ARC
  5
78
100
AcDbEntity
  8
M1
  6
CONTINUOUS
370
25
 62
     4
100
AcDbCircle
 10
273.047821
 20
380.812658
 40
3.0
100
AcDbArc
 50
180.0
 51
270.0
  0
LINE
  5
79
100
AcDbEntity
  8
M1
  6
CONTINUOUS
370
25
 62
     4
100
AcDbLine
 10
277.047821
 20
351.812551
 11
277.047821
 21
377.812658
  0
ARC
  5
7A
100
AcDbEntity
  8
M1
  6
CONTINUOUS
370
25
 62
     4
100
AcDbCircle
 10
280.047821
 20
351.812551
 40
3.0
100
AcDbArc
 50
180.0
 51
270.0
  0
LINE
  5
7B
100
AcDbEntity
  8
M1
  6
CONTINUOUS
370
25
 62
     4
100
AcDbLine
 10
338.047869
 20
498.812658
 11
338.047869
 21
348.812658
  0
LINE
  5
7C
100
AcDbEntity
  8
M1
  6
CONTINUOUS
370
25
 62
     4
100
AcDbLine
 10
338.047869
 20
348.812658
 11
301.047884
 21
348.812658
  0
LINE
  5
7D
100
AcDbEntity
  8
M1
  6
CONTINUOUS
370
25
 62
     4
100
AcDbLine
 10
301.047884
 20
498.812658
 11
338.047869
 21
498.812658
  0
LINE
  5
7E
100
AcDbEntity
  8
M1
  6
CONTINUOUS
370
25
 62
     4
100
AcDbLine
 10
262.047821
 20
436.144872
 11
248.197156
 21
439.127495
  0
LINE
  5
7F
100
AcDbEntity
  8
M1
  6
DASHED
370
25
 62
     4
100
AcDbLine
 10
314.047944
 20
348.81165
 11
317.247362
 21
348.811648
  0
LINE
  5
80
100
AcDbEntity
  8
M1
  6
CONTINUOUS
370
25
 62
     4
100
AcDbLine
 10
247.430081
 20
440.315601
 11
248.48266
 21
445.203553
  0
ARC
  5
81
100
AcDbEntity
  8
M1
  6
CONTINUOUS
370
25
 62
     4
100
AcDbCircle
 10
249.46025
 20
444.993037
 40
1.0
100
AcDbArc
 50
77.84742
 51
167.84742
  0
LINE
  5
82
100
AcDbEntity
  8
M1
  6
CONTINUOUS
370
25
 62
     4
100
AcDbLine
 10
262.047821
 20
443.305335
 11
249.66099
 21
445.972733
  0
ARC
  5
83
100
AcDbEntity
  8
M1
  6
CONTINUOUS
370
25
 62
     4
100
AcDbCircle
 10
248.407672
 20
440.105085
 40
1.0
100
AcDbArc
 50
167.84742
 51
257.84742
  0
ARC
  5
84
100
AcDbEntity
  8
M1
  6
CONTINUOUS
370
25
 62
     4
100
AcDbCircle
 10
40.529339
 20
484.812658
 40
3.0
100
AcDbArc
 50
270.0
 51
360.0
  0
ARC
  5
85
100
AcDbEntity
  8
M1
  6
CONTINUOUS
370
25
 62
     4
100
AcDbCircle
 10
70.529339
 20
362.812658
 40
3.0
100
AcDbArc
 50
0.0
 51
90.0
  0
ARC
  5
86
100
AcDbEntity
  8
M1
  6
CONTINUOUS
370
25
 62
     4
100
AcDbCircle
 10
29.529339
 20
484.812658
 40
3.0
100
AcDbArc
 50
180.0
 51
270.0
  0
ARC
  5
87
100
AcDbEntity
  8
M1
  6
CONTINUOUS
370
25
 62
     4
100
AcDbCircle
 10
40.529339
 20
362.812658
 40
3.0
100
AcDbArc
 50
0.0
 51
90.0
  0
ARC
  5
88
100
AcDbEntity
  8
M1
  6
CONTINUOUS
370
25
 62
     4
100
AcDbCircle
 10
29.529339
 20
362.812658
 40
3.0
100
AcDbArc
 50
90.0
 51
180.0
  0
LINE
  5
89
100
AcDbEntity
  8
M1
  6
CONTINUOUS
370
25
 62
     4
100
AcDbLine
 10
74.529339
 20
448.812658
 11
21.029339
 21
448.812658
  0
LINE
  5
8A
100
AcDbEntity
  8
M1
  6
CONTINUOUS
370
25
 62
     4
100
AcDbLine
 10
41.529472
 20
439.81066
 11
28.529473
 21
439.81066
  0
LINE
  5
8B
100
AcDbEntity
  8
M1
  6
CONTINUOUS
370
25
 62
     4
100
AcDbLine
 10
76.529339
 20
400.812658
 11
76.529339
 21
446.812658
  0
ARC
  5
8C
100
AcDbEntity
  8
M1
  6
CONTINUOUS
370
25
 62
     4
100
AcDbCircle
 10
70.529339
 20
484.812658
 40
3.0
100
AcDbArc
 50
270.0
 51
360.0
  0
ARC
  5
8D
100
AcDbEntity
  8
M1
  6
CONTINUOUS
370
25
 62
     4
100
AcDbCircle
 10
59.529339
 20
362.812658
 40
3.0
100
AcDbArc
 50
90.0
 51
180.0
  0
LINE
  5
8E
100
AcDbEntity
  8
M1
  6
CONTINUOUS
370
25
 62
     4
100
AcDbLine
 10
74.529339
 20
398.812658
 11
21.029339
 21
398.812658
  0
ARC
  5
8F
100
AcDbEntity
  8
M1
  6
CONTINUOUS
370
25
 62
     4
100
AcDbCircle
 10
26.029473
 20
446.812658
 40
2.0
100
AcDbArc
 50
90.0
 51
180.0
  0
ARC
  5
90
100
AcDbEntity
  8
M1
  6
CONTINUOUS
370
25
 62
     4
100
AcDbCircle
 10
41.529472
 20
446.312658
 40
1.0
100
AcDbArc
 50
0.0
 51
90.0
  0
ARC
  5
91
100
AcDbEntity
  8
M1
  6
CONTINUOUS
370
25
 62
     4
100
AcDbCircle
 10
28.529473
 20
440.81066
 40
1.0
100
AcDbArc
 50
180.0
 51
270.0
  0
ARC
  5
92
100
AcDbEntity
  8
M1
  6
CONTINUOUS
370
25
 62
     4
100
AcDbCircle
 10
41.529472
 20
440.81066
 40
1.0
100
AcDbArc
 50
270.0
 51
360.0
  0
ARC
  5
93
100
AcDbEntity
  8
M1
  6
CONTINUOUS
370
25
 62
     4
100
AcDbCircle
 10
74.529339
 20
400.812658
 40
2.0
100
AcDbArc
 50
270.0
 51
360.0
  0
ARC
  5
94
100
AcDbEntity
  8
M1
  6
CONTINUOUS
370
25
 62
     4
100
AcDbCircle
 10
74.529339
 20
446.812658
 40
2.0
100
AcDbArc
 50
0.0
 51
90.0
  0
ARC
  5
95
100
AcDbEntity
  8
M1
  6
CONTINUOUS
370
25
 62
     4
100
AcDbCircle
 10
26.029339
 20
446.812658
 40
2.0
100
AcDbArc
 50
90.0
 51
180.0
  0
ARC
  5
96
100
AcDbEntity
  8
M1
  6
CONTINUOUS
370
25
 62
     4
100
AcDbCircle
 10
26.029339
 20
400.812658
 40
2.0
100
AcDbArc
 50
180.0
 51
270.0
  0
ARC
  5
97
100
AcDbEntity
  8
M1
  6
CONTINUOUS
370
25
 62
     4
100
AcDbCircle
 10
59.529339
 20
484.812658
 40
3.0
100
AcDbArc
 50
180.0
 51
270.0
  0
ARC
  5
98
100
AcDbEntity
  8
M1
  6
CONTINUOUS
370
25
 62
     4
100
AcDbCircle
 10
44.029472
 20
400.812948
 40
2.0
100
AcDbArc
 50
270.0
 51
360.0
  0
ARC
  5
99
100
AcDbEntity
  8
M1
  6
CONTINUOUS
370
25
 62
     4
100
AcDbCircle
 10
28.529473
 20
446.312658
 40
1.0
100
AcDbArc
 50
90.0
 51
180.0
  0
ARC
  5
9A
100
AcDbEntity
  8
M1
  6
CONTINUOUS
370
25
 62
     4
100
AcDbCircle
 10
44.029339
 20
446.812658
 40
2.0
100
AcDbArc
 50
0.0
 51
90.0
  0
ARC
  5
9B
100
AcDbEntity
  8
M1
  6
CONTINUOUS
370
25
 62
     4
100
AcDbCircle
 10
44.029472
 20
446.812658
 40
2.0
100
AcDbArc
 50
0.0
 51
90.0
  0
LINE
  5
9C
100
AcDbEntity
  8
M1
  6
CONTINUOUS
370
25
 62
     4
100
AcDbLine
 10
56.529339
 20
348.812658
 11
56.529339
 21
362.812658
  0
LINE
  5
9D
100
AcDbEntity
  8
M1
  6
CONTINUOUS
370
25
 62
     4
100
AcDbLine
 10
59.529339
 20
365.812658
 11
70.529339
 21
365.812658
  0
LINE
  5
9E
100
AcDbEntity
  8
M1
  6
CONTINUOUS
370
25
 62
     4
100
AcDbLine
 10
59.529339
 20
481.812658
 11
70.529339
 21
481.812658
  0
LINE
  5
9F
100
AcDbEntity
  8
M1
  6
CONTINUOUS
370
25
 62
     4
100
AcDbLine
 10
73.529339
 20
362.812658
 11
73.529339
 21
348.812658
  0
LINE
  5
A0
100
AcDbEntity
  8
M1
  6
CONTINUOUS
370
25
 62
     4
100
AcDbLine
 10
29.529339
 20
481.812658
 11
40.529339
 21
481.812658
  0
LINE
  5
A1
100
AcDbEntity
  8
M1
  6
CONTINUOUS
370
25
 62
     4
100
AcDbLine
 10
43.529339
 20
484.812658
 11
43.529339
 21
498.812658
  0
LINE
  5
A2
100
AcDbEntity
  8
M1
  6
CONTINUOUS
370
25
 62
     4
100
AcDbLine
 10
26.529339
 20
498.812658
 11
26.529339
 21
484.812658
  0
LINE
  5
A3
100
AcDbEntity
  8
M1
  6
CONTINUOUS
370
25
 62
     4
100
AcDbLine
 10
20.029339
 20
348.812658
 11
80.029339
 21
348.812658
  0
LINE
  5
A4
100
AcDbEntity
  8
M1
  6
CONTINUOUS
370
25
 62
     4
100
AcDbLine
 10
80.029339
 20
348.812658
 11
80.029339
 21
498.812658
  0
LINE
  5
A5
100
AcDbEntity
  8
M1
  6
CONTINUOUS
370
25
 62
     4
100
AcDbLine
 10
80.029339
 20
498.812658
 11
20.029339
 21
498.812658
  0
LINE
  5
A6
100
AcDbEntity
  8
M1
  6
CONTINUOUS
370
25
 62
     4
100
AcDbLine
 10
73.529339
 20
484.812658
 11
73.529339
 21
498.812658
  0
LINE
  5
A7
100
AcDbEntity
  8
M1
  6
CONTINUOUS
370
25
 62
     4
100
AcDbLine
 10
56.529339
 20
498.812658
 11
56.529339
 21
484.812658
  0
LINE
  5
A8
100
AcDbEntity
  8
M1
  6
CONTINUOUS
370
25
 62
     4
100
AcDbLine
 10
20.029339
 20
469.812658
 11
80.029339
 21
469.812658
  0
LINE
  5
A9
100
AcDbEntity
  8
M1
  6
CONTINUOUS
370
25
 62
     4
100
AcDbLine
 10
42.529339
 20
446.312658
 11
42.529339
 21
413.60791
  0
LINE
  5
AA
100
AcDbEntity
  8
M1
  6
CONTINUOUS
370
25
 62
     4
100
AcDbLine
 10
27.529339
 20
413.60791
 11
42.529339
 21
413.60791
  0
LINE
  5
AB
100
AcDbEntity
  8
M1
  6
CONTINUOUS
370
25
 62
     4
100
AcDbLine
 10
27.529339
 20
413.60791
 11
42.529339
 21
413.60791
  0
LINE
  5
AC
100
AcDbEntity
  8
M1
  6
CONTINUOUS
370
25
 62
     4
100
AcDbLine
 10
41.529472
 20
447.312658
 11
28.529473
 21
447.312658
  0
LINE
  5
AD
100
AcDbEntity
  8
M1
  6
CONTINUOUS
370
25
 62
     4
100
AcDbLine
 10
46.029472
 20
446.812658
 11
46.029472
 21
400.812948
  0
LINE
  5
AE
100
AcDbEntity
  8
M1
  6
CONTINUOUS
370
25
 62
     4
100
AcDbLine
 10
27.529339
 20
446.312658
 11
27.529339
 21
413.60791
  0
LINE
  5
AF
100
AcDbEntity
  8
M1
  6
CONTINUOUS
370
25
 62
     4
100
AcDbLine
 10
24.029473
 20
446.812658
 11
24.029473
 21
400.812948
  0
LINE
  5
B0
100
AcDbEntity
  8
M1
  6
CONTINUOUS
370
25
 62
     4
100
AcDbLine
 10
43.529339
 20
362.812658
 11
43.529339
 21
348.812658
  0
LINE
  5
B1
100
AcDbEntity
  8
M1
  6
CONTINUOUS
370
25
 62
     4
100
AcDbLine
 10
20.029339
 20
377.812658
 11
80.029339
 21
377.812658
  0
LINE
  5
B2
100
AcDbEntity
  8
M1
  6
CONTINUOUS
370
25
 62
     4
100
AcDbLine
 10
26.529339
 20
348.812658
 11
26.529339
 21
362.812658
  0
LINE
  5
B3
100
AcDbEntity
  8
M1
  6
CONTINUOUS
370
25
 62
     4
100
AcDbLine
 10
29.529339
 20
365.812658
 11
40.529339
 21
365.812658
  0
LINE
  5
B4
100
AcDbEntity
  8
M1
  6
DASHDOT
370
25
 62
     4
100
AcDbLine
 10
20.029339
 20
423.812658
 11
80.029339
 21
423.812658
  0
LINE
  5
B5
100
AcDbEntity
  8
M1
  6
DASHDOT
370
25
 62
     4
100
AcDbLine
 10
65.029339
 20
365.575816
 11
65.029339
 21
347.0495
  0
LINE
  5
B6
100
AcDbEntity
  8
M1
  6
DASHDOT
370
25
 62
     4
100
AcDbLine
 10
74.292497
 20
356.312658
 11
55.766181
 21
356.312658
  0
LINE
  5
B7
100
AcDbEntity
  8
M1
  6
DASHDOT
370
25
 62
     4
100
AcDbLine
 10
65.029339
 20
482.0495
 11
65.029339
 21
500.575816
  0
LINE
  5
B8
100
AcDbEntity
  8
M1
  6
DASHDOT
370
25
 62
     4
100
AcDbLine
 10
74.292497
 20
491.312658
 11
55.766181
 21
491.312658
  0
CIRCLE
  5
B9
100
AcDbEntity
  8
M1
  6
CONTINUOUS
370
25
 62
     4
100
AcDbCircle
 10
50.029339
 20
488.812658
 40
2.5
  0
CIRCLE
  5
BA
100
AcDbEntity
  8
M1
  6
CONTINUOUS
370
25
 62
     4
100
AcDbCircle
 10
50.029339
 20
358.812658
 40
2.5
  0
LINE
  5
BB
100
AcDbEntity
  8
M1
  6
DASHDOT
370
25
 62
     4
100
AcDbLine
 10
20.029339
 20
481.0495
 11
20.029339
 21
496.575816
  0
LINE
  5
BC
100
AcDbEntity
  8
M1
  6
DASHDOT
370
25
 62
     4
100
AcDbLine
 10
42.266181
 20
488.812658
 11
57.792497
 21
488.812658
  0
LINE
  5
BD
100
AcDbEntity
  8
M1
  6
DASHDOT
370
25
 62
     4
100
AcDbLine
 10
57.792497
 20
358.812658
 11
42.266181
 21
358.812658
  0
LINE
  5
BE
100
AcDbEntity
  8
M1
  6
DASHDOT
370
25
 62
     4
100
AcDbLine
 10
50.029339
 20
519.470553
 11
50.029339
 21
328.154764
  0
CIRCLE
  5
BF
100
AcDbEntity
  8
M1
  6
CONTINUOUS
370
25
 62
     4
100
AcDbCircle
 10
65.029339
 20
491.312658
 40
4.0
  0
CIRCLE
  5
C0
100
AcDbEntity
  8
M1
  6
CONTINUOUS
370
25
 62
     4
100
AcDbCircle
 10
35.029339
 20
356.312658
 40
4.0
  0
CIRCLE
  5
C1
100
AcDbEntity
  8
M1
  6
CONTINUOUS
370
25
 62
     4
100
AcDbCircle
 10
65.029339
 20
356.312658
 40
4.0
  0
CIRCLE
  5
C2
100
AcDbEntity
  8
M1
  6
CONTINUOUS
370
25
 62
     4
100
AcDbCircle
 10
35.029339
 20
491.312658
 40
4.0
  0
LINE
  5
C3
100
AcDbEntity
  8
M1
  6
DASHDOT
370
25
 62
     4
100
AcDbLine
 10
25.766181
 20
491.312658
 11
44.292497
 21
491.312658
  0
LINE
  5
C4
100
AcDbEntity
  8
M1
  6
DASHDOT
370
25
 62
     4
100
AcDbLine
 10
35.029339
 20
482.0495
 11
35.029339
 21
500.575816
  0
LINE
  5
C5
100
AcDbEntity
  8
M1
  6
DASHDOT
370
25
 62
     4
100
AcDbLine
 10
35.029339
 20
365.575816
 11
35.029339
 21
347.0495
  0
LINE
  5
C6
100
AcDbEntity
  8
M1
  6
DASHDOT
370
25
 62
     4
100
AcDbLine
 10
25.766181
 20
356.312658
 11
44.292497
 21
356.312658
  0
LINE
  5
C7
100
AcDbEntity
  8
M1
  6
CONTINUOUS
370
25
 62
     4
100
AcDbLine
 10
20.029339
 20
348.812658
 11
20.029339
 21
498.812658
  0
ARC
  5
C8
100
AcDbEntity
  8
M1
  6
CONTINUOUS
370
25
 62
     4
100
AcDbCircle
 10
21.029339
 20
447.812658
 40
1.0
100
AcDbArc
 50
90.0
 51
180.0
  0
ARC
  5
C9
100
AcDbEntity
  8
M1
  6
CONTINUOUS
370
25
 62
     4
100
AcDbCircle
 10
21.029339
 20
399.812658
 40
1.0
100
AcDbArc
 50
180.0
 51
270.0
  0
LINE
  5
CA
100
AcDbEntity
  8
M2
  6
CONTINUOUS
370
25
100
AcDbLine
 10
35.958317
 20
345.560724
 11
33.461248
 21
352.632827
  0
LINE
  5
CB
100
AcDbEntity
  8
M2
  6
CONTINUOUS
370
25
100
AcDbLine
 10
33.461248
 20
352.632827
 11
32.087713
 21
345.259673
  0
LINE
  5
CC
100
AcDbEntity
  8
M2
  6
CONTINUOUS
370
25
100
AcDbLine
 10
33.461248
 20
352.632827
 11
36.266691
 21
316.563301
  0
LINE
  5
CD
100
AcDbEntity
  8
M2
  6
CONTINUOUS
370
25
100
AcDbLine
 10
36.266691
 20
316.563301
 11
102.766695
 21
316.563301
  0
TEXT
  5
CE
100
AcDbEntity
  8
M2
100
AcDbText
 10
44.390301
 20
318.063324
 40
6.25
  1
５０Ａ　ｏｒ　Ｌｅｓｓ：Ｍ６
 41
0.666667
  7
STANDARD
100
AcDbText
  0
TEXT
  5
CF
100
AcDbEntity
  8
M2
100
AcDbText
 10
44.390301
 20
308.313324
 40
6.25
  1
６０Ａ　ｏｒ　Ｍｏｒｅ：Ｍ８
 41
0.666667
  7
STANDARD
100
AcDbText
  0
LINE
  5
D0
100
AcDbEntity
  8
M3
  6
CONTINUOUS
370
25
100
AcDbLine
 10
208.553132
 20
41.250004
 11
208.553132
 21
-7.105427E-015
  0
LINE
  5
D1
100
AcDbEntity
  8
M3
  6
CONTINUOUS
370
25
100
AcDbLine
 10
3.553135
 20
41.250004
 11
3.553135
 21
-7.105427E-015
  0
LINE
  5
D2
100
AcDbEntity
  8
M3
  6
CONTINUOUS
370
25
100
AcDbLine
 10
3.553135
 20
-7.105427E-015
 11
208.553132
 21
-7.105427E-015
  0
LINE
  5
D3
100
AcDbEntity
  8
M3
  6
CONTINUOUS
370
25
100
AcDbLine
 10
3.553135
 20
41.250004
 11
208.553132
 21
41.250004
  0
LINE
  5
D4
100
AcDbEntity
  8
M3
  6
CONTINUOUS
370
25
100
AcDbLine
 10
161.053132
 20
27.500004
 11
183.553132
 21
27.500004
  0
TEXT
  5
D5
100
AcDbEntity
  8
M3
100
AcDbText
 10
163.426758
 20
31.250006
 40
6.25
  1
ＲＥＶ．：
 41
0.666667
  7
STANDARD
100
AcDbText
  0
LINE
  5
D6
100
AcDbEntity
  8
M3
  6
CONTINUOUS
370
25
100
AcDbLine
 10
183.553132
 20
27.500004
 11
208.553132
 21
27.500004
  0
TEXT
  5
D7
100
AcDbEntity
  8
M3
100
AcDbText
 10
193.379517
 20
31.250006
 40
6.25
  1
０１
 41
0.833333
  7
STANDARD
100
AcDbText
  0
LINE
  5
D8
100
AcDbEntity
  8
M3
  6
CONTINUOUS
370
25
100
AcDbLine
 10
3.553135
 20
27.500004
 11
26.053134
 21
27.500004
  0
TEXT
  5
D9
100
AcDbEntity
  8
M3
100
AcDbText
 10
5.879525
 20
31.250006
 40
6.25
  1
登録名：
 41
0.833333
  7
STANDARD
100
AcDbText
  0
LINE
  5
DA
100
AcDbEntity
  8
M3
  6
CONTINUOUS
370
25
100
AcDbLine
 10
183.553132
 20
13.75
 11
208.553132
 21
13.75
  0
LINE
  5
DB
100
AcDbEntity
  8
M3
  6
CONTINUOUS
370
25
100
AcDbLine
 10
26.053134
 20
13.75
 11
183.553132
 21
13.75
  0
TEXT
  5
DC
100
AcDbEntity
  8
M3
100
AcDbText
 10
28.379524
 20
17.500006
 40
6.25
  1
表面形
 41
0.833333
  7
STANDARD
100
AcDbText
  0
LINE
  5
DD
100
AcDbEntity
  8
M3
  6
CONTINUOUS
370
25
100
AcDbLine
 10
3.553135
 20
13.75
 11
26.053134
 21
13.75
  0
TEXT
  5
DE
100
AcDbEntity
  8
M3
100
AcDbText
 10
4.676752
 20
17.500006
 40
6.25
  1
接続方式：
 41
0.666667
  7
STANDARD
100
AcDbText
  0
TEXT
  5
DF
100
AcDbEntity
  8
M3
100
AcDbText
 10
4.676752
 20
3.750002
 40
6.25
  1
適用形式：
 41
0.666667
  7
STANDARD
100
AcDbText
  0
LINE
  5
E0
100
AcDbEntity
  8
M3
  6
CONTINUOUS
370
25
100
AcDbLine
 10
161.053132
 20
27.500004
 11
161.053132
 21
41.250004
  0
LINE
  5
E1
100
AcDbEntity
  8
M3
  6
CONTINUOUS
370
25
100
AcDbLine
 10
26.053134
 20
27.500004
 11
161.053132
 21
27.500004
  0
TEXT
  5
E2
100
AcDbEntity
  8
M3
100
AcDbText
 10
28.472582
 20
3.750002
 40
6.25
  1
ＦＸＫ１２５－Ｈ／ＦＸＫ１２５－Ｓ／ＦＸＫ１２５－Ｍ／ＦＸＫ１２５－Ｇ／ＦＸＫ５０－Ｈ／ＦＸＫ５０－ＨＵ
 41
0.446667
  7
STANDARD
100
AcDbText
  0
TEXT
  5
E3
100
AcDbEntity
  8
M3
100
AcDbText
 10
28.379524
 20
31.250006
 40
6.25
  1
ＦＸＫ１２５－Ｈ　２Ｐ
 41
0.833333
  7
STANDARD
100
AcDbText
  0
ENDSEC
  0
SECTION
  2
OBJECTS
  0
DICTIONARY
  5
C
100
AcDbDictionary
  3
ACAD_GROUP
350
D
  3
ACAD_MLINESTYLE
350
E
  0
DICTIONARY
  5
D
102
{ACAD_REACTORS
330
C
102
}
100
AcDbDictionary
  0
DICTIONARY
  5
E
102
{ACAD_REACTORS
330
C
102
}
100
AcDbDictionary
  3
STANDARD
350
13
  0
MLINESTYLE
  5
13
102
{ACAD_REACTORS
330
E
102
}
100
AcDbMlineStyle
  2
STANDARD
 70
     0
  3

 62
     0
 51
90.0
 52
90.0
 71
     2
 49
0.5
 62
   256
  6
BYLAYER
 49
-0.5
 62
   256
  6
BYLAYER
  0
ENDSEC
  0
EOF
