  0
SECTION
  2
HEADER
  9
$ACADVER
  1
AC1015
  9
$INSBASE
 10
0.000000
 20
0.000000
 30
0.0
  9
$VIEWCTR
 10
7.531722
 20
4.5
  9
$VIEWSIZE
 40
9.0
  9
$SNAPMODE
 70
     0
  9
$SNAPUNIT
 10
1.0
 20
1.0
  9
$SNAPBASE
 10
0.0
 20
0.0
  9
$SNAPANG
 50
0.0
  9
$SNAPSTYLE
 70
     0
  9
$SNAPISOPAIR
 70
     0
  9
$GRIDMODE
 70
     0
  9
$GRIDUNIT
 10
0.0
 20
0.0
  9
$ORTHOMODE
 70
     0
  9
$REGENMODE
 70
     1
  9
$FILLMODE
 70
     1
  9
$QTEXTMODE
 70
     0
  9
$DRAGMODE
 70
     2
  9
$LTSCALE
  40
     1.000000
  9
$OSMODE
 70
     0
  9
$ATTMODE
 70
     1
  9
$TEXTSIZE
 40
0.2
  9
$TRACEWID
 40
0.05
  9
$TEXTSTYLE
  7
STANDARD
  9
$CELTYPE
  6
BYLAYER
  9
$CECOLOR
 62
   256
  9
$DIMSCALE
 40
1.0
  9
$DIMASZ
 40
0.18
  9
$DIMEXO
 40
0.0625
  9
$DIMDLI
 40
0.38
  9
$DIMRND
 40
0.0
  9
$DIMDLE
 40
0.0
  9
$DIMEXE
 40
0.18
  9
$DIMTP
 40
0.0
  9
$DIMTM
 40
0.0
  9
$DIMTXT
 40
0.18
  9
$DIMCEN
 40
0.09
  9
$DIMTSZ
 40
0.0
  9
$DIMADEC
 70
     0
  9
$DIMALTRND
 40
0.000000
  9
$DIMAZIN
 70
     0
  9
$DIMDSEP
 70
    46
  9
$DIMATFIT
 70
     3
  9
$DIMFRAC
 70
     0
  9
$DIMLDRBLK
  1

  9
$DIMLUNIT
 70
     2
  9
$DIMLWD
 70
   13
  9
$DIMLWE
 70
   13
  9
$DIMTMOVE
 70
     0
  9
$CELWEIGHT
370
    25
  9
$LWDISPLAY
290
    1
  9
$EXTNAMES
290
    1
  9
$DIMTOL
 70
     0
  9
$DIMLIM
 70
     0
  9
$DIMTIH
 70
     1
  9
$DIMTOH
 70
     1
  9
$DIMSE1
 70
     0
  9
$DIMSE2
 70
     0
  9
$DIMTAD
 70
     0
  9
$DIMZIN
 70
     0
  9
$DIMBLK
  1

  9
$LUNITS
 70
     2
  9
$LUPREC
 70
     4
  9
$AXISMODE
 70
     0
  9
$AXISUNIT
 10
0.0
 20
0.0
  9
$SKETCHINC
 40
0.1
  9
$FILLETRAD
 40
0.0
  9
$AUNITS
 70
     0
  9
$AUPREC
 70
     0
  9
$MENU
  1
ACAD
  9
$ELEVATION
 40
0.0
  9
$THICKNESS
 40
0.0
  9
$VIEWDIR
 10
0.0
 20
0.0
 30
1.0
  9
$LIMCHECK
 70
     0
  9
$BLIPMODE
 70
     1
  9
$CHAMFERA
 40
0.0
  9
$CHAMFERB
 40
0.0
  9
$FASTZOOM
 70
     1
  9
$SKPOLY
 70
     0
  9
$TDCREATE
 40
0000000.0000000000
  9
$TDUPDATE
 40
0000000.0000000000
  9
$TDINDWG
 40
0.0000000000
  9
$TDUSRTIMER
 40
0.0000000000
  9
$USRTIMER
 70
     1
  9
$ANGBASE
 50
0.0
  9
$ANGDIR
 70
     0
  9
$PDMODE
 70
     0
  9
$PDSIZE
 40
0.0
  9
$PLINEWID
 40
0.0
  9
$COORDS
 70
     0
  9
$USERI1
 70
     0
  9
$USERI2
 70
     0
  9
$USERI3
 70
     0
  9
$USERI4
 70
     0
  9
$USERI5
 70
     0
  9
$USERR1
 40
0.0
  9
$USERR2
 40
0.0
  9
$USERR3
 40
0.0
  9
$USERR4
 40
0.0
  9
$USERR5
 40
0.0
  9
$CLAYER
  8
M0
  9
$EXTMIN
 10
0.0
 20
0.0
  9
$EXTMAX
 10
841.0
 20
594.0
  9
$LIMMIN
 10
0.0
 20
0.0
  9
$LIMMAX
 10
841.0
 20
594.0
  9
$HANDSEED
  5
398
  0
ENDSEC
  0
SECTION
  2
CLASSES
  0
CLASS
  1
DICTIONARYVAR
  2
AcDbDictionaryVar
  3
"AutoCAD"
 90
        0
280
     0
281
     0
  0
CLASS
  1
HATCH
  2
AcDbHatch
  3
"ACAD_SEDONA"
 90
        0
280
     0
281
     1
  0
CLASS
  1
DIMASSOC
  2
AcDbDimAssoc
  3
"AcDbDimAssoc|Product Desc:     AcDim ARX App For Dimension|Company:          Autodesk, Inc.|WEB Address:      www.autodesk.com"
 90
        0
280
     0
281
     0
  0
ENDSEC
  0
SECTION
  2
TABLES
  0
TABLE
  2
VPORT
  5
8
100
AcDbSymbolTable
 70
     2
  0
VPORT
  5
14
100
AcDbSymbolTableRecord
100
AcDbViewportTableRecord
  2
*ACTIVE
 70
     0
 10
0.0
 20
0.0
 11
1.0
 21
1.0
 12
484.0
 22
297.0
 13
0.0
 23
0.0
 14
1.0
 24
1.0
 15
0.0
 25
0.0
 16
0.0
 26
0.0
 36
1.0
 17
0.0
 27
0.0
 37
0.0
 40
594.0
 41
2.0
 42
50.0
 43
0.0
 44
0.0
 50
0.0
 51
0.0
 71
     0
 72
   100
 73
     1
 74
     1
 75
     0
 76
     0
 77
     0
 78
     0
  0
ENDTAB
  0
TABLE
  2
LTYPE
  5
5
100
AcDbSymbolTable
 70
     5
  0
LTYPE
  5
15
100
AcDbSymbolTableRecord
100
AcDbLinetypeTableRecord
  2
BYBLOCK
 70
     0
  3

 72
    65
 73
     0
 40
0.0
  0
LTYPE
  5
16
100
AcDbSymbolTableRecord
100
AcDbLinetypeTableRecord
  2
BYLAYER
 70
     0
  3

 72
    65
 73
     0
 40
0.0
  0
LTYPE
  5
17
100
AcDbSymbolTableRecord
100
AcDbLinetypeTableRecord
  2
CONTINUOUS
 70
    64
  3
Solid line
 72
    65
 73
     0
 40
0.0
  0
LTYPE
  5
18
100
AcDbSymbolTableRecord
100
AcDbLinetypeTableRecord
  2
DASHED
 70
    64
  3
__ __ __ __ __ __ __ __ __ __ __ __ __ __ __ __
 72
    65
 73
     2
 40
0.75
 49
0.5
 74
     0
 49
-0.25
 74
     0
  0
LTYPE
  5
19
100
AcDbSymbolTableRecord
100
AcDbLinetypeTableRecord
  2
DASHDOT
 70
    64
  3
__ . __ . __ . __ . __ . __ . __ . __ . __ . __
 72
    65
 73
     4
 40
1.0
 49
0.5
 74
     0
 49
-0.25
 74
     0
 49
0.0
 74
     0
 49
-0.25
 74
     0
  0
LTYPE
  5
1A
100
AcDbSymbolTableRecord
100
AcDbLinetypeTableRecord
  2
DIVIDE
 70
    64
  3
____ . . ____ . . ____ . . ____ . . ____ . . __
 72
    65
 73
     6
 40
1.25
 49
0.5
 74
     0
 49
-0.25
 74
     0
 49
0.0
 74
     0
 49
-0.25
 74
     0
 49
0.0
 74
     0
 49
-0.25
 74
     0
  0
LTYPE
  5
1B
100
AcDbSymbolTableRecord
100
AcDbLinetypeTableRecord
  2
DOT
 70
    64
  3
. . . . . . . . . . . . . . . . . . . . . . . .
 72
    65
 73
     2
 40
0.25
 49
0.0
 74
     0
 49
-0.25
 74
     0
  0
ENDTAB
  0
TABLE
  2
LAYER
  5
2
100
AcDbSymbolTable
 70
   102
  0
LAYER
  5
F
100
AcDbSymbolTableRecord
100
AcDbLayerTableRecord
  2
0
 70
     0
 62
     7
  6
CONTINUOUS
370
     -3
390
F
  0
LAYER
  5
1C
100
AcDbSymbolTableRecord
100
AcDbLayerTableRecord
  2
M0
 70
     0
 62
     7
  6
CONTINUOUS
370
     -3
390
F
  0
LAYER
  5
1D
100
AcDbSymbolTableRecord
100
AcDbLayerTableRecord
  2
M1
 70
     0
 62
     3
  6
CONTINUOUS
370
     -3
390
F
  0
LAYER
  5
1E
100
AcDbSymbolTableRecord
100
AcDbLayerTableRecord
  2
M2
 70
     0
 62
     3
  6
CONTINUOUS
370
     -3
390
F
  0
LAYER
  5
1F
100
AcDbSymbolTableRecord
100
AcDbLayerTableRecord
  2
M4
 70
     0
 62
     2
  6
CONTINUOUS
370
     -3
390
F
  0
ENDTAB
  0
TABLE
  2
STYLE
  5
3
100
AcDbSymbolTable
 70
     2
  0
STYLE
  5
10
100
AcDbSymbolTableRecord
100
AcDbTextStyleTableRecord
  2
STANDARD
 70
     0
 40
0.0
 41
1.0
 50
0.0
 71
     0
 42
0.2
  3
txt
  4
BIGFONT
  0
ENDTAB
  0
TABLE
  2
VIEW
  5
6
100
AcDbSymbolTable
 70
     0
  0
ENDTAB
  0
TABLE
  2
UCS
  5
7
100
AcDbSymbolTable
 70
     0
  0
ENDTAB
  0
TABLE
  2
APPID
  5
9
100
AcDbSymbolTable
 70
     1
  0
APPID
  5
11
100
AcDbSymbolTableRecord
100
AcDbRegAppTableRecord
  2
ACAD
 70
     0
  0
ENDTAB
  0
TABLE
  2
DIMSTYLE
  5
A
100
AcDbSymbolTable
 70
     2
100
AcDbDimStyleTable
 71
     1
  0
DIMSTYLE
105
48
100
AcDbSymbolTableRecord
100
AcDbDimStyleTableRecord
  2
STANDARD
 70
     0
  3

  4

  5

  6
_OPEN
  7
_OPEN
 40
1.0
 41
3.0
 42
0.0
 43
8.0
 44
1.5
 45
0.0
 46
0.0
 47
0.0
 48
0.0
140
3.2
141
0.09
142
0.0
143
0.03937
144
1.0
145
0.0
146
1.0
147
1.0
148
0.000000
 71
     0
 72
     0
 73
     1
 74
     1
 75
     0
 76
     0
 77
     3
 78
     8
170
     0
171
     2
172
     0
173
     1
174
     0
175
     0
176
     0
177
     0
178
     0
270
     2
271
     2
272
     4
273
     2
274
     2
340
10
275
     0
278
    46
280
     0
281
     0
282
     0
283
     1
284
     0
285
     0
286
     0
287
     3
288
     0
371
   13
372
   13
  0
DIMSTYLE
105
49
100
AcDbSymbolTableRecord
100
AcDbDimStyleTableRecord
  2
LEADSTYL
 70
     0
  3

  4

  5

  6
_OPEN
  7
_OPEN
 40
1.0
 41
3.0
 42
0.0625
 43
0.38
 44
0.18
 45
0.0
 46
0.0
 47
0.0
 48
0.0
140
3.2
141
0.09
142
0.0
143
25.4
144
1.0
145
0.0
146
1.0
147
1.0
 71
     0
 72
     0
 73
     1
 74
     1
 75
     0
 76
     0
 77
     0
 78
     0
170
     0
171
     2
172
     0
173
     1
174
     0
175
     0
176
     0
177
     0
178
     0
270
     2
271
     4
272
     4
273
     2
274
     2
340
10
275
     0
280
     0
281
     0
282
     0
283
     1
284
     0
285
     0
286
     0
287
     3
288
     0
  0
ENDTAB
  0
TABLE
  2
BLOCK_RECORD
  5
1
100
AcDbSymbolTable
 70
     6
  0
BLOCK_RECORD
  5
20
100
AcDbSymbolTableRecord
100
AcDbBlockTableRecord
  2
*MODEL_SPACE
  0
BLOCK_RECORD
  5
23
100
AcDbSymbolTableRecord
100
AcDbBlockTableRecord
  2
*PAPER_SPACE
  0
BLOCK_RECORD
  5
26
100
AcDbSymbolTableRecord
100
AcDbBlockTableRecord
  2
_NONE
  0
BLOCK_RECORD
  5
2A
100
AcDbSymbolTableRecord
100
AcDbBlockTableRecord
  2
_OPEN
  0
BLOCK_RECORD
  5
30
100
AcDbSymbolTableRecord
100
AcDbBlockTableRecord
  2
_CLOSED
  0
BLOCK_RECORD
  5
37
100
AcDbSymbolTableRecord
100
AcDbBlockTableRecord
  2
_ORIGIN
  0
BLOCK_RECORD
  5
3C
100
AcDbSymbolTableRecord
100
AcDbBlockTableRecord
  2
_DOT
  0
BLOCK_RECORD
  5
44
100
AcDbSymbolTableRecord
100
AcDbBlockTableRecord
  2
_OBLIQUE
  0
ENDTAB
  0
ENDSEC
  0
SECTION
  2
BLOCKS
  0
BLOCK
  5
21
100
AcDbEntity
  8
0
100
AcDbBlockBegin
  2
*MODEL_SPACE
 70
     0
 10
0.0
 20
0.0
 30
0.0
  3
*MODEL_SPACE
  1

  0
ENDBLK
  5
22
100
AcDbEntity
  8
0
100
AcDbBlockEnd
  0
BLOCK
  5
24
100
AcDbEntity
 67
     1
  8
0
100
AcDbBlockBegin
  2
*PAPER_SPACE
 70
     0
 10
0.0
 20
0.0
 30
0.0
  3
*PAPER_SPACE
  1

  0
ENDBLK
  5
25
100
AcDbEntity
 67
     1
  8
0
100
AcDbBlockEnd
  0
BLOCK
  5
27
100
AcDbEntity
  8
0
100
AcDbBlockBegin
  2
_NONE
 70
     0
 10
0.0
 20
0.0
  0
CIRCLE
  5
28
100
AcDbEntity
  8
0
 62
     0
370
13
100
AcDbCircle
 10
0.0
 20
0.0
 40
0.25
  0
ENDBLK
  5
29
100
AcDbEntity
  8
0
100
AcDbBlockEnd
  0
BLOCK
  5
2B
100
AcDbEntity
  8
0
100
AcDbBlockBegin
  2
_OPEN
 70
     0
 10
0.0
 20
0.0
  0
LINE
  5
2C
100
AcDbEntity
  8
0
 62
     0
370
13
100
AcDbLine
 10
-0.965926
 20
0.258819
 11
0.0
 21
0.0
  0
LINE
  5
2D
100
AcDbEntity
  8
0
 62
     0
370
13
100
AcDbLine
 10
0.0
 20
0.0
 11
-0.965926
 21
-0.258819
  0
LINE
  5
2E
100
AcDbEntity
  8
0
 62
     0
370
13
100
AcDbLine
 10
0.0
 20
0.0
 11
-1.0
 21
0.0
  0
ENDBLK
  5
2F
100
AcDbEntity
  8
0
100
AcDbBlockEnd
  0
BLOCK
  5
31
100
AcDbEntity
  8
0
100
AcDbBlockBegin
  2
_CLOSED
 70
     0
 10
0.0
 20
0.0
  0
LINE
  5
32
100
AcDbEntity
  8
0
 62
     0
370
13
100
AcDbLine
 10
-0.965926
 20
0.258819
 11
0.0
 21
0.0
  0
LINE
  5
33
100
AcDbEntity
  8
0
 62
     0
370
13
100
AcDbLine
 10
0.0
 20
0.0
 11
-0.965926
 21
-0.258819
  0
LINE
  5
34
100
AcDbEntity
  8
0
 62
     0
370
13
100
AcDbLine
 10
-0.965926
 20
0.258819
 11
-0.965926
 21
-0.258819
  0
LINE
  5
35
100
AcDbEntity
  8
0
 62
     0
370
13
100
AcDbLine
 10
0.0
 20
0.0
 11
-1.0
 21
0.0
  0
ENDBLK
  5
36
100
AcDbEntity
  8
0
100
AcDbBlockEnd
  0
BLOCK
  5
38
100
AcDbEntity
  8
0
100
AcDbBlockBegin
  2
_ORIGIN
 70
     0
 10
0.0
 20
0.0
  0
CIRCLE
  5
39
100
AcDbEntity
  8
0
 62
     0
370
13
100
AcDbCircle
 10
0.0
 20
0.0
 40
0.5
  0
LINE
  5
3A
100
AcDbEntity
  8
0
 62
     0
370
13
100
AcDbLine
 10
0.0
 20
0.0
 11
-1.0
 21
0.0
  0
ENDBLK
  5
3B
100
AcDbEntity
  8
0
100
AcDbBlockEnd
  0
BLOCK
  5
3D
100
AcDbEntity
  8
0
100
AcDbBlockBegin
  2
_DOT
 70
     0
 10
0.0
 20
0.0
  0
POLYLINE
  5
3E
100
AcDbEntity
  8
0
 62
     0
100
AcDb2dPolyline
 66
     1
 70
     1
 40
0.5
 41
0.5
  0
VERTEX
  5
3F
100
AcDbEntity
  8
0
 62
     0
100
AcDbVertex
100
AcDb2dVertex
 10
-0.25
 20
0.0
 42
1.0
  0
VERTEX
  5
40
100
AcDbEntity
  8
0
 62
     0
100
AcDbVertex
100
AcDb2dVertex
 10
0.25
 20
0.0
 42
1.0
  0
SEQEND
  5
41
100
AcDbEntity
  8
0
 62
     0
  0
LINE
  5
42
100
AcDbEntity
  8
0
 62
     0
370
13
100
AcDbLine
 10
-0.5
 20
0.0
 11
-1.0
 21
0.0
  0
ENDBLK
  5
43
100
AcDbEntity
  8
0
100
AcDbBlockEnd
  0
BLOCK
  5
45
100
AcDbEntity
  8
0
100
AcDbBlockBegin
  2
_OBLIQUE
 70
     0
 10
0.0
 20
0.0
  0
LINE
  5
46
100
AcDbEntity
  8
0
 62
     0
370
13
100
AcDbLine
 10
-0.353553
 20
-0.353553
 11
0.353553
 21
0.353553
  0
ENDBLK
  5
47
100
AcDbEntity
  8
0
100
AcDbBlockEnd
  0
ENDSEC
  0
SECTION
  2
ENTITIES
  0
HATCH
  5
4A
100
AcDbEntity
  8
M0
100
AcDbHatch
 10
0.0
 20
0.0
210
0.0
220
0.0
230
1.0
  2
SOLID
 70
     1
 71
     0
 91
        1
 92
        1
 93
        4
 72
     2
 10
191.811625
 20
395.351858
 40
3.249815
 50
9.150117
 51
26.849883
 73
     1
 72
     1
 10
194.711087
 20
396.819651
 11
193.986594
 21
396.584251
 72
     2
 10
191.811625
 20
395.351858
 40
2.499858
 50
330.463041
 51
353.536959
 73
     0
 72
     1
 10
194.295594
 20
395.633248
 11
195.020086
 21
395.868648
 97
        0
 75
     0
 76
     1
 98
        1
 10
0.0
 20
0.0
  0
HATCH
  5
4D
100
AcDbEntity
  8
M0
100
AcDbHatch
 10
0.0
 20
0.0
210
0.0
220
0.0
230
1.0
  2
SOLID
 70
     1
 71
     0
 91
        1
 92
        1
 93
        4
 72
     1
 10
194.103561
 20
393.047879
 11
193.655803
 21
393.664167
 72
     2
 10
191.811625
 20
395.351858
 40
2.499858
 50
42.463041
 51
65.536959
 73
     0
 72
     1
 10
192.846832
 20
393.076417
 11
193.29459
 21
392.460129
 72
     2
 10
191.811625
 20
395.351858
 40
3.249815
 50
297.150117
 51
314.849883
 73
     1
 97
        0
 75
     0
 76
     1
 98
        1
 10
0.0
 20
0.0
  0
HATCH
  5
4E
100
AcDbEntity
  8
M0
100
AcDbHatch
 10
0.0
 20
0.0
210
0.0
220
0.0
230
1.0
  2
SOLID
 70
     1
 71
     0
 91
        1
 92
        1
 93
        4
 72
     1
 10
191.311653
 20
397.801209
 11
191.311653
 21
398.562985
 72
     2
 10
191.811625
 20
395.351858
 40
3.249815
 50
261.150117
 51
278.849883
 73
     0
 72
     1
 10
192.311596
 20
398.562985
 11
192.311596
 21
397.801209
 72
     2
 10
191.811625
 20
395.351858
 40
2.499858
 50
78.463041
 51
101.536959
 73
     1
 97
        0
 75
     0
 76
     1
 98
        1
 10
0.0
 20
0.0
  0
HATCH
  5
4F
100
AcDbEntity
  8
M0
100
AcDbHatch
 10
0.0
 20
0.0
210
0.0
220
0.0
230
1.0
  2
SOLID
 70
     1
 71
     0
 91
        1
 92
        1
 93
        4
 72
     2
 10
191.811625
 20
395.351858
 40
2.499858
 50
186.463041
 51
209.536959
 73
     0
 72
     1
 10
189.636651
 20
396.584251
 11
188.912163
 21
396.819651
 72
     2
 10
191.811625
 20
395.351858
 40
3.249815
 50
153.150117
 51
170.849883
 73
     1
 72
     1
 10
188.603163
 20
395.868648
 11
189.327652
 21
395.633248
 97
        0
 75
     0
 76
     1
 98
        1
 10
0.0
 20
0.0
  0
HATCH
  5
50
100
AcDbEntity
  8
M0
100
AcDbHatch
 10
0.0
 20
0.0
210
0.0
220
0.0
230
1.0
  2
SOLID
 70
     1
 71
     0
 91
        1
 92
        1
 93
        4
 72
     1
 10
190.328659
 20
392.460129
 11
190.776417
 21
393.076417
 72
     2
 10
191.811625
 20
395.351858
 40
2.499858
 50
114.463041
 51
137.536959
 73
     0
 72
     1
 10
189.967446
 20
393.664167
 11
189.519685
 21
393.047879
 72
     2
 10
191.811625
 20
395.351858
 40
3.249815
 50
225.150117
 51
242.849883
 73
     1
 97
        0
 75
     0
 76
     1
 98
        1
 10
0.0
 20
0.0
  0
HATCH
  5
51
100
AcDbEntity
  8
M0
100
AcDbHatch
 10
0.0
 20
0.0
210
0.0
220
0.0
230
1.0
  2
SOLID
 70
     1
 71
     0
 91
        1
 92
        1
 93
        4
 72
     1
 10
181.276956
 20
397.627302
 11
180.829195
 21
398.24359
 72
     2
 10
182.312164
 20
395.351858
 40
3.249815
 50
117.150117
 51
134.849883
 73
     1
 72
     1
 10
180.020224
 20
397.655837
 11
180.467986
 21
397.039549
 72
     2
 10
182.312164
 20
395.351858
 40
2.499858
 50
222.463041
 51
245.536959
 73
     0
 97
        0
 75
     0
 76
     1
 98
        1
 10
0.0
 20
0.0
  0
HATCH
  5
52
100
AcDbEntity
  8
M0
100
AcDbHatch
 10
0.0
 20
0.0
210
0.0
220
0.0
230
1.0
  2
SOLID
 70
     1
 71
     0
 91
        1
 92
        1
 93
        4
 72
     1
 10
181.812192
 20
397.801209
 11
181.812192
 21
398.562985
 72
     2
 10
182.312164
 20
395.351858
 40
3.249815
 50
261.150117
 51
278.849883
 73
     0
 72
     1
 10
182.812136
 20
398.562985
 11
182.812136
 21
397.801209
 72
     2
 10
182.312164
 20
395.351858
 40
2.499858
 50
78.463041
 51
101.536959
 73
     1
 97
        0
 75
     0
 76
     1
 98
        1
 10
0.0
 20
0.0
  0
HATCH
  5
53
100
AcDbEntity
  8
M0
100
AcDbHatch
 10
0.0
 20
0.0
210
0.0
220
0.0
230
1.0
  2
SOLID
 70
     1
 71
     0
 91
        1
 92
        1
 93
        4
 72
     1
 10
180.829195
 20
392.460129
 11
181.276956
 21
393.076417
 72
     2
 10
182.312164
 20
395.351858
 40
2.499858
 50
114.463041
 51
137.536959
 73
     0
 72
     1
 10
180.467986
 20
393.664167
 11
180.020224
 21
393.047879
 72
     2
 10
182.312164
 20
395.351858
 40
3.249815
 50
225.150117
 51
242.849883
 73
     1
 97
        0
 75
     0
 76
     1
 98
        1
 10
0.0
 20
0.0
  0
HATCH
  5
54
100
AcDbEntity
  8
M0
100
AcDbHatch
 10
0.0
 20
0.0
210
0.0
220
0.0
230
1.0
  2
SOLID
 70
     1
 71
     0
 91
        1
 92
        1
 93
        4
 72
     2
 10
182.312164
 20
395.351858
 40
3.249815
 50
333.150117
 51
350.849883
 73
     1
 72
     1
 10
185.520625
 20
394.835067
 11
184.796133
 21
395.07047
 72
     2
 10
182.312164
 20
395.351858
 40
2.499858
 50
6.463041
 51
29.536959
 73
     0
 72
     1
 10
184.487134
 20
394.119468
 11
185.211626
 21
393.884064
 97
        0
 75
     0
 76
     1
 98
        1
 10
0.0
 20
0.0
  0
TEXT
  5
55
100
AcDbEntity
  8
M0
 62
     3
100
AcDbText
 10
269.707611
 20
173.886948
 40
5.777466
  1
（ＨＯＬＥ）
 41
0.583333
  7
STANDARD
100
AcDbText
  0
LINE
  5
56
100
AcDbEntity
  8
M0
  6
CONTINUOUS
370
25
100
AcDbLine
 10
133.064958
 20
345.65467
 11
133.064958
 21
346.461804
  0
LINE
  5
57
100
AcDbEntity
  8
M0
  6
CONTINUOUS
370
25
100
AcDbLine
 10
133.064958
 20
347.847366
 11
133.064958
 21
349.654443
  0
LINE
  5
58
100
AcDbEntity
  8
M0
  6
CONTINUOUS
370
25
100
AcDbLine
 10
135.564816
 20
347.847366
 11
135.564816
 21
349.654443
  0
LINE
  5
59
100
AcDbEntity
  8
M0
  6
CONTINUOUS
370
25
100
AcDbLine
 10
203.060986
 20
509.645363
 11
203.060986
 21
508.838229
  0
LINE
  5
5A
100
AcDbEntity
  8
M0
  6
CONTINUOUS
370
25
100
AcDbLine
 10
203.060986
 20
507.452668
 11
203.060986
 21
505.645591
  0
LINE
  5
5B
100
AcDbEntity
  8
M0
  6
CONTINUOUS
370
25
100
AcDbLine
 10
135.064844
 20
350.154415
 11
133.564929
 21
350.154415
  0
LINE
  5
5C
100
AcDbEntity
  8
M0
  6
CONTINUOUS
370
25
100
AcDbLine
 10
170.06286
 20
350.154415
 11
168.562945
 21
350.154415
  0
LINE
  5
5D
100
AcDbEntity
  8
M0
  6
CONTINUOUS
370
25
100
AcDbLine
 10
168.062973
 20
345.65467
 11
168.062973
 21
346.461804
  0
LINE
  5
5E
100
AcDbEntity
  8
M0
  6
CONTINUOUS
370
25
100
AcDbLine
 10
170.562831
 20
345.65467
 11
170.562831
 21
346.461804
  0
LINE
  5
5F
100
AcDbEntity
  8
M0
  6
CONTINUOUS
370
25
100
AcDbLine
 10
135.564816
 20
345.65467
 11
135.564816
 21
346.461804
  0
LINE
  5
60
100
AcDbEntity
  8
M0
  6
CONTINUOUS
370
25
100
AcDbLine
 10
203.560957
 20
505.145619
 11
203.810943
 21
505.145619
  0
LINE
  5
61
100
AcDbEntity
  8
M0
  6
CONTINUOUS
370
25
100
AcDbLine
 10
170.562831
 20
347.847366
 11
170.562831
 21
349.654443
  0
LINE
  5
62
100
AcDbEntity
  8
M0
  6
CONTINUOUS
370
25
100
AcDbLine
 10
168.062973
 20
347.847366
 11
168.062973
 21
349.654443
  0
LINE
  5
63
100
AcDbEntity
  8
M0
  6
CONTINUOUS
370
25
100
AcDbLine
 10
203.060986
 20
347.847366
 11
203.060986
 21
349.654443
  0
LINE
  5
64
100
AcDbEntity
  8
M0
  6
CONTINUOUS
370
25
100
AcDbLine
 10
109.816278
 20
365.153563
 11
123.815483
 21
365.153563
  0
LINE
  5
65
100
AcDbEntity
  8
M0
  6
CONTINUOUS
370
25
100
AcDbLine
 10
203.560957
 20
350.154415
 11
203.810943
 21
350.154415
  0
LINE
  5
66
100
AcDbEntity
  8
M0
  6
CONTINUOUS
370
25
100
AcDbLine
 10
141.814461
 20
346.154642
 11
141.814461
 21
362.153733
  0
LINE
  5
67
100
AcDbEntity
  8
M0
  6
CONTINUOUS
370
25
100
AcDbLine
 10
144.81429
 20
365.153563
 11
158.813495
 21
365.153563
  0
LINE
  5
68
100
AcDbEntity
  8
M0
  6
CONTINUOUS
370
25
100
AcDbLine
 10
203.060986
 20
345.65467
 11
203.060986
 21
346.461804
  0
LINE
  5
69
100
AcDbEntity
  8
M0
  6
CONTINUOUS
370
25
100
AcDbLine
 10
100.566803
 20
507.452668
 11
100.566803
 21
505.645591
  0
LINE
  5
6A
100
AcDbEntity
  8
M0
  6
CONTINUOUS
370
25
100
AcDbLine
 10
170.06286
 20
505.145619
 11
168.562945
 21
505.145619
  0
LINE
  5
6B
100
AcDbEntity
  8
M0
  6
CONTINUOUS
370
25
100
AcDbLine
 10
100.066832
 20
505.145619
 11
99.816846
 21
505.145619
  0
LINE
  5
6C
100
AcDbEntity
  8
M0
  6
CONTINUOUS
370
25
100
AcDbLine
 10
170.562831
 20
507.452668
 11
170.562831
 21
505.645591
  0
LINE
  5
6D
100
AcDbEntity
  8
M0
  6
CONTINUOUS
370
25
100
AcDbLine
 10
126.815313
 20
346.154642
 11
126.815313
 21
362.153733
  0
LINE
  5
6E
100
AcDbEntity
  8
M0
  6
CONTINUOUS
370
25
100
AcDbLine
 10
100.566803
 20
509.645363
 11
100.566803
 21
508.838229
  0
LINE
  5
6F
100
AcDbEntity
  8
M0
  6
CONTINUOUS
370
25
100
AcDbLine
 10
170.562831
 20
509.645363
 11
170.562831
 21
508.838229
  0
ARC
  5
70
100
AcDbEntity
  8
M0
  6
CONTINUOUS
370
25
 62
     6
100
AcDbCircle
 10
200.086155
 20
447.67388
 40
0.724959
100
AcDbArc
 50
270.0
 51
360.0
  0
ARC
  5
71
100
AcDbEntity
  8
M0
  6
CONTINUOUS
370
25
 62
     6
100
AcDbCircle
 10
202.136038
 20
491.171409
 40
0.724959
100
AcDbArc
 50
180.0
 51
270.0
  0
ARC
  5
72
100
AcDbEntity
  8
M0
  6
CONTINUOUS
370
25
 62
     6
100
AcDbCircle
 10
202.136038
 20
445.623996
 40
0.724959
100
AcDbArc
 50
90.0
 51
180.0
  0
ARC
  5
73
100
AcDbEntity
  8
M0
  6
CONTINUOUS
370
25
 62
     6
100
AcDbCircle
 10
200.086155
 20
489.121526
 40
0.724959
100
AcDbArc
 50
0.0
 51
90.0
  0
ARC
  5
74
100
AcDbEntity
  8
M0
  6
CONTINUOUS
370
25
 62
     6
100
AcDbCircle
 10
200.086155
 20
491.171409
 40
0.724959
100
AcDbArc
 50
270.0
 51
360.0
  0
ARC
  5
75
100
AcDbEntity
  8
M0
  6
CONTINUOUS
370
25
 62
     6
100
AcDbCircle
 10
200.086155
 20
445.623996
 40
0.724959
100
AcDbArc
 50
0.0
 51
90.0
  0
CIRCLE
  5
76
100
AcDbEntity
  8
M0
  6
CONTINUOUS
370
25
100
AcDbCircle
 10
134.314887
 20
356.154074
 40
3.599796
  0
CIRCLE
  5
77
100
AcDbEntity
  8
M0
  6
CONTINUOUS
370
25
100
AcDbCircle
 10
169.312902
 20
499.14596
 40
3.599796
  0
CIRCLE
  5
78
100
AcDbEntity
  8
M0
  6
CONTINUOUS
370
25
 62
     6
100
AcDbCircle
 10
201.111096
 20
490.146467
 40
2.749844
  0
ARC
  5
79
100
AcDbEntity
  8
M0
  6
CONTINUOUS
370
25
 62
     6
100
AcDbCircle
 10
202.136038
 20
447.67388
 40
0.724959
100
AcDbArc
 50
180.0
 51
270.0
  0
ARC
  5
7A
100
AcDbEntity
  8
M0
  6
CONTINUOUS
370
25
 62
     6
100
AcDbCircle
 10
202.136038
 20
489.121526
 40
0.724959
100
AcDbArc
 50
90.0
 51
180.0
  0
CIRCLE
  5
7B
100
AcDbEntity
  8
M0
  6
CONTINUOUS
370
25
100
AcDbCircle
 10
169.312902
 20
356.154074
 40
3.599796
  0
CIRCLE
  5
7C
100
AcDbEntity
  8
M0
  6
CONTINUOUS
370
25
100
AcDbCircle
 10
134.314887
 20
499.14596
 40
3.599796
  0
ARC
  5
7D
100
AcDbEntity
  8
M0
  6
CONTINUOUS
370
25
100
AcDbCircle
 10
167.662996
 20
508.145449
 40
0.799955
100
AcDbArc
 50
300.0
 51
420.0
  0
ARC
  5
7E
100
AcDbEntity
  8
M0
  6
CONTINUOUS
370
25
100
AcDbCircle
 10
135.064844
 20
505.645591
 40
0.499972
100
AcDbArc
 50
270.0
 51
360.0
  0
ARC
  5
7F
100
AcDbEntity
  8
M0
  6
CONTINUOUS
370
25
100
AcDbCircle
 10
132.564986
 20
345.65467
 40
0.499972
100
AcDbArc
 50
270.0
 51
360.0
  0
LINE
  5
80
100
AcDbEntity
  8
M0
  6
CONTINUOUS
370
25
100
AcDbLine
 10
133.064958
 20
509.645363
 11
133.064958
 21
508.838229
  0
LINE
  5
81
100
AcDbEntity
  8
M0
  6
CONTINUOUS
370
25
100
AcDbLine
 10
133.064958
 20
507.452668
 11
133.064958
 21
505.645591
  0
ARC
  5
82
100
AcDbEntity
  8
M0
  6
CONTINUOUS
370
25
100
AcDbCircle
 10
168.562945
 20
505.645591
 40
0.499972
100
AcDbArc
 50
180.0
 51
270.0
  0
ARC
  5
83
100
AcDbEntity
  8
M0
  6
CONTINUOUS
370
25
100
AcDbCircle
 10
167.563002
 20
509.645363
 40
0.499972
100
AcDbArc
 50
0.0
 51
90.0
  0
ARC
  5
84
100
AcDbEntity
  8
M0
  6
CONTINUOUS
370
25
100
AcDbCircle
 10
136.064787
 20
509.645363
 40
0.499972
100
AcDbArc
 50
90.0
 51
180.0
  0
ARC
  5
85
100
AcDbEntity
  8
M0
  6
CONTINUOUS
370
25
100
AcDbCircle
 10
131.815029
 20
449.148796
 40
0.499972
100
AcDbArc
 50
0.0
 51
90.0
  0
ARC
  5
86
100
AcDbEntity
  8
M0
  6
CONTINUOUS
370
25
100
AcDbCircle
 10
167.563002
 20
345.65467
 40
0.499972
100
AcDbArc
 50
270.0
 51
360.0
  0
ARC
  5
87
100
AcDbEntity
  8
M0
  6
CONTINUOUS
370
25
100
AcDbCircle
 10
135.964793
 20
508.145449
 40
0.799955
100
AcDbArc
 50
120.0
 51
240.0
  0
ARC
  5
88
100
AcDbEntity
  8
M0
  6
CONTINUOUS
370
25
100
AcDbCircle
 10
131.815029
 20
450.148739
 40
0.499972
100
AcDbArc
 50
0.0
 51
90.0
  0
LINE
  5
89
100
AcDbEntity
  8
M0
  6
CONTINUOUS
370
25
100
AcDbLine
 10
109.816278
 20
490.146467
 11
123.815483
 21
490.146467
  0
LINE
  5
8A
100
AcDbEntity
  8
M0
  6
CONTINUOUS
370
25
100
AcDbLine
 10
106.816448
 20
509.145392
 11
106.816448
 21
493.1463
  0
ARC
  5
8B
100
AcDbEntity
  8
M0
  6
CONTINUOUS
370
25
100
AcDbCircle
 10
175.812533
 20
346.154642
 40
0.999943
100
AcDbArc
 50
270.0
 51
360.0
  0
LINE
  5
8C
100
AcDbEntity
  8
M0
  6
CONTINUOUS
370
25
100
AcDbLine
 10
141.814461
 20
509.145392
 11
141.814461
 21
493.1463
  0
LINE
  5
8D
100
AcDbEntity
  8
M0
  6
CONTINUOUS
370
25
100
AcDbLine
 10
144.81429
 20
490.146467
 11
158.813495
 21
490.146467
  0
LINE
  5
8E
100
AcDbEntity
  8
M0
  6
CONTINUOUS
370
25
100
AcDbLine
 10
176.812476
 20
346.154642
 11
176.812476
 21
362.153733
  0
ARC
  5
8F
100
AcDbEntity
  8
M0
  6
CONTINUOUS
370
25
100
AcDbCircle
 10
202.661008
 20
347.154585
 40
0.799955
100
AcDbArc
 50
300.0
 51
420.0
  0
ARC
  5
90
100
AcDbEntity
  8
M0
  6
CONTINUOUS
370
25
100
AcDbCircle
 10
203.560957
 20
349.654443
 40
0.499972
100
AcDbArc
 50
90.0
 51
180.0
  0
ARC
  5
91
100
AcDbEntity
  8
M0
  6
CONTINUOUS
370
25
100
AcDbCircle
 10
170.962809
 20
508.145449
 40
0.799955
100
AcDbArc
 50
120.0
 51
240.0
  0
ARC
  5
92
100
AcDbEntity
  8
M0
  6
CONTINUOUS
370
25
100
AcDbCircle
 10
140.814518
 20
346.154642
 40
0.999943
100
AcDbArc
 50
270.0
 51
360.0
  0
LINE
  5
93
100
AcDbEntity
  8
M0
  6
CONTINUOUS
370
25
100
AcDbLine
 10
126.815313
 20
509.145392
 11
126.815313
 21
493.1463
  0
ARC
  5
94
100
AcDbEntity
  8
M0
  6
CONTINUOUS
370
25
100
AcDbCircle
 10
170.06286
 20
505.645591
 40
0.499972
100
AcDbArc
 50
270.0
 51
360.0
  0
ARC
  5
95
100
AcDbEntity
  8
M0
  6
CONTINUOUS
370
25
100
AcDbCircle
 10
203.810943
 20
350.654386
 40
0.499972
100
AcDbArc
 50
270.0
 51
360.0
  0
LINE
  5
96
100
AcDbEntity
  8
M0
  6
CONTINUOUS
370
25
100
AcDbLine
 10
137.814688
 20
384.152484
 11
119.315739
 21
384.152484
  0
LINE
  5
97
100
AcDbEntity
  8
M0
  6
CONTINUOUS
370
25
100
AcDbLine
 10
119.315739
 20
384.652455
 11
119.315739
 21
376.65291
  0
LINE
  5
98
100
AcDbEntity
  8
M0
  6
CONTINUOUS
370
25
100
AcDbLine
 10
184.312051
 20
384.652455
 11
184.312051
 21
376.65291
  0
LINE
  5
99
100
AcDbEntity
  8
M0
  6
CONTINUOUS
370
25
100
AcDbLine
 10
204.310915
 20
384.152484
 11
198.811227
 21
384.152484
  0
LINE
  5
9A
100
AcDbEntity
  8
M0
  6
CONTINUOUS
370
25
100
AcDbLine
 10
102.516693
 20
493.396286
 11
99.816846
 21
493.396286
  0
LINE
  5
9B
100
AcDbEntity
  8
M0
  6
CONTINUOUS
370
25
100
AcDbLine
 10
165.813101
 20
384.152484
 11
184.312051
 21
384.152484
  0
LINE
  5
9C
100
AcDbEntity
  8
M0
  6
CONTINUOUS
370
25
100
AcDbLine
 10
179.812306
 20
490.146467
 11
193.811511
 21
490.146467
  0
LINE
  5
9D
100
AcDbEntity
  8
M0
  6
CONTINUOUS
370
25
100
AcDbLine
 10
176.812476
 20
509.145392
 11
176.812476
 21
493.1463
  0
LINE
  5
9E
100
AcDbEntity
  8
M0
  6
CONTINUOUS
370
25
100
AcDbLine
 10
161.813328
 20
509.145392
 11
161.813328
 21
493.1463
  0
LINE
  5
9F
100
AcDbEntity
  8
M0
  6
CONTINUOUS
370
25
100
AcDbLine
 10
204.310915
 20
376.65291
 11
99.316874
 21
376.65291
  0
LINE
  5
A0
100
AcDbEntity
  8
M0
  6
CONTINUOUS
370
25
100
AcDbLine
 10
99.316874
 20
384.152484
 11
104.816562
 21
384.152484
  0
LINE
  5
A1
100
AcDbEntity
  8
M0
  6
CONTINUOUS
370
25
100
AcDbLine
 10
196.811341
 20
509.145392
 11
196.811341
 21
493.1463
  0
LINE
  5
A2
100
AcDbEntity
  8
M0
  6
CONTINUOUS
370
25
100
AcDbLine
 10
204.310915
 20
427.650017
 11
204.310915
 21
504.645647
  0
ARC
  5
A3
100
AcDbEntity
  8
M0
  6
CONTINUOUS
370
25
100
AcDbCircle
 10
171.062803
 20
345.65467
 40
0.499972
100
AcDbArc
 50
180.0
 51
270.0
  0
ARC
  5
A4
100
AcDbEntity
  8
M0
  6
CONTINUOUS
370
25
100
AcDbCircle
 10
170.06286
 20
349.654443
 40
0.499972
100
AcDbArc
 50
0.0
 51
90.0
  0
ARC
  5
A5
100
AcDbEntity
  8
M0
  6
CONTINUOUS
370
25
100
AcDbCircle
 10
170.962809
 20
347.154585
 40
0.799955
100
AcDbArc
 50
120.0
 51
240.0
  0
ARC
  5
A6
100
AcDbEntity
  8
M0
  6
CONTINUOUS
370
25
100
AcDbCircle
 10
135.964793
 20
347.154585
 40
0.799955
100
AcDbArc
 50
120.0
 51
240.0
  0
ARC
  5
A7
100
AcDbEntity
  8
M0
  6
CONTINUOUS
370
25
100
AcDbCircle
 10
132.66498
 20
347.154585
 40
0.799955
100
AcDbArc
 50
300.0
 51
420.0
  0
ARC
  5
A8
100
AcDbEntity
  8
M0
  6
CONTINUOUS
370
25
100
AcDbCircle
 10
167.662996
 20
347.154585
 40
0.799955
100
AcDbArc
 50
300.0
 51
420.0
  0
LINE
  5
A9
100
AcDbEntity
  8
M0
  6
CONTINUOUS
370
25
100
AcDbLine
 10
196.811341
 20
346.154642
 11
196.811341
 21
362.153733
  0
LINE
  5
AA
100
AcDbEntity
  8
M0
  6
CONTINUOUS
370
25
100
AcDbLine
 10
179.812306
 20
365.153563
 11
193.811511
 21
365.153563
  0
ARC
  5
AB
100
AcDbEntity
  8
M0
  6
CONTINUOUS
370
25
100
AcDbCircle
 10
132.564986
 20
509.645363
 40
0.499972
100
AcDbArc
 50
0.0
 51
90.0
  0
ARC
  5
AC
100
AcDbEntity
  8
M0
  6
CONTINUOUS
370
25
100
AcDbCircle
 10
132.66498
 20
508.145449
 40
0.799955
100
AcDbArc
 50
300.0
 51
420.0
  0
ARC
  5
AD
100
AcDbEntity
  8
M0
  6
CONTINUOUS
370
25
100
AcDbCircle
 10
168.562945
 20
349.654443
 40
0.499972
100
AcDbArc
 50
90.0
 51
180.0
  0
LINE
  5
AE
100
AcDbEntity
  8
M0
  6
CONTINUOUS
370
25
100
AcDbLine
 10
161.813328
 20
346.154642
 11
161.813328
 21
362.153733
  0
ARC
  5
AF
100
AcDbEntity
  8
M0
  6
CONTINUOUS
370
25
100
AcDbCircle
 10
133.564929
 20
505.645591
 40
0.499972
100
AcDbArc
 50
180.0
 51
270.0
  0
ARC
  5
B0
100
AcDbEntity
  8
M0
  6
CONTINUOUS
370
25
100
AcDbCircle
 10
202.561014
 20
509.645363
 40
0.499972
100
AcDbArc
 50
0.0
 51
90.0
  0
ARC
  5
B1
100
AcDbEntity
  8
M0
  6
CONTINUOUS
370
25
100
AcDbCircle
 10
100.966781
 20
508.145449
 40
0.799955
100
AcDbArc
 50
120.0
 51
240.0
  0
ARC
  5
B2
100
AcDbEntity
  8
M0
  6
CONTINUOUS
370
25
100
AcDbCircle
 10
202.661008
 20
508.145449
 40
0.799955
100
AcDbArc
 50
300.0
 51
420.0
  0
ARC
  5
B3
100
AcDbEntity
  8
M0
  6
CONTINUOUS
370
25
100
AcDbCircle
 10
99.816846
 20
504.645647
 40
0.499972
100
AcDbArc
 50
90.0
 51
180.0
  0
ARC
  5
B4
100
AcDbEntity
  8
M0
  6
CONTINUOUS
370
25
100
AcDbCircle
 10
171.062803
 20
509.645363
 40
0.499972
100
AcDbArc
 50
90.0
 51
180.0
  0
ARC
  5
B5
100
AcDbEntity
  8
M0
  6
CONTINUOUS
370
25
100
AcDbCircle
 10
203.560957
 20
505.645591
 40
0.499972
100
AcDbArc
 50
180.0
 51
270.0
  0
ARC
  5
B6
100
AcDbEntity
  8
M0
  6
CONTINUOUS
370
25
100
AcDbCircle
 10
136.064787
 20
345.65467
 40
0.499972
100
AcDbArc
 50
180.0
 51
270.0
  0
ARC
  5
B7
100
AcDbEntity
  8
M0
  6
CONTINUOUS
370
25
100
AcDbCircle
 10
203.810943
 20
504.645647
 40
0.499972
100
AcDbArc
 50
0.0
 51
90.0
  0
ARC
  5
B8
100
AcDbEntity
  8
M0
  6
CONTINUOUS
370
25
100
AcDbCircle
 10
135.064844
 20
349.654443
 40
0.499972
100
AcDbArc
 50
0.0
 51
90.0
  0
ARC
  5
B9
100
AcDbEntity
  8
M0
  6
CONTINUOUS
370
25
100
AcDbCircle
 10
101.066775
 20
509.645363
 40
0.499972
100
AcDbArc
 50
90.0
 51
180.0
  0
ARC
  5
BA
100
AcDbEntity
  8
M0
  6
CONTINUOUS
370
25
100
AcDbCircle
 10
100.066832
 20
505.645591
 40
0.499972
100
AcDbArc
 50
270.0
 51
360.0
  0
ARC
  5
BB
100
AcDbEntity
  8
M0
  6
CONTINUOUS
370
25
100
AcDbCircle
 10
133.564929
 20
349.654443
 40
0.499972
100
AcDbArc
 50
90.0
 51
180.0
  0
ARC
  5
BC
100
AcDbEntity
  8
M0
  6
CONTINUOUS
370
25
100
AcDbCircle
 10
202.561014
 20
345.65467
 40
0.499972
100
AcDbArc
 50
270.0
 51
360.0
  0
LINE
  5
BD
100
AcDbEntity
  8
M0
  6
CONTINUOUS
370
25
 62
     6
100
AcDbLine
 10
201.411079
 20
373.553086
 11
201.411079
 21
373.156748
  0
LINE
  5
BE
100
AcDbEntity
  8
M0
  6
CONTINUOUS
370
25
 62
     6
100
AcDbLine
 10
200.811113
 20
370.753245
 11
200.811113
 21
371.149582
  0
LINE
  5
BF
100
AcDbEntity
  8
M0
  6
CONTINUOUS
370
25
 62
     6
100
AcDbLine
 10
199.711176
 20
372.453148
 11
199.711176
 21
371.853182
  0
LINE
  5
C0
100
AcDbEntity
  8
M0
  6
CONTINUOUS
370
25
 62
     6
100
AcDbLine
 10
200.811113
 20
448.048858
 11
201.411079
 21
448.048858
  0
LINE
  5
C1
100
AcDbEntity
  8
M0
  6
CONTINUOUS
370
25
 62
     6
100
AcDbLine
 10
200.811113
 20
445.249017
 11
201.411079
 21
445.249017
  0
LINE
  5
C2
100
AcDbEntity
  8
M0
  6
CONTINUOUS
370
25
 62
     6
100
AcDbLine
 10
200.811113
 20
373.553086
 11
200.811113
 21
373.156748
  0
LINE
  5
C3
100
AcDbEntity
  8
M0
  6
CONTINUOUS
370
25
 62
     6
100
AcDbLine
 10
202.136038
 20
372.453148
 11
202.536016
 21
372.453148
  0
LINE
  5
C4
100
AcDbEntity
  8
M0
  6
CONTINUOUS
370
25
 62
     6
100
AcDbLine
 10
199.711176
 20
371.853182
 11
200.086155
 21
371.853182
  0
LINE
  5
C5
100
AcDbEntity
  8
M0
  6
CONTINUOUS
370
25
 62
     6
100
AcDbLine
 10
200.811113
 20
370.753245
 11
201.411079
 21
370.753245
  0
LINE
  5
C6
100
AcDbEntity
  8
M0
  6
CONTINUOUS
370
25
 62
     6
100
AcDbLine
 10
199.711176
 20
372.453148
 11
200.086155
 21
372.453148
  0
LINE
  5
C7
100
AcDbEntity
  8
M0
  6
CONTINUOUS
370
25
 62
     6
100
AcDbLine
 10
201.411079
 20
370.753245
 11
201.411079
 21
371.149582
  0
LINE
  5
C8
100
AcDbEntity
  8
M0
  6
CONTINUOUS
370
25
 62
     6
100
AcDbLine
 10
202.136038
 20
371.853182
 11
202.536016
 21
371.853182
  0
LINE
  5
C9
100
AcDbEntity
  8
M0
  6
CONTINUOUS
370
25
 62
     6
100
AcDbLine
 10
202.536016
 20
372.453148
 11
202.536016
 21
371.853182
  0
ARC
  5
CA
100
AcDbEntity
  8
M0
  6
CONTINUOUS
370
25
 62
     6
100
AcDbCircle
 10
103.541634
 20
371.128224
 40
0.724959
100
AcDbArc
 50
90.0
 51
180.0
  0
ARC
  5
CB
100
AcDbEntity
  8
M0
  6
CONTINUOUS
370
25
 62
     6
100
AcDbCircle
 10
101.491751
 20
371.128224
 40
0.724959
100
AcDbArc
 50
0.0
 51
90.0
  0
CIRCLE
  5
CC
100
AcDbEntity
  8
M0
  6
CONTINUOUS
370
25
 62
     6
100
AcDbCircle
 10
201.111096
 20
372.153165
 40
2.749844
  0
ARC
  5
CD
100
AcDbEntity
  8
M0
  6
CONTINUOUS
370
25
 62
     6
100
AcDbCircle
 10
103.541634
 20
447.67388
 40
0.724959
100
AcDbArc
 50
180.0
 51
270.0
  0
ARC
  5
CE
100
AcDbEntity
  8
M0
  6
CONTINUOUS
370
25
 62
     6
100
AcDbCircle
 10
103.541634
 20
445.623996
 40
0.724959
100
AcDbArc
 50
90.0
 51
180.0
  0
ARC
  5
CF
100
AcDbEntity
  8
M0
  6
CONTINUOUS
370
25
 62
     6
100
AcDbCircle
 10
103.541634
 20
373.178107
 40
0.724959
100
AcDbArc
 50
180.0
 51
270.0
  0
LINE
  5
D0
100
AcDbEntity
  8
M0
  6
CONTINUOUS
370
25
 62
     6
100
AcDbLine
 10
199.711176
 20
446.348955
 11
200.086155
 21
446.348955
  0
CIRCLE
  5
D1
100
AcDbEntity
  8
M0
  6
CONTINUOUS
370
25
 62
     6
100
AcDbCircle
 10
102.516693
 20
372.153165
 40
2.749844
  0
LINE
  5
D2
100
AcDbEntity
  8
M0
  6
CONTINUOUS
370
25
 62
     6
100
AcDbLine
 10
202.136038
 20
446.348955
 11
202.536016
 21
446.348955
  0
CIRCLE
  5
D3
100
AcDbEntity
  8
M0
  6
CONTINUOUS
370
25
 62
     6
100
AcDbCircle
 10
102.516693
 20
490.146467
 40
2.749844
  0
ARC
  5
D4
100
AcDbEntity
  8
M0
  6
CONTINUOUS
370
25
 62
     6
100
AcDbCircle
 10
101.491751
 20
373.178107
 40
0.724959
100
AcDbArc
 50
270.0
 51
360.0
  0
LINE
  5
D5
100
AcDbEntity
  8
M0
  6
CONTINUOUS
370
25
 62
     6
100
AcDbLine
 10
202.136038
 20
446.948921
 11
202.536016
 21
446.948921
  0
CIRCLE
  5
D6
100
AcDbEntity
  8
M0
  6
CONTINUOUS
370
25
 62
     6
100
AcDbCircle
 10
102.516693
 20
446.648938
 40
2.749844
  0
LINE
  5
D7
100
AcDbEntity
  8
M0
  6
CONTINUOUS
370
25
 62
     6
100
AcDbLine
 10
101.116772
 20
446.948921
 11
101.116772
 21
446.348955
  0
LINE
  5
D8
100
AcDbEntity
  8
M0
  6
CONTINUOUS
370
25
 62
     6
100
AcDbLine
 10
102.21671
 20
448.048858
 11
102.21671
 21
447.652521
  0
LINE
  5
D9
100
AcDbEntity
  8
M0
  6
CONTINUOUS
370
25
 62
     6
100
AcDbLine
 10
103.941612
 20
446.948921
 11
103.941612
 21
446.348955
  0
LINE
  5
DA
100
AcDbEntity
  8
M0
  6
CONTINUOUS
370
25
 62
     6
100
AcDbLine
 10
102.21671
 20
445.249017
 11
102.21671
 21
445.645355
  0
LINE
  5
DB
100
AcDbEntity
  8
M0
  6
CONTINUOUS
370
25
 62
     6
100
AcDbLine
 10
102.816676
 20
445.249017
 11
102.816676
 21
445.645355
  0
LINE
  5
DC
100
AcDbEntity
  8
M0
  6
CONTINUOUS
370
25
 62
     6
100
AcDbLine
 10
101.116772
 20
446.948921
 11
101.491751
 21
446.948921
  0
LINE
  5
DD
100
AcDbEntity
  8
M0
  6
CONTINUOUS
370
25
 62
     6
100
AcDbLine
 10
102.21671
 20
445.249017
 11
102.816676
 21
445.249017
  0
LINE
  5
DE
100
AcDbEntity
  8
M0
  6
CONTINUOUS
370
25
 62
     6
100
AcDbLine
 10
103.541634
 20
446.348955
 11
103.941612
 21
446.348955
  0
LINE
  5
DF
100
AcDbEntity
  8
M0
  6
CONTINUOUS
370
25
 62
     6
100
AcDbLine
 10
102.816676
 20
370.753245
 11
102.816676
 21
371.149582
  0
LINE
  5
E0
100
AcDbEntity
  8
M0
  6
CONTINUOUS
370
25
 62
     6
100
AcDbLine
 10
101.116772
 20
446.348955
 11
101.491751
 21
446.348955
  0
LINE
  5
E1
100
AcDbEntity
  8
M0
  6
CONTINUOUS
370
25
 62
     6
100
AcDbLine
 10
102.816676
 20
448.048858
 11
102.816676
 21
447.652521
  0
LINE
  5
E2
100
AcDbEntity
  8
M0
  6
CONTINUOUS
370
25
 62
     6
100
AcDbLine
 10
102.21671
 20
448.048858
 11
102.816676
 21
448.048858
  0
LINE
  5
E3
100
AcDbEntity
  8
M0
  6
CONTINUOUS
370
25
 62
     6
100
AcDbLine
 10
103.541634
 20
446.948921
 11
103.941612
 21
446.948921
  0
LINE
  5
E4
100
AcDbEntity
  8
M0
  6
CONTINUOUS
370
25
 62
     6
100
AcDbLine
 10
102.21671
 20
491.546388
 11
102.21671
 21
491.15005
  0
LINE
  5
E5
100
AcDbEntity
  8
M0
  6
CONTINUOUS
370
25
 62
     6
100
AcDbLine
 10
102.816676
 20
491.546388
 11
102.816676
 21
491.15005
  0
LINE
  5
E6
100
AcDbEntity
  8
M0
  6
CONTINUOUS
370
25
 62
     6
100
AcDbLine
 10
101.116772
 20
490.44645
 11
101.491751
 21
490.44645
  0
LINE
  5
E7
100
AcDbEntity
  8
M0
  6
CONTINUOUS
370
25
 62
     6
100
AcDbLine
 10
102.816676
 20
488.746547
 11
102.816676
 21
489.142888
  0
LINE
  5
E8
100
AcDbEntity
  8
M0
  6
CONTINUOUS
370
25
 62
     6
100
AcDbLine
 10
200.811113
 20
373.553086
 11
201.411079
 21
373.553086
  0
LINE
  5
E9
100
AcDbEntity
  8
M0
  6
CONTINUOUS
370
25
 62
     6
100
AcDbLine
 10
101.116772
 20
490.44645
 11
101.116772
 21
489.846485
  0
LINE
  5
EA
100
AcDbEntity
  8
M0
  6
CONTINUOUS
370
25
 62
     6
100
AcDbLine
 10
103.541634
 20
489.846485
 11
103.941612
 21
489.846485
  0
LINE
  5
EB
100
AcDbEntity
  8
M0
  6
CONTINUOUS
370
25
 62
     6
100
AcDbLine
 10
103.541634
 20
490.44645
 11
103.941612
 21
490.44645
  0
LINE
  5
EC
100
AcDbEntity
  8
M0
  6
CONTINUOUS
370
25
 62
     6
100
AcDbLine
 10
102.21671
 20
491.546388
 11
102.816676
 21
491.546388
  0
LINE
  5
ED
100
AcDbEntity
  8
M0
  6
CONTINUOUS
370
25
 62
     6
100
AcDbLine
 10
103.941612
 20
490.44645
 11
103.941612
 21
489.846485
  0
LINE
  5
EE
100
AcDbEntity
  8
M0
  6
CONTINUOUS
370
25
 62
     6
100
AcDbLine
 10
102.21671
 20
488.746547
 11
102.21671
 21
489.142888
  0
LINE
  5
EF
100
AcDbEntity
  8
M0
  6
CONTINUOUS
370
25
 62
     6
100
AcDbLine
 10
102.21671
 20
488.746547
 11
102.816676
 21
488.746547
  0
LINE
  5
F0
100
AcDbEntity
  8
M0
  6
CONTINUOUS
370
25
 62
     6
100
AcDbLine
 10
199.711176
 20
490.44645
 11
200.086155
 21
490.44645
  0
LINE
  5
F1
100
AcDbEntity
  8
M0
  6
CONTINUOUS
370
25
 62
     6
100
AcDbLine
 10
199.711176
 20
490.44645
 11
199.711176
 21
489.846485
  0
LINE
  5
F2
100
AcDbEntity
  8
M0
  6
CONTINUOUS
370
25
 62
     6
100
AcDbLine
 10
199.711176
 20
489.846485
 11
200.086155
 21
489.846485
  0
LINE
  5
F3
100
AcDbEntity
  8
M0
  6
CONTINUOUS
370
25
 62
     6
100
AcDbLine
 10
201.411079
 20
491.546388
 11
201.411079
 21
491.15005
  0
LINE
  5
F4
100
AcDbEntity
  8
M0
  6
CONTINUOUS
370
25
 62
     6
100
AcDbLine
 10
200.811113
 20
488.746547
 11
200.811113
 21
489.142888
  0
LINE
  5
F5
100
AcDbEntity
  8
M0
  6
CONTINUOUS
370
25
 62
     6
100
AcDbLine
 10
202.536016
 20
490.44645
 11
202.536016
 21
489.846485
  0
LINE
  5
F6
100
AcDbEntity
  8
M0
  6
CONTINUOUS
370
25
 62
     6
100
AcDbLine
 10
200.811113
 20
491.546388
 11
201.411079
 21
491.546388
  0
LINE
  5
F7
100
AcDbEntity
  8
M0
  6
CONTINUOUS
370
25
 62
     6
100
AcDbLine
 10
200.811113
 20
488.746547
 11
201.411079
 21
488.746547
  0
LINE
  5
F8
100
AcDbEntity
  8
M0
  6
CONTINUOUS
370
25
 62
     6
100
AcDbLine
 10
170.40889
 20
497.342905
 11
171.115957
 21
498.049972
  0
LINE
  5
F9
100
AcDbEntity
  8
M0
  6
CONTINUOUS
370
25
 62
     6
100
AcDbLine
 10
202.136038
 20
490.44645
 11
202.536016
 21
490.44645
  0
LINE
  5
FA
100
AcDbEntity
  8
M0
  6
CONTINUOUS
370
25
 62
     6
100
AcDbLine
 10
200.811113
 20
491.546388
 11
200.811113
 21
491.15005
  0
LINE
  5
FB
100
AcDbEntity
  8
M0
  6
CONTINUOUS
370
25
 62
     6
100
AcDbLine
 10
168.216915
 20
500.949014
 11
167.509848
 21
500.241947
  0
LINE
  5
FC
100
AcDbEntity
  8
M0
  6
CONTINUOUS
370
25
 62
     6
100
AcDbLine
 10
202.136038
 20
489.846485
 11
202.536016
 21
489.846485
  0
LINE
  5
FD
100
AcDbEntity
  8
M0
  6
CONTINUOUS
370
25
100
AcDbLine
 10
135.564816
 20
509.645363
 11
135.564816
 21
508.838229
  0
LINE
  5
FE
100
AcDbEntity
  8
M0
  6
CONTINUOUS
370
25
100
AcDbLine
 10
135.564816
 20
507.452668
 11
135.564816
 21
505.645591
  0
LINE
  5
FF
100
AcDbEntity
  8
M0
  6
CONTINUOUS
370
25
100
AcDbLine
 10
168.062973
 20
509.645363
 11
168.062973
 21
508.838229
  0
CIRCLE
  5
100
100
AcDbEntity
  8
M0
  6
CONTINUOUS
370
25
 62
     6
100
AcDbCircle
 10
201.111096
 20
446.648938
 40
2.749844
  0
CIRCLE
  5
101
100
AcDbEntity
  8
M0
  6
CONTINUOUS
370
25
 62
     6
100
AcDbCircle
 10
169.312902
 20
499.14596
 40
3.499801
  0
LINE
  5
102
100
AcDbEntity
  8
M0
  6
CONTINUOUS
370
25
100
AcDbLine
 10
168.062973
 20
507.452668
 11
168.062973
 21
505.645591
  0
LINE
  5
103
100
AcDbEntity
  8
M0
  6
CONTINUOUS
370
25
100
AcDbLine
 10
204.310915
 20
350.654386
 11
204.310915
 21
427.650017
  0
LINE
  5
104
100
AcDbEntity
  8
M0
  6
CONTINUOUS
370
25
100
AcDbLine
 10
202.561014
 20
510.145335
 11
171.062803
 21
510.145335
  0
LINE
  5
105
100
AcDbEntity
  8
M0
  6
CONTINUOUS
370
25
 62
     6
100
AcDbLine
 10
201.411079
 20
488.746547
 11
201.411079
 21
489.142888
  0
LINE
  5
106
100
AcDbEntity
  8
M0
  6
CONTINUOUS
370
25
100
AcDbLine
 10
151.813893
 20
510.145335
 11
136.064787
 21
510.145335
  0
LINE
  5
107
100
AcDbEntity
  8
M0
  6
CONTINUOUS
370
25
100
AcDbLine
 10
135.064844
 20
505.145619
 11
133.564929
 21
505.145619
  0
LINE
  5
108
100
AcDbEntity
  8
M0
  6
CONTINUOUS
370
25
100
AcDbLine
 10
148.814063
 20
377.852842
 11
137.814688
 21
377.852842
  0
LINE
  5
109
100
AcDbEntity
  8
M0
  6
CONTINUOUS
370
25
100
AcDbLine
 10
151.813893
 20
345.154699
 11
167.563002
 21
345.154699
  0
ARC
  5
10A
100
AcDbEntity
  8
M0
  6
CONTINUOUS
370
25
 62
     6
100
AcDbCircle
 10
202.136038
 20
371.128224
 40
0.724959
100
AcDbArc
 50
90.0
 51
180.0
  0
ARC
  5
10B
100
AcDbEntity
  8
M0
  6
CONTINUOUS
370
25
 62
     6
100
AcDbCircle
 10
200.086155
 20
371.128224
 40
0.724959
100
AcDbArc
 50
0.0
 51
90.0
  0
ARC
  5
10C
100
AcDbEntity
  8
M0
  6
CONTINUOUS
370
25
 62
     6
100
AcDbCircle
 10
101.491751
 20
491.171409
 40
0.724959
100
AcDbArc
 50
270.0
 51
360.0
  0
LINE
  5
10D
100
AcDbEntity
  8
M0
  6
CONTINUOUS
370
25
 62
     6
100
AcDbLine
 10
202.536016
 20
446.948921
 11
202.536016
 21
446.348955
  0
LINE
  5
10E
100
AcDbEntity
  8
M0
  6
CONTINUOUS
370
25
 62
     6
100
AcDbLine
 10
199.711176
 20
446.948921
 11
200.086155
 21
446.948921
  0
ARC
  5
10F
100
AcDbEntity
  8
M0
  6
CONTINUOUS
370
25
 62
     6
100
AcDbCircle
 10
202.136038
 20
373.178107
 40
0.724959
100
AcDbArc
 50
180.0
 51
270.0
  0
ARC
  5
110
100
AcDbEntity
  8
M0
  6
CONTINUOUS
370
25
 62
     6
100
AcDbCircle
 10
101.491751
 20
447.67388
 40
0.724959
100
AcDbArc
 50
270.0
 51
360.0
  0
ARC
  5
111
100
AcDbEntity
  8
M0
  6
CONTINUOUS
370
25
 62
     6
100
AcDbCircle
 10
103.541634
 20
491.171409
 40
0.724959
100
AcDbArc
 50
180.0
 51
270.0
  0
LINE
  5
112
100
AcDbEntity
  8
M0
  6
CONTINUOUS
370
25
 62
     6
100
AcDbLine
 10
101.116772
 20
489.846485
 11
101.491751
 21
489.846485
  0
ARC
  5
113
100
AcDbEntity
  8
M0
  6
CONTINUOUS
370
25
 62
     6
100
AcDbCircle
 10
101.491751
 20
489.121526
 40
0.724959
100
AcDbArc
 50
0.0
 51
90.0
  0
ARC
  5
114
100
AcDbEntity
  8
M0
  6
CONTINUOUS
370
25
 62
     6
100
AcDbCircle
 10
200.086155
 20
373.178107
 40
0.724959
100
AcDbArc
 50
270.0
 51
360.0
  0
ARC
  5
115
100
AcDbEntity
  8
M0
  6
CONTINUOUS
370
25
 62
     6
100
AcDbCircle
 10
101.491751
 20
445.623996
 40
0.724959
100
AcDbArc
 50
0.0
 51
90.0
  0
ARC
  5
116
100
AcDbEntity
  8
M0
  6
CONTINUOUS
370
25
 62
     6
100
AcDbCircle
 10
103.541634
 20
489.121526
 40
0.724959
100
AcDbArc
 50
90.0
 51
180.0
  0
LINE
  5
117
100
AcDbEntity
  8
M0
  6
CONTINUOUS
370
25
 62
     6
100
AcDbLine
 10
171.408713
 20
501.948837
 11
169.312902
 21
499.853026
  0
LINE
  5
118
100
AcDbEntity
  8
M0
  6
CONTINUOUS
370
25
 62
     6
100
AcDbLine
 10
169.312902
 20
499.853026
 11
168.216915
 21
500.949014
  0
LINE
  5
119
100
AcDbEntity
  8
M0
  6
CONTINUOUS
370
25
 62
     6
100
AcDbLine
 10
167.217078
 20
496.343069
 11
169.312902
 21
498.438893
  0
LINE
  5
11A
100
AcDbEntity
  8
M0
  6
CONTINUOUS
370
25
 62
     6
100
AcDbLine
 10
169.312902
 20
498.438893
 11
170.40889
 21
497.342905
  0
LINE
  5
11B
100
AcDbEntity
  8
M0
  6
CONTINUOUS
370
25
 62
     6
100
AcDbLine
 10
167.509848
 20
500.241947
 11
168.605836
 21
499.14596
  0
LINE
  5
11C
100
AcDbEntity
  8
M0
  6
CONTINUOUS
370
25
 62
     6
100
AcDbLine
 10
168.605836
 20
499.14596
 11
166.510012
 21
497.050135
  0
LINE
  5
11D
100
AcDbEntity
  8
M0
  6
CONTINUOUS
370
25
 62
     6
100
AcDbLine
 10
201.411079
 20
448.048858
 11
201.411079
 21
447.652521
  0
LINE
  5
11E
100
AcDbEntity
  8
M0
  6
CONTINUOUS
370
25
 62
     6
100
AcDbLine
 10
200.811113
 20
445.249017
 11
200.811113
 21
445.645355
  0
LINE
  5
11F
100
AcDbEntity
  8
M0
  6
CONTINUOUS
370
25
 62
     6
100
AcDbLine
 10
199.711176
 20
446.948921
 11
199.711176
 21
446.348955
  0
LINE
  5
120
100
AcDbEntity
  8
M0
  6
CONTINUOUS
370
25
 62
     6
100
AcDbLine
 10
170.019969
 20
499.14596
 11
172.11578
 21
501.241771
  0
LINE
  5
121
100
AcDbEntity
  8
M0
  6
CONTINUOUS
370
25
 62
     6
100
AcDbLine
 10
171.115957
 20
498.049972
 11
170.019969
 21
499.14596
  0
LINE
  5
122
100
AcDbEntity
  8
M0
  6
CONTINUOUS
370
25
 62
     6
100
AcDbLine
 10
200.811113
 20
448.048858
 11
200.811113
 21
447.652521
  0
LINE
  5
123
100
AcDbEntity
  8
M0
  6
CONTINUOUS
370
25
 62
     6
100
AcDbLine
 10
201.411079
 20
445.249017
 11
201.411079
 21
445.645355
  0
LINE
  5
124
100
AcDbEntity
  8
M0
  6
CONTINUOUS
370
25
 62
     2
100
AcDbLine
 10
188.811795
 20
383.152541
 11
188.811795
 21
376.65291
  0
LINE
  5
125
100
AcDbEntity
  8
M0
  6
CONTINUOUS
370
25
 62
     2
100
AcDbLine
 10
184.812022
 20
376.65291
 11
188.811795
 21
376.65291
  0
LINE
  5
126
100
AcDbEntity
  8
M0
  6
CONTINUOUS
370
25
 62
     2
100
AcDbLine
 10
118.815767
 20
376.65291
 11
114.815994
 21
376.65291
  0
LINE
  5
127
100
AcDbEntity
  8
M0
  6
DASHED
370
13
 62
     2
100
AcDbLine
 10
104.31659
 20
420.650414
 11
104.31659
 21
419.650471
  0
LINE
  5
128
100
AcDbEntity
  8
M0
  6
DASHED
370
13
 62
     2
100
AcDbLine
 10
199.311199
 20
420.650414
 11
199.311199
 21
419.650471
  0
LINE
  5
129
100
AcDbEntity
  8
M0
  6
CONTINUOUS
370
25
 62
     2
100
AcDbLine
 10
184.812022
 20
376.65291
 11
184.812022
 21
384.652455
  0
LINE
  5
12A
100
AcDbEntity
  8
M0
  6
CONTINUOUS
370
25
 62
     2
100
AcDbLine
 10
155.313694
 20
382.152597
 11
165.31313
 21
382.152597
  0
LINE
  5
12B
100
AcDbEntity
  8
M0
  6
CONTINUOUS
370
25
 62
     2
100
AcDbLine
 10
188.811795
 20
382.152597
 11
198.811227
 21
382.152597
  0
LINE
  5
12C
100
AcDbEntity
  8
M0
  6
CONTINUOUS
370
25
 62
     2
100
AcDbLine
 10
138.31466
 20
382.152597
 11
148.314092
 21
382.152597
  0
LINE
  5
12D
100
AcDbEntity
  8
M0
  6
CONTINUOUS
370
25
 62
     2
100
AcDbLine
 10
114.815994
 20
383.152541
 11
114.815994
 21
376.65291
  0
LINE
  5
12E
100
AcDbEntity
  8
M0
  6
DASHED
370
13
 62
     2
100
AcDbLine
 10
104.31659
 20
434.649619
 11
104.31659
 21
435.649563
  0
LINE
  5
12F
100
AcDbEntity
  8
M0
  6
CONTINUOUS
370
25
 62
     2
100
AcDbLine
 10
138.31466
 20
379.071109
 11
148.314092
 21
379.071109
  0
LINE
  5
130
100
AcDbEntity
  8
M0
  6
CONTINUOUS
370
25
 62
     2
100
AcDbLine
 10
118.815767
 20
376.65291
 11
118.815767
 21
384.652455
  0
LINE
  5
131
100
AcDbEntity
  8
M0
  6
CONTINUOUS
370
25
 62
     2
100
AcDbLine
 10
132.015017
 20
452.648597
 11
108.01638
 21
452.648597
  0
LINE
  5
132
100
AcDbEntity
  8
M0
  6
CONTINUOUS
370
25
 62
     2
100
AcDbLine
 10
132.015017
 20
402.651433
 11
104.816562
 21
402.651433
  0
LINE
  5
133
100
AcDbEntity
  8
M0
  6
CONTINUOUS
370
25
 62
     2
100
AcDbLine
 10
171.1128
 20
459.6482
 11
132.514989
 21
459.6482
  0
LINE
  5
134
100
AcDbEntity
  8
M0
  6
CONTINUOUS
370
25
 62
     2
100
AcDbLine
 10
195.611409
 20
452.648597
 11
171.612772
 21
452.648597
  0
LINE
  5
135
100
AcDbEntity
  8
M0
  6
CONTINUOUS
370
25
 62
     2
100
AcDbLine
 10
102.816676
 20
443.162016
 11
102.816676
 21
404.65132
  0
LINE
  5
136
100
AcDbEntity
  8
M0
  6
CONTINUOUS
370
25
 62
     2
100
AcDbLine
 10
171.1128
 20
401.65149
 11
132.514989
 21
401.65149
  0
LINE
  5
137
100
AcDbEntity
  8
M0
  6
CONTINUOUS
370
25
 62
     2
100
AcDbLine
 10
132.015017
 20
459.148228
 11
132.015017
 21
402.151462
  0
LINE
  5
138
100
AcDbEntity
  8
M0
  6
CONTINUOUS
370
25
 62
     2
100
AcDbLine
 10
204.310915
 20
384.652455
 11
204.310915
 21
442.149193
  0
LINE
  5
139
100
AcDbEntity
  8
M0
  6
DASHED
370
13
 62
     2
100
AcDbLine
 10
199.311199
 20
434.649619
 11
199.311199
 21
435.649563
  0
LINE
  5
13A
100
AcDbEntity
  8
M0
  6
CONTINUOUS
370
25
 62
     2
100
AcDbLine
 10
202.311028
 20
478.647121
 11
101.316761
 21
478.647121
  0
LINE
  5
13B
100
AcDbEntity
  8
M0
  6
CONTINUOUS
370
25
 62
     2
100
AcDbLine
 10
200.811113
 20
443.162016
 11
200.811113
 21
404.65132
  0
LINE
  5
13C
100
AcDbEntity
  8
M0
  6
CONTINUOUS
370
25
 62
     2
100
AcDbLine
 10
171.612772
 20
459.148228
 11
171.612772
 21
402.151462
  0
LINE
  5
13D
100
AcDbEntity
  8
M0
  6
CONTINUOUS
370
25
 62
     2
100
AcDbLine
 10
99.316874
 20
476.647234
 11
99.316874
 21
451.148682
  0
LINE
  5
13E
100
AcDbEntity
  8
M0
  6
CONTINUOUS
370
25
100
AcDbLine
 10
118.815767
 20
377.852842
 11
119.315739
 21
377.852842
  0
LINE
  5
13F
100
AcDbEntity
  8
M0
  6
CONTINUOUS
370
25
100
AcDbLine
 10
132.564986
 20
510.145335
 11
101.066775
 21
510.145335
  0
LINE
  5
140
100
AcDbEntity
  8
M0
  6
CONTINUOUS
370
25
100
AcDbLine
 10
114.815994
 20
381.902612
 11
104.816562
 21
381.902612
  0
LINE
  5
141
100
AcDbEntity
  8
M0
  6
CONTINUOUS
370
25
100
AcDbLine
 10
136.064787
 20
345.154699
 11
151.813893
 21
345.154699
  0
LINE
  5
142
100
AcDbEntity
  8
M0
  6
CONTINUOUS
370
25
100
AcDbLine
 10
171.062803
 20
345.154699
 11
202.561014
 21
345.154699
  0
LINE
  5
143
100
AcDbEntity
  8
M0
  6
CONTINUOUS
370
25
100
AcDbLine
 10
114.815994
 20
378.40281
 11
104.816562
 21
378.40281
  0
ARC
  5
144
100
AcDbEntity
  8
M0
  6
CONTINUOUS
370
25
100
AcDbCircle
 10
203.810943
 20
486.39668
 40
0.499972
100
AcDbArc
 50
0.0
 51
90.0
  0
ARC
  5
145
100
AcDbEntity
  8
M0
  6
CONTINUOUS
370
25
100
AcDbCircle
 10
203.810943
 20
493.896258
 40
0.499972
100
AcDbArc
 50
270.0
 51
360.0
  0
ARC
  5
146
100
AcDbEntity
  8
M0
  6
CONTINUOUS
370
25
100
AcDbCircle
 10
203.810943
 20
368.403378
 40
0.499972
100
AcDbArc
 50
0.0
 51
90.0
  0
LINE
  5
147
100
AcDbEntity
  8
M0
  6
CONTINUOUS
370
25
100
AcDbLine
 10
184.812022
 20
378.40281
 11
184.312051
 21
378.40281
  0
LINE
  5
148
100
AcDbEntity
  8
M0
  6
CONTINUOUS
370
25
100
AcDbLine
 10
167.563002
 20
510.145335
 11
151.813893
 21
510.145335
  0
ARC
  5
149
100
AcDbEntity
  8
M0
  6
CONTINUOUS
370
25
100
AcDbCircle
 10
203.810943
 20
375.902952
 40
0.499972
100
AcDbArc
 50
270.0
 51
360.0
  0
LINE
  5
14A
100
AcDbEntity
  8
M0
  6
CONTINUOUS
370
25
100
AcDbLine
 10
184.812022
 20
381.902612
 11
184.312051
 21
381.902612
  0
LINE
  5
14B
100
AcDbEntity
  8
M0
  6
CONTINUOUS
370
25
 62
     2
100
AcDbLine
 10
148.314092
 20
377.152881
 11
138.31466
 21
377.152881
  0
LINE
  5
14C
100
AcDbEntity
  8
M0
  6
CONTINUOUS
370
25
 62
     2
100
AcDbLine
 10
138.31466
 20
384.652455
 11
138.31466
 21
377.152881
  0
LINE
  5
14D
100
AcDbEntity
  8
M0
  6
CONTINUOUS
370
25
 62
     2
100
AcDbLine
 10
155.313694
 20
377.152881
 11
165.31313
 21
377.152881
  0
LINE
  5
14E
100
AcDbEntity
  8
M0
  6
CONTINUOUS
370
25
 62
     2
100
AcDbLine
 10
104.816562
 20
384.652455
 11
104.816562
 21
377.152881
  0
LINE
  5
14F
100
AcDbEntity
  8
M0
  6
CONTINUOUS
370
25
 62
     2
100
AcDbLine
 10
104.816562
 20
382.152597
 11
114.815994
 21
382.152597
  0
LINE
  5
150
100
AcDbEntity
  8
M0
  6
CONTINUOUS
370
25
 62
     2
100
AcDbLine
 10
148.314092
 20
384.652455
 11
148.314092
 21
377.152881
  0
LINE
  5
151
100
AcDbEntity
  8
M0
  6
CONTINUOUS
370
25
 62
     2
100
AcDbLine
 10
198.811227
 20
384.652455
 11
198.811227
 21
377.152881
  0
LINE
  5
152
100
AcDbEntity
  8
M0
  6
CONTINUOUS
370
25
 62
     2
100
AcDbLine
 10
188.811795
 20
377.152881
 11
198.811227
 21
377.152881
  0
LINE
  5
153
100
AcDbEntity
  8
M0
  6
CONTINUOUS
370
25
100
AcDbLine
 10
144.81429
 20
448.448836
 11
144.314319
 21
448.448836
  0
LINE
  5
154
100
AcDbEntity
  8
M0
  6
CONTINUOUS
370
25
 62
     2
100
AcDbLine
 10
155.313694
 20
384.652455
 11
155.313694
 21
381.902612
  0
LINE
  5
155
100
AcDbEntity
  8
M0
  6
CONTINUOUS
370
25
 62
     2
100
AcDbLine
 10
114.815994
 20
377.152881
 11
104.816562
 21
377.152881
  0
LINE
  5
156
100
AcDbEntity
  8
M0
  6
CONTINUOUS
370
25
100
AcDbLine
 10
144.81429
 20
447.648881
 11
144.314319
 21
447.648881
  0
LINE
  5
157
100
AcDbEntity
  8
M0
  6
CONTINUOUS
370
25
 62
     2
100
AcDbLine
 10
165.31313
 20
378.40281
 11
165.31313
 21
377.152881
  0
LINE
  5
158
100
AcDbEntity
  8
M0
  6
DASHDOT
370
13
 62
     2
100
AcDbLine
 10
186.548763
 20
412.150897
 11
204.074085
 21
412.150897
  0
LINE
  5
159
100
AcDbEntity
  8
M0
  6
CONTINUOUS
370
25
 62
     2
100
AcDbLine
 10
165.31313
 20
384.652455
 11
184.812022
 21
384.652455
  0
CIRCLE
  5
15A
100
AcDbEntity
  8
M0
  6
CONTINUOUS
370
25
 62
     2
100
AcDbCircle
 10
195.311426
 20
412.150897
 40
3.499801
  0
ARC
  5
15B
100
AcDbEntity
  8
M0
  6
CONTINUOUS
370
25
 62
     2
100
AcDbCircle
 10
108.01638
 20
450.648711
 40
1.999886
100
AcDbArc
 50
90.0
 51
180.0
  0
LINE
  5
15C
100
AcDbEntity
  8
M0
  6
CONTINUOUS
370
25
 62
     2
100
AcDbLine
 10
155.313694
 20
378.40281
 11
155.313694
 21
377.152881
  0
LINE
  5
15D
100
AcDbEntity
  8
M0
  6
CONTINUOUS
370
25
 62
     2
100
AcDbLine
 10
171.612772
 20
404.151348
 11
198.311255
 21
404.151348
  0
LINE
  5
15E
100
AcDbEntity
  8
M0
  6
CONTINUOUS
370
25
 62
     2
100
AcDbLine
 10
196.11138
 20
450.148739
 11
196.11138
 21
446.648938
  0
LINE
  5
15F
100
AcDbEntity
  8
M0
  6
CONTINUOUS
370
25
 62
     2
100
AcDbLine
 10
171.612772
 20
451.148682
 11
195.111437
 21
451.148682
  0
LINE
  5
160
100
AcDbEntity
  8
M0
  6
CONTINUOUS
370
25
 62
     2
100
AcDbLine
 10
148.314092
 20
384.652455
 11
155.313694
 21
384.652455
  0
LINE
  5
161
100
AcDbEntity
  8
M0
  6
DASHDOT
370
13
 62
     2
100
AcDbLine
 10
195.311426
 20
403.388235
 11
195.311426
 21
420.913556
  0
LINE
  5
162
100
AcDbEntity
  8
M0
  6
CONTINUOUS
370
25
 62
     2
100
AcDbLine
 10
199.311199
 20
441.984439
 11
199.311199
 21
405.151291
  0
LINE
  5
163
100
AcDbEntity
  8
M0
  6
CONTINUOUS
370
25
 62
     2
100
AcDbLine
 10
197.611295
 20
450.648711
 11
197.611295
 21
446.648938
  0
ARC
  5
164
100
AcDbEntity
  8
M0
  6
CONTINUOUS
370
25
 62
     2
100
AcDbCircle
 10
195.111437
 20
450.148739
 40
0.999943
100
AcDbArc
 50
0.0
 51
90.0
  0
ARC
  5
165
100
AcDbEntity
  8
M0
  6
CONTINUOUS
370
25
 62
     2
100
AcDbCircle
 10
203.310972
 20
451.148682
 40
0.999943
100
AcDbArc
 50
270.0
 51
360.0
  0
ARC
  5
166
100
AcDbEntity
  8
M0
  6
CONTINUOUS
370
25
 62
     2
100
AcDbCircle
 10
105.316534
 20
405.151291
 40
0.999943
100
AcDbArc
 50
180.0
 51
270.0
  0
ARC
  5
167
100
AcDbEntity
  8
M0
  6
CONTINUOUS
370
25
 62
     2
100
AcDbCircle
 10
100.316818
 20
451.148682
 40
0.999943
100
AcDbArc
 50
180.0
 51
270.0
  0
ARC
  5
168
100
AcDbEntity
  8
M0
  6
CONTINUOUS
370
25
 62
     2
100
AcDbCircle
 10
100.316818
 20
442.149193
 40
0.999943
100
AcDbArc
 50
90.0
 51
180.0
  0
ARC
  5
169
100
AcDbEntity
  8
M0
  6
CONTINUOUS
370
25
 62
     2
100
AcDbCircle
 10
198.311255
 20
405.151291
 40
0.999943
100
AcDbArc
 50
270.0
 51
360.0
  0
ARC
  5
16A
100
AcDbEntity
  8
M0
  6
CONTINUOUS
370
25
 62
     2
100
AcDbCircle
 10
132.514989
 20
459.148228
 40
0.499972
100
AcDbArc
 50
90.0
 51
180.0
  0
ARC
  5
16B
100
AcDbEntity
  8
M0
  6
CONTINUOUS
370
25
 62
     2
100
AcDbCircle
 10
132.514989
 20
402.151462
 40
0.499972
100
AcDbArc
 50
180.0
 51
270.0
  0
ARC
  5
16C
100
AcDbEntity
  8
M0
  6
CONTINUOUS
370
25
 62
     2
100
AcDbCircle
 10
195.611409
 20
450.648711
 40
1.999886
100
AcDbArc
 50
0.0
 51
90.0
  0
ARC
  5
16D
100
AcDbEntity
  8
M0
  6
CONTINUOUS
370
25
 62
     2
100
AcDbCircle
 10
108.516352
 20
450.148739
 40
0.999943
100
AcDbArc
 50
90.0
 51
180.0
  0
ARC
  5
16E
100
AcDbEntity
  8
M0
  6
CONTINUOUS
370
25
 62
     2
100
AcDbCircle
 10
203.310972
 20
442.149193
 40
0.999943
100
AcDbArc
 50
0.0
 51
90.0
  0
ARC
  5
16F
100
AcDbEntity
  8
M0
  6
CONTINUOUS
370
25
 62
     2
100
AcDbCircle
 10
171.1128
 20
459.148228
 40
0.499972
100
AcDbArc
 50
0.0
 51
90.0
  0
ARC
  5
170
100
AcDbEntity
  8
M0
  6
CONTINUOUS
370
25
 62
     2
100
AcDbCircle
 10
171.1128
 20
402.151462
 40
0.499972
100
AcDbArc
 50
270.0
 51
360.0
  0
LINE
  5
171
100
AcDbEntity
  8
M0
  6
CONTINUOUS
370
25
 62
     2
100
AcDbLine
 10
106.016494
 20
450.648711
 11
106.016494
 21
446.648938
  0
LINE
  5
172
100
AcDbEntity
  8
M0
  6
CONTINUOUS
370
25
 62
     2
100
AcDbLine
 10
118.815767
 20
384.652455
 11
138.31466
 21
384.652455
  0
LINE
  5
173
100
AcDbEntity
  8
M0
  6
CONTINUOUS
370
25
 62
     2
100
AcDbLine
 10
100.316818
 20
450.148739
 11
102.516693
 21
450.148739
  0
LINE
  5
174
100
AcDbEntity
  8
M0
  6
CONTINUOUS
370
25
 62
     2
100
AcDbLine
 10
204.310915
 20
384.652455
 11
198.811227
 21
384.652455
  0
CIRCLE
  5
175
100
AcDbEntity
  8
M0
  6
CONTINUOUS
370
25
 62
     2
100
AcDbCircle
 10
134.314887
 20
470.147603
 40
4.999716
  0
LINE
  5
176
100
AcDbEntity
  8
M0
  6
CONTINUOUS
370
25
 62
     2
100
AcDbLine
 10
100.316818
 20
443.149137
 11
102.516693
 21
443.149137
  0
LINE
  5
177
100
AcDbEntity
  8
M0
  6
CONTINUOUS
370
25
 62
     2
100
AcDbLine
 10
99.316874
 20
442.149193
 11
99.316874
 21
384.652455
  0
LINE
  5
178
100
AcDbEntity
  8
M0
  6
CONTINUOUS
370
25
 62
     2
100
AcDbLine
 10
204.310915
 20
451.148682
 11
204.310915
 21
476.647234
  0
LINE
  5
179
100
AcDbEntity
  8
M0
  6
CONTINUOUS
370
25
 62
     2
100
AcDbLine
 10
165.31313
 20
384.652455
 11
165.31313
 21
381.902612
  0
LINE
  5
17A
100
AcDbEntity
  8
M0
  6
CONTINUOUS
370
25
 62
     2
100
AcDbLine
 10
203.310972
 20
443.149137
 11
201.111096
 21
443.149137
  0
LINE
  5
17B
100
AcDbEntity
  8
M0
  6
CONTINUOUS
370
25
 62
     2
100
AcDbLine
 10
99.316874
 20
384.652455
 11
104.816562
 21
384.652455
  0
LINE
  5
17C
100
AcDbEntity
  8
M0
  6
CONTINUOUS
370
25
 62
     2
100
AcDbLine
 10
198.811227
 20
402.651433
 11
171.612772
 21
402.651433
  0
LINE
  5
17D
100
AcDbEntity
  8
M0
  6
CONTINUOUS
370
25
 62
     2
100
AcDbLine
 10
203.310972
 20
450.148739
 11
201.111096
 21
450.148739
  0
ARC
  5
17E
100
AcDbEntity
  8
M0
  6
CONTINUOUS
370
25
 62
     2
100
AcDbCircle
 10
102.516693
 20
446.648938
 40
3.499801
100
AcDbArc
 50
270.0
 51
450.0
  0
LINE
  5
17F
100
AcDbEntity
  8
M0
  6
CONTINUOUS
370
25
 62
     2
100
AcDbLine
 10
132.015017
 20
451.148682
 11
108.516352
 21
451.148682
  0
ARC
  5
180
100
AcDbEntity
  8
M0
  6
CONTINUOUS
370
25
 62
     2
100
AcDbCircle
 10
104.816562
 20
404.65132
 40
1.999886
100
AcDbArc
 50
180.0
 51
270.0
  0
LINE
  5
181
100
AcDbEntity
  8
M0
  6
CONTINUOUS
370
25
 62
     2
100
AcDbLine
 10
104.31659
 20
441.984439
 11
104.31659
 21
405.151291
  0
LINE
  5
182
100
AcDbEntity
  8
M0
  6
CONTINUOUS
370
25
 62
     2
100
AcDbLine
 10
132.015017
 20
404.151348
 11
105.316534
 21
404.151348
  0
ARC
  5
183
100
AcDbEntity
  8
M0
  6
CONTINUOUS
370
25
 62
     2
100
AcDbCircle
 10
201.111096
 20
446.648938
 40
3.499801
100
AcDbArc
 50
90.0
 51
270.0
  0
ARC
  5
184
100
AcDbEntity
  8
M0
  6
CONTINUOUS
370
25
 62
     2
100
AcDbCircle
 10
201.111096
 20
446.648938
 40
4.999716
100
AcDbArc
 50
180.0
 51
248.899804
  0
ARC
  5
185
100
AcDbEntity
  8
M0
  6
CONTINUOUS
370
25
 62
     2
100
AcDbCircle
 10
202.311028
 20
476.647234
 40
1.999886
100
AcDbArc
 50
0.0
 51
90.0
  0
CIRCLE
  5
186
100
AcDbEntity
  8
M0
  6
CONTINUOUS
370
25
 62
     2
100
AcDbCircle
 10
169.312902
 20
470.147603
 40
4.999716
  0
ARC
  5
187
100
AcDbEntity
  8
M0
  6
CONTINUOUS
370
25
 62
     2
100
AcDbCircle
 10
198.811227
 20
404.65132
 40
1.999886
100
AcDbArc
 50
270.0
 51
360.0
  0
LINE
  5
188
100
AcDbEntity
  8
M0
  6
CONTINUOUS
370
25
 62
     2
100
AcDbLine
 10
107.516409
 20
450.148739
 11
107.516409
 21
446.648938
  0
ARC
  5
189
100
AcDbEntity
  8
M0
  6
CONTINUOUS
370
25
 62
     2
100
AcDbCircle
 10
102.516693
 20
446.648938
 40
4.999716
100
AcDbArc
 50
291.100196
 51
360.0
  0
ARC
  5
18A
100
AcDbEntity
  8
M0
  6
CONTINUOUS
370
25
 62
     2
100
AcDbCircle
 10
101.316761
 20
476.647234
 40
1.999886
100
AcDbArc
 50
90.0
 51
180.0
  0
ARC
  5
18B
100
AcDbEntity
  8
M0
  6
CONTINUOUS
370
25
100
AcDbCircle
 10
193.811511
 20
362.153733
 40
2.99983
100
AcDbArc
 50
0.0
 51
90.0
  0
ARC
  5
18C
100
AcDbEntity
  8
M0
  6
CONTINUOUS
370
25
100
AcDbCircle
 10
179.812306
 20
362.153733
 40
2.99983
100
AcDbArc
 50
90.0
 51
180.0
  0
ARC
  5
18D
100
AcDbEntity
  8
M0
  6
CONTINUOUS
370
25
100
AcDbCircle
 10
179.812306
 20
493.1463
 40
2.99983
100
AcDbArc
 50
180.0
 51
270.0
  0
ARC
  5
18E
100
AcDbEntity
  8
M0
  6
CONTINUOUS
370
25
100
AcDbCircle
 10
144.81429
 20
362.153733
 40
2.99983
100
AcDbArc
 50
90.0
 51
180.0
  0
ARC
  5
18F
100
AcDbEntity
  8
M0
  6
CONTINUOUS
370
25
100
AcDbCircle
 10
123.815483
 20
362.153733
 40
2.99983
100
AcDbArc
 50
0.0
 51
90.0
  0
ARC
  5
190
100
AcDbEntity
  8
M0
  6
CONTINUOUS
370
25
100
AcDbCircle
 10
175.812533
 20
509.145392
 40
0.999943
100
AcDbArc
 50
0.0
 51
90.0
  0
ARC
  5
191
100
AcDbEntity
  8
M0
  6
CONTINUOUS
370
25
100
AcDbCircle
 10
144.81429
 20
493.1463
 40
2.99983
100
AcDbArc
 50
180.0
 51
270.0
  0
ARC
  5
192
100
AcDbEntity
  8
M0
  6
CONTINUOUS
370
25
100
AcDbCircle
 10
158.813495
 20
493.1463
 40
2.99983
100
AcDbArc
 50
270.0
 51
360.0
  0
ARC
  5
193
100
AcDbEntity
  8
M0
  6
CONTINUOUS
370
25
100
AcDbCircle
 10
162.813272
 20
509.145392
 40
0.999943
100
AcDbArc
 50
90.0
 51
180.0
  0
ARC
  5
194
100
AcDbEntity
  8
M0
  6
CONTINUOUS
370
25
100
AcDbCircle
 10
193.811511
 20
493.1463
 40
2.99983
100
AcDbArc
 50
270.0
 51
360.0
  0
ARC
  5
195
100
AcDbEntity
  8
M0
  6
CONTINUOUS
370
25
100
AcDbCircle
 10
158.813495
 20
362.153733
 40
2.99983
100
AcDbArc
 50
0.0
 51
90.0
  0
ARC
  5
196
100
AcDbEntity
  8
M0
  6
CONTINUOUS
370
25
100
AcDbCircle
 10
140.814518
 20
509.145392
 40
0.999943
100
AcDbArc
 50
0.0
 51
90.0
  0
ARC
  5
197
100
AcDbEntity
  8
M0
  6
CONTINUOUS
370
25
100
AcDbCircle
 10
197.811284
 20
509.145392
 40
0.999943
100
AcDbArc
 50
90.0
 51
180.0
  0
LINE
  5
198
100
AcDbEntity
  8
M0
  6
CONTINUOUS
370
25
100
AcDbLine
 10
154.813722
 20
384.152484
 11
148.814063
 21
384.152484
  0
LINE
  5
199
100
AcDbEntity
  8
M0
  6
DASHDOT
370
13
100
AcDbLine
 10
94.317158
 20
427.650017
 11
209.310631
 21
427.650017
  0
LINE
  5
19A
100
AcDbEntity
  8
M0
  6
CONTINUOUS
370
25
100
AcDbLine
 10
144.314319
 20
448.448836
 11
144.314319
 21
416.450653
  0
LINE
  5
19B
100
AcDbEntity
  8
M0
  6
CONTINUOUS
370
25
100
AcDbLine
 10
133.314943
 20
402.651433
 11
170.312846
 21
402.651433
  0
LINE
  5
19C
100
AcDbEntity
  8
M0
  6
CONTINUOUS
370
25
100
AcDbLine
 10
140.814518
 20
450.648711
 11
140.814518
 21
404.65132
  0
LINE
  5
19D
100
AcDbEntity
  8
M0
  6
CONTINUOUS
370
25
100
AcDbLine
 10
159.313467
 20
448.448836
 11
159.313467
 21
416.450653
  0
ARC
  5
19E
100
AcDbEntity
  8
M0
  6
CONTINUOUS
370
25
100
AcDbCircle
 10
102.516693
 20
372.153165
 40
3.249815
100
AcDbArc
 50
270.0
 51
450.0
  0
ARC
  5
19F
100
AcDbEntity
  8
M0
  6
CONTINUOUS
370
25
100
AcDbCircle
 10
201.111096
 20
490.146467
 40
3.249815
100
AcDbArc
 50
90.0
 51
270.0
  0
ARC
  5
1A0
100
AcDbEntity
  8
M0
  6
CONTINUOUS
370
25
100
AcDbCircle
 10
109.816278
 20
362.153733
 40
2.99983
100
AcDbArc
 50
90.0
 51
180.0
  0
LINE
  5
1A1
100
AcDbEntity
  8
M0
  6
CONTINUOUS
370
25
100
AcDbLine
 10
159.313467
 20
418.950511
 11
144.314319
 21
418.950511
  0
LINE
  5
1A2
100
AcDbEntity
  8
M0
  6
CONTINUOUS
370
25
100
AcDbLine
 10
133.314943
 20
452.648597
 11
170.312846
 21
452.648597
  0
ARC
  5
1A3
100
AcDbEntity
  8
M0
  6
CONTINUOUS
370
25
100
AcDbCircle
 10
102.516693
 20
490.146467
 40
3.249815
100
AcDbArc
 50
270.0
 51
450.0
  0
ARC
  5
1A4
100
AcDbEntity
  8
M0
  6
CONTINUOUS
370
25
100
AcDbCircle
 10
201.111096
 20
372.153165
 40
3.249815
100
AcDbArc
 50
90.0
 51
270.0
  0
LINE
  5
1A5
100
AcDbEntity
  8
M0
  6
CONTINUOUS
370
25
100
AcDbLine
 10
159.313467
 20
447.648881
 11
158.813495
 21
447.648881
  0
LINE
  5
1A6
100
AcDbEntity
  8
M0
  6
CONTINUOUS
370
25
100
AcDbLine
 10
159.313467
 20
448.448836
 11
158.813495
 21
448.448836
  0
LINE
  5
1A7
100
AcDbEntity
  8
M0
  6
CONTINUOUS
370
25
100
AcDbLine
 10
201.111096
 20
368.90335
 11
203.810943
 21
368.90335
  0
CIRCLE
  5
1A8
100
AcDbEntity
  8
M0
  6
CONTINUOUS
370
25
100
AcDbCircle
 10
134.314887
 20
364.653591
 40
4.099767
  0
CIRCLE
  5
1A9
100
AcDbEntity
  8
M0
  6
CONTINUOUS
370
25
100
AcDbCircle
 10
134.314887
 20
364.653591
 40
4.599739
  0
LINE
  5
1AA
100
AcDbEntity
  8
M0
  6
DASHDOT
370
13
100
AcDbLine
 10
151.813893
 20
515.145051
 11
151.813893
 21
340.154983
  0
LINE
  5
1AB
100
AcDbEntity
  8
M0
  6
CONTINUOUS
370
25
100
AcDbLine
 10
102.516693
 20
368.90335
 11
99.816846
 21
368.90335
  0
LINE
  5
1AC
100
AcDbEntity
  8
M0
  6
CONTINUOUS
370
25
100
AcDbLine
 10
201.111096
 20
493.396286
 11
203.810943
 21
493.396286
  0
LINE
  5
1AD
100
AcDbEntity
  8
M0
  6
CONTINUOUS
370
25
100
AcDbLine
 10
102.516693
 20
486.896652
 11
99.816846
 21
486.896652
  0
LINE
  5
1AE
100
AcDbEntity
  8
M0
  6
CONTINUOUS
370
25
100
AcDbLine
 10
201.111096
 20
375.402981
 11
203.810943
 21
375.402981
  0
LINE
  5
1AF
100
AcDbEntity
  8
M0
  6
CONTINUOUS
370
25
100
AcDbLine
 10
159.313467
 20
416.450653
 11
144.314319
 21
416.450653
  0
LINE
  5
1B0
100
AcDbEntity
  8
M0
  6
CONTINUOUS
370
25
100
AcDbLine
 10
102.516693
 20
375.402981
 11
99.816846
 21
375.402981
  0
LINE
  5
1B1
100
AcDbEntity
  8
M0
  6
CONTINUOUS
370
25
100
AcDbLine
 10
201.111096
 20
486.896652
 11
203.810943
 21
486.896652
  0
ARC
  5
1B2
100
AcDbEntity
  8
M0
  6
CONTINUOUS
370
25
100
AcDbCircle
 10
197.811284
 20
346.154642
 40
0.999943
100
AcDbArc
 50
180.0
 51
270.0
  0
ARC
  5
1B3
100
AcDbEntity
  8
M0
  6
CONTINUOUS
370
25
100
AcDbCircle
 10
109.816278
 20
493.1463
 40
2.99983
100
AcDbArc
 50
180.0
 51
270.0
  0
ARC
  5
1B4
100
AcDbEntity
  8
M0
  6
CONTINUOUS
370
25
100
AcDbCircle
 10
127.815256
 20
346.154642
 40
0.999943
100
AcDbArc
 50
180.0
 51
270.0
  0
ARC
  5
1B5
100
AcDbEntity
  8
M0
  6
CONTINUOUS
370
25
100
AcDbCircle
 10
105.816505
 20
509.145392
 40
0.999943
100
AcDbArc
 50
0.0
 51
90.0
  0
ARC
  5
1B6
100
AcDbEntity
  8
M0
  6
CONTINUOUS
370
25
100
AcDbCircle
 10
127.815256
 20
509.145392
 40
0.999943
100
AcDbArc
 50
90.0
 51
180.0
  0
ARC
  5
1B7
100
AcDbEntity
  8
M0
  6
CONTINUOUS
370
25
100
AcDbCircle
 10
162.813272
 20
346.154642
 40
0.999943
100
AcDbArc
 50
180.0
 51
270.0
  0
CIRCLE
  5
1B8
100
AcDbEntity
  8
M0
  6
CONTINUOUS
370
25
100
AcDbCircle
 10
169.312902
 20
490.646439
 40
4.099767
  0
CIRCLE
  5
1B9
100
AcDbEntity
  8
M0
  6
CONTINUOUS
370
25
100
AcDbCircle
 10
169.312902
 20
490.646439
 40
4.599739
  0
CIRCLE
  5
1BA
100
AcDbEntity
  8
M0
  6
CONTINUOUS
370
25
100
AcDbCircle
 10
169.312902
 20
364.653591
 40
4.099767
  0
CIRCLE
  5
1BB
100
AcDbEntity
  8
M0
  6
CONTINUOUS
370
25
100
AcDbCircle
 10
134.314887
 20
490.646439
 40
4.599739
  0
ARC
  5
1BC
100
AcDbEntity
  8
M0
  6
CONTINUOUS
370
25
100
AcDbCircle
 10
123.815483
 20
493.1463
 40
2.99983
100
AcDbArc
 50
270.0
 51
360.0
  0
CIRCLE
  5
1BD
100
AcDbEntity
  8
M0
  6
CONTINUOUS
370
25
100
AcDbCircle
 10
169.312902
 20
364.653591
 40
4.599739
  0
ARC
  5
1BE
100
AcDbEntity
  8
M0
  6
CONTINUOUS
370
25
100
AcDbCircle
 10
160.813382
 20
404.65132
 40
1.999886
100
AcDbArc
 50
270.0
 51
360.0
  0
ARC
  5
1BF
100
AcDbEntity
  8
M0
  6
CONTINUOUS
370
25
100
AcDbCircle
 10
160.813382
 20
450.648711
 40
1.999886
100
AcDbArc
 50
0.0
 51
90.0
  0
LINE
  5
1C0
100
AcDbEntity
  8
M0
  6
CONTINUOUS
370
25
100
AcDbLine
 10
184.812022
 20
382.45258
 11
184.312051
 21
382.45258
  0
ARC
  5
1C1
100
AcDbEntity
  8
M0
  6
CONTINUOUS
370
25
100
AcDbCircle
 10
170.312846
 20
457.648313
 40
0.999943
100
AcDbArc
 50
2.931366E-011
 51
90.0
  0
ARC
  5
1C2
100
AcDbEntity
  8
M0
  6
CONTINUOUS
370
25
100
AcDbCircle
 10
133.314943
 20
457.648313
 40
0.999943
100
AcDbArc
 50
90.0
 51
180.0
  0
ARC
  5
1C3
100
AcDbEntity
  8
M0
  6
CONTINUOUS
370
25
100
AcDbCircle
 10
142.814404
 20
404.65132
 40
1.999886
100
AcDbArc
 50
180.0
 51
270.0
  0
LINE
  5
1C4
100
AcDbEntity
  8
M0
  6
CONTINUOUS
370
25
100
AcDbLine
 10
137.814688
 20
384.652455
 11
137.814688
 21
376.65291
  0
LINE
  5
1C5
100
AcDbEntity
  8
M0
  6
CONTINUOUS
370
25
100
AcDbLine
 10
154.813722
 20
384.652455
 11
154.813722
 21
376.65291
  0
LINE
  5
1C6
100
AcDbEntity
  8
M0
  6
CONTINUOUS
370
25
100
AcDbLine
 10
198.811227
 20
384.652455
 11
198.811227
 21
376.65291
  0
LINE
  5
1C7
100
AcDbEntity
  8
M0
  6
CONTINUOUS
370
25
100
AcDbLine
 10
118.815767
 20
382.45258
 11
119.315739
 21
382.45258
  0
ARC
  5
1C8
100
AcDbEntity
  8
M0
  6
CONTINUOUS
370
25
100
AcDbCircle
 10
142.814404
 20
450.648711
 40
1.999886
100
AcDbArc
 50
90.0
 51
180.0
  0
LINE
  5
1C9
100
AcDbEntity
  8
M0
  6
CONTINUOUS
370
25
100
AcDbLine
 10
148.814063
 20
384.652455
 11
148.814063
 21
376.65291
  0
LINE
  5
1CA
100
AcDbEntity
  8
M0
  6
CONTINUOUS
370
25
100
AcDbLine
 10
165.813101
 20
384.652455
 11
165.813101
 21
376.65291
  0
ARC
  5
1CB
100
AcDbEntity
  8
M0
  6
CONTINUOUS
370
25
100
AcDbCircle
 10
100.966781
 20
347.154585
 40
0.799955
100
AcDbArc
 50
120.0
 51
240.0
  0
ARC
  5
1CC
100
AcDbEntity
  8
M0
  6
CONTINUOUS
370
25
100
AcDbCircle
 10
99.816846
 20
486.39668
 40
0.499972
100
AcDbArc
 50
90.0
 51
180.0
  0
ARC
  5
1CD
100
AcDbEntity
  8
M0
  6
CONTINUOUS
370
25
100
AcDbCircle
 10
100.066832
 20
349.654443
 40
0.499972
100
AcDbArc
 50
0.0
 51
90.0
  0
ARC
  5
1CE
100
AcDbEntity
  8
M0
  6
CONTINUOUS
370
25
100
AcDbCircle
 10
99.816846
 20
375.902952
 40
0.499972
100
AcDbArc
 50
180.0
 51
270.0
  0
ARC
  5
1CF
100
AcDbEntity
  8
M0
  6
CONTINUOUS
370
25
100
AcDbCircle
 10
99.816846
 20
368.403378
 40
0.499972
100
AcDbArc
 50
90.0
 51
180.0
  0
ARC
  5
1D0
100
AcDbEntity
  8
M0
  6
CONTINUOUS
370
25
100
AcDbCircle
 10
105.816505
 20
346.154642
 40
0.999943
100
AcDbArc
 50
270.0
 51
360.0
  0
ARC
  5
1D1
100
AcDbEntity
  8
M0
  6
CONTINUOUS
370
25
100
AcDbCircle
 10
170.312846
 20
403.651376
 40
0.999943
100
AcDbArc
 50
270.0
 51
360.0
  0
ARC
  5
1D2
100
AcDbEntity
  8
M0
  6
CONTINUOUS
370
25
100
AcDbCircle
 10
133.314943
 20
403.651376
 40
0.999943
100
AcDbArc
 50
180.0
 51
270.0
  0
ARC
  5
1D3
100
AcDbEntity
  8
M0
  6
CONTINUOUS
370
25
100
AcDbCircle
 10
170.312846
 20
451.648654
 40
0.999943
100
AcDbArc
 50
2.931366E-011
 51
90.0
  0
ARC
  5
1D4
100
AcDbEntity
  8
M0
  6
CONTINUOUS
370
25
100
AcDbCircle
 10
101.066775
 20
345.65467
 40
0.499972
100
AcDbArc
 50
180.0
 51
270.0
  0
ARC
  5
1D5
100
AcDbEntity
  8
M0
  6
CONTINUOUS
370
25
100
AcDbCircle
 10
99.816846
 20
493.896258
 40
0.499972
100
AcDbArc
 50
180.0
 51
270.0
  0
ARC
  5
1D6
100
AcDbEntity
  8
M0
  6
CONTINUOUS
370
25
100
AcDbCircle
 10
133.314943
 20
451.648654
 40
0.999943
100
AcDbArc
 50
90.0
 51
180.0
  0
ARC
  5
1D7
100
AcDbEntity
  8
M0
  6
CONTINUOUS
370
25
100
AcDbCircle
 10
99.816846
 20
350.654386
 40
0.499972
100
AcDbArc
 50
180.0
 51
270.0
  0
LINE
  5
1D8
100
AcDbEntity
  8
M0
  6
CONTINUOUS
370
25
100
AcDbLine
 10
171.312789
 20
457.648313
 11
171.312789
 21
403.651376
  0
LINE
  5
1D9
100
AcDbEntity
  8
M0
  6
CONTINUOUS
370
25
100
AcDbLine
 10
100.566803
 20
345.65467
 11
100.566803
 21
346.461804
  0
LINE
  5
1DA
100
AcDbEntity
  8
M0
  6
CONTINUOUS
370
25
100
AcDbLine
 10
170.312846
 20
458.648256
 11
133.314943
 21
458.648256
  0
LINE
  5
1DB
100
AcDbEntity
  8
M0
  6
CONTINUOUS
370
25
100
AcDbLine
 10
106.816448
 20
346.154642
 11
106.816448
 21
362.153733
  0
LINE
  5
1DC
100
AcDbEntity
  8
M0
  6
CONTINUOUS
370
25
100
AcDbLine
 10
101.066775
 20
345.154699
 11
132.564986
 21
345.154699
  0
LINE
  5
1DD
100
AcDbEntity
  8
M0
  6
CONTINUOUS
370
25
100
AcDbLine
 10
132.315
 20
457.648313
 11
132.315
 21
403.651376
  0
LINE
  5
1DE
100
AcDbEntity
  8
M0
  6
CONTINUOUS
370
25
100
AcDbLine
 10
147.564134
 20
406.651206
 11
156.063651
 21
406.651206
  0
LINE
  5
1DF
100
AcDbEntity
  8
M0
  6
CONTINUOUS
370
25
100
AcDbLine
 10
156.063651
 20
406.651206
 11
156.063651
 21
412.150897
  0
CIRCLE
  5
1E0
100
AcDbEntity
  8
M0
  6
CONTINUOUS
370
25
100
AcDbCircle
 10
134.314887
 20
490.646439
 40
4.099767
  0
LINE
  5
1E1
100
AcDbEntity
  8
M0
  6
CONTINUOUS
370
25
100
AcDbLine
 10
147.564134
 20
412.150897
 11
147.564134
 21
406.651206
  0
LINE
  5
1E2
100
AcDbEntity
  8
M0
  6
CONTINUOUS
370
25
100
AcDbLine
 10
100.066832
 20
350.154415
 11
99.816846
 21
350.154415
  0
LINE
  5
1E3
100
AcDbEntity
  8
M0
  6
CONTINUOUS
370
25
100
AcDbLine
 10
162.813272
 20
450.648711
 11
162.813272
 21
404.65132
  0
LINE
  5
1E4
100
AcDbEntity
  8
M0
  6
CONTINUOUS
370
25
100
AcDbLine
 10
156.063651
 20
412.150897
 11
147.564134
 21
412.150897
  0
LINE
  5
1E5
100
AcDbEntity
  8
M0
  6
CONTINUOUS
370
25
100
AcDbLine
 10
148.814063
 20
381.902612
 11
137.814688
 21
381.902612
  0
LINE
  5
1E6
100
AcDbEntity
  8
M0
  6
CONTINUOUS
370
25
100
AcDbLine
 10
148.814063
 20
378.40281
 11
137.814688
 21
378.40281
  0
LINE
  5
1E7
100
AcDbEntity
  8
M0
  6
CONTINUOUS
370
25
100
AcDbLine
 10
119.315739
 20
381.902612
 11
118.815767
 21
381.902612
  0
LINE
  5
1E8
100
AcDbEntity
  8
M0
  6
CONTINUOUS
370
25
100
AcDbLine
 10
165.813101
 20
378.40281
 11
154.813722
 21
378.40281
  0
LINE
  5
1E9
100
AcDbEntity
  8
M0
  6
CONTINUOUS
370
25
100
AcDbLine
 10
104.816562
 20
384.652455
 11
104.816562
 21
376.65291
  0
LINE
  5
1EA
100
AcDbEntity
  8
M0
  6
CONTINUOUS
370
25
100
AcDbLine
 10
119.315739
 20
378.40281
 11
118.815767
 21
378.40281
  0
LINE
  5
1EB
100
AcDbEntity
  8
M0
  6
CONTINUOUS
370
25
100
AcDbLine
 10
99.316874
 20
427.650017
 11
99.316874
 21
350.654386
  0
LINE
  5
1EC
100
AcDbEntity
  8
M0
  6
CONTINUOUS
370
25
100
AcDbLine
 10
204.16711
 20
400.851535
 11
204.310915
 21
400.851535
  0
LINE
  5
1ED
100
AcDbEntity
  8
M0
  6
CONTINUOUS
370
25
100
AcDbLine
 10
100.566803
 20
347.847366
 11
100.566803
 21
349.654443
  0
LINE
  5
1EE
100
AcDbEntity
  8
M0
  6
CONTINUOUS
370
25
100
AcDbLine
 10
198.811227
 20
378.40281
 11
188.811795
 21
378.40281
  0
LINE
  5
1EF
100
AcDbEntity
  8
M0
  6
CONTINUOUS
370
25
100
AcDbLine
 10
165.813101
 20
381.902612
 11
154.813722
 21
381.902612
  0
LINE
  5
1F0
100
AcDbEntity
  8
M0
  6
CONTINUOUS
370
25
100
AcDbLine
 10
99.316874
 20
504.645647
 11
99.316874
 21
427.650017
  0
LINE
  5
1F1
100
AcDbEntity
  8
M0
  6
DASHED
370
13
 62
   114
100
AcDbLine
 10
329.200564
 20
359.653875
 11
340.399938
 21
359.653875
  0
LINE
  5
1F2
100
AcDbEntity
  8
M0
  6
DASHED
370
13
 62
   114
100
AcDbLine
 10
340.399938
 20
359.653875
 11
340.399938
 21
351.65433
  0
LINE
  5
1F3
100
AcDbEntity
  8
M0
  6
DASHED
370
13
 62
   114
100
AcDbLine
 10
322.40096
 20
349.154471
 11
314.901386
 21
349.154471
  0
LINE
  5
1F4
100
AcDbEntity
  8
M0
  6
DASHED
370
13
 62
   114
100
AcDbLine
 10
314.901386
 20
349.154471
 11
314.901386
 21
362.153733
  0
LINE
  5
1F5
100
AcDbEntity
  8
M0
  6
DASHED
370
13
 62
   114
100
AcDbLine
 10
314.401414
 20
350.020449
 11
314.901386
 21
349.154471
  0
LINE
  5
1F6
100
AcDbEntity
  8
M0
  6
DASHED
370
13
 62
   114
100
AcDbLine
 10
314.401414
 20
350.020449
 11
314.401414
 21
361.287786
  0
LINE
  5
1F7
100
AcDbEntity
  8
M0
  6
CONTINUOUS
370
25
 62
     2
100
AcDbLine
 10
289.002846
 20
418.650528
 11
289.002846
 21
386.15237
  0
LINE
  5
1F8
100
AcDbEntity
  8
M0
  6
CONTINUOUS
370
25
 62
     2
100
AcDbLine
 10
282.003244
 20
446.648938
 11
282.003244
 21
477.647177
  0
LINE
  5
1F9
100
AcDbEntity
  8
M0
  6
CONTINUOUS
370
25
 62
     2
100
AcDbLine
 10
296.502421
 20
418.650528
 11
289.002846
 21
418.650528
  0
LINE
  5
1FA
100
AcDbEntity
  8
M0
  6
DASHED
370
13
 62
   114
100
AcDbLine
 10
322.40096
 20
362.153733
 11
322.40096
 21
349.154471
  0
LINE
  5
1FB
100
AcDbEntity
  8
M0
  6
DASHED
370
13
 62
   114
100
AcDbLine
 10
340.399938
 20
351.65433
 11
329.200564
 21
351.65433
  0
LINE
  5
1FC
100
AcDbEntity
  8
M0
  6
CONTINUOUS
370
25
 62
     2
100
AcDbLine
 10
278.003468
 20
443.149137
 11
289.002846
 21
443.149137
  0
LINE
  5
1FD
100
AcDbEntity
  8
M0
  6
DASHED
370
13
 62
   114
100
AcDbLine
 10
314.901356
 20
362.153733
 11
322.40096
 21
362.153733
  0
LINE
  5
1FE
100
AcDbEntity
  8
M0
  6
DASHED
370
13
 62
   114
100
AcDbLine
 10
326.000745
 20
346.654603
 11
324.400846
 21
346.654603
  0
LINE
  5
1FF
100
AcDbEntity
  8
M0
  6
DASHED
370
13
 62
   114
100
AcDbLine
 10
324.400846
 20
346.654603
 11
324.400846
 21
364.653581
  0
LINE
  5
200
100
AcDbEntity
  8
M0
  6
DASHED
370
13
 62
   114
100
AcDbLine
 10
322.40096
 20
354.499488
 11
324.400846
 21
355.654116
  0
LINE
  5
201
100
AcDbEntity
  8
M0
  6
DASHED
370
13
 62
   114
100
AcDbLine
 10
329.200564
 20
369.653307
 11
329.200564
 21
345.154699
  0
LINE
  5
202
100
AcDbEntity
  8
M0
  6
DASHED
370
13
100
AcDbLine
 10
342.999743
 20
494.896201
 11
342.999743
 21
486.39668
  0
LINE
  5
203
100
AcDbEntity
  8
M0
  6
DASHED
370
13
 62
   114
100
AcDbLine
 10
324.400846
 20
364.653581
 11
326.000745
 21
364.653581
  0
LINE
  5
204
100
AcDbEntity
  8
M0
  6
DASHED
370
13
 62
   114
100
AcDbLine
 10
324.400846
 20
363.353678
 11
324.400846
 21
347.954543
  0
LINE
  5
205
100
AcDbEntity
  8
M0
  6
DASHED
370
13
 62
   114
100
AcDbLine
 10
324.400846
 20
347.954543
 11
322.40096
 21
347.954543
  0
LINE
  5
206
100
AcDbEntity
  8
M0
  6
DASHED
370
13
 62
   114
100
AcDbLine
 10
314.401414
 20
361.287786
 11
314.901356
 21
362.153733
  0
LINE
  5
207
100
AcDbEntity
  8
M0
  6
DASHED
370
13
 62
   114
100
AcDbLine
 10
322.40096
 20
355.654116
 11
324.400846
 21
356.808747
  0
LINE
  5
208
100
AcDbEntity
  8
M0
  6
DASHED
370
13
 62
   114
100
AcDbLine
 10
326.000745
 20
345.154699
 11
326.000745
 21
369.653307
  0
LINE
  5
209
100
AcDbEntity
  8
M0
  6
DASHED
370
13
 62
   114
100
AcDbLine
 10
322.40096
 20
363.353678
 11
324.400846
 21
363.353678
  0
LINE
  5
20A
100
AcDbEntity
  8
M0
  6
DASHED
370
13
 62
   114
100
AcDbLine
 10
322.40096
 20
347.954543
 11
322.40096
 21
363.353678
  0
LINE
  5
20B
100
AcDbEntity
  8
M0
  6
CONTINUOUS
370
25
 62
     2
100
AcDbLine
 10
288.002903
 20
466.647802
 11
289.002846
 21
466.647802
  0
LINE
  5
20C
100
AcDbEntity
  8
M0
  6
CONTINUOUS
370
25
 62
     2
100
AcDbLine
 10
288.002903
 20
474.647348
 11
289.002846
 21
474.647348
  0
LINE
  5
20D
100
AcDbEntity
  8
M0
  6
CONTINUOUS
370
25
 62
     2
100
AcDbLine
 10
288.002903
 20
454.648484
 11
289.002846
 21
454.648484
  0
ARC
  5
20E
100
AcDbEntity
  8
M0
  6
CONTINUOUS
370
25
100
AcDbCircle
 10
292.302659
 20
493.196298
 40
0.199989
100
AcDbArc
 50
0.0
 51
90.0
  0
ARC
  5
20F
100
AcDbEntity
  8
M0
  6
CONTINUOUS
370
25
100
AcDbCircle
 10
292.302659
 20
443.599111
 40
0.199989
100
AcDbArc
 50
270.0
 51
360.0
  0
LINE
  5
210
100
AcDbEntity
  8
M0
  6
CONTINUOUS
370
25
 62
     2
100
AcDbLine
 10
288.002903
 20
462.648029
 11
289.002846
 21
462.648029
  0
LINE
  5
211
100
AcDbEntity
  8
M0
  6
CONTINUOUS
370
25
 62
     2
100
AcDbLine
 10
282.003244
 20
384.652455
 11
288.002903
 21
384.652455
  0
LINE
  5
212
100
AcDbEntity
  8
M0
  6
CONTINUOUS
370
25
 62
     2
100
AcDbLine
 10
297.002392
 20
419.1505
 11
297.002392
 21
435.568427
  0
LINE
  5
213
100
AcDbEntity
  8
M0
  6
CONTINUOUS
370
25
 62
     2
100
AcDbLine
 10
279.003414
 20
402.651433
 11
281.503272
 21
402.651433
  0
LINE
  5
214
100
AcDbEntity
  8
M0
  6
CONTINUOUS
370
25
 62
     2
100
AcDbLine
 10
287.00296
 20
473.647404
 11
287.00296
 21
467.647745
  0
ARC
  5
215
100
AcDbEntity
  8
M0
  6
CONTINUOUS
370
25
100
AcDbCircle
 10
292.302659
 20
487.096641
 40
0.199989
100
AcDbArc
 50
270.0
 51
360.0
  0
LINE
  5
216
100
AcDbEntity
  8
M0
  6
CONTINUOUS
370
25
 62
     2
100
AcDbLine
 10
289.002846
 20
478.647121
 11
289.002846
 21
436.849494
  0
LINE
  5
217
100
AcDbEntity
  8
M0
  6
CONTINUOUS
370
25
 62
     2
100
AcDbLine
 10
287.00296
 20
461.648086
 11
287.00296
 21
455.648427
  0
ARC
  5
218
100
AcDbEntity
  8
M0
  6
CONTINUOUS
370
25
 62
     2
100
AcDbCircle
 10
283.003187
 20
477.647177
 40
0.999943
100
AcDbArc
 50
90.0
 51
180.0
  0
ARC
  5
219
100
AcDbEntity
  8
M0
  6
CONTINUOUS
370
25
 62
     2
100
AcDbCircle
 10
281.503272
 20
402.151462
 40
0.499972
100
AcDbArc
 50
0.0
 51
90.0
  0
ARC
  5
21A
100
AcDbEntity
  8
M0
  6
CONTINUOUS
370
25
 62
     2
100
AcDbCircle
 10
279.003414
 20
403.651376
 40
0.999943
100
AcDbArc
 50
180.0
 51
270.0
  0
LINE
  5
21B
100
AcDbEntity
  8
M0
  6
CONTINUOUS
370
25
 62
     2
100
AcDbLine
 10
282.003244
 20
450.148739
 11
289.002846
 21
450.148739
  0
LINE
  5
21C
100
AcDbEntity
  8
M0
  6
CONTINUOUS
370
25
 62
     2
100
AcDbLine
 10
289.002846
 20
436.849494
 11
291.34309
 21
436.849494
  0
ARC
  5
21D
100
AcDbEntity
  8
M0
  6
CONTINUOUS
370
25
 62
     2
100
AcDbCircle
 10
279.003414
 20
451.648654
 40
0.999943
100
AcDbArc
 50
90.0
 51
180.0
  0
ARC
  5
21E
100
AcDbEntity
  8
M0
  6
CONTINUOUS
370
25
100
AcDbCircle
 10
292.302659
 20
375.202992
 40
0.199989
100
AcDbArc
 50
0.0
 51
90.0
  0
ARC
  5
21F
100
AcDbEntity
  8
M0
  6
CONTINUOUS
370
25
100
AcDbCircle
 10
292.302659
 20
369.103339
 40
0.199989
100
AcDbArc
 50
270.0
 51
360.0
  0
ARC
  5
220
100
AcDbEntity
  8
M0
  6
CONTINUOUS
370
25
100
AcDbCircle
 10
292.302659
 20
449.698765
 40
0.199989
100
AcDbArc
 50
0.0
 51
90.0
  0
ARC
  5
221
100
AcDbEntity
  8
M0
  6
CONTINUOUS
370
25
100
AcDbCircle
 10
331.000461
 20
415.650698
 40
4.999716
100
AcDbArc
 50
0.0
 51
90.0
  0
ARC
  5
222
100
AcDbEntity
  8
M0
  6
CONTINUOUS
370
25
 62
     2
100
AcDbCircle
 10
288.002903
 20
455.648427
 40
0.999943
100
AcDbArc
 50
180.0
 51
270.0
  0
ARC
  5
223
100
AcDbEntity
  8
M0
  6
CONTINUOUS
370
25
100
AcDbCircle
 10
275.003638
 20
451.648654
 40
0.999943
100
AcDbArc
 50
90.0
 51
180.0
  0
ARC
  5
224
100
AcDbEntity
  8
M0
  6
CONTINUOUS
370
25
 62
     2
100
AcDbCircle
 10
285.503045
 20
380.152711
 40
56.996766
100
AcDbArc
 50
78.77337
 51
84.118996
  0
ARC
  5
225
100
AcDbEntity
  8
M0
  6
CONTINUOUS
370
25
 62
     2
100
AcDbCircle
 10
296.502421
 20
435.568427
 40
0.499972
100
AcDbArc
 50
0.0
 51
78.77337
  0
ARC
  5
226
100
AcDbEntity
  8
M0
  6
CONTINUOUS
370
25
 62
     2
100
AcDbCircle
 10
288.002903
 20
473.647404
 40
0.999943
100
AcDbArc
 50
90.0
 51
180.0
  0
ARC
  5
227
100
AcDbEntity
  8
M0
  6
CONTINUOUS
370
25
 62
   114
100
AcDbCircle
 10
351.454775
 20
215.325362
 40
2.99983
100
AcDbArc
 50
0.0
 51
90.0
  0
ARC
  5
228
100
AcDbEntity
  8
M0
  6
CONTINUOUS
370
25
 62
   114
100
AcDbCircle
 10
257.46011
 20
169.327971
 40
2.99983
100
AcDbArc
 50
180.0
 51
270.0
  0
ARC
  5
229
100
AcDbEntity
  8
M0
  6
CONTINUOUS
370
25
 62
     2
100
AcDbCircle
 10
296.502421
 20
419.1505
 40
0.499972
100
AcDbArc
 50
270.0
 51
360.0
  0
CIRCLE
  5
22A
100
AcDbEntity
  8
M0
  6
CONTINUOUS
370
25
 62
   114
100
AcDbCircle
 10
169.312902
 20
129.330243
 40
2.499858
  0
CIRCLE
  5
22B
100
AcDbEntity
  8
M0
  6
CONTINUOUS
370
25
 62
   114
100
AcDbCircle
 10
134.314887
 20
255.32309
 40
2.499858
  0
LINE
  5
22C
100
AcDbEntity
  8
M0
  6
DASHDOT
370
13
 62
   114
100
AcDbLine
 10
118.315795
 20
255.32309
 11
150.313978
 21
255.32309
  0
ARC
  5
22D
100
AcDbEntity
  8
M0
  6
CONTINUOUS
370
25
 62
     2
100
AcDbCircle
 10
288.002903
 20
467.647745
 40
0.999943
100
AcDbArc
 50
180.0
 51
270.0
  0
ARC
  5
22E
100
AcDbEntity
  8
M0
  6
CONTINUOUS
370
25
 62
     2
100
AcDbCircle
 10
288.002903
 20
385.652399
 40
0.999943
100
AcDbArc
 50
270.0
 51
360.0
  0
LINE
  5
22F
100
AcDbEntity
  8
M0
  6
DASHDOT
370
13
 62
   114
100
AcDbLine
 10
134.314887
 20
239.323999
 11
134.314887
 21
271.322182
  0
ARC
  5
230
100
AcDbEntity
  8
M0
  6
CONTINUOUS
370
25
 62
     2
100
AcDbCircle
 10
288.002903
 20
461.648086
 40
0.999943
100
AcDbArc
 50
90.0
 51
180.0
  0
LINE
  5
231
100
AcDbEntity
  8
M0
  6
DIVIDE
370
13
 62
   194
100
AcDbLine
 10
166.812521
 20
510.145335
 11
166.812931
 21
560.142482
  0
LINE
  5
232
100
AcDbEntity
  8
M0
  6
DIVIDE
370
13
 62
   194
100
AcDbLine
 10
171.812227
 20
510.145335
 11
171.812637
 21
560.142482
  0
LINE
  5
233
100
AcDbEntity
  8
M0
  6
DIVIDE
370
13
 62
   194
100
AcDbLine
 10
136.814888
 20
510.145335
 11
136.815298
 21
560.142482
  0
LINE
  5
234
100
AcDbEntity
  8
M0
  6
CONTINUOUS
370
25
100
AcDbLine
 10
181.599271
 20
395.822711
 11
183.231675
 21
393.575895
  0
LINE
  5
235
100
AcDbEntity
  8
M0
  6
CONTINUOUS
370
25
100
AcDbLine
 10
181.599271
 20
395.822711
 11
181.113889
 21
395.470058
  0
LINE
  5
236
100
AcDbEntity
  8
M0
  6
DIVIDE
370
13
 62
   194
100
AcDbLine
 10
131.815169
 20
510.145335
 11
131.815579
 21
560.142482
  0
LINE
  5
237
100
AcDbEntity
  8
M0
  6
DASHDOT
370
13
 62
   194
100
AcDbLine
 10
134.31481
 20
483.740588
 11
134.315477
 21
565.142198
  0
LINE
  5
238
100
AcDbEntity
  8
M0
  6
DASHDOT
370
13
 62
   194
100
AcDbLine
 10
169.312932
 20
498.758878
 11
169.313476
 21
565.142198
  0
ARC
  5
239
100
AcDbEntity
  8
M0
  6
CONTINUOUS
370
25
 62
   114
100
AcDbCircle
 10
257.46011
 20
215.325362
 40
2.99983
100
AcDbArc
 50
90.0
 51
180.0
  0
LINE
  5
23A
100
AcDbEntity
  8
M0
  6
DIVIDE
370
13
 62
   194
100
AcDbLine
 10
136.815298
 20
560.142482
 11
131.815579
 21
560.142482
  0
LINE
  5
23B
100
AcDbEntity
  8
M0
  6
CONTINUOUS
370
25
100
AcDbLine
 10
182.084654
 20
396.175361
 11
183.717058
 21
393.928549
  0
ARC
  5
23C
100
AcDbEntity
  8
M0
  6
CONTINUOUS
370
25
 62
   114
100
AcDbCircle
 10
351.454775
 20
169.327971
 40
2.99983
100
AcDbArc
 50
270.0
 51
360.0
  0
LINE
  5
23D
100
AcDbEntity
  8
M0
  6
DIVIDE
370
13
 62
   194
100
AcDbLine
 10
171.812637
 20
560.142482
 11
166.812931
 21
560.142482
  0
LINE
  5
23E
100
AcDbEntity
  8
M0
  6
DIVIDE
370
13
 62
   114
100
AcDbLine
 10
251.960422
 20
109.83135
 11
356.954462
 21
109.83135
  0
LINE
  5
23F
100
AcDbEntity
  8
M0
  6
DIVIDE
370
13
 62
   114
100
AcDbLine
 10
356.954462
 20
109.83135
 11
356.954462
 21
274.821983
  0
LINE
  5
240
100
AcDbEntity
  8
M0
  6
DASHED
370
13
100
AcDbLine
 10
325.000765
 20
488.396567
 11
342.999743
 21
488.396567
  0
LINE
  5
241
100
AcDbEntity
  8
M0
  6
DIVIDE
370
13
 62
   114
100
AcDbLine
 10
251.960422
 20
274.821983
 11
251.960422
 21
109.83135
  0
LINE
  5
242
100
AcDbEntity
  8
M0
  6
DASHDOT
370
13
 62
   114
100
AcDbLine
 10
241.96099
 20
192.326665
 11
361.954178
 21
192.326665
  0
LINE
  5
243
100
AcDbEntity
  8
M0
  6
DASHED
370
13
100
AcDbLine
 10
325.000765
 20
494.896201
 11
325.000765
 21
486.39668
  0
LINE
  5
244
100
AcDbEntity
  8
M0
  6
DASHED
370
13
100
AcDbLine
 10
342.999743
 20
486.39668
 11
349.499411
 21
486.39668
  0
LINE
  5
245
100
AcDbEntity
  8
M0
  6
DASHED
370
13
100
AcDbLine
 10
342.999743
 20
494.896201
 11
349.499411
 21
494.896201
  0
ARC
  5
246
100
AcDbEntity
  8
M0
  6
CONTINUOUS
370
25
100
AcDbCircle
 10
275.003638
 20
403.651376
 40
0.999943
100
AcDbArc
 50
180.0
 51
270.0
  0
LINE
  5
247
100
AcDbEntity
  8
M0
  6
DASHED
370
13
100
AcDbLine
 10
289.002846
 20
486.39668
 11
325.000779
 21
486.39668
  0
LINE
  5
248
100
AcDbEntity
  8
M0
  6
DIVIDE
370
13
 62
   114
100
AcDbLine
 10
356.954462
 20
274.821983
 11
251.960422
 21
274.821983
  0
LINE
  5
249
100
AcDbEntity
  8
M0
  6
DASHED
370
13
100
AcDbLine
 10
325.000765
 20
492.896315
 11
342.999743
 21
492.896315
  0
LINE
  5
24A
100
AcDbEntity
  8
M0
  6
DASHED
370
13
100
AcDbLine
 10
289.002846
 20
494.896201
 11
325.000779
 21
494.896201
  0
LINE
  5
24B
100
AcDbEntity
  8
M0
  6
DIVIDE
370
13
 62
   114
100
AcDbLine
 10
99.316874
 20
274.821983
 11
99.316874
 21
109.83135
  0
LINE
  5
24C
100
AcDbEntity
  8
M0
  6
DASHDOT
370
13
 62
   114
100
AcDbLine
 10
89.317442
 20
192.326665
 11
214.310347
 21
192.326665
  0
LINE
  5
24D
100
AcDbEntity
  8
M0
  6
DIVIDE
370
13
 62
   114
100
AcDbLine
 10
204.310915
 20
109.83135
 11
204.310915
 21
274.821983
  0
LINE
  5
24E
100
AcDbEntity
  8
M0
  6
DASHDOT
370
13
 62
   114
100
AcDbLine
 10
153.313808
 20
129.330243
 11
185.311994
 21
129.330243
  0
LINE
  5
24F
100
AcDbEntity
  8
M0
  6
DASHDOT
370
13
 62
   114
100
AcDbLine
 10
169.312902
 20
113.331151
 11
169.312902
 21
145.329334
  0
LINE
  5
250
100
AcDbEntity
  8
M0
  6
DIVIDE
370
13
 62
   114
100
AcDbLine
 10
204.310915
 20
274.821983
 11
99.316874
 21
274.821983
  0
LINE
  5
251
100
AcDbEntity
  8
M0
  6
CONTINUOUS
370
25
 62
   114
100
AcDbLine
 10
257.46011
 20
218.325192
 11
351.454775
 21
218.325192
  0
LINE
  5
252
100
AcDbEntity
  8
M0
  6
CONTINUOUS
370
25
 62
   114
100
AcDbLine
 10
354.454604
 20
215.325362
 11
354.454604
 21
169.327971
  0
LINE
  5
253
100
AcDbEntity
  8
M0
  6
DASHDOT
370
13
 62
   114
100
AcDbLine
 10
304.457444
 20
99.831915
 11
304.457444
 21
284.821418
  0
LINE
  5
254
100
AcDbEntity
  8
M0
  6
DIVIDE
370
13
 62
   114
100
AcDbLine
 10
99.316874
 20
109.83135
 11
204.310915
 21
109.83135
  0
LINE
  5
255
100
AcDbEntity
  8
M0
  6
DASHDOT
370
13
 62
   114
100
AcDbLine
 10
151.813893
 20
99.831915
 11
151.813893
 21
284.821418
  0
LINE
  5
256
100
AcDbEntity
  8
M0
  6
CONTINUOUS
370
25
 62
   114
100
AcDbLine
 10
257.46011
 20
166.328141
 11
351.454775
 21
166.328141
  0
LINE
  5
257
100
AcDbEntity
  8
M0
  6
CONTINUOUS
370
25
 62
   114
100
AcDbLine
 10
254.46028
 20
215.325362
 11
254.46028
 21
169.327971
  0
LINE
  5
258
100
AcDbEntity
  8
M0
  6
CONTINUOUS
370
25
100
AcDbLine
 10
307.001824
 20
434.649619
 11
307.001824
 21
420.650414
  0
LINE
  5
259
100
AcDbEntity
  8
M0
  6
CONTINUOUS
370
25
100
AcDbLine
 10
306.001881
 20
420.650414
 11
310.001654
 21
420.650414
  0
LINE
  5
25A
100
AcDbEntity
  8
M0
  6
CONTINUOUS
370
25
100
AcDbLine
 10
306.001881
 20
434.649619
 11
310.001654
 21
434.649619
  0
LINE
  5
25B
100
AcDbEntity
  8
M0
  6
CONTINUOUS
370
25
100
AcDbLine
 10
292.502648
 20
493.196298
 11
292.502648
 21
487.096641
  0
LINE
  5
25C
100
AcDbEntity
  8
M0
  6
CONTINUOUS
370
25
100
AcDbLine
 10
292.302659
 20
449.898753
 11
289.002846
 21
449.898753
  0
LINE
  5
25D
100
AcDbEntity
  8
M0
  6
CONTINUOUS
370
25
100
AcDbLine
 10
306.001881
 20
420.650414
 11
306.001881
 21
417.650585
  0
LINE
  5
25E
100
AcDbEntity
  8
M0
  6
CONTINUOUS
370
25
100
AcDbLine
 10
307.001824
 20
434.649619
 11
310.001654
 21
434.649619
  0
LINE
  5
25F
100
AcDbEntity
  8
M0
  6
CONTINUOUS
370
25
100
AcDbLine
 10
289.002846
 20
437.649449
 11
306.001881
 21
437.649449
  0
LINE
  5
260
100
AcDbEntity
  8
M0
  6
DASHDOT
370
13
100
AcDbLine
 10
288.502875
 20
380.152711
 11
282.503216
 21
380.152711
  0
LINE
  5
261
100
AcDbEntity
  8
M0
  6
CONTINUOUS
370
25
100
AcDbLine
 10
303.002051
 20
401.351507
 11
303.002051
 21
404.151348
  0
LINE
  5
262
100
AcDbEntity
  8
M0
  6
CONTINUOUS
370
25
100
AcDbLine
 10
289.002846
 20
417.650585
 11
306.001881
 21
417.650585
  0
LINE
  5
263
100
AcDbEntity
  8
M0
  6
DASHED
370
13
100
AcDbLine
 10
286.471234
 20
381.902612
 11
284.534854
 21
381.902612
  0
LINE
  5
264
100
AcDbEntity
  8
M0
  6
CONTINUOUS
370
25
100
AcDbLine
 10
296.002449
 20
437.649449
 11
296.002449
 21
436.174079
  0
ARC
  5
265
100
AcDbEntity
  8
M0
  6
CONTINUOUS
370
25
 62
     4
100
AcDbCircle
 10
262.155958
 20
446.887851
 40
0.499972
100
AcDbArc
 50
77.92182
 51
167.92182
  0
ARC
  5
266
100
AcDbEntity
  8
M0
  6
CONTINUOUS
370
25
 62
     4
100
AcDbCircle
 10
272.193195
 20
442.183601
 40
0.499972
100
AcDbArc
 50
257.92182
 51
347.92182
  0
ARC
  5
267
100
AcDbEntity
  8
M0
  6
CONTINUOUS
370
25
 62
     4
100
AcDbCircle
 10
265.544102
 20
443.606394
 40
0.499972
100
AcDbArc
 50
167.92182
 51
257.92182
  0
ARC
  5
268
100
AcDbEntity
  8
M0
  6
CONTINUOUS
370
25
 62
     4
100
AcDbCircle
 10
272.778271
 20
440.013245
 40
0.499972
100
AcDbArc
 50
257.92182
 51
340.68
  0
ARC
  5
269
100
AcDbEntity
  8
M0
  6
CONTINUOUS
370
25
 62
     4
100
AcDbCircle
 10
272.716278
 20
444.628119
 40
0.499972
100
AcDbArc
 50
347.92182
 51
437.92182
  0
ARC
  5
26A
100
AcDbEntity
  8
M0
  6
CONTINUOUS
370
25
 62
     4
100
AcDbCircle
 10
262.610679
 20
444.234098
 40
0.499972
100
AcDbArc
 50
257.92182
 51
347.92182
  0
LINE
  5
26B
100
AcDbEntity
  8
M0
  6
CONTINUOUS
370
25
100
AcDbLine
 10
292.302659
 20
443.399122
 11
289.002846
 21
443.399122
  0
ARC
  5
26C
100
AcDbEntity
  8
M0
  6
CONTINUOUS
370
25
 62
     4
100
AcDbCircle
 10
263.133766
 20
446.678616
 40
0.499972
100
AcDbArc
 50
347.92182
 51
437.92182
  0
LINE
  5
26D
100
AcDbEntity
  8
M0
  6
CONTINUOUS
370
25
100
AcDbLine
 10
292.302659
 20
493.396286
 11
289.002846
 21
493.396286
  0
ARC
  5
26E
100
AcDbEntity
  8
M0
  6
CONTINUOUS
370
25
 62
     4
100
AcDbCircle
 10
266.067189
 20
446.050912
 40
0.499972
100
AcDbArc
 50
77.92182
 51
167.92182
  0
ARC
  5
26F
100
AcDbEntity
  8
M0
  6
CONTINUOUS
370
25
 62
     4
100
AcDbCircle
 10
274.197494
 20
439.527776
 40
0.999943
100
AcDbArc
 50
90.153742
 51
160.68
  0
LINE
  5
270
100
AcDbEntity
  8
M0
  6
CONTINUOUS
370
25
100
AcDbLine
 10
292.302659
 20
486.896652
 11
289.002846
 21
486.896652
  0
ARC
  5
271
100
AcDbEntity
  8
M0
  6
CONTINUOUS
370
25
 62
     4
100
AcDbCircle
 10
261.632871
 20
444.443333
 40
0.499972
100
AcDbArc
 50
167.92182
 51
257.92182
  0
LINE
  5
272
100
AcDbEntity
  8
M0
  6
CONTINUOUS
370
25
 62
     4
100
AcDbLine
 10
266.171806
 20
446.539817
 11
272.820896
 21
445.117025
  0
LINE
  5
273
100
AcDbEntity
  8
M0
  6
CONTINUOUS
370
25
 62
     4
100
AcDbLine
 10
273.250084
 20
439.847831
 11
273.253861
 21
439.8586
  0
LINE
  5
274
100
AcDbEntity
  8
M0
  6
CONTINUOUS
370
25
 62
     4
100
AcDbLine
 10
261.528254
 20
443.954428
 11
262.506061
 21
443.745193
  0
LINE
  5
275
100
AcDbEntity
  8
M0
  6
CONTINUOUS
370
25
 62
     4
100
AcDbLine
 10
274.003695
 20
446.909083
 11
261.212331
 21
449.646221
  0
LINE
  5
276
100
AcDbEntity
  8
M0
  6
DASHDOT
370
13
 62
     4
100
AcDbLine
 10
321.001029
 20
425.65013
 11
321.001029
 21
429.649903
  0
LINE
  5
277
100
AcDbEntity
  8
M0
  6
CONTINUOUS
370
25
 62
     4
100
AcDbLine
 10
260.025289
 20
448.877648
 11
258.874501
 21
443.499707
  0
LINE
  5
278
100
AcDbEntity
  8
M0
  6
CONTINUOUS
370
25
 62
     4
100
AcDbLine
 10
262.260575
 20
447.376753
 11
263.238383
 21
447.167518
  0
LINE
  5
279
100
AcDbEntity
  8
M0
  6
CONTINUOUS
370
25
 62
     4
100
AcDbLine
 10
265.578284
 20
446.155529
 11
265.0552
 21
443.711011
  0
LINE
  5
27A
100
AcDbEntity
  8
M0
  6
CONTINUOUS
370
25
 62
     4
100
AcDbLine
 10
265.439485
 20
443.117492
 11
272.088577
 21
441.694696
  0
LINE
  5
27B
100
AcDbEntity
  8
M0
  6
CONTINUOUS
370
25
 62
     4
100
AcDbLine
 10
263.622668
 20
446.573999
 11
263.099584
 21
444.129481
  0
LINE
  5
27C
100
AcDbEntity
  8
M0
  6
CONTINUOUS
370
25
 62
     4
100
AcDbLine
 10
272.673654
 20
439.524339
 11
259.643074
 21
442.312664
  0
LINE
  5
27D
100
AcDbEntity
  8
M0
  6
CONTINUOUS
370
25
 62
     4
100
AcDbLine
 10
261.143969
 20
444.54795
 11
261.667056
 21
446.992468
  0
LINE
  5
27E
100
AcDbEntity
  8
M0
  6
CONTINUOUS
370
25
 62
     4
100
AcDbLine
 10
272.682097
 20
442.078984
 11
273.205184
 21
444.523502
  0
LINE
  5
27F
100
AcDbEntity
  8
M0
  6
CONTINUOUS
370
25
100
AcDbLine
 10
289.002846
 20
450.648711
 11
292.002676
 21
451.148682
  0
LINE
  5
280
100
AcDbEntity
  8
M0
  6
CONTINUOUS
370
25
100
AcDbLine
 10
303.002051
 20
401.351507
 11
292.002676
 21
401.351507
  0
LINE
  5
281
100
AcDbEntity
  8
M0
  6
CONTINUOUS
370
25
100
AcDbLine
 10
292.002676
 20
451.148682
 11
303.002051
 21
451.148682
  0
LINE
  5
282
100
AcDbEntity
  8
M0
  6
DASHED
370
13
100
AcDbLine
 10
286.471234
 20
378.40281
 11
284.534854
 21
378.40281
  0
LINE
  5
283
100
AcDbEntity
  8
M0
  6
CONTINUOUS
370
25
100
AcDbLine
 10
289.002846
 20
384.152484
 11
285.003074
 21
384.152484
  0
LINE
  5
284
100
AcDbEntity
  8
M0
  6
CONTINUOUS
370
25
100
AcDbLine
 10
289.002846
 20
400.851535
 11
292.002676
 21
401.351507
  0
LINE
  5
285
100
AcDbEntity
  8
M0
  6
CONTINUOUS
370
25
100
AcDbLine
 10
306.001881
 20
437.649449
 11
306.001881
 21
434.649619
  0
LINE
  5
286
100
AcDbEntity
  8
M0
  6
CONTINUOUS
370
25
100
AcDbLine
 10
303.002051
 20
453.948523
 11
303.002051
 21
451.148682
  0
LINE
  5
287
100
AcDbEntity
  8
M0
  6
CONTINUOUS
370
25
100
AcDbLine
 10
289.002846
 20
454.448495
 11
292.002676
 21
453.948523
  0
LINE
  5
288
100
AcDbEntity
  8
M0
  6
CONTINUOUS
370
25
100
AcDbLine
 10
289.002846
 20
404.65132
 11
292.002676
 21
404.151348
  0
LINE
  5
289
100
AcDbEntity
  8
M0
  6
DASHDOT
370
13
100
AcDbLine
 10
285.503045
 20
383.152541
 11
285.503045
 21
377.152881
  0
LINE
  5
28A
100
AcDbEntity
  8
M0
  6
CONTINUOUS
370
25
100
AcDbLine
 10
303.002051
 20
453.948523
 11
292.002676
 21
453.948523
  0
LINE
  5
28B
100
AcDbEntity
  8
M0
  6
CONTINUOUS
370
25
100
AcDbLine
 10
349.799394
 20
370.65325
 11
349.799394
 21
385.652399
  0
LINE
  5
28C
100
AcDbEntity
  8
M0
  6
CONTINUOUS
370
25
100
AcDbLine
 10
349.499411
 20
385.652399
 11
349.799394
 21
385.652399
  0
LINE
  5
28D
100
AcDbEntity
  8
M0
  6
CONTINUOUS
370
25
100
AcDbLine
 10
349.999382
 20
503.645704
 11
349.499411
 21
503.645704
  0
LINE
  5
28E
100
AcDbEntity
  8
M0
  6
CONTINUOUS
370
25
100
AcDbLine
 10
336.000177
 20
345.154699
 11
336.000177
 21
415.650698
  0
LINE
  5
28F
100
AcDbEntity
  8
M0
  6
CONTINUOUS
370
25
100
AcDbLine
 10
349.999382
 20
351.65433
 11
349.499411
 21
351.65433
  0
LINE
  5
290
100
AcDbEntity
  8
M0
  6
CONTINUOUS
370
25
100
AcDbLine
 10
349.999382
 20
493.646272
 11
349.499411
 21
493.646272
  0
LINE
  5
291
100
AcDbEntity
  8
M0
  6
CONTINUOUS
370
25
100
AcDbLine
 10
310.001654
 20
345.154699
 11
310.001654
 21
510.145335
  0
LINE
  5
292
100
AcDbEntity
  8
M0
  6
CONTINUOUS
370
25
100
AcDbLine
 10
310.001654
 20
510.145335
 11
349.499411
 21
510.145335
  0
LINE
  5
293
100
AcDbEntity
  8
M0
  6
CONTINUOUS
370
25
100
AcDbLine
 10
296.002449
 20
418.650528
 11
296.002449
 21
417.650585
  0
LINE
  5
294
100
AcDbEntity
  8
M0
  6
CONTINUOUS
370
25
100
AcDbLine
 10
349.499411
 20
510.145335
 11
349.499411
 21
345.154699
  0
LINE
  5
295
100
AcDbEntity
  8
M0
  6
CONTINUOUS
370
25
100
AcDbLine
 10
349.499411
 20
370.65325
 11
349.799394
 21
370.65325
  0
LINE
  5
296
100
AcDbEntity
  8
M0
  6
CONTINUOUS
370
25
100
AcDbLine
 10
349.499411
 20
345.154699
 11
310.001654
 21
345.154699
  0
LINE
  5
297
100
AcDbEntity
  8
M0
  6
CONTINUOUS
370
25
100
AcDbLine
 10
349.999382
 20
503.645704
 11
349.999382
 21
493.646272
  0
LINE
  5
298
100
AcDbEntity
  8
M0
  6
CONTINUOUS
370
25
100
AcDbLine
 10
315.00137
 20
476.147263
 11
315.00137
 21
456.148398
  0
LINE
  5
299
100
AcDbEntity
  8
M0
  6
CONTINUOUS
370
25
 62
     2
100
AcDbLine
 10
282.003244
 20
378.652796
 11
282.003244
 21
443.149137
  0
LINE
  5
29A
100
AcDbEntity
  8
M0
  6
CONTINUOUS
370
25
100
AcDbLine
 10
310.001654
 20
476.147263
 11
315.00137
 21
476.147263
  0
LINE
  5
29B
100
AcDbEntity
  8
M0
  6
CONTINUOUS
370
25
 62
     2
100
AcDbLine
 10
278.003468
 20
403.651376
 11
278.003468
 21
451.648654
  0
LINE
  5
29C
100
AcDbEntity
  8
M0
  6
CONTINUOUS
370
25
 62
     2
100
AcDbLine
 10
279.003414
 20
452.648597
 11
281.503272
 21
452.648597
  0
LINE
  5
29D
100
AcDbEntity
  8
M0
  6
CONTINUOUS
370
25
100
AcDbLine
 10
310.001654
 20
456.148398
 11
315.00137
 21
456.148398
  0
LINE
  5
29E
100
AcDbEntity
  8
M0
  6
CONTINUOUS
370
25
100
AcDbLine
 10
349.499411
 20
370.553216
 11
336.000177
 21
370.553216
  0
LINE
  5
29F
100
AcDbEntity
  8
M0
  6
CONTINUOUS
370
25
100
AcDbLine
 10
349.499411
 20
373.753114
 11
336.000177
 21
373.753114
  0
LINE
  5
2A0
100
AcDbEntity
  8
M0
  6
CONTINUOUS
370
25
100
AcDbLine
 10
349.999382
 20
351.65433
 11
349.999382
 21
361.653762
  0
LINE
  5
2A1
100
AcDbEntity
  8
M0
  6
CONTINUOUS
370
25
100
AcDbLine
 10
331.000461
 20
420.650414
 11
310.001654
 21
420.650414
  0
LINE
  5
2A2
100
AcDbEntity
  8
M0
  6
CONTINUOUS
370
25
 62
     2
100
AcDbLine
 10
283.003187
 20
478.647121
 11
289.002846
 21
478.647121
  0
LINE
  5
2A3
100
AcDbEntity
  8
M0
  6
CONTINUOUS
370
25
100
AcDbLine
 10
349.999382
 20
361.653762
 11
349.499411
 21
361.653762
  0
LINE
  5
2A4
100
AcDbEntity
  8
M0
  6
CONTINUOUS
370
25
100
AcDbLine
 10
349.499411
 20
434.649619
 11
310.001654
 21
434.649619
  0
ARC
  5
2A5
100
AcDbEntity
  8
M0
  6
DASHED
370
13
100
AcDbCircle
 10
285.503045
 20
380.152711
 40
1.999886
100
AcDbArc
 50
118.955024
 51
241.044976
  0
ARC
  5
2A6
100
AcDbEntity
  8
M0
  6
DASHED
370
13
100
AcDbCircle
 10
285.503045
 20
380.152711
 40
1.999886
100
AcDbArc
 50
298.955024
 51
421.044976
  0
ARC
  5
2A7
100
AcDbEntity
  8
M0
  6
CONTINUOUS
370
25
100
AcDbCircle
 10
294.002563
 20
505.145619
 40
4.999716
100
AcDbArc
 50
90.0
 51
180.0
  0
LINE
  5
2A8
100
AcDbEntity
  8
M0
  6
CONTINUOUS
370
25
100
AcDbLine
 10
289.002846
 20
427.650017
 11
289.002846
 21
505.145619
  0
LINE
  5
2A9
100
AcDbEntity
  8
M0
  6
CONTINUOUS
370
25
100
AcDbLine
 10
274.003695
 20
403.651376
 11
274.003695
 21
451.648654
  0
ARC
  5
2AA
100
AcDbEntity
  8
M0
  6
CONTINUOUS
370
25
100
AcDbCircle
 10
294.002563
 20
350.154415
 40
4.999716
100
AcDbArc
 50
180.0
 51
270.0
  0
ARC
  5
2AB
100
AcDbEntity
  8
M0
  6
CONTINUOUS
370
25
 62
     4
100
AcDbCircle
 10
259.852309
 20
443.290472
 40
0.999943
100
AcDbArc
 50
167.92182
 51
257.92182
  0
ARC
  5
2AC
100
AcDbEntity
  8
M0
  6
DIVIDE
370
13
 62
     4
100
AcDbCircle
 10
321.001029
 20
427.650017
 40
64.565106
100
AcDbArc
 50
159.910177
 51
180.0
  0
LINE
  5
2AD
100
AcDbEntity
  8
M0
  6
CONTINUOUS
370
25
100
AcDbLine
 10
292.002676
 20
404.151348
 11
303.002051
 21
404.151348
  0
ARC
  5
2AE
100
AcDbEntity
  8
M0
  6
CONTINUOUS
370
25
100
AcDbCircle
 10
285.003074
 20
381.152654
 40
2.99983
100
AcDbArc
 50
90.0
 51
180.0
  0
LINE
  5
2AF
100
AcDbEntity
  8
M0
  6
CONTINUOUS
370
25
100
AcDbLine
 10
292.502648
 20
449.698765
 11
292.502648
 21
443.599111
  0
ARC
  5
2B0
100
AcDbEntity
  8
M0
  6
CONTINUOUS
370
25
 62
     4
100
AcDbCircle
 10
261.003097
 20
448.668413
 40
0.999943
100
AcDbArc
 50
77.92182
 51
167.92182
  0
ARC
  5
2B1
100
AcDbEntity
  8
M0
  6
CONTINUOUS
370
25
100
AcDbCircle
 10
284.00313
 20
378.652796
 40
1.999886
100
AcDbArc
 50
180.0
 51
270.0
  0
LINE
  5
2B2
100
AcDbEntity
  8
M0
  6
DASHDOT
370
13
100
AcDbLine
 10
354.999098
 20
427.650017
 11
249.005115
 21
427.650017
  0
LINE
  5
2B3
100
AcDbEntity
  8
M0
  6
CONTINUOUS
370
25
100
AcDbLine
 10
310.001654
 20
510.145335
 11
310.001654
 21
345.154699
  0
LINE
  5
2B4
100
AcDbEntity
  8
M0
  6
CONTINUOUS
370
25
100
AcDbLine
 10
294.002563
 20
510.145335
 11
310.001654
 21
510.145335
  0
LINE
  5
2B5
100
AcDbEntity
  8
M0
  6
CONTINUOUS
370
25
100
AcDbLine
 10
289.002846
 20
384.152484
 11
289.002846
 21
427.650017
  0
LINE
  5
2B6
100
AcDbEntity
  8
M0
  6
CONTINUOUS
370
25
100
AcDbLine
 10
282.003244
 20
381.152654
 11
282.003244
 21
378.652796
  0
LINE
  5
2B7
100
AcDbEntity
  8
M0
  6
CONTINUOUS
370
25
100
AcDbLine
 10
289.002846
 20
350.154415
 11
289.002846
 21
376.65291
  0
LINE
  5
2B8
100
AcDbEntity
  8
M0
  6
CONTINUOUS
370
25
100
AcDbLine
 10
275.003638
 20
452.648597
 11
289.002846
 21
452.648597
  0
LINE
  5
2B9
100
AcDbEntity
  8
M0
  6
CONTINUOUS
370
25
100
AcDbLine
 10
292.302659
 20
375.402981
 11
289.002846
 21
375.402981
  0
LINE
  5
2BA
100
AcDbEntity
  8
M0
  6
CONTINUOUS
370
25
100
AcDbLine
 10
310.001654
 20
345.154699
 11
294.002563
 21
345.154699
  0
LINE
  5
2BB
100
AcDbEntity
  8
M0
  6
CONTINUOUS
370
25
100
AcDbLine
 10
292.302659
 20
368.90335
 11
289.002846
 21
368.90335
  0
LINE
  5
2BC
100
AcDbEntity
  8
M0
  6
CONTINUOUS
370
25
100
AcDbLine
 10
284.00313
 20
376.65291
 11
289.002846
 21
376.65291
  0
LINE
  5
2BD
100
AcDbEntity
  8
M0
  6
CONTINUOUS
370
25
100
AcDbLine
 10
275.003638
 20
402.651433
 11
282.003244
 21
402.651433
  0
LINE
  5
2BE
100
AcDbEntity
  8
M0
  6
CONTINUOUS
370
25
100
AcDbLine
 10
292.502648
 20
375.202992
 11
292.502648
 21
369.103339
  0
LINE
  5
2BF
100
AcDbEntity
  8
M0
  6
CONTINUOUS
370
25
 62
   114
100
AcDbLine
 10
148.783045
 20
353.904202
 11
148.783045
 21
357.404003
  0
LINE
  5
2C0
100
AcDbEntity
  8
M0
  6
CONTINUOUS
370
25
 62
   114
100
AcDbLine
 10
148.783045
 20
357.404003
 11
151.81397
 21
359.153904
  0
LINE
  5
2C1
100
AcDbEntity
  8
M0
  6
CONTINUOUS
370
25
 62
   114
100
AcDbLine
 10
154.844881
 20
353.904202
 11
151.81397
 21
352.154301
  0
LINE
  5
2C2
100
AcDbEntity
  8
M0
  6
CONTINUOUS
370
25
 62
   114
100
AcDbLine
 10
189.842893
 20
357.403986
 11
189.842893
 21
353.904202
  0
LINE
  5
2C3
100
AcDbEntity
  8
M0
  6
CONTINUOUS
370
25
 62
   114
100
AcDbLine
 10
189.842893
 20
353.904202
 11
186.811985
 21
352.154301
  0
LINE
  5
2C4
100
AcDbEntity
  8
M0
  6
CONTINUOUS
370
25
 62
   114
100
AcDbLine
 10
151.81397
 20
352.154301
 11
148.783045
 21
353.904202
  0
LINE
  5
2C5
100
AcDbEntity
  8
M0
  6
CONTINUOUS
370
25
 62
   114
100
AcDbLine
 10
113.785033
 20
357.404003
 11
116.815957
 21
359.153904
  0
LINE
  5
2C6
100
AcDbEntity
  8
M0
  6
DASHDOT
370
13
 62
   114
100
AcDbLine
 10
116.815804
 20
340.154983
 11
116.815804
 21
369.916449
  0
LINE
  5
2C7
100
AcDbEntity
  8
M0
  6
CONTINUOUS
370
25
 62
   114
100
AcDbLine
 10
116.815957
 20
352.154301
 11
113.785033
 21
353.904202
  0
LINE
  5
2C8
100
AcDbEntity
  8
M0
  6
CONTINUOUS
370
25
 62
   114
100
AcDbLine
 10
154.844881
 20
357.403986
 11
154.844881
 21
353.904202
  0
LINE
  5
2C9
100
AcDbEntity
  8
M0
  6
CONTINUOUS
370
25
 62
   114
100
AcDbLine
 10
186.811985
 20
359.153904
 11
189.842893
 21
357.403986
  0
LINE
  5
2CA
100
AcDbEntity
  8
M0
  6
CONTINUOUS
370
25
 62
   114
100
AcDbLine
 10
113.785033
 20
353.904202
 11
113.785033
 21
357.404003
  0
LINE
  5
2CB
100
AcDbEntity
  8
M0
  6
CONTINUOUS
370
25
 62
   114
100
AcDbLine
 10
151.81397
 20
359.153904
 11
154.844881
 21
357.403986
  0
LINE
  5
2CC
100
AcDbEntity
  8
M0
  6
CONTINUOUS
370
25
 62
     6
100
AcDbLine
 10
169.312902
 20
356.86114
 11
168.216915
 21
357.957128
  0
LINE
  5
2CD
100
AcDbEntity
  8
M0
  6
CONTINUOUS
370
25
 62
     6
100
AcDbLine
 10
171.115957
 20
355.058086
 11
170.019969
 21
356.154074
  0
LINE
  5
2CE
100
AcDbEntity
  8
M0
  6
CONTINUOUS
370
25
 62
     6
100
AcDbLine
 10
168.605836
 20
356.154074
 11
166.510012
 21
354.05825
  0
LINE
  5
2CF
100
AcDbEntity
  8
M0
  6
CONTINUOUS
370
25
 62
     6
100
AcDbLine
 10
167.509848
 20
357.250062
 11
168.605836
 21
356.154074
  0
LINE
  5
2D0
100
AcDbEntity
  8
M0
  6
CONTINUOUS
370
25
 62
     6
100
AcDbLine
 10
170.40889
 20
354.35102
 11
171.115957
 21
355.058086
  0
LINE
  5
2D1
100
AcDbEntity
  8
M0
  6
CONTINUOUS
370
25
 62
     6
100
AcDbLine
 10
171.408713
 20
358.956955
 11
169.312902
 21
356.86114
  0
LINE
  5
2D2
100
AcDbEntity
  8
M0
  6
CONTINUOUS
370
25
 62
   114
100
AcDbLine
 10
183.781057
 20
357.404003
 11
186.811985
 21
359.153904
  0
LINE
  5
2D3
100
AcDbEntity
  8
M0
  6
DASHDOT
370
13
 62
   114
100
AcDbLine
 10
186.811985
 20
340.154983
 11
186.811985
 21
369.916449
  0
LINE
  5
2D4
100
AcDbEntity
  8
M0
  6
CONTINUOUS
370
25
 62
   114
100
AcDbLine
 10
186.811985
 20
352.154301
 11
183.781057
 21
353.904202
  0
LINE
  5
2D5
100
AcDbEntity
  8
M0
  6
CONTINUOUS
370
25
 62
     6
100
AcDbLine
 10
167.217078
 20
353.351183
 11
169.312902
 21
355.447007
  0
LINE
  5
2D6
100
AcDbEntity
  8
M0
  6
CONTINUOUS
370
25
 62
     6
100
AcDbLine
 10
169.312902
 20
355.447007
 11
170.40889
 21
354.35102
  0
LINE
  5
2D7
100
AcDbEntity
  8
M0
  6
CONTINUOUS
370
25
 62
   114
100
AcDbLine
 10
183.781057
 20
353.904202
 11
183.781057
 21
357.404003
  0
LINE
  5
2D8
100
AcDbEntity
  8
M0
  6
CONTINUOUS
370
25
 62
     6
100
AcDbLine
 10
170.019969
 20
356.154074
 11
172.11578
 21
358.249888
  0
CIRCLE
  5
2D9
100
AcDbEntity
  8
M0
  6
CONTINUOUS
370
25
 62
   114
100
AcDbCircle
 10
186.811985
 20
499.645931
 40
5.633667
  0
CIRCLE
  5
2DA
100
AcDbEntity
  8
M0
  6
CONTINUOUS
370
25
 62
   114
100
AcDbCircle
 10
186.811985
 20
499.645931
 40
6.499631
  0
CIRCLE
  5
2DB
100
AcDbEntity
  8
M0
  6
CONTINUOUS
370
25
 62
     6
100
AcDbCircle
 10
134.314887
 20
470.147603
 40
4.149764
  0
CIRCLE
  5
2DC
100
AcDbEntity
  8
M0
  6
CONTINUOUS
370
25
 62
   114
100
AcDbCircle
 10
186.811985
 20
499.645931
 40
7.699566
  0
CIRCLE
  5
2DD
100
AcDbEntity
  8
M0
  6
CONTINUOUS
370
25
 62
   114
100
AcDbCircle
 10
151.81397
 20
499.645931
 40
5.633667
  0
CIRCLE
  5
2DE
100
AcDbEntity
  8
M0
  6
CONTINUOUS
370
25
 62
     6
100
AcDbCircle
 10
169.312902
 20
470.147603
 40
4.149764
  0
LINE
  5
2DF
100
AcDbEntity
  8
M0
  6
CONTINUOUS
370
25
 62
   114
100
AcDbLine
 10
119.846868
 20
497.896031
 11
116.815957
 21
496.14613
  0
LINE
  5
2E0
100
AcDbEntity
  8
M0
  6
CONTINUOUS
370
25
 62
   114
100
AcDbLine
 10
116.815957
 20
496.14613
 11
113.785033
 21
497.896031
  0
LINE
  5
2E1
100
AcDbEntity
  8
M0
  6
CONTINUOUS
370
25
 62
   114
100
AcDbLine
 10
116.815957
 20
503.145733
 11
119.846868
 21
501.395815
  0
LINE
  5
2E2
100
AcDbEntity
  8
M0
  6
CONTINUOUS
370
25
 62
   114
100
AcDbLine
 10
113.785033
 20
501.395832
 11
116.815957
 21
503.145733
  0
CIRCLE
  5
2E3
100
AcDbEntity
  8
M0
  6
CONTINUOUS
370
25
 62
   114
100
AcDbCircle
 10
186.811985
 20
499.645931
 40
8.999489
  0
LINE
  5
2E4
100
AcDbEntity
  8
M0
  6
CONTINUOUS
370
25
 62
   114
100
AcDbLine
 10
119.846868
 20
501.395815
 11
119.846868
 21
497.896031
  0
LINE
  5
2E5
100
AcDbEntity
  8
M0
  6
CONTINUOUS
370
25
 62
   114
100
AcDbLine
 10
113.785033
 20
497.896031
 11
113.785033
 21
501.395832
  0
ARC
  5
2E6
100
AcDbEntity
  8
M0
  6
CONTINUOUS
370
25
 62
     4
100
AcDbCircle
 10
157.813552
 20
443.312607
 40
0.999943
100
AcDbArc
 50
270.0
 51
360.0
  0
ARC
  5
2E7
100
AcDbEntity
  8
M0
  6
CONTINUOUS
370
25
 62
     4
100
AcDbCircle
 10
157.813552
 20
440.524282
 40
0.999943
100
AcDbArc
 50
270.0
 51
360.0
  0
ARC
  5
2E8
100
AcDbEntity
  8
M0
  6
CONTINUOUS
370
25
 62
     4
100
AcDbCircle
 10
145.814234
 20
443.312607
 40
0.999943
100
AcDbArc
 50
180.0
 51
270.0
  0
LINE
  5
2E9
100
AcDbEntity
  8
M0
  6
CONTINUOUS
370
25
 62
   114
100
AcDbLine
 10
119.846868
 20
357.403986
 11
119.846868
 21
353.904202
  0
LINE
  5
2EA
100
AcDbEntity
  8
M0
  6
CONTINUOUS
370
25
 62
   114
100
AcDbLine
 10
119.846868
 20
353.904202
 11
116.815957
 21
352.154301
  0
ARC
  5
2EB
100
AcDbEntity
  8
M0
  6
CONTINUOUS
370
25
 62
     4
100
AcDbCircle
 10
145.814234
 20
440.524282
 40
0.999943
100
AcDbArc
 50
180.0
 51
270.0
  0
CIRCLE
  5
2EC
100
AcDbEntity
  8
M0
  6
CONTINUOUS
370
25
 62
   114
100
AcDbCircle
 10
151.81397
 20
499.645931
 40
7.699566
  0
CIRCLE
  5
2ED
100
AcDbEntity
  8
M0
  6
CONTINUOUS
370
25
 62
   114
100
AcDbCircle
 10
116.815957
 20
499.645931
 40
5.633667
  0
CIRCLE
  5
2EE
100
AcDbEntity
  8
M0
  6
CONTINUOUS
370
25
 62
   114
100
AcDbCircle
 10
151.81397
 20
499.645931
 40
6.499631
  0
ARC
  5
2EF
100
AcDbEntity
  8
M0
  6
CONTINUOUS
370
25
 62
     4
100
AcDbCircle
 10
145.814234
 20
448.646278
 40
0.999943
100
AcDbArc
 50
90.0
 51
180.0
  0
LINE
  5
2F0
100
AcDbEntity
  8
M0
  6
CONTINUOUS
370
25
 62
   114
100
AcDbLine
 10
116.815957
 20
359.153904
 11
119.846868
 21
357.403986
  0
CIRCLE
  5
2F1
100
AcDbEntity
  8
M0
  6
CONTINUOUS
370
25
 62
   114
100
AcDbCircle
 10
151.81397
 20
499.645931
 40
8.999489
  0
CIRCLE
  5
2F2
100
AcDbEntity
  8
M0
  6
CONTINUOUS
370
25
 62
   114
100
AcDbCircle
 10
116.815957
 20
355.654102
 40
8.999489
  0
CIRCLE
  5
2F3
100
AcDbEntity
  8
M0
  6
CONTINUOUS
370
25
 62
   114
100
AcDbCircle
 10
116.815957
 20
355.654102
 40
7.699566
  0
CIRCLE
  5
2F4
100
AcDbEntity
  8
M0
  6
CONTINUOUS
370
25
 62
   114
100
AcDbCircle
 10
116.815957
 20
355.654102
 40
5.633667
  0
CIRCLE
  5
2F5
100
AcDbEntity
  8
M0
  6
CONTINUOUS
370
25
 62
   114
100
AcDbCircle
 10
151.81397
 20
355.654102
 40
6.499631
  0
CIRCLE
  5
2F6
100
AcDbEntity
  8
M0
  6
CONTINUOUS
370
25
 62
   114
100
AcDbCircle
 10
151.81397
 20
355.654102
 40
8.999489
  0
CIRCLE
  5
2F7
100
AcDbEntity
  8
M0
  6
CONTINUOUS
370
25
 62
   114
100
AcDbCircle
 10
116.815957
 20
355.654102
 40
6.499631
  0
LINE
  5
2F8
100
AcDbEntity
  8
M0
  6
CONTINUOUS
370
25
 62
     6
100
AcDbLine
 10
101.116772
 20
372.453148
 11
101.491751
 21
372.453148
  0
CIRCLE
  5
2F9
100
AcDbEntity
  8
M0
  6
CONTINUOUS
370
25
 62
   114
100
AcDbCircle
 10
116.815957
 20
499.645931
 40
6.499631
  0
LINE
  5
2FA
100
AcDbEntity
  8
M0
  6
CONTINUOUS
370
25
 62
     6
100
AcDbLine
 10
101.116772
 20
371.853182
 11
101.491751
 21
371.853182
  0
CIRCLE
  5
2FB
100
AcDbEntity
  8
M0
  6
CONTINUOUS
370
25
 62
   114
100
AcDbCircle
 10
116.815957
 20
499.645931
 40
7.699566
  0
CIRCLE
  5
2FC
100
AcDbEntity
  8
M0
  6
CONTINUOUS
370
25
 62
   114
100
AcDbCircle
 10
151.81397
 20
355.654102
 40
5.633667
  0
LINE
  5
2FD
100
AcDbEntity
  8
M0
  6
CONTINUOUS
370
25
 62
     6
100
AcDbLine
 10
103.941612
 20
372.453148
 11
103.941612
 21
371.853182
  0
CIRCLE
  5
2FE
100
AcDbEntity
  8
M0
  6
CONTINUOUS
370
25
 62
   114
100
AcDbCircle
 10
116.815957
 20
499.645931
 40
8.999489
  0
LINE
  5
2FF
100
AcDbEntity
  8
M0
  6
CONTINUOUS
370
25
 62
     6
100
AcDbLine
 10
101.116772
 20
372.453148
 11
101.116772
 21
371.853182
  0
LINE
  5
300
100
AcDbEntity
  8
M0
  6
CONTINUOUS
370
25
 62
     6
100
AcDbLine
 10
102.21671
 20
373.553086
 11
102.21671
 21
373.156748
  0
CIRCLE
  5
301
100
AcDbEntity
  8
M0
  6
CONTINUOUS
370
25
 62
     6
100
AcDbCircle
 10
134.314887
 20
356.154074
 40
3.499801
  0
LINE
  5
302
100
AcDbEntity
  8
M0
  6
CONTINUOUS
370
25
 62
     6
100
AcDbLine
 10
102.21671
 20
370.753245
 11
102.21671
 21
371.149582
  0
LINE
  5
303
100
AcDbEntity
  8
M0
  6
CONTINUOUS
370
25
100
AcDbLine
 10
198.811227
 20
381.902612
 11
188.811795
 21
381.902612
  0
CIRCLE
  5
304
100
AcDbEntity
  8
M0
  6
CONTINUOUS
370
25
 62
     6
100
AcDbCircle
 10
134.314887
 20
499.14596
 40
3.499801
  0
CIRCLE
  5
305
100
AcDbEntity
  8
M0
  6
CONTINUOUS
370
25
 62
   114
100
AcDbCircle
 10
186.811985
 20
355.654102
 40
6.499631
  0
CIRCLE
  5
306
100
AcDbEntity
  8
M0
  6
CONTINUOUS
370
25
 62
   114
100
AcDbCircle
 10
186.811985
 20
355.654102
 40
8.999489
  0
CIRCLE
  5
307
100
AcDbEntity
  8
M0
  6
CONTINUOUS
370
25
 62
   114
100
AcDbCircle
 10
151.81397
 20
355.654102
 40
7.699566
  0
CIRCLE
  5
308
100
AcDbEntity
  8
M0
  6
CONTINUOUS
370
25
 62
     6
100
AcDbCircle
 10
169.312902
 20
356.154074
 40
3.499801
  0
LINE
  5
309
100
AcDbEntity
  8
M0
  6
CONTINUOUS
370
25
 62
     6
100
AcDbLine
 10
102.816676
 20
373.553086
 11
102.816676
 21
373.156748
  0
CIRCLE
  5
30A
100
AcDbEntity
  8
M0
  6
CONTINUOUS
370
25
 62
   114
100
AcDbCircle
 10
186.811985
 20
355.654102
 40
5.633667
  0
CIRCLE
  5
30B
100
AcDbEntity
  8
M0
  6
CONTINUOUS
370
25
 62
   114
100
AcDbCircle
 10
186.811985
 20
355.654102
 40
7.699566
  0
LINE
  5
30C
100
AcDbEntity
  8
M0
  6
CONTINUOUS
370
25
 62
     6
100
AcDbLine
 10
134.314887
 20
355.447007
 11
135.410874
 21
354.35102
  0
LINE
  5
30D
100
AcDbEntity
  8
M0
  6
CONTINUOUS
370
25
 62
     6
100
AcDbLine
 10
132.511832
 20
357.250062
 11
133.60782
 21
356.154074
  0
LINE
  5
30E
100
AcDbEntity
  8
M0
  6
CONTINUOUS
370
25
 62
     6
100
AcDbLine
 10
134.314887
 20
356.86114
 11
133.218899
 21
357.957128
  0
LINE
  5
30F
100
AcDbEntity
  8
M0
  6
CONTINUOUS
370
25
 62
     6
100
AcDbLine
 10
133.218899
 20
357.957128
 11
132.511832
 21
357.250062
  0
LINE
  5
310
100
AcDbEntity
  8
M0
  6
CONTINUOUS
370
25
 62
     6
100
AcDbLine
 10
135.021953
 20
499.14596
 11
137.117767
 21
501.241771
  0
LINE
  5
311
100
AcDbEntity
  8
M0
  6
CONTINUOUS
370
25
 62
     6
100
AcDbLine
 10
136.117941
 20
355.058086
 11
135.021953
 21
356.154074
  0
LINE
  5
312
100
AcDbEntity
  8
M0
  6
CONTINUOUS
370
25
 62
     6
100
AcDbLine
 10
135.021953
 20
356.154074
 11
137.117767
 21
358.249888
  0
LINE
  5
313
100
AcDbEntity
  8
M0
  6
CONTINUOUS
370
25
 62
     6
100
AcDbLine
 10
132.219062
 20
353.351183
 11
134.314887
 21
355.447007
  0
ARC
  5
314
100
AcDbEntity
  8
M0
  6
CONTINUOUS
370
25
 62
     4
100
AcDbCircle
 10
157.813552
 20
448.646278
 40
0.999943
100
AcDbArc
 50
0.0
 51
90.0
  0
LINE
  5
315
100
AcDbEntity
  8
M0
  6
CONTINUOUS
370
25
 62
     6
100
AcDbLine
 10
136.410701
 20
358.956955
 11
134.314887
 21
356.86114
  0
LINE
  5
316
100
AcDbEntity
  8
M0
  6
CONTINUOUS
370
25
 62
     6
100
AcDbLine
 10
135.410874
 20
354.35102
 11
136.117941
 21
355.058086
  0
LINE
  5
317
100
AcDbEntity
  8
M0
  6
CONTINUOUS
370
25
 62
     6
100
AcDbLine
 10
168.216915
 20
357.957128
 11
167.509848
 21
357.250062
  0
LINE
  5
318
100
AcDbEntity
  8
M0
  6
CONTINUOUS
370
25
 62
     6
100
AcDbLine
 10
133.60782
 20
356.154074
 11
131.511996
 21
354.05825
  0
LINE
  5
319
100
AcDbEntity
  8
M0
  6
CONTINUOUS
370
25
 62
     6
100
AcDbLine
 10
133.218899
 20
500.949014
 11
132.511832
 21
500.241947
  0
LINE
  5
31A
100
AcDbEntity
  8
M0
  6
CONTINUOUS
370
25
 62
     6
100
AcDbLine
 10
102.21671
 20
373.553086
 11
102.816676
 21
373.553086
  0
LINE
  5
31B
100
AcDbEntity
  8
M0
  6
CONTINUOUS
370
25
 62
     6
100
AcDbLine
 10
132.511832
 20
500.241947
 11
133.60782
 21
499.14596
  0
LINE
  5
31C
100
AcDbEntity
  8
M0
  6
CONTINUOUS
370
25
 62
     6
100
AcDbLine
 10
103.541634
 20
371.853182
 11
103.941612
 21
371.853182
  0
LINE
  5
31D
100
AcDbEntity
  8
M0
  6
CONTINUOUS
370
25
 62
     6
100
AcDbLine
 10
103.541634
 20
372.453148
 11
103.941612
 21
372.453148
  0
LINE
  5
31E
100
AcDbEntity
  8
M0
  6
CONTINUOUS
370
25
 62
     6
100
AcDbLine
 10
135.410874
 20
497.342905
 11
136.117941
 21
498.049972
  0
LINE
  5
31F
100
AcDbEntity
  8
M0
  6
CONTINUOUS
370
25
 62
     6
100
AcDbLine
 10
136.410701
 20
501.948837
 11
134.314887
 21
499.853026
  0
LINE
  5
320
100
AcDbEntity
  8
M0
  6
CONTINUOUS
370
25
 62
     6
100
AcDbLine
 10
134.314887
 20
499.853026
 11
133.218899
 21
500.949014
  0
LINE
  5
321
100
AcDbEntity
  8
M0
  6
CONTINUOUS
370
25
 62
     6
100
AcDbLine
 10
132.219062
 20
496.343069
 11
134.314887
 21
498.438893
  0
LINE
  5
322
100
AcDbEntity
  8
M0
  6
CONTINUOUS
370
25
 62
     6
100
AcDbLine
 10
134.314887
 20
498.438893
 11
135.410874
 21
497.342905
  0
LINE
  5
323
100
AcDbEntity
  8
M0
  6
CONTINUOUS
370
25
 62
     6
100
AcDbLine
 10
102.21671
 20
370.753245
 11
102.816676
 21
370.753245
  0
LINE
  5
324
100
AcDbEntity
  8
M0
  6
CONTINUOUS
370
25
 62
     6
100
AcDbLine
 10
133.60782
 20
499.14596
 11
131.511996
 21
497.050135
  0
LINE
  5
325
100
AcDbEntity
  8
M0
  6
CONTINUOUS
370
25
 62
     6
100
AcDbLine
 10
136.117941
 20
498.049972
 11
135.021953
 21
499.14596
  0
ARC
  5
326
100
AcDbEntity
  8
M0
  6
CONTINUOUS
370
25
100
AcDbCircle
 10
179.812306
 20
387.152323
 40
1.999886
100
AcDbArc
 50
0.0
 51
180.0
  0
ARC
  5
327
100
AcDbEntity
  8
M0
  6
CONTINUOUS
370
25
100
AcDbCircle
 10
199.81117
 20
401.6515
 40
0.999943
100
AcDbArc
 50
0.0
 51
90.0
  0
CIRCLE
  5
328
100
AcDbEntity
  8
M0
  6
CONTINUOUS
370
25
100
AcDbCircle
 10
191.811625
 20
395.351858
 40
2.499858
  0
ARC
  5
329
100
AcDbEntity
  8
M0
  6
CONTINUOUS
370
25
100
AcDbCircle
 10
171.312789
 20
401.951483
 40
0.499972
100
AcDbArc
 50
270.0
 51
360.0
  0
ARC
  5
32A
100
AcDbEntity
  8
M0
  6
CONTINUOUS
370
25
100
AcDbCircle
 10
177.312448
 20
385.45242
 40
0.499972
100
AcDbArc
 50
270.0
 51
360.0
  0
CIRCLE
  5
32B
100
AcDbEntity
  8
M0
  6
CONTINUOUS
370
25
100
AcDbCircle
 10
182.312164
 20
395.351858
 40
2.499858
  0
LINE
  5
32C
100
AcDbEntity
  8
M0
  6
CONTINUOUS
370
25
100
AcDbLine
 10
189.519685
 20
393.047879
 11
189.967446
 21
393.664167
  0
CIRCLE
  5
32D
100
AcDbEntity
  8
M0
  6
CONTINUOUS
370
25
100
AcDbCircle
 10
182.312164
 20
395.351858
 40
1.999886
  0
LINE
  5
32E
100
AcDbEntity
  8
M0
  6
CONTINUOUS
370
25
100
AcDbLine
 10
188.603163
 20
395.868648
 11
189.327652
 21
395.633248
  0
CIRCLE
  5
32F
100
AcDbEntity
  8
M0
  6
CONTINUOUS
370
25
 62
   114
100
AcDbCircle
 10
179.812306
 20
387.152323
 40
1.499915
  0
ARC
  5
330
100
AcDbEntity
  8
M0
  6
CONTINUOUS
370
25
100
AcDbCircle
 10
199.81117
 20
385.952392
 40
0.999943
100
AcDbArc
 50
270.0
 51
360.0
  0
LINE
  5
331
100
AcDbEntity
  8
M0
  6
CONTINUOUS
370
25
100
AcDbLine
 10
192.311596
 20
398.562985
 11
192.311596
 21
397.801209
  0
CIRCLE
  5
332
100
AcDbEntity
  8
M0
  6
CONTINUOUS
370
25
100
AcDbCircle
 10
191.811625
 20
395.351858
 40
1.999886
  0
ARC
  5
333
100
AcDbEntity
  8
M0
  6
CONTINUOUS
370
25
100
AcDbCircle
 10
191.811625
 20
395.351858
 40
3.249815
100
AcDbArc
 50
81.150117
 51
98.849883
  0
ARC
  5
334
100
AcDbEntity
  8
M0
  6
CONTINUOUS
370
25
100
AcDbCircle
 10
191.811625
 20
395.351858
 40
3.249815
100
AcDbArc
 50
153.150117
 51
170.849883
  0
ARC
  5
335
100
AcDbEntity
  8
M0
  6
CONTINUOUS
370
25
100
AcDbCircle
 10
191.811625
 20
395.351858
 40
3.249815
100
AcDbArc
 50
9.150117
 51
26.849883
  0
ARC
  5
336
100
AcDbEntity
  8
M0
  6
CONTINUOUS
370
25
100
AcDbCircle
 10
182.312164
 20
395.351858
 40
3.249815
100
AcDbArc
 50
117.150117
 51
134.849883
  0
ARC
  5
337
100
AcDbEntity
  8
M0
  6
CONTINUOUS
370
25
100
AcDbCircle
 10
182.312164
 20
395.351858
 40
3.249815
100
AcDbArc
 50
333.150117
 51
350.849883
  0
ARC
  5
338
100
AcDbEntity
  8
M0
  6
CONTINUOUS
370
25
100
AcDbCircle
 10
191.811625
 20
395.351858
 40
3.249815
100
AcDbArc
 50
225.150117
 51
242.849883
  0
ARC
  5
339
100
AcDbEntity
  8
M0
  6
CONTINUOUS
370
25
100
AcDbCircle
 10
103.816619
 20
385.952392
 40
0.999943
100
AcDbArc
 50
180.0
 51
270.0
  0
ARC
  5
33A
100
AcDbEntity
  8
M0
  6
CONTINUOUS
370
25
100
AcDbCircle
 10
103.816619
 20
401.6515
 40
0.999943
100
AcDbArc
 50
90.0
 51
180.0
  0
ARC
  5
33B
100
AcDbEntity
  8
M0
  6
CONTINUOUS
370
25
100
AcDbCircle
 10
172.312732
 20
402.151472
 40
0.499972
100
AcDbArc
 50
90.0
 51
180.0
  0
ARC
  5
33C
100
AcDbEntity
  8
M0
  6
CONTINUOUS
370
25
100
AcDbCircle
 10
132.315
 20
401.951483
 40
0.499972
100
AcDbArc
 50
180.0
 51
270.0
  0
ARC
  5
33D
100
AcDbEntity
  8
M0
  6
CONTINUOUS
370
25
100
AcDbCircle
 10
182.312164
 20
395.351858
 40
3.249815
100
AcDbArc
 50
81.150117
 51
98.849883
  0
ARC
  5
33E
100
AcDbEntity
  8
M0
  6
CONTINUOUS
370
25
100
AcDbCircle
 10
182.312164
 20
385.45242
 40
0.499972
100
AcDbArc
 50
180.0
 51
270.0
  0
ARC
  5
33F
100
AcDbEntity
  8
M0
  6
CONTINUOUS
370
25
100
AcDbCircle
 10
131.315057
 20
402.151472
 40
0.499972
100
AcDbArc
 50
1.302829E-011
 51
90.0
  0
LINE
  5
340
100
AcDbEntity
  8
M0
  6
CONTINUOUS
370
25
100
AcDbLine
 10
191.143523
 20
395.884358
 11
193.784809
 21
395.026153
  0
LINE
  5
341
100
AcDbEntity
  8
M0
  6
CONTINUOUS
370
25
100
AcDbLine
 10
132.315
 20
401.451511
 11
171.312789
 21
401.451511
  0
LINE
  5
342
100
AcDbEntity
  8
M0
  6
CONTINUOUS
370
25
100
AcDbLine
 10
191.328922
 20
396.454962
 11
190.023839
 21
396.248167
  0
LINE
  5
343
100
AcDbEntity
  8
M0
  6
CONTINUOUS
370
25
100
AcDbLine
 10
177.81242
 20
387.152323
 11
177.81242
 21
385.45242
  0
LINE
  5
344
100
AcDbEntity
  8
M0
  6
CONTINUOUS
370
25
100
AcDbLine
 10
199.81117
 20
384.952448
 11
182.312164
 21
384.952448
  0
LINE
  5
345
100
AcDbEntity
  8
M0
  6
CONTINUOUS
370
25
100
AcDbLine
 10
191.328922
 20
396.454962
 11
191.143523
 21
395.884358
  0
LINE
  5
346
100
AcDbEntity
  8
M0
  6
CONTINUOUS
370
25
100
AcDbLine
 10
182.570036
 20
396.528011
 11
182.084654
 21
396.175361
  0
LINE
  5
347
100
AcDbEntity
  8
M0
  6
CONTINUOUS
370
25
100
AcDbLine
 10
190.958123
 20
395.313757
 11
193.59941
 21
394.455552
  0
LINE
  5
348
100
AcDbEntity
  8
M0
  6
CONTINUOUS
370
25
100
AcDbLine
 10
181.113889
 20
395.470058
 11
180.907267
 21
396.77517
  0
LINE
  5
349
100
AcDbEntity
  8
M0
  6
CONTINUOUS
370
25
100
AcDbLine
 10
190.772724
 20
394.743156
 11
189.83844
 21
395.677566
  0
LINE
  5
34A
100
AcDbEntity
  8
M0
  6
CONTINUOUS
370
25
100
AcDbLine
 10
171.81276
 20
402.151472
 11
171.81276
 21
401.951483
  0
LINE
  5
34B
100
AcDbEntity
  8
M0
  6
CONTINUOUS
370
25
100
AcDbLine
 10
182.570036
 20
396.528011
 11
181.39265
 21
397.12782
  0
LINE
  5
34C
100
AcDbEntity
  8
M0
  6
CONTINUOUS
370
25
100
AcDbLine
 10
190.958123
 20
395.313757
 11
190.772724
 21
394.743156
  0
LINE
  5
34D
100
AcDbEntity
  8
M0
  6
CONTINUOUS
370
25
100
AcDbLine
 10
192.846832
 20
393.076417
 11
193.29459
 21
392.460129
  0
LINE
  5
34E
100
AcDbEntity
  8
M0
  6
CONTINUOUS
370
25
100
AcDbLine
 10
191.311653
 20
398.562985
 11
191.311653
 21
397.801209
  0
LINE
  5
34F
100
AcDbEntity
  8
M0
  6
CONTINUOUS
370
25
100
AcDbLine
 10
131.815029
 20
402.151472
 11
131.815029
 21
401.951483
  0
LINE
  5
350
100
AcDbEntity
  8
M0
  6
CONTINUOUS
370
25
100
AcDbLine
 10
181.812192
 20
398.562985
 11
181.812192
 21
397.801209
  0
LINE
  5
351
100
AcDbEntity
  8
M0
  6
CONTINUOUS
370
25
100
AcDbLine
 10
182.812136
 20
398.562985
 11
182.812136
 21
397.801209
  0
LINE
  5
352
100
AcDbEntity
  8
M0
  6
CONTINUOUS
370
25
100
AcDbLine
 10
188.912163
 20
396.819651
 11
189.636651
 21
396.584251
  0
LINE
  5
353
100
AcDbEntity
  8
M0
  6
CONTINUOUS
370
25
100
AcDbLine
 10
177.312448
 20
384.952448
 11
103.816619
 21
384.952448
  0
LINE
  5
354
100
AcDbEntity
  8
M0
  6
CONTINUOUS
370
25
100
AcDbLine
 10
181.812192
 20
387.152323
 11
181.812192
 21
385.45242
  0
LINE
  5
355
100
AcDbEntity
  8
M0
  6
CONTINUOUS
370
25
100
AcDbLine
 10
199.81117
 20
402.651443
 11
172.312732
 21
402.651443
  0
LINE
  5
356
100
AcDbEntity
  8
M0
  6
CONTINUOUS
370
25
100
AcDbLine
 10
103.816619
 20
402.651443
 11
131.315057
 21
402.651443
  0
LINE
  5
357
100
AcDbEntity
  8
M0
  6
CONTINUOUS
370
25
100
AcDbLine
 10
185.520625
 20
394.835067
 11
184.796133
 21
395.07047
  0
LINE
  5
358
100
AcDbEntity
  8
M0
  6
CONTINUOUS
370
25
100
AcDbLine
 10
200.811113
 20
401.6515
 11
200.811113
 21
385.952392
  0
LINE
  5
359
100
AcDbEntity
  8
M0
  6
CONTINUOUS
370
25
 62
     6
100
AcDbLine
 10
171.151308
 20
469.016264
 11
170.019969
 21
470.147603
  0
LINE
  5
35A
100
AcDbEntity
  8
M0
  6
CONTINUOUS
370
25
 62
     6
100
AcDbLine
 10
168.18156
 20
471.986012
 11
167.474493
 21
471.278946
  0
LINE
  5
35B
100
AcDbEntity
  8
M0
  6
CONTINUOUS
370
25
 62
     6
100
AcDbLine
 10
168.605836
 20
470.147603
 11
167.474527
 21
469.016298
  0
LINE
  5
35C
100
AcDbEntity
  8
M0
  6
CONTINUOUS
370
25
 62
     6
100
AcDbLine
 10
170.444241
 20
468.309198
 11
171.151308
 21
469.016264
  0
LINE
  5
35D
100
AcDbEntity
  8
M0
  6
CONTINUOUS
370
25
 62
     6
100
AcDbLine
 10
169.312902
 20
470.85467
 11
168.18156
 21
471.986012
  0
LINE
  5
35E
100
AcDbEntity
  8
M0
  6
CONTINUOUS
370
25
 62
     6
100
AcDbLine
 10
170.019969
 20
470.147603
 11
171.151265
 21
471.278902
  0
LINE
  5
35F
100
AcDbEntity
  8
M0
  6
CONTINUOUS
370
25
 62
     6
100
AcDbLine
 10
171.151265
 20
471.278902
 11
170.444198
 21
471.985969
  0
LINE
  5
360
100
AcDbEntity
  8
M0
  6
CONTINUOUS
370
25
 62
     6
100
AcDbLine
 10
170.444198
 20
471.985969
 11
169.312902
 21
470.85467
  0
LINE
  5
361
100
AcDbEntity
  8
M0
  6
CONTINUOUS
370
25
 62
     6
100
AcDbLine
 10
134.314887
 20
470.85467
 11
133.183548
 21
471.986012
  0
LINE
  5
362
100
AcDbEntity
  8
M0
  6
CONTINUOUS
370
25
 62
     6
100
AcDbLine
 10
168.181593
 20
468.309228
 11
169.312902
 21
469.440537
  0
LINE
  5
363
100
AcDbEntity
  8
M0
  6
CONTINUOUS
370
25
 62
     6
100
AcDbLine
 10
167.474493
 20
471.278946
 11
168.605836
 21
470.147603
  0
LINE
  5
364
100
AcDbEntity
  8
M0
  6
CONTINUOUS
370
25
 62
     6
100
AcDbLine
 10
134.314887
 20
469.440537
 11
135.446229
 21
468.309198
  0
LINE
  5
365
100
AcDbEntity
  8
M0
  6
CONTINUOUS
370
25
 62
     6
100
AcDbLine
 10
167.474527
 20
469.016298
 11
168.181593
 21
468.309228
  0
LINE
  5
366
100
AcDbEntity
  8
M0
  6
CONTINUOUS
370
25
 62
   114
100
AcDbLine
 10
154.844881
 20
501.395815
 11
154.844881
 21
497.896031
  0
LINE
  5
367
100
AcDbEntity
  8
M0
  6
CONTINUOUS
370
25
 62
   114
100
AcDbLine
 10
154.844881
 20
497.896031
 11
151.81397
 21
496.14613
  0
LINE
  5
368
100
AcDbEntity
  8
M0
  6
CONTINUOUS
370
25
 62
   114
100
AcDbLine
 10
183.781057
 20
501.395832
 11
186.811985
 21
503.145733
  0
LINE
  5
369
100
AcDbEntity
  8
M0
  6
CONTINUOUS
370
25
 62
   114
100
AcDbLine
 10
148.783045
 20
497.896031
 11
148.783045
 21
501.395832
  0
LINE
  5
36A
100
AcDbEntity
  8
M0
  6
CONTINUOUS
370
25
 62
   114
100
AcDbLine
 10
148.783045
 20
501.395832
 11
151.81397
 21
503.145733
  0
LINE
  5
36B
100
AcDbEntity
  8
M0
  6
CONTINUOUS
370
25
 62
   114
100
AcDbLine
 10
151.81397
 20
503.145733
 11
154.844881
 21
501.395815
  0
LINE
  5
36C
100
AcDbEntity
  8
M0
  6
CONTINUOUS
370
25
 62
   114
100
AcDbLine
 10
189.842893
 20
501.395815
 11
189.842893
 21
497.896031
  0
LINE
  5
36D
100
AcDbEntity
  8
M0
  6
CONTINUOUS
370
25
 62
   114
100
AcDbLine
 10
189.842893
 20
497.896031
 11
186.811985
 21
496.14613
  0
LINE
  5
36E
100
AcDbEntity
  8
M0
  6
CONTINUOUS
370
25
 62
     6
100
AcDbLine
 10
169.312902
 20
469.440537
 11
170.444241
 21
468.309198
  0
LINE
  5
36F
100
AcDbEntity
  8
M0
  6
CONTINUOUS
370
25
 62
   114
100
AcDbLine
 10
183.781057
 20
497.896031
 11
183.781057
 21
501.395832
  0
LINE
  5
370
100
AcDbEntity
  8
M0
  6
CONTINUOUS
370
25
 62
   114
100
AcDbLine
 10
151.81397
 20
496.14613
 11
148.783045
 21
497.896031
  0
LINE
  5
371
100
AcDbEntity
  8
M0
  6
CONTINUOUS
370
25
 62
   114
100
AcDbLine
 10
186.811985
 20
503.145733
 11
189.842893
 21
501.395815
  0
LINE
  5
372
100
AcDbEntity
  8
M0
  6
CONTINUOUS
370
25
 62
   114
100
AcDbLine
 10
186.811985
 20
496.14613
 11
183.781057
 21
497.896031
  0
LINE
  5
373
100
AcDbEntity
  8
M0
  6
CONTINUOUS
370
25
100
AcDbLine
 10
181.276956
 20
393.076417
 11
180.829195
 21
392.460129
  0
LINE
  5
374
100
AcDbEntity
  8
M0
  6
CONTINUOUS
370
25
100
AcDbLine
 10
194.295594
 20
395.633248
 11
195.020086
 21
395.868648
  0
LINE
  5
375
100
AcDbEntity
  8
M0
  6
CONTINUOUS
370
25
100
AcDbLine
 10
180.020224
 20
393.047879
 11
180.467986
 21
393.664167
  0
LINE
  5
376
100
AcDbEntity
  8
M0
  6
CONTINUOUS
370
25
 62
     4
100
AcDbLine
 10
145.814234
 20
439.524339
 11
157.813552
 21
439.524339
  0
LINE
  5
377
100
AcDbEntity
  8
M0
  6
CONTINUOUS
370
25
 62
     4
100
AcDbLine
 10
145.814234
 20
442.312664
 11
157.813552
 21
442.312664
  0
LINE
  5
378
100
AcDbEntity
  8
M0
  6
CONTINUOUS
370
25
100
AcDbLine
 10
180.829195
 20
398.24359
 11
181.276956
 21
397.627302
  0
ARC
  5
379
100
AcDbEntity
  8
M0
  6
CONTINUOUS
370
25
100
AcDbCircle
 10
182.312164
 20
395.351858
 40
3.249815
100
AcDbArc
 50
225.150117
 51
242.849883
  0
LINE
  5
37A
100
AcDbEntity
  8
M0
  6
CONTINUOUS
370
25
100
AcDbLine
 10
194.711087
 20
396.819651
 11
193.986594
 21
396.584251
  0
LINE
  5
37B
100
AcDbEntity
  8
M0
  6
CONTINUOUS
370
25
100
AcDbLine
 10
102.816676
 20
401.6515
 11
102.816676
 21
385.952392
  0
LINE
  5
37C
100
AcDbEntity
  8
M0
  6
CONTINUOUS
370
25
100
AcDbLine
 10
193.655803
 20
393.664167
 11
194.103561
 21
393.047879
  0
LINE
  5
37D
100
AcDbEntity
  8
M0
  6
CONTINUOUS
370
25
100
AcDbLine
 10
180.020224
 20
397.655837
 11
180.467986
 21
397.039549
  0
ARC
  5
37E
100
AcDbEntity
  8
M0
  6
CONTINUOUS
370
25
100
AcDbCircle
 10
191.811625
 20
395.351858
 40
3.249815
100
AcDbArc
 50
297.150117
 51
314.849883
  0
LINE
  5
37F
100
AcDbEntity
  8
M0
  6
CONTINUOUS
370
25
100
AcDbLine
 10
190.328659
 20
392.460129
 11
190.776417
 21
393.076417
  0
LINE
  5
380
100
AcDbEntity
  8
M0
  6
CONTINUOUS
370
25
 62
     6
100
AcDbLine
 10
135.021953
 20
470.147603
 11
136.153252
 21
471.278902
  0
LINE
  5
381
100
AcDbEntity
  8
M0
  6
CONTINUOUS
370
25
 62
     6
100
AcDbLine
 10
136.153296
 20
469.016264
 11
135.021953
 21
470.147603
  0
LINE
  5
382
100
AcDbEntity
  8
M0
  6
CONTINUOUS
370
25
 62
     6
100
AcDbLine
 10
133.183578
 20
468.309228
 11
134.314887
 21
469.440537
  0
LINE
  5
383
100
AcDbEntity
  8
M0
  6
CONTINUOUS
370
25
 62
     6
100
AcDbLine
 10
132.476481
 20
471.278946
 11
133.60782
 21
470.147603
  0
LINE
  5
384
100
AcDbEntity
  8
M0
  6
CONTINUOUS
370
25
 62
     6
100
AcDbLine
 10
135.446229
 20
468.309198
 11
136.153296
 21
469.016264
  0
LINE
  5
385
100
AcDbEntity
  8
M0
  6
CONTINUOUS
370
25
 62
     6
100
AcDbLine
 10
133.60782
 20
470.147603
 11
132.476511
 21
469.016298
  0
LINE
  5
386
100
AcDbEntity
  8
M0
  6
CONTINUOUS
370
25
 62
     4
100
AcDbLine
 10
145.814234
 20
449.646221
 11
157.813552
 21
449.646221
  0
LINE
  5
387
100
AcDbEntity
  8
M0
  6
CONTINUOUS
370
25
 62
     6
100
AcDbLine
 10
136.153252
 20
471.278902
 11
135.446186
 21
471.985969
  0
LINE
  5
388
100
AcDbEntity
  8
M0
  6
CONTINUOUS
370
25
 62
     4
100
AcDbLine
 10
144.81429
 20
440.524282
 11
144.81429
 21
448.646278
  0
LINE
  5
389
100
AcDbEntity
  8
M0
  6
CONTINUOUS
370
25
 62
     6
100
AcDbLine
 10
132.476511
 20
469.016298
 11
133.183578
 21
468.309228
  0
LINE
  5
38A
100
AcDbEntity
  8
M0
  6
CONTINUOUS
370
25
 62
     6
100
AcDbLine
 10
133.183548
 20
471.986012
 11
132.476481
 21
471.278946
  0
LINE
  5
38B
100
AcDbEntity
  8
M0
  6
CONTINUOUS
370
25
 62
     4
100
AcDbLine
 10
158.813495
 20
440.524282
 11
158.813495
 21
448.646278
  0
LINE
  5
38C
100
AcDbEntity
  8
M0
  6
CONTINUOUS
370
25
 62
     6
100
AcDbLine
 10
135.446186
 20
471.985969
 11
134.314887
 21
470.85467
  0
LINE
  5
38D
100
AcDbEntity
  8
M1
  6
CONTINUOUS
370
25
100
AcDbLine
 10
-74.520812
 20
72.558746
 11
-74.520812
 21
72.258746
  0
LINE
  5
38E
100
AcDbEntity
  8
M1
  6
CONTINUOUS
370
25
100
AcDbLine
 10
-74.520812
 20
72.258746
 11
-74.220812
 21
72.258746
  0
LINE
  5
38F
100
AcDbEntity
  8
M2
  6
CONTINUOUS
370
50
 62
     7
100
AcDbLine
 10
398.680412
 20
19.601204
 11
398.680412
 21
569.601204
  0
LINE
  5
390
100
AcDbEntity
  8
M2
  6
CONTINUOUS
370
50
 62
     7
100
AcDbLine
 10
18.680412
 20
569.601204
 11
398.680412
 21
569.601204
  0
LINE
  5
391
100
AcDbEntity
  8
M2
  6
CONTINUOUS
370
50
 62
     7
100
AcDbLine
 10
18.680412
 20
569.601204
 11
18.680412
 21
19.601204
  0
LINE
  5
392
100
AcDbEntity
  8
M2
  6
CONTINUOUS
370
50
 62
     7
100
AcDbLine
 10
18.680412
 20
19.601204
 11
398.680412
 21
19.601204
  0
LINE
  5
393
100
AcDbEntity
  8
M4
  6
CONTINUOUS
370
13
100
AcDbLine
 10
107.902221
 20
74.09641
 11
178.182219
 21
74.09641
  0
TEXT
  5
394
100
AcDbEntity
  8
M4
100
AcDbText
 10
107.903328
 20
74.596413
 40
5.0
  1
ＤＲＩＬＬＩＮＧ　ＰＬＡＮ．
 41
0.833333
  7
STANDARD
100
AcDbText
  0
LINE
  5
395
100
AcDbEntity
  8
M4
  6
CONTINUOUS
370
13
100
AcDbLine
 10
249.550613
 20
74.09641
 11
344.830613
 21
74.09641
  0
TEXT
  5
396
100
AcDbEntity
  8
M4
100
AcDbText
 10
249.551727
 20
74.596413
 40
5.0
  1
ＦＲＯＮＴ　ＰＬＡＴＥ　ＣＵＴＯＵＴ．
 41
0.833333
  7
STANDARD
100
AcDbText
  0
ENDSEC
  0
SECTION
  2
OBJECTS
  0
DICTIONARY
  5
C
100
AcDbDictionary
  3
ACAD_GROUP
350
D
  3
ACAD_MLINESTYLE
350
E
  3
ACDBVARIABLEDICTIONARY
350
4B
  0
DICTIONARY
  5
D
102
{ACAD_REACTORS
330
C
102
}
100
AcDbDictionary
  0
DICTIONARY
  5
E
102
{ACAD_REACTORS
330
C
102
}
100
AcDbDictionary
  3
STANDARD
350
13
  0
DICTIONARY
  5
4B
102
{ACAD_REACTORS
330
C
102
}
100
AcDbDictionary
  3
SORTENTS
350
4C
  0
MLINESTYLE
  5
13
102
{ACAD_REACTORS
330
E
102
}
100
AcDbMlineStyle
  2
STANDARD
 70
     0
  3

 62
     0
 51
90.0
 52
90.0
 71
     2
 49
0.5
 62
   256
  6
BYLAYER
 49
-0.5
 62
   256
  6
BYLAYER
  0
DICTIONARYVAR
  5
4C
102
{ACAD_REACTORS
330
4B
102
}
100
DictionaryVariables
280
     0
  1
96
  0
ENDSEC
  0
EOF
