  0
SECTION
  2
HEADER
  9
$ACADVER
  1
AC1015
  9
$INSBASE
 10
0.000000
 20
0.000000
 30
0.0
  9
$VIEWCTR
 10
7.531722
 20
4.5
  9
$VIEWSIZE
 40
9.0
  9
$SNAPMODE
 70
     0
  9
$SNAPUNIT
 10
1.0
 20
1.0
  9
$SNAPBASE
 10
0.0
 20
0.0
  9
$SNAPANG
 50
0.0
  9
$SNAPSTYLE
 70
     0
  9
$SNAPISOPAIR
 70
     0
  9
$GRIDMODE
 70
     0
  9
$GRIDUNIT
 10
0.0
 20
0.0
  9
$ORTHOMODE
 70
     0
  9
$REGENMODE
 70
     1
  9
$FILLMODE
 70
     1
  9
$QTEXTMODE
 70
     0
  9
$DRAGMODE
 70
     2
  9
$LTSCALE
  40
     1.000000
  9
$OSMODE
 70
     0
  9
$ATTMODE
 70
     1
  9
$TEXTSIZE
 40
0.2
  9
$TRACEWID
 40
0.05
  9
$TEXTSTYLE
  7
STANDARD
  9
$CELTYPE
  6
BYLAYER
  9
$CECOLOR
 62
   256
  9
$DIMSCALE
 40
1.0
  9
$DIMASZ
 40
0.18
  9
$DIMEXO
 40
0.0625
  9
$DIMDLI
 40
0.38
  9
$DIMRND
 40
0.0
  9
$DIMDLE
 40
0.0
  9
$DIMEXE
 40
0.18
  9
$DIMTP
 40
0.0
  9
$DIMTM
 40
0.0
  9
$DIMTXT
 40
0.18
  9
$DIMCEN
 40
0.09
  9
$DIMTSZ
 40
0.0
  9
$DIMADEC
 70
     0
  9
$DIMALTRND
 40
0.000000
  9
$DIMAZIN
 70
     0
  9
$DIMDSEP
 70
    46
  9
$DIMATFIT
 70
     3
  9
$DIMFRAC
 70
     0
  9
$DIMLDRBLK
  1

  9
$DIMLUNIT
 70
     2
  9
$DIMLWD
 70
   13
  9
$DIMLWE
 70
   13
  9
$DIMTMOVE
 70
     0
  9
$CELWEIGHT
370
    25
  9
$LWDISPLAY
290
    1
  9
$EXTNAMES
290
    1
  9
$DIMTOL
 70
     0
  9
$DIMLIM
 70
     0
  9
$DIMTIH
 70
     1
  9
$DIMTOH
 70
     1
  9
$DIMSE1
 70
     0
  9
$DIMSE2
 70
     0
  9
$DIMTAD
 70
     0
  9
$DIMZIN
 70
     0
  9
$DIMBLK
  1

  9
$LUNITS
 70
     2
  9
$LUPREC
 70
     4
  9
$AXISMODE
 70
     0
  9
$AXISUNIT
 10
0.0
 20
0.0
  9
$SKETCHINC
 40
0.1
  9
$FILLETRAD
 40
0.0
  9
$AUNITS
 70
     0
  9
$AUPREC
 70
     0
  9
$MENU
  1
ACAD
  9
$ELEVATION
 40
0.0
  9
$THICKNESS
 40
0.0
  9
$VIEWDIR
 10
0.0
 20
0.0
 30
1.0
  9
$LIMCHECK
 70
     0
  9
$BLIPMODE
 70
     1
  9
$CHAMFERA
 40
0.0
  9
$CHAMFERB
 40
0.0
  9
$FASTZOOM
 70
     1
  9
$SKPOLY
 70
     0
  9
$TDCREATE
 40
0000000.0000000000
  9
$TDUPDATE
 40
0000000.0000000000
  9
$TDINDWG
 40
0.0000000000
  9
$TDUSRTIMER
 40
0.0000000000
  9
$USRTIMER
 70
     1
  9
$ANGBASE
 50
0.0
  9
$ANGDIR
 70
     0
  9
$PDMODE
 70
     0
  9
$PDSIZE
 40
0.0
  9
$PLINEWID
 40
0.0
  9
$COORDS
 70
     0
  9
$USERI1
 70
     0
  9
$USERI2
 70
     0
  9
$USERI3
 70
     0
  9
$USERI4
 70
     0
  9
$USERI5
 70
     0
  9
$USERR1
 40
0.0
  9
$USERR2
 40
0.0
  9
$USERR3
 40
0.0
  9
$USERR4
 40
0.0
  9
$USERR5
 40
0.0
  9
$CLAYER
  8
M1
  9
$EXTMIN
 10
0.0
 20
0.0
  9
$EXTMAX
 10
841.0
 20
594.0
  9
$LIMMIN
 10
0.0
 20
0.0
  9
$LIMMAX
 10
841.0
 20
594.0
  9
$HANDSEED
  5
128
  0
ENDSEC
  0
SECTION
  2
CLASSES
  0
CLASS
  1
DIMASSOC
  2
AcDbDimAssoc
  3
"AcDbDimAssoc|Product Desc:     AcDim ARX App For Dimension|Company:          Autodesk, Inc.|WEB Address:      www.autodesk.com"
 90
        0
280
     0
281
     0
  0
ENDSEC
  0
SECTION
  2
TABLES
  0
TABLE
  2
VPORT
  5
8
100
AcDbSymbolTable
 70
     2
  0
VPORT
  5
14
100
AcDbSymbolTableRecord
100
AcDbViewportTableRecord
  2
*ACTIVE
 70
     0
 10
0.0
 20
0.0
 11
1.0
 21
1.0
 12
484.0
 22
297.0
 13
0.0
 23
0.0
 14
1.0
 24
1.0
 15
0.0
 25
0.0
 16
0.0
 26
0.0
 36
1.0
 17
0.0
 27
0.0
 37
0.0
 40
594.0
 41
2.0
 42
50.0
 43
0.0
 44
0.0
 50
0.0
 51
0.0
 71
     0
 72
   100
 73
     1
 74
     1
 75
     0
 76
     0
 77
     0
 78
     0
  0
ENDTAB
  0
TABLE
  2
LTYPE
  5
5
100
AcDbSymbolTable
 70
     5
  0
LTYPE
  5
15
100
AcDbSymbolTableRecord
100
AcDbLinetypeTableRecord
  2
BYBLOCK
 70
     0
  3

 72
    65
 73
     0
 40
0.0
  0
LTYPE
  5
16
100
AcDbSymbolTableRecord
100
AcDbLinetypeTableRecord
  2
BYLAYER
 70
     0
  3

 72
    65
 73
     0
 40
0.0
  0
LTYPE
  5
17
100
AcDbSymbolTableRecord
100
AcDbLinetypeTableRecord
  2
CONTINUOUS
 70
    64
  3
Solid line
 72
    65
 73
     0
 40
0.0
  0
LTYPE
  5
18
100
AcDbSymbolTableRecord
100
AcDbLinetypeTableRecord
  2
DASHED
 70
    64
  3
__ __ __ __ __ __ __ __ __ __ __ __ __ __ __ __
 72
    65
 73
     2
 40
0.75
 49
0.5
 74
     0
 49
-0.25
 74
     0
  0
LTYPE
  5
19
100
AcDbSymbolTableRecord
100
AcDbLinetypeTableRecord
  2
DASHDOT
 70
    64
  3
__ . __ . __ . __ . __ . __ . __ . __ . __ . __
 72
    65
 73
     4
 40
1.0
 49
0.5
 74
     0
 49
-0.25
 74
     0
 49
0.0
 74
     0
 49
-0.25
 74
     0
  0
LTYPE
  5
1A
100
AcDbSymbolTableRecord
100
AcDbLinetypeTableRecord
  2
DIVIDE
 70
    64
  3
____ . . ____ . . ____ . . ____ . . ____ . . __
 72
    65
 73
     6
 40
1.25
 49
0.5
 74
     0
 49
-0.25
 74
     0
 49
0.0
 74
     0
 49
-0.25
 74
     0
 49
0.0
 74
     0
 49
-0.25
 74
     0
  0
LTYPE
  5
1B
100
AcDbSymbolTableRecord
100
AcDbLinetypeTableRecord
  2
DOT
 70
    64
  3
. . . . . . . . . . . . . . . . . . . . . . . .
 72
    65
 73
     2
 40
0.25
 49
0.0
 74
     0
 49
-0.25
 74
     0
  0
ENDTAB
  0
TABLE
  2
LAYER
  5
2
100
AcDbSymbolTable
 70
   102
  0
LAYER
  5
F
100
AcDbSymbolTableRecord
100
AcDbLayerTableRecord
  2
0
 70
     0
 62
     7
  6
CONTINUOUS
370
     -3
390
F
  0
LAYER
  5
1C
100
AcDbSymbolTableRecord
100
AcDbLayerTableRecord
  2
M1
 70
     0
 62
     3
  6
CONTINUOUS
370
     -3
390
F
  0
LAYER
  5
1D
100
AcDbSymbolTableRecord
100
AcDbLayerTableRecord
  2
M2
 70
     0
 62
     7
  6
CONTINUOUS
370
     -3
390
F
  0
ENDTAB
  0
TABLE
  2
STYLE
  5
3
100
AcDbSymbolTable
 70
     2
  0
STYLE
  5
10
100
AcDbSymbolTableRecord
100
AcDbTextStyleTableRecord
  2
STANDARD
 70
     0
 40
0.0
 41
1.0
 50
0.0
 71
     0
 42
0.2
  3
txt
  4
BIGFONT
  0
ENDTAB
  0
TABLE
  2
VIEW
  5
6
100
AcDbSymbolTable
 70
     0
  0
ENDTAB
  0
TABLE
  2
UCS
  5
7
100
AcDbSymbolTable
 70
     0
  0
ENDTAB
  0
TABLE
  2
APPID
  5
9
100
AcDbSymbolTable
 70
     1
  0
APPID
  5
11
100
AcDbSymbolTableRecord
100
AcDbRegAppTableRecord
  2
ACAD
 70
     0
  0
ENDTAB
  0
TABLE
  2
DIMSTYLE
  5
A
100
AcDbSymbolTable
 70
     2
100
AcDbDimStyleTable
 71
     1
  0
DIMSTYLE
105
46
100
AcDbSymbolTableRecord
100
AcDbDimStyleTableRecord
  2
STANDARD
 70
     0
  3

  4

  5

  6
_OPEN
  7
_OPEN
 40
1.0
 41
3.0
 42
0.0
 43
8.0
 44
1.5
 45
0.0
 46
0.0
 47
0.0
 48
0.0
140
3.2
141
0.09
142
0.0
143
0.03937
144
1.0
145
0.0
146
1.0
147
1.0
148
0.000000
 71
     0
 72
     0
 73
     1
 74
     1
 75
     0
 76
     0
 77
     3
 78
     8
170
     0
171
     2
172
     0
173
     1
174
     0
175
     0
176
     0
177
     0
178
     0
270
     2
271
     2
272
     4
273
     2
274
     2
340
10
275
     0
278
    46
280
     0
281
     0
282
     0
283
     1
284
     0
285
     0
286
     0
287
     3
288
     0
371
   13
372
   13
  0
DIMSTYLE
105
47
100
AcDbSymbolTableRecord
100
AcDbDimStyleTableRecord
  2
LEADSTYL
 70
     0
  3

  4

  5

  6
_OPEN
  7
_OPEN
 40
1.0
 41
3.0
 42
0.0625
 43
0.38
 44
0.18
 45
0.0
 46
0.0
 47
0.0
 48
0.0
140
3.2
141
0.09
142
0.0
143
25.4
144
1.0
145
0.0
146
1.0
147
1.0
 71
     0
 72
     0
 73
     1
 74
     1
 75
     0
 76
     0
 77
     0
 78
     0
170
     0
171
     2
172
     0
173
     1
174
     0
175
     0
176
     0
177
     0
178
     0
270
     2
271
     4
272
     4
273
     2
274
     2
340
10
275
     0
280
     0
281
     0
282
     0
283
     1
284
     0
285
     0
286
     0
287
     3
288
     0
  0
ENDTAB
  0
TABLE
  2
BLOCK_RECORD
  5
1
100
AcDbSymbolTable
 70
     6
  0
BLOCK_RECORD
  5
1E
100
AcDbSymbolTableRecord
100
AcDbBlockTableRecord
  2
*MODEL_SPACE
  0
BLOCK_RECORD
  5
21
100
AcDbSymbolTableRecord
100
AcDbBlockTableRecord
  2
*PAPER_SPACE
  0
BLOCK_RECORD
  5
24
100
AcDbSymbolTableRecord
100
AcDbBlockTableRecord
  2
_NONE
  0
BLOCK_RECORD
  5
28
100
AcDbSymbolTableRecord
100
AcDbBlockTableRecord
  2
_OPEN
  0
BLOCK_RECORD
  5
2E
100
AcDbSymbolTableRecord
100
AcDbBlockTableRecord
  2
_CLOSED
  0
BLOCK_RECORD
  5
35
100
AcDbSymbolTableRecord
100
AcDbBlockTableRecord
  2
_ORIGIN
  0
BLOCK_RECORD
  5
3A
100
AcDbSymbolTableRecord
100
AcDbBlockTableRecord
  2
_DOT
  0
BLOCK_RECORD
  5
42
100
AcDbSymbolTableRecord
100
AcDbBlockTableRecord
  2
_OBLIQUE
  0
ENDTAB
  0
ENDSEC
  0
SECTION
  2
BLOCKS
  0
BLOCK
  5
1F
100
AcDbEntity
  8
0
100
AcDbBlockBegin
  2
*MODEL_SPACE
 70
     0
 10
0.0
 20
0.0
 30
0.0
  3
*MODEL_SPACE
  1

  0
ENDBLK
  5
20
100
AcDbEntity
  8
0
100
AcDbBlockEnd
  0
BLOCK
  5
22
100
AcDbEntity
 67
     1
  8
0
100
AcDbBlockBegin
  2
*PAPER_SPACE
 70
     0
 10
0.0
 20
0.0
 30
0.0
  3
*PAPER_SPACE
  1

  0
ENDBLK
  5
23
100
AcDbEntity
 67
     1
  8
0
100
AcDbBlockEnd
  0
BLOCK
  5
25
100
AcDbEntity
  8
0
100
AcDbBlockBegin
  2
_NONE
 70
     0
 10
0.0
 20
0.0
  0
CIRCLE
  5
26
100
AcDbEntity
  8
0
 62
     0
370
13
100
AcDbCircle
 10
0.0
 20
0.0
 40
0.25
  0
ENDBLK
  5
27
100
AcDbEntity
  8
0
100
AcDbBlockEnd
  0
BLOCK
  5
29
100
AcDbEntity
  8
0
100
AcDbBlockBegin
  2
_OPEN
 70
     0
 10
0.0
 20
0.0
  0
LINE
  5
2A
100
AcDbEntity
  8
0
 62
     0
370
13
100
AcDbLine
 10
-0.965926
 20
0.258819
 11
0.0
 21
0.0
  0
LINE
  5
2B
100
AcDbEntity
  8
0
 62
     0
370
13
100
AcDbLine
 10
0.0
 20
0.0
 11
-0.965926
 21
-0.258819
  0
LINE
  5
2C
100
AcDbEntity
  8
0
 62
     0
370
13
100
AcDbLine
 10
0.0
 20
0.0
 11
-1.0
 21
0.0
  0
ENDBLK
  5
2D
100
AcDbEntity
  8
0
100
AcDbBlockEnd
  0
BLOCK
  5
2F
100
AcDbEntity
  8
0
100
AcDbBlockBegin
  2
_CLOSED
 70
     0
 10
0.0
 20
0.0
  0
LINE
  5
30
100
AcDbEntity
  8
0
 62
     0
370
13
100
AcDbLine
 10
-0.965926
 20
0.258819
 11
0.0
 21
0.0
  0
LINE
  5
31
100
AcDbEntity
  8
0
 62
     0
370
13
100
AcDbLine
 10
0.0
 20
0.0
 11
-0.965926
 21
-0.258819
  0
LINE
  5
32
100
AcDbEntity
  8
0
 62
     0
370
13
100
AcDbLine
 10
-0.965926
 20
0.258819
 11
-0.965926
 21
-0.258819
  0
LINE
  5
33
100
AcDbEntity
  8
0
 62
     0
370
13
100
AcDbLine
 10
0.0
 20
0.0
 11
-1.0
 21
0.0
  0
ENDBLK
  5
34
100
AcDbEntity
  8
0
100
AcDbBlockEnd
  0
BLOCK
  5
36
100
AcDbEntity
  8
0
100
AcDbBlockBegin
  2
_ORIGIN
 70
     0
 10
0.0
 20
0.0
  0
CIRCLE
  5
37
100
AcDbEntity
  8
0
 62
     0
370
13
100
AcDbCircle
 10
0.0
 20
0.0
 40
0.5
  0
LINE
  5
38
100
AcDbEntity
  8
0
 62
     0
370
13
100
AcDbLine
 10
0.0
 20
0.0
 11
-1.0
 21
0.0
  0
ENDBLK
  5
39
100
AcDbEntity
  8
0
100
AcDbBlockEnd
  0
BLOCK
  5
3B
100
AcDbEntity
  8
0
100
AcDbBlockBegin
  2
_DOT
 70
     0
 10
0.0
 20
0.0
  0
POLYLINE
  5
3C
100
AcDbEntity
  8
0
 62
     0
100
AcDb2dPolyline
 66
     1
 70
     1
 40
0.5
 41
0.5
  0
VERTEX
  5
3D
100
AcDbEntity
  8
0
 62
     0
100
AcDbVertex
100
AcDb2dVertex
 10
-0.25
 20
0.0
 42
1.0
  0
VERTEX
  5
3E
100
AcDbEntity
  8
0
 62
     0
100
AcDbVertex
100
AcDb2dVertex
 10
0.25
 20
0.0
 42
1.0
  0
SEQEND
  5
3F
100
AcDbEntity
  8
0
 62
     0
  0
LINE
  5
40
100
AcDbEntity
  8
0
 62
     0
370
13
100
AcDbLine
 10
-0.5
 20
0.0
 11
-1.0
 21
0.0
  0
ENDBLK
  5
41
100
AcDbEntity
  8
0
100
AcDbBlockEnd
  0
BLOCK
  5
43
100
AcDbEntity
  8
0
100
AcDbBlockBegin
  2
_OBLIQUE
 70
     0
 10
0.0
 20
0.0
  0
LINE
  5
44
100
AcDbEntity
  8
0
 62
     0
370
13
100
AcDbLine
 10
-0.353553
 20
-0.353553
 11
0.353553
 21
0.353553
  0
ENDBLK
  5
45
100
AcDbEntity
  8
0
100
AcDbBlockEnd
  0
ENDSEC
  0
SECTION
  2
ENTITIES
  0
LINE
  5
48
100
AcDbEntity
  8
M1
  6
CONTINUOUS
370
25
 62
     4
100
AcDbLine
 10
127.996586
 20
382.882118
 11
127.996586
 21
514.882118
  0
LINE
  5
49
100
AcDbEntity
  8
M1
  6
CONTINUOUS
370
25
 62
     4
100
AcDbLine
 10
127.996586
 20
514.882118
 11
15.996586
 21
514.882118
  0
LINE
  5
4A
100
AcDbEntity
  8
M1
  6
CONTINUOUS
370
25
 62
     4
100
AcDbLine
 10
15.996586
 20
514.882118
 11
15.996586
 21
382.882118
  0
LINE
  5
4B
100
AcDbEntity
  8
M1
  6
CONTINUOUS
370
25
 62
     4
100
AcDbLine
 10
15.996586
 20
382.882118
 11
127.996586
 21
382.882118
  0
LINE
  5
4C
100
AcDbEntity
  8
M1
  6
DASHDOT
370
25
 62
     4
100
AcDbLine
 10
2.663251
 20
448.882118
 11
142.87387
 21
448.882118
  0
LINE
  5
4D
100
AcDbEntity
  8
M1
  6
DASHDOT
370
25
 62
     4
100
AcDbLine
 10
57.996586
 20
377.386025
 11
57.996586
 21
523.832666
  0
LINE
  5
4E
100
AcDbEntity
  8
M1
  6
CONTINUOUS
370
25
 62
     4
100
AcDbLine
 10
47.196582
 20
428.883187
 11
68.794922
 21
428.882406
  0
LINE
  5
4F
100
AcDbEntity
  8
M1
  6
CONTINUOUS
370
25
 62
     4
100
AcDbLine
 10
71.995313
 20
432.08221
 11
71.995508
 21
465.77166
  0
LINE
  5
50
100
AcDbEntity
  8
M1
  6
CONTINUOUS
370
25
 62
     4
100
AcDbLine
 10
68.79668
 20
468.881426
 11
47.198547
 21
468.882207
  0
LINE
  5
51
100
AcDbEntity
  8
M1
  6
CONTINUOUS
370
25
 62
     4
100
AcDbLine
 10
43.998474
 20
465.682207
 11
43.998414
 21
431.98475
  0
LINE
  5
52
100
AcDbEntity
  8
M1
  6
CONTINUOUS
370
25
 62
     4
100
AcDbLine
 10
15.996586
 20
489.684339
 11
127.996586
 21
489.680662
  0
LINE
  5
53
100
AcDbEntity
  8
M1
  6
CONTINUOUS
370
25
 62
     4
100
AcDbLine
 10
15.996586
 20
408.084752
 11
127.996586
 21
408.080858
  0
LINE
  5
54
100
AcDbEntity
  8
M1
  6
CONTINUOUS
370
25
 62
     4
100
AcDbLine
 10
126.398438
 20
382.880071
 11
122.393555
 21
382.880071
  0
LINE
  5
55
100
AcDbEntity
  8
M1
  6
CONTINUOUS
370
25
 62
     4
100
AcDbLine
 10
120.397946
 20
398.480657
 11
107.597946
 21
398.480852
  0
LINE
  5
56
100
AcDbEntity
  8
M1
  6
CONTINUOUS
370
25
 62
     4
100
AcDbLine
 10
64.394006
 20
398.482024
 11
51.594031
 21
398.482414
  0
LINE
  5
57
100
AcDbEntity
  8
M1
  6
CONTINUOUS
370
25
 62
     4
100
AcDbLine
 10
36.398422
 20
398.483586
 11
23.59841
 21
398.483978
  0
LINE
  5
58
100
AcDbEntity
  8
M1
  6
CONTINUOUS
370
25
 62
     4
100
AcDbLine
 10
121.997549
 20
382.882118
 11
121.99775
 21
396.880266
  0
LINE
  5
59
100
AcDbEntity
  8
M1
  6
CONTINUOUS
370
25
 62
     4
100
AcDbLine
 10
105.997549
 20
382.882118
 11
105.99775
 21
396.881047
  0
LINE
  5
5A
100
AcDbEntity
  8
M1
  6
CONTINUOUS
370
25
 62
     4
100
AcDbLine
 10
65.993634
 20
382.882118
 11
65.993848
 21
396.882024
  0
LINE
  5
5B
100
AcDbEntity
  8
M1
  6
CONTINUOUS
370
25
 62
     4
100
AcDbLine
 10
49.993646
 20
382.882118
 11
49.993872
 21
396.88261
  0
LINE
  5
5C
100
AcDbEntity
  8
M1
  6
CONTINUOUS
370
25
 62
     4
100
AcDbLine
 10
37.997878
 20
382.882118
 11
37.998092
 21
396.912688
  0
LINE
  5
5D
100
AcDbEntity
  8
M1
  6
CONTINUOUS
370
25
 62
     4
100
AcDbLine
 10
21.997878
 20
382.882118
 11
21.998092
 21
396.884173
  0
LINE
  5
5E
100
AcDbEntity
  8
M1
  6
CONTINUOUS
370
25
 62
     4
100
AcDbLine
 10
121.996592
 20
514.882118
 11
121.99639
 21
500.880254
  0
LINE
  5
5F
100
AcDbEntity
  8
M1
  6
CONTINUOUS
370
25
 62
     4
100
AcDbLine
 10
120.396
 20
499.280254
 11
107.596
 21
499.280645
  0
LINE
  5
60
100
AcDbEntity
  8
M1
  6
CONTINUOUS
370
25
 62
     4
100
AcDbLine
 10
105.996592
 20
514.882118
 11
105.99639
 21
500.851348
  0
LINE
  5
61
100
AcDbEntity
  8
M1
  6
CONTINUOUS
370
25
 62
     4
100
AcDbLine
 10
66.000654
 20
514.882118
 11
66.000415
 21
500.881622
  0
LINE
  5
62
100
AcDbEntity
  8
M1
  6
CONTINUOUS
370
25
 62
     4
100
AcDbLine
 10
50.000666
 20
514.882118
 11
50.00044
 21
500.85291
  0
LINE
  5
63
100
AcDbEntity
  8
M1
  6
CONTINUOUS
370
25
 62
     4
100
AcDbLine
 10
38.00491
 20
514.882118
 11
38.004684
 21
500.883184
  0
LINE
  5
64
100
AcDbEntity
  8
M1
  6
CONTINUOUS
370
25
 62
     4
100
AcDbLine
 10
36.400354
 20
499.283184
 11
23.600342
 21
499.283574
  0
LINE
  5
65
100
AcDbEntity
  8
M1
  6
CONTINUOUS
370
25
 62
     4
100
AcDbLine
 10
22.00491
 20
514.882118
 11
22.004684
 21
500.853887
  0
LINE
  5
66
100
AcDbEntity
  8
M1
  6
CONTINUOUS
370
25
 62
     4
100
AcDbLine
 10
64.400098
 20
499.281622
 11
51.600122
 21
499.282012
  0
LINE
  5
67
100
AcDbEntity
  8
M1
  6
CONTINUOUS
370
25
 62
     4
100
AcDbLine
 10
63.597986
 20
461.281817
 11
63.192419
 21
461.281426
  0
LINE
  5
68
100
AcDbEntity
  8
M1
  6
CONTINUOUS
370
25
 62
     4
100
AcDbLine
 10
63.596142
 20
434.482015
 11
63.596204
 21
464.081622
  0
LINE
  5
69
100
AcDbEntity
  8
M1
  6
CONTINUOUS
370
25
 62
     4
100
AcDbLine
 10
52.396155
 20
434.482015
 11
52.396216
 21
464.081817
  0
LINE
  5
6A
100
AcDbEntity
  8
M1
  6
CONTINUOUS
370
25
 62
     4
100
AcDbLine
 10
122.400586
 20
514.879863
 11
126.40039
 21
514.879863
  0
LINE
  5
6B
100
AcDbEntity
  8
M1
  6
CONTINUOUS
370
25
 62
     4
100
AcDbLine
 10
63.598047
 20
464.081817
 11
63.192419
 21
464.081426
  0
LINE
  5
6C
100
AcDbEntity
  8
M1
  6
CONTINUOUS
370
25
 62
     4
100
AcDbLine
 10
63.596374
 20
435.28182
 11
52.396374
 21
435.282406
  0
LINE
  5
6D
100
AcDbEntity
  8
M1
  6
CONTINUOUS
370
25
 62
     4
100
AcDbLine
 10
63.596362
 20
434.48182
 11
52.396374
 21
434.482406
  0
ARC
  5
6E
100
AcDbEntity
  8
M1
  6
CONTINUOUS
370
25
 62
     4
100
AcDbCircle
 10
68.795508
 20
432.08221
 40
3.2
100
AcDbArc
 50
269.992951
 51
360.0
  0
ARC
  5
6F
100
AcDbEntity
  8
M1
  6
CONTINUOUS
370
25
 62
     4
100
AcDbCircle
 10
68.79668
 20
465.681426
 40
3.2
100
AcDbArc
 50
0.0
 51
90.0
  0
ARC
  5
70
100
AcDbEntity
  8
M1
  6
CONTINUOUS
370
25
 62
     4
100
AcDbCircle
 10
47.198426
 20
465.682207
 40
3.2
100
AcDbArc
 50
90.0
 51
180.0
  0
ARC
  5
71
100
AcDbEntity
  8
M1
  6
CONTINUOUS
370
25
 62
     4
100
AcDbCircle
 10
47.196899
 20
432.083187
 40
3.2
100
AcDbArc
 50
179.999973
 51
270.0
  0
ARC
  5
72
100
AcDbEntity
  8
M1
  6
CONTINUOUS
370
25
 62
     4
100
AcDbCircle
 10
120.397946
 20
396.880266
 40
1.6
100
AcDbArc
 50
0.0
 51
90.006994
  0
ARC
  5
73
100
AcDbEntity
  8
M1
  6
CONTINUOUS
370
25
 62
     4
100
AcDbCircle
 10
107.597946
 20
396.881047
 40
1.6
100
AcDbArc
 50
90.0
 51
179.999563
  0
ARC
  5
74
100
AcDbEntity
  8
M1
  6
CONTINUOUS
370
25
 62
     4
100
AcDbCircle
 10
64.393982
 20
396.882024
 40
1.6
100
AcDbArc
 50
0.0
 51
90.006994
  0
ARC
  5
75
100
AcDbEntity
  8
M1
  6
CONTINUOUS
370
25
 62
     4
100
AcDbCircle
 10
51.593982
 20
396.882414
 40
1.6
100
AcDbArc
 50
90.0
 51
179.992569
  0
ARC
  5
76
100
AcDbEntity
  8
M1
  6
CONTINUOUS
370
25
 62
     4
100
AcDbCircle
 10
36.398348
 20
396.883391
 40
1.6
100
AcDbArc
 50
0.0
 51
89.999563
  0
ARC
  5
77
100
AcDbEntity
  8
M1
  6
CONTINUOUS
370
25
 62
     4
100
AcDbCircle
 10
23.598348
 20
396.884173
 40
1.6
100
AcDbArc
 50
89.999563
 51
179.999563
  0
ARC
  5
78
100
AcDbEntity
  8
M1
  6
CONTINUOUS
370
25
 62
     4
100
AcDbCircle
 10
107.6
 20
500.880645
 40
1.6
100
AcDbArc
 50
179.993006
 51
269.999563
  0
ARC
  5
79
100
AcDbEntity
  8
M1
  6
CONTINUOUS
370
25
 62
     4
100
AcDbCircle
 10
120.396
 20
500.880254
 40
1.6
100
AcDbArc
 50
269.999563
 51
360.0
  0
ARC
  5
7A
100
AcDbEntity
  8
M1
  6
CONTINUOUS
370
25
 62
     4
100
AcDbCircle
 10
51.600171
 20
500.882207
 40
1.6
100
AcDbArc
 50
180.0
 51
270.0
  0
ARC
  5
7B
100
AcDbEntity
  8
M1
  6
CONTINUOUS
370
25
 62
     4
100
AcDbCircle
 10
64.400171
 20
500.881817
 40
1.6
100
AcDbArc
 50
270.0
 51
359.992569
  0
ARC
  5
7C
100
AcDbEntity
  8
M1
  6
CONTINUOUS
370
25
 62
     4
100
AcDbCircle
 10
23.604378
 20
500.88377
 40
1.6
100
AcDbArc
 50
180.0
 51
270.0
  0
ARC
  5
7D
100
AcDbEntity
  8
M1
  6
CONTINUOUS
370
25
 62
     4
100
AcDbCircle
 10
36.404378
 20
500.883184
 40
1.6
100
AcDbArc
 50
270.0
 51
360.0
  0
LINE
  5
7E
100
AcDbEntity
  8
M1
  6
CONTINUOUS
370
25
 62
     4
100
AcDbLine
 10
52.792432
 20
461.281426
 11
52.397986
 21
461.282402
  0
LINE
  5
7F
100
AcDbEntity
  8
M1
  6
CONTINUOUS
370
25
 62
     4
100
AcDbLine
 10
52.792432
 20
464.081426
 11
52.398047
 21
464.082402
  0
LINE
  5
80
100
AcDbEntity
  8
M1
  6
CONTINUOUS
370
25
 62
     4
100
AcDbLine
 10
63.192444
 20
458.680645
 11
52.792432
 21
458.680645
  0
LINE
  5
81
100
AcDbEntity
  8
M1
  6
CONTINUOUS
370
25
 62
     4
100
AcDbLine
 10
63.192444
 20
465.680645
 11
63.192444
 21
458.080645
  0
LINE
  5
82
100
AcDbEntity
  8
M1
  6
CONTINUOUS
370
25
 62
     4
100
AcDbLine
 10
52.792432
 20
458.080645
 11
52.792432
 21
465.680645
  0
LINE
  5
83
100
AcDbEntity
  8
M1
  6
CONTINUOUS
370
25
 62
     4
100
AcDbLine
 10
63.192444
 20
465.680645
 11
52.792444
 21
465.680645
  0
LINE
  5
84
100
AcDbEntity
  8
M1
  6
CONTINUOUS
370
25
 62
     4
100
AcDbLine
 10
63.192444
 20
458.080645
 11
52.792444
 21
458.080645
  0
LINE
  5
85
100
AcDbEntity
  8
M1
  6
CONTINUOUS
370
25
 62
     4
100
AcDbLine
 10
93.988263
 20
514.882118
 11
93.988489
 21
500.853887
  0
ARC
  5
86
100
AcDbEntity
  8
M1
  6
CONTINUOUS
370
25
 62
     4
100
AcDbCircle
 10
92.388794
 20
500.88377
 40
1.6
100
AcDbArc
 50
270.0
 51
360.0
  0
LINE
  5
87
100
AcDbEntity
  8
M1
  6
CONTINUOUS
370
25
 62
     4
100
AcDbLine
 10
79.588818
 20
499.283184
 11
92.388831
 21
499.283574
  0
LINE
  5
88
100
AcDbEntity
  8
M1
  6
CONTINUOUS
370
25
 62
     4
100
AcDbLine
 10
77.988263
 20
514.882118
 11
77.988489
 21
500.883184
  0
ARC
  5
89
100
AcDbEntity
  8
M1
  6
CONTINUOUS
370
25
 62
     4
100
AcDbCircle
 10
79.588794
 20
500.883184
 40
1.6
100
AcDbArc
 50
180.0
 51
270.0
  0
LINE
  5
8A
100
AcDbEntity
  8
M1
  6
CONTINUOUS
370
25
 62
     4
100
AcDbLine
 10
79.594751
 20
398.483586
 11
92.394763
 21
398.483978
  0
ARC
  5
8B
100
AcDbEntity
  8
M1
  6
CONTINUOUS
370
25
 62
     4
100
AcDbCircle
 10
92.394825
 20
396.884173
 40
1.6
100
AcDbArc
 50
0.000437
 51
90.000437
  0
LINE
  5
8C
100
AcDbEntity
  8
M1
  6
CONTINUOUS
370
25
 62
     4
100
AcDbLine
 10
93.995294
 20
382.882118
 11
93.995081
 21
396.884173
  0
LINE
  5
8D
100
AcDbEntity
  8
M1
  6
CONTINUOUS
370
25
 62
     4
100
AcDbLine
 10
77.995294
 20
382.882118
 11
77.995081
 21
396.912688
  0
ARC
  5
8E
100
AcDbEntity
  8
M1
  6
CONTINUOUS
370
25
 62
     4
100
AcDbCircle
 10
79.594825
 20
396.883391
 40
1.6
100
AcDbArc
 50
90.000437
 51
180.0
  0
CIRCLE
  5
8F
100
AcDbEntity
  8
M1
  6
CONTINUOUS
370
25
 62
     4
100
AcDbCircle
 10
113.988383
 20
506.483379
 40
3.4
  0
CIRCLE
  5
90
100
AcDbEntity
  8
M1
  6
CONTINUOUS
370
25
 62
     4
100
AcDbCircle
 10
85.99668
 20
506.483379
 40
3.4
  0
CIRCLE
  5
91
100
AcDbEntity
  8
M1
  6
CONTINUOUS
370
25
 62
     4
100
AcDbCircle
 10
57.996586
 20
506.483379
 40
3.4
  0
CIRCLE
  5
92
100
AcDbEntity
  8
M1
  6
CONTINUOUS
370
25
 62
     4
100
AcDbCircle
 10
113.996383
 20
391.283391
 40
3.4
  0
CIRCLE
  5
93
100
AcDbEntity
  8
M1
  6
CONTINUOUS
370
25
 62
     4
100
AcDbCircle
 10
85.99668
 20
391.283391
 40
3.4
  0
CIRCLE
  5
94
100
AcDbEntity
  8
M1
  6
CONTINUOUS
370
25
 62
     4
100
AcDbCircle
 10
57.992493
 20
391.283391
 40
3.4
  0
CIRCLE
  5
95
100
AcDbEntity
  8
M1
  6
CONTINUOUS
370
25
 62
     4
100
AcDbCircle
 10
29.996493
 20
506.483379
 40
3.4
  0
CIRCLE
  5
96
100
AcDbEntity
  8
M1
  6
CONTINUOUS
370
25
 62
     4
100
AcDbCircle
 10
29.996493
 20
391.283391
 40
3.4
  0
LINE
  5
97
100
AcDbEntity
  8
M1
  6
DASHDOT
370
25
 62
     4
100
AcDbLine
 10
71.996586
 20
528.811477
 11
71.996586
 21
373.25807
  0
CIRCLE
  5
98
100
AcDbEntity
  8
M1
  6
CONTINUOUS
370
25
100
AcDbCircle
 10
72.0
 20
499.28123
 40
2.0
  0
CIRCLE
  5
99
100
AcDbEntity
  8
M1
  6
CONTINUOUS
370
25
100
AcDbCircle
 10
44.000061
 20
499.282793
 40
2.0
  0
CIRCLE
  5
9A
100
AcDbEntity
  8
M1
  6
CONTINUOUS
370
25
100
AcDbCircle
 10
43.994605
 20
398.482806
 40
2.0
  0
CIRCLE
  5
9B
100
AcDbEntity
  8
M1
  6
CONTINUOUS
370
25
100
AcDbCircle
 10
71.994531
 20
398.481438
 40
2.0
  0
LINE
  5
9C
100
AcDbEntity
  8
M1
  6
DASHDOT
370
25
100
AcDbLine
 10
64.666666
 20
499.28123
 11
79.333334
 21
499.28123
  0
LINE
  5
9D
100
AcDbEntity
  8
M1
  6
DASHDOT
370
25
100
AcDbLine
 10
72.0
 20
491.947897
 11
72.0
 21
506.614565
  0
LINE
  5
9E
100
AcDbEntity
  8
M1
  6
DASHDOT
370
25
100
AcDbLine
 10
36.666727
 20
499.282793
 11
51.333395
 21
499.282793
  0
LINE
  5
9F
100
AcDbEntity
  8
M1
  6
DASHDOT
370
25
100
AcDbLine
 10
44.000061
 20
491.949459
 11
44.000061
 21
506.616127
  0
LINE
  5
A0
100
AcDbEntity
  8
M1
  6
DASHDOT
370
25
100
AcDbLine
 10
36.66127
 20
398.482806
 11
51.327939
 21
398.482806
  0
LINE
  5
A1
100
AcDbEntity
  8
M1
  6
DASHDOT
370
25
100
AcDbLine
 10
43.994605
 20
391.149471
 11
43.994605
 21
405.816139
  0
LINE
  5
A2
100
AcDbEntity
  8
M1
  6
DASHDOT
370
25
100
AcDbLine
 10
64.661198
 20
398.481438
 11
79.327866
 21
398.481438
  0
LINE
  5
A3
100
AcDbEntity
  8
M1
  6
DASHDOT
370
25
100
AcDbLine
 10
71.994531
 20
391.148104
 11
71.994531
 21
405.814772
  0
LINE
  5
A4
100
AcDbEntity
  8
M1
  6
DASHDOT
370
25
100
AcDbLine
 10
99.999939
 20
491.949459
 11
99.999939
 21
506.616127
  0
LINE
  5
A5
100
AcDbEntity
  8
M1
  6
DASHDOT
370
25
100
AcDbLine
 10
107.329274
 20
499.282793
 11
92.662605
 21
499.282793
  0
CIRCLE
  5
A6
100
AcDbEntity
  8
M1
  6
CONTINUOUS
370
25
100
AcDbCircle
 10
99.999939
 20
499.282793
 40
2.0
  0
LINE
  5
A7
100
AcDbEntity
  8
M1
  6
DASHDOT
370
25
100
AcDbLine
 10
99.994458
 20
391.149471
 11
99.994458
 21
405.816139
  0
LINE
  5
A8
100
AcDbEntity
  8
M1
  6
DASHDOT
370
25
100
AcDbLine
 10
107.327792
 20
398.482806
 11
92.661124
 21
398.482806
  0
CIRCLE
  5
A9
100
AcDbEntity
  8
M1
  6
CONTINUOUS
370
25
100
AcDbCircle
 10
99.994458
 20
398.482806
 40
2.0
  0
LINE
  5
AA
100
AcDbEntity
  8
M1
  6
DASHDOT
370
25
 62
     2
100
AcDbLine
 10
113.988383
 20
497.750045
 11
113.988383
 21
515.216714
  0
LINE
  5
AB
100
AcDbEntity
  8
M1
  6
DASHDOT
370
25
 62
     2
100
AcDbLine
 10
105.255049
 20
506.483379
 11
122.721717
 21
506.483379
  0
LINE
  5
AC
100
AcDbEntity
  8
M1
  6
DASHDOT
370
25
 62
     2
100
AcDbLine
 10
49.259158
 20
506.483379
 11
66.725827
 21
506.483379
  0
LINE
  5
AD
100
AcDbEntity
  8
M1
  6
DASHDOT
370
25
 62
     2
100
AcDbLine
 10
57.992493
 20
497.750045
 11
57.992493
 21
515.216714
  0
LINE
  5
AE
100
AcDbEntity
  8
M1
  6
DASHDOT
370
25
 62
     2
100
AcDbLine
 10
21.263158
 20
506.483379
 11
38.729827
 21
506.483379
  0
LINE
  5
AF
100
AcDbEntity
  8
M1
  6
DASHDOT
370
25
 62
     2
100
AcDbLine
 10
29.996493
 20
497.750045
 11
29.996493
 21
515.216714
  0
LINE
  5
B0
100
AcDbEntity
  8
M1
  6
DASHDOT
370
25
 62
     2
100
AcDbLine
 10
29.996493
 20
382.550057
 11
29.996493
 21
400.016726
  0
LINE
  5
B1
100
AcDbEntity
  8
M1
  6
DASHDOT
370
25
 62
     2
100
AcDbLine
 10
21.263158
 20
391.283391
 11
38.729827
 21
391.283391
  0
LINE
  5
B2
100
AcDbEntity
  8
M1
  6
DASHDOT
370
25
 62
     2
100
AcDbLine
 10
57.992493
 20
382.550057
 11
57.992493
 21
400.016726
  0
LINE
  5
B3
100
AcDbEntity
  8
M1
  6
DASHDOT
370
25
 62
     2
100
AcDbLine
 10
49.259158
 20
391.283391
 11
66.725827
 21
391.283391
  0
LINE
  5
B4
100
AcDbEntity
  8
M1
  6
DASHDOT
370
25
 62
     2
100
AcDbLine
 10
105.263049
 20
391.283391
 11
122.729717
 21
391.283391
  0
LINE
  5
B5
100
AcDbEntity
  8
M1
  6
DASHDOT
370
25
 62
     2
100
AcDbLine
 10
113.996383
 20
382.550057
 11
113.996383
 21
400.016726
  0
LINE
  5
B6
100
AcDbEntity
  8
M1
  6
DASHDOT
370
25
 62
     2
100
AcDbLine
 10
94.730014
 20
391.283391
 11
77.263346
 21
391.283391
  0
LINE
  5
B7
100
AcDbEntity
  8
M1
  6
DASHDOT
370
25
 62
     2
100
AcDbLine
 10
85.99668
 20
382.550057
 11
85.99668
 21
400.016726
  0
LINE
  5
B8
100
AcDbEntity
  8
M1
  6
DASHDOT
370
25
 62
     2
100
AcDbLine
 10
85.99668
 20
497.750045
 11
85.99668
 21
515.216714
  0
LINE
  5
B9
100
AcDbEntity
  8
M1
  6
DASHDOT
370
25
 62
     2
100
AcDbLine
 10
94.730014
 20
506.483379
 11
77.263346
 21
506.483379
  0
LINE
  5
BA
100
AcDbEntity
  8
M1
  6
DASHDOT
370
25
 62
     4
100
AcDbLine
 10
16.0
 20
120.331622
 11
128.0
 21
120.331622
  0
LINE
  5
BB
100
AcDbEntity
  8
M1
  6
DASHDOT
370
25
 62
     4
100
AcDbLine
 10
128.0
 20
120.331622
 11
128.0
 21
252.331622
  0
LINE
  5
BC
100
AcDbEntity
  8
M1
  6
DASHDOT
370
25
 62
     4
100
AcDbLine
 10
128.0
 20
252.331622
 11
16.0
 21
252.331622
  0
LINE
  5
BD
100
AcDbEntity
  8
M1
  6
DASHDOT
370
25
 62
     4
100
AcDbLine
 10
16.0
 20
252.331622
 11
16.0
 21
120.331622
  0
LINE
  5
BE
100
AcDbEntity
  8
M1
  6
DASHDOT
370
25
 62
     4
100
AcDbLine
 10
0.0
 20
186.331622
 11
144.0
 21
186.331622
  0
LINE
  5
BF
100
AcDbEntity
  8
M1
  6
DASHDOT
370
25
 62
     4
100
AcDbLine
 10
72.0
 20
104.331622
 11
72.0
 21
268.331622
  0
CIRCLE
  5
C0
100
AcDbEntity
  8
M1
  6
CONTINUOUS
370
25
100
AcDbCircle
 10
44.0
 20
135.931622
 40
2.0
  0
CIRCLE
  5
C1
100
AcDbEntity
  8
M1
  6
CONTINUOUS
370
25
100
AcDbCircle
 10
72.0
 20
135.931622
 40
2.0
  0
CIRCLE
  5
C2
100
AcDbEntity
  8
M1
  6
CONTINUOUS
370
25
100
AcDbCircle
 10
72.0
 20
236.731622
 40
2.0
  0
CIRCLE
  5
C3
100
AcDbEntity
  8
M1
  6
CONTINUOUS
370
25
100
AcDbCircle
 10
44.0
 20
236.731622
 40
2.0
  0
LINE
  5
C4
100
AcDbEntity
  8
M1
  6
DASHDOT
370
25
100
AcDbLine
 10
64.666666
 20
135.931622
 11
79.333334
 21
135.931622
  0
LINE
  5
C5
100
AcDbEntity
  8
M1
  6
DASHDOT
370
25
100
AcDbLine
 10
72.0
 20
128.598287
 11
72.0
 21
143.264955
  0
LINE
  5
C6
100
AcDbEntity
  8
M1
  6
DASHDOT
370
25
100
AcDbLine
 10
36.666666
 20
135.931622
 11
51.333334
 21
135.931622
  0
LINE
  5
C7
100
AcDbEntity
  8
M1
  6
DASHDOT
370
25
100
AcDbLine
 10
44.0
 20
128.598287
 11
44.0
 21
143.264955
  0
LINE
  5
C8
100
AcDbEntity
  8
M1
  6
DASHDOT
370
25
100
AcDbLine
 10
36.666666
 20
236.731622
 11
51.333334
 21
236.731622
  0
LINE
  5
C9
100
AcDbEntity
  8
M1
  6
DASHDOT
370
25
100
AcDbLine
 10
44.0
 20
229.398287
 11
44.0
 21
244.064955
  0
LINE
  5
CA
100
AcDbEntity
  8
M1
  6
DASHDOT
370
25
100
AcDbLine
 10
64.666666
 20
236.731622
 11
79.333334
 21
236.731622
  0
LINE
  5
CB
100
AcDbEntity
  8
M1
  6
DASHDOT
370
25
100
AcDbLine
 10
72.0
 20
229.398287
 11
72.0
 21
244.064955
  0
LINE
  5
CC
100
AcDbEntity
  8
M1
  6
DASHDOT
370
25
100
AcDbLine
 10
100.0
 20
229.398287
 11
100.0
 21
244.064955
  0
LINE
  5
CD
100
AcDbEntity
  8
M1
  6
DASHDOT
370
25
100
AcDbLine
 10
107.333334
 20
236.731622
 11
92.666666
 21
236.731622
  0
CIRCLE
  5
CE
100
AcDbEntity
  8
M1
  6
CONTINUOUS
370
25
100
AcDbCircle
 10
100.0
 20
236.731622
 40
2.0
  0
LINE
  5
CF
100
AcDbEntity
  8
M1
  6
DASHDOT
370
25
100
AcDbLine
 10
100.0
 20
128.598287
 11
100.0
 21
143.264955
  0
LINE
  5
D0
100
AcDbEntity
  8
M1
  6
DASHDOT
370
25
100
AcDbLine
 10
107.333334
 20
135.931622
 11
92.666666
 21
135.931622
  0
CIRCLE
  5
D1
100
AcDbEntity
  8
M1
  6
CONTINUOUS
370
25
100
AcDbCircle
 10
100.0
 20
135.931622
 40
2.0
  0
LINE
  5
D2
100
AcDbEntity
  8
M1
  6
CONTINUOUS
370
25
 62
     4
100
AcDbLine
 10
232.457422
 20
461.609356
 11
234.671875
 21
466.78045
  0
LINE
  5
D3
100
AcDbEntity
  8
M1
  6
CONTINUOUS
370
25
 62
     4
100
AcDbLine
 10
232.655859
 20
461.089434
 11
244.798828
 21
455.419707
  0
LINE
  5
D4
100
AcDbEntity
  8
M1
  6
CONTINUOUS
370
25
 62
     4
100
AcDbLine
 10
235.185157
 20
466.995489
 11
244.798633
 21
463.240215
  0
ARC
  5
D5
100
AcDbEntity
  8
M1
  6
CONTINUOUS
370
25
 62
     4
100
AcDbCircle
 10
235.039649
 20
466.623027
 40
0.4
100
AcDbArc
 50
68.669732
 51
156.827583
  0
ARC
  5
D6
100
AcDbEntity
  8
M1
  6
CONTINUOUS
370
25
 62
     4
100
AcDbCircle
 10
232.825195
 20
461.451934
 40
0.4
100
AcDbArc
 50
156.827583
 51
244.962297
  0
LINE
  5
D7
100
AcDbEntity
  8
M1
  6
DASHDOT
370
25
 62
     4
100
AcDbLine
 10
343.150646
 20
448.885365
 11
267.545118
 21
448.880645
  0
LINE
  5
D8
100
AcDbEntity
  8
M1
  6
CONTINUOUS
370
25
 62
     4
100
AcDbLine
 10
331.19707
 20
382.884758
 11
331.19707
 21
514.881035
  0
LINE
  5
D9
100
AcDbEntity
  8
M1
  6
CONTINUOUS
370
25
 62
     4
100
AcDbLine
 10
272.797657
 20
431.683187
 11
272.796094
 21
431.683187
  0
LINE
  5
DA
100
AcDbEntity
  8
M1
  6
CONTINUOUS
370
25
 62
     4
100
AcDbLine
 10
272.797852
 20
424.883383
 11
272.796485
 21
424.883383
  0
LINE
  5
DB
100
AcDbEntity
  8
M1
  6
CONTINUOUS
370
25
 62
     4
100
AcDbLine
 10
331.19707
 20
514.88084
 11
254.799024
 21
514.88084
  0
LINE
  5
DC
100
AcDbEntity
  8
M1
  6
CONTINUOUS
370
25
 62
     4
100
AcDbLine
 10
244.798828
 20
468.08084
 11
244.798828
 21
429.680843
  0
LINE
  5
DD
100
AcDbEntity
  8
M1
  6
CONTINUOUS
370
25
 62
     4
100
AcDbLine
 10
254.798828
 20
382.880852
 11
331.19707
 21
382.880852
  0
LINE
  5
DE
100
AcDbEntity
  8
M1
  6
DASHDOT
370
25
 62
     4
100
AcDbLine
 10
279.526367
 20
448.88084
 11
228.425977
 21
448.88084
  0
LINE
  5
DF
100
AcDbEntity
  8
M1
  6
CONTINUOUS
370
25
 62
     4
100
AcDbLine
 10
248.799024
 20
488.88084
 11
248.798828
 21
428.880843
  0
LINE
  5
E0
100
AcDbEntity
  8
M1
  6
CONTINUOUS
370
25
 62
     4
100
AcDbLine
 10
252.799024
 20
512.88084
 11
252.799024
 21
489.68084
  0
LINE
  5
E1
100
AcDbEntity
  8
M1
  6
CONTINUOUS
370
25
 62
     4
100
AcDbLine
 10
245.598828
 20
468.88084
 11
248.798828
 21
468.88084
  0
LINE
  5
E2
100
AcDbEntity
  8
M1
  6
CONTINUOUS
370
25
 62
     4
100
AcDbLine
 10
245.598828
 20
428.880843
 11
248.798828
 21
428.880843
  0
LINE
  5
E3
100
AcDbEntity
  8
M1
  6
CONTINUOUS
370
25
 62
     4
100
AcDbLine
 10
249.598828
 20
489.68084
 11
252.799024
 21
489.68084
  0
LINE
  5
E4
100
AcDbEntity
  8
M1
  6
CONTINUOUS
370
25
 62
     4
100
AcDbLine
 10
249.598828
 20
408.080852
 11
252.798828
 21
408.080852
  0
LINE
  5
E5
100
AcDbEntity
  8
M1
  6
CONTINUOUS
370
25
 62
     4
100
AcDbLine
 10
248.798828
 20
428.880843
 11
248.798828
 21
408.880852
  0
LINE
  5
E6
100
AcDbEntity
  8
M1
  6
CONTINUOUS
370
25
 62
     4
100
AcDbLine
 10
252.798828
 20
408.080852
 11
252.798828
 21
384.880852
  0
ARC
  5
E7
100
AcDbEntity
  8
M1
  6
CONTINUOUS
370
25
 62
     4
100
AcDbCircle
 10
254.798828
 20
384.880852
 40
2.0
100
AcDbArc
 50
179.99965
 51
270.0
  0
ARC
  5
E8
100
AcDbEntity
  8
M1
  6
CONTINUOUS
370
25
 62
     4
100
AcDbCircle
 10
254.799024
 20
512.88084
 40
2.0
100
AcDbArc
 50
89.99965
 51
180.0
  0
ARC
  5
E9
100
AcDbEntity
  8
M1
  6
CONTINUOUS
370
25
 62
     4
100
AcDbCircle
 10
245.598828
 20
429.680843
 40
0.8
100
AcDbArc
 50
180.0
 51
270.0
  0
ARC
  5
EA
100
AcDbEntity
  8
M1
  6
CONTINUOUS
370
25
 62
     4
100
AcDbCircle
 10
245.598828
 20
468.08084
 40
0.8
100
AcDbArc
 50
89.999126
 51
180.0
  0
ARC
  5
EB
100
AcDbEntity
  8
M1
  6
CONTINUOUS
370
25
 62
     4
100
AcDbCircle
 10
249.598828
 20
408.880852
 40
0.8
100
AcDbArc
 50
179.999126
 51
270.0
  0
ARC
  5
EC
100
AcDbEntity
  8
M1
  6
CONTINUOUS
370
25
 62
     4
100
AcDbCircle
 10
249.598828
 20
409.080852
 40
0.8
100
AcDbArc
 50
179.999126
 51
270.0
  0
ARC
  5
ED
100
AcDbEntity
  8
M1
  6
CONTINUOUS
370
25
 62
     4
100
AcDbCircle
 10
249.598828
 20
488.88084
 40
0.8
100
AcDbArc
 50
89.999126
 51
180.0
  0
ARC
  5
EE
100
AcDbEntity
  8
M1
  6
CONTINUOUS
370
25
 62
     4
100
AcDbCircle
 10
249.598828
 20
488.68084
 40
0.8
100
AcDbArc
 50
89.999126
 51
180.0
  0
ARC
  5
EF
100
AcDbEntity
  8
M1
  6
CONTINUOUS
370
25
 62
     4
100
AcDbCircle
 10
253.199024
 20
511.08084
 40
0.4
100
AcDbArc
 50
89.998251
 51
180.0
  0
LINE
  5
F0
100
AcDbEntity
  8
M1
  6
DASHDOT
370
25
 62
     2
100
AcDbLine
 10
311.98921
 20
511.836396
 11
311.990543
 21
501.15791
  0
LINE
  5
F1
100
AcDbEntity
  8
M1
  6
DASHDOT
370
25
 62
     2
100
AcDbLine
 10
316.987019
 20
506.482705
 11
304.641832
 21
506.481163
  0
LINE
  5
F2
100
AcDbEntity
  8
M1
  6
DASHDOT
370
25
 62
     2
100
AcDbLine
 10
311.99707
 20
385.930443
 11
311.99707
 21
396.608929
  0
LINE
  5
F3
100
AcDbEntity
  8
M1
  6
DASHDOT
370
25
 62
     2
100
AcDbLine
 10
316.994211
 20
391.284758
 11
304.649024
 21
391.284758
  0
LINE
  5
F4
100
AcDbEntity
  8
M1
  6
DASHDOT
370
25
 62
     4
100
AcDbLine
 10
325.539834
 20
120.331622
 11
325.539834
 21
252.331622
  0
LINE
  5
F5
100
AcDbEntity
  8
M1
  6
DASHDOT
370
25
 62
     4
100
AcDbLine
 10
325.539834
 20
252.331622
 11
213.539834
 21
252.331622
  0
LINE
  5
F6
100
AcDbEntity
  8
M1
  6
DASHDOT
370
25
 62
     4
100
AcDbLine
 10
213.539834
 20
252.331622
 11
213.539834
 21
120.331622
  0
LINE
  5
F7
100
AcDbEntity
  8
M1
  6
DASHDOT
370
25
 62
     4
100
AcDbLine
 10
213.539834
 20
120.331622
 11
325.539834
 21
120.331622
  0
LINE
  5
F8
100
AcDbEntity
  8
M1
  6
DASHDOT
370
25
 62
     4
100
AcDbLine
 10
200.206499
 20
186.331622
 11
338.87317
 21
186.331622
  0
LINE
  5
F9
100
AcDbEntity
  8
M1
  6
DASHDOT
370
25
 62
     4
100
AcDbLine
 10
255.539834
 20
145.83505
 11
255.539834
 21
230.995618
  0
LINE
  5
FA
100
AcDbEntity
  8
M1
  6
DASHDOT
370
25
 62
     4
100
AcDbLine
 10
269.539834
 20
263.976878
 11
269.539834
 21
108.423472
  0
LINE
  5
FB
100
AcDbEntity
  8
M1
  6
CONTINUOUS
370
25
 62
     7
100
AcDbLine
 10
270.339834
 20
171.131622
 11
270.339834
 21
201.531622
  0
LINE
  5
FC
100
AcDbEntity
  8
M1
  6
CONTINUOUS
370
25
 62
     7
100
AcDbLine
 10
264.739834
 20
207.131622
 11
246.339834
 21
207.131622
  0
LINE
  5
FD
100
AcDbEntity
  8
M1
  6
CONTINUOUS
370
25
 62
     7
100
AcDbLine
 10
240.739834
 20
201.531622
 11
240.739834
 21
171.131622
  0
LINE
  5
FE
100
AcDbEntity
  8
M1
  6
CONTINUOUS
370
25
 62
     7
100
AcDbLine
 10
246.339834
 20
165.531622
 11
264.739834
 21
165.531622
  0
ARC
  5
FF
100
AcDbEntity
  8
M1
  6
CONTINUOUS
370
25
 62
     7
100
AcDbCircle
 10
264.739834
 20
201.531622
 40
5.6
100
AcDbArc
 50
0.0
 51
90.0
  0
ARC
  5
100
100
AcDbEntity
  8
M1
  6
CONTINUOUS
370
25
 62
     7
100
AcDbCircle
 10
246.339834
 20
201.531622
 40
5.6
100
AcDbArc
 50
90.0
 51
180.0
  0
ARC
  5
101
100
AcDbEntity
  8
M1
  6
CONTINUOUS
370
25
 62
     7
100
AcDbCircle
 10
246.339834
 20
171.131622
 40
5.6
100
AcDbArc
 50
180.0
 51
270.0
  0
ARC
  5
102
100
AcDbEntity
  8
M1
  6
CONTINUOUS
370
25
 62
     7
100
AcDbCircle
 10
264.739834
 20
171.131622
 40
5.6
100
AcDbArc
 50
270.0
 51
360.0
  0
LINE
  5
103
100
AcDbEntity
  8
M1
  6
DASHDOT
370
25
100
AcDbLine
 10
311.19707
 20
502.68337
 11
311.19707
 21
495.88337
  0
LINE
  5
104
100
AcDbEntity
  8
M1
  6
DASHDOT
370
25
100
AcDbLine
 10
331.19707
 20
499.284618
 11
297.66293
 21
499.282525
  0
LINE
  5
105
100
AcDbEntity
  8
M1
  6
DASHDOT
370
25
100
AcDbLine
 10
311.203788
 20
395.08337
 11
311.202939
 21
401.88337
  0
LINE
  5
106
100
AcDbEntity
  8
M1
  6
DASHDOT
370
25
100
AcDbLine
 10
331.203363
 20
398.484618
 11
297.669223
 21
398.482526
  0
LINE
  5
107
100
AcDbEntity
  8
M2
  6
CONTINUOUS
370
25
100
AcDbLine
 10
240.028657
 20
44.000006
 11
240.028657
 21
0.0
  0
LINE
  5
108
100
AcDbEntity
  8
M2
  6
CONTINUOUS
370
25
100
AcDbLine
 10
21.361946
 20
44.000006
 11
21.361946
 21
0.0
  0
LINE
  5
109
100
AcDbEntity
  8
M2
  6
CONTINUOUS
370
25
100
AcDbLine
 10
21.361946
 20
0.0
 11
240.028657
 21
0.0
  0
LINE
  5
10A
100
AcDbEntity
  8
M2
  6
CONTINUOUS
370
25
100
AcDbLine
 10
21.361946
 20
44.000006
 11
240.028657
 21
44.000006
  0
LINE
  5
10B
100
AcDbEntity
  8
M2
  6
CONTINUOUS
370
25
100
AcDbLine
 10
189.361982
 20
29.333338
 11
189.361982
 21
44.000006
  0
LINE
  5
10C
100
AcDbEntity
  8
M2
  6
CONTINUOUS
370
25
100
AcDbLine
 10
53.361961
 20
29.333338
 11
189.361982
 21
29.333338
  0
LINE
  5
10D
100
AcDbEntity
  8
M2
  6
CONTINUOUS
370
25
 60
     1
100
AcDbLine
 10
213.361986
 20
29.333338
 11
213.361986
 21
44.000006
  0
LINE
  5
10E
100
AcDbEntity
  8
M2
  6
CONTINUOUS
370
25
100
AcDbLine
 10
189.361982
 20
29.333338
 11
213.361986
 21
29.333338
  0
TEXT
  5
10F
100
AcDbEntity
  8
M2
100
AcDbText
 10
191.893845
 20
33.333336
 40
6.666668
  1
ＲＥＶ．：
 41
0.666667
  7
STANDARD
100
AcDbText
  0
LINE
  5
110
100
AcDbEntity
  8
M2
  6
CONTINUOUS
370
25
 60
     1
100
AcDbLine
 10
240.028657
 20
29.333338
 11
240.028657
 21
44.000006
  0
LINE
  5
111
100
AcDbEntity
  8
M2
  6
CONTINUOUS
370
25
100
AcDbLine
 10
213.361986
 20
29.333338
 11
240.028657
 21
29.333338
  0
TEXT
  5
112
100
AcDbEntity
  8
M2
100
AcDbText
 10
223.843445
 20
33.333336
 40
6.666668
  1
００
 41
0.833333
  7
STANDARD
100
AcDbText
  0
LINE
  5
113
100
AcDbEntity
  8
M2
  6
CONTINUOUS
370
25
 60
     1
100
AcDbLine
 10
53.361961
 20
29.333338
 11
53.361961
 21
44.000006
  0
LINE
  5
114
100
AcDbEntity
  8
M2
  6
CONTINUOUS
370
25
100
AcDbLine
 10
21.361946
 20
29.333338
 11
53.361961
 21
29.333338
  0
TEXT
  5
115
100
AcDbEntity
  8
M2
100
AcDbText
 10
23.843424
 20
33.333336
 40
6.666668
  1
登録名：
 41
0.833333
  7
STANDARD
100
AcDbText
  0
LINE
  5
116
100
AcDbEntity
  8
M2
  6
CONTINUOUS
370
25
 60
     1
100
AcDbLine
 10
240.028657
 20
14.666669
 11
240.028657
 21
29.333338
  0
LINE
  5
117
100
AcDbEntity
  8
M2
  6
CONTINUOUS
370
25
100
AcDbLine
 10
213.361986
 20
14.666669
 11
240.028657
 21
14.666669
  0
LINE
  5
118
100
AcDbEntity
  8
M2
  6
CONTINUOUS
370
25
 60
     1
100
AcDbLine
 10
213.361986
 20
14.666669
 11
213.361986
 21
29.333338
  0
LINE
  5
119
100
AcDbEntity
  8
M2
  6
CONTINUOUS
370
25
100
AcDbLine
 10
53.361961
 20
14.666669
 11
213.361986
 21
14.666669
  0
TEXT
  5
11A
100
AcDbEntity
  8
M2
100
AcDbText
 10
55.843449
 20
18.666668
 40
6.666668
  1
表面形
 41
0.833333
  7
STANDARD
100
AcDbText
  0
LINE
  5
11B
100
AcDbEntity
  8
M2
  6
CONTINUOUS
370
25
 60
     1
100
AcDbLine
 10
53.361961
 20
14.666669
 11
53.361961
 21
29.333338
  0
LINE
  5
11C
100
AcDbEntity
  8
M2
  6
CONTINUOUS
370
25
100
AcDbLine
 10
21.361946
 20
14.666669
 11
53.361961
 21
14.666669
  0
TEXT
  5
11D
100
AcDbEntity
  8
M2
100
AcDbText
 10
22.528618
 20
18.666668
 40
6.666668
  1
接続方式：
 41
0.75
  7
STANDARD
100
AcDbText
  0
LINE
  5
11E
100
AcDbEntity
  8
M2
  6
CONTINUOUS
370
25
 60
     1
100
AcDbLine
 10
240.028657
 20
0.0
 11
240.028657
 21
14.666669
  0
LINE
  5
11F
100
AcDbEntity
  8
M2
  6
CONTINUOUS
370
25
 60
     1
100
AcDbLine
 10
213.361986
 20
0.0
 11
240.028657
 21
0.0
  0
LINE
  5
120
100
AcDbEntity
  8
M2
  6
CONTINUOUS
370
25
 60
     1
100
AcDbLine
 10
213.361986
 20
0.0
 11
213.361986
 21
14.666669
  0
LINE
  5
121
100
AcDbEntity
  8
M2
  6
CONTINUOUS
370
25
 60
     1
100
AcDbLine
 10
53.361961
 20
0.0
 11
213.361986
 21
0.0
  0
LINE
  5
122
100
AcDbEntity
  8
M2
  6
CONTINUOUS
370
25
 60
     1
100
AcDbLine
 10
53.361961
 20
0.0
 11
53.361961
 21
14.666669
  0
LINE
  5
123
100
AcDbEntity
  8
M2
  6
CONTINUOUS
370
25
 60
     1
100
AcDbLine
 10
21.361946
 20
0.0
 11
53.361961
 21
0.0
  0
TEXT
  5
124
100
AcDbEntity
  8
M2
100
AcDbText
 10
22.528618
 20
4.000002
 40
6.666668
  1
適用形式：
 41
0.75
  7
STANDARD
100
AcDbText
  0
TEXT
  5
125
100
AcDbEntity
  8
M2
100
AcDbText
 10
55.843449
 20
33.333336
 40
6.666668
  1
Ｆ－２５０ＫＣ　４Ｐ
 41
0.833333
  7
STANDARD
100
AcDbText
  0
TEXT
  5
126
100
AcDbEntity
  8
M2
100
AcDbText
 10
55.861965
 20
4.000002
 40
6.666668
  1
Ｆ－２５０ＦＢ／Ｆ－２５０ＫＣ／Ｆ－２５０ＧＢ
 41
0.75
  7
STANDARD
100
AcDbText
  0
ENDSEC
  0
SECTION
  2
OBJECTS
  0
DICTIONARY
  5
C
100
AcDbDictionary
  3
ACAD_GROUP
350
D
  3
ACAD_MLINESTYLE
350
E
  0
DICTIONARY
  5
D
102
{ACAD_REACTORS
330
C
102
}
100
AcDbDictionary
  0
DICTIONARY
  5
E
102
{ACAD_REACTORS
330
C
102
}
100
AcDbDictionary
  3
STANDARD
350
13
  0
MLINESTYLE
  5
13
102
{ACAD_REACTORS
330
E
102
}
100
AcDbMlineStyle
  2
STANDARD
 70
     0
  3

 62
     0
 51
90.0
 52
90.0
 71
     2
 49
0.5
 62
   256
  6
BYLAYER
 49
-0.5
 62
   256
  6
BYLAYER
  0
ENDSEC
  0
EOF
