  0
SECTION
  2
HEADER
  9
$ACADVER
  1
AC1015
  9
$INSBASE
 10
0.000000
 20
0.000000
 30
0.0
  9
$VIEWCTR
 10
7.531722
 20
4.5
  9
$VIEWSIZE
 40
9.0
  9
$SNAPMODE
 70
     0
  9
$SNAPUNIT
 10
1.0
 20
1.0
  9
$SNAPBASE
 10
0.0
 20
0.0
  9
$SNAPANG
 50
0.0
  9
$SNAPSTYLE
 70
     0
  9
$SNAPISOPAIR
 70
     0
  9
$GRIDMODE
 70
     0
  9
$GRIDUNIT
 10
0.0
 20
0.0
  9
$ORTHOMODE
 70
     0
  9
$REGENMODE
 70
     1
  9
$FILLMODE
 70
     1
  9
$QTEXTMODE
 70
     0
  9
$DRAGMODE
 70
     2
  9
$LTSCALE
  40
     1.000000
  9
$OSMODE
 70
     0
  9
$ATTMODE
 70
     1
  9
$TEXTSIZE
 40
0.2
  9
$TRACEWID
 40
0.05
  9
$TEXTSTYLE
  7
STANDARD
  9
$CELTYPE
  6
BYLAYER
  9
$CECOLOR
 62
   256
  9
$DIMSCALE
 40
1.0
  9
$DIMASZ
 40
0.18
  9
$DIMEXO
 40
0.0625
  9
$DIMDLI
 40
0.38
  9
$DIMRND
 40
0.0
  9
$DIMDLE
 40
0.0
  9
$DIMEXE
 40
0.18
  9
$DIMTP
 40
0.0
  9
$DIMTM
 40
0.0
  9
$DIMTXT
 40
0.18
  9
$DIMCEN
 40
0.09
  9
$DIMTSZ
 40
0.0
  9
$DIMADEC
 70
     0
  9
$DIMALTRND
 40
0.000000
  9
$DIMAZIN
 70
     0
  9
$DIMDSEP
 70
    46
  9
$DIMATFIT
 70
     3
  9
$DIMFRAC
 70
     0
  9
$DIMLDRBLK
  1

  9
$DIMLUNIT
 70
     2
  9
$DIMLWD
 70
   13
  9
$DIMLWE
 70
   13
  9
$DIMTMOVE
 70
     0
  9
$CELWEIGHT
370
    25
  9
$LWDISPLAY
290
    1
  9
$EXTNAMES
290
    1
  9
$DIMTOL
 70
     0
  9
$DIMLIM
 70
     0
  9
$DIMTIH
 70
     1
  9
$DIMTOH
 70
     1
  9
$DIMSE1
 70
     0
  9
$DIMSE2
 70
     0
  9
$DIMTAD
 70
     0
  9
$DIMZIN
 70
     0
  9
$DIMBLK
  1

  9
$LUNITS
 70
     2
  9
$LUPREC
 70
     4
  9
$AXISMODE
 70
     0
  9
$AXISUNIT
 10
0.0
 20
0.0
  9
$SKETCHINC
 40
0.1
  9
$FILLETRAD
 40
0.0
  9
$AUNITS
 70
     0
  9
$AUPREC
 70
     0
  9
$MENU
  1
ACAD
  9
$ELEVATION
 40
0.0
  9
$THICKNESS
 40
0.0
  9
$VIEWDIR
 10
0.0
 20
0.0
 30
1.0
  9
$LIMCHECK
 70
     0
  9
$BLIPMODE
 70
     1
  9
$CHAMFERA
 40
0.0
  9
$CHAMFERB
 40
0.0
  9
$FASTZOOM
 70
     1
  9
$SKPOLY
 70
     0
  9
$TDCREATE
 40
0000000.0000000000
  9
$TDUPDATE
 40
0000000.0000000000
  9
$TDINDWG
 40
0.0000000000
  9
$TDUSRTIMER
 40
0.0000000000
  9
$USRTIMER
 70
     1
  9
$ANGBASE
 50
0.0
  9
$ANGDIR
 70
     0
  9
$PDMODE
 70
     0
  9
$PDSIZE
 40
0.0
  9
$PLINEWID
 40
0.0
  9
$COORDS
 70
     0
  9
$USERI1
 70
     0
  9
$USERI2
 70
     0
  9
$USERI3
 70
     0
  9
$USERI4
 70
     0
  9
$USERI5
 70
     0
  9
$USERR1
 40
0.0
  9
$USERR2
 40
0.0
  9
$USERR3
 40
0.0
  9
$USERR4
 40
0.0
  9
$USERR5
 40
0.0
  9
$CLAYER
  8
M1
  9
$EXTMIN
 10
0.0
 20
0.0
  9
$EXTMAX
 10
841.0
 20
594.0
  9
$LIMMIN
 10
0.0
 20
0.0
  9
$LIMMAX
 10
841.0
 20
594.0
  9
$HANDSEED
  5
19E
  0
ENDSEC
  0
SECTION
  2
CLASSES
  0
CLASS
  1
DIMASSOC
  2
AcDbDimAssoc
  3
"AcDbDimAssoc|Product Desc:     AcDim ARX App For Dimension|Company:          Autodesk, Inc.|WEB Address:      www.autodesk.com"
 90
        0
280
     0
281
     0
  0
ENDSEC
  0
SECTION
  2
TABLES
  0
TABLE
  2
VPORT
  5
8
100
AcDbSymbolTable
 70
     2
  0
VPORT
  5
14
100
AcDbSymbolTableRecord
100
AcDbViewportTableRecord
  2
*ACTIVE
 70
     0
 10
0.0
 20
0.0
 11
1.0
 21
1.0
 12
484.0
 22
297.0
 13
0.0
 23
0.0
 14
1.0
 24
1.0
 15
0.0
 25
0.0
 16
0.0
 26
0.0
 36
1.0
 17
0.0
 27
0.0
 37
0.0
 40
594.0
 41
2.0
 42
50.0
 43
0.0
 44
0.0
 50
0.0
 51
0.0
 71
     0
 72
   100
 73
     1
 74
     1
 75
     0
 76
     0
 77
     0
 78
     0
  0
ENDTAB
  0
TABLE
  2
LTYPE
  5
5
100
AcDbSymbolTable
 70
     5
  0
LTYPE
  5
15
100
AcDbSymbolTableRecord
100
AcDbLinetypeTableRecord
  2
BYBLOCK
 70
     0
  3

 72
    65
 73
     0
 40
0.0
  0
LTYPE
  5
16
100
AcDbSymbolTableRecord
100
AcDbLinetypeTableRecord
  2
BYLAYER
 70
     0
  3

 72
    65
 73
     0
 40
0.0
  0
LTYPE
  5
17
100
AcDbSymbolTableRecord
100
AcDbLinetypeTableRecord
  2
CONTINUOUS
 70
    64
  3
Solid line
 72
    65
 73
     0
 40
0.0
  0
LTYPE
  5
18
100
AcDbSymbolTableRecord
100
AcDbLinetypeTableRecord
  2
DASHED
 70
    64
  3
__ __ __ __ __ __ __ __ __ __ __ __ __ __ __ __
 72
    65
 73
     2
 40
0.75
 49
0.5
 74
     0
 49
-0.25
 74
     0
  0
LTYPE
  5
19
100
AcDbSymbolTableRecord
100
AcDbLinetypeTableRecord
  2
DASHDOT
 70
    64
  3
__ . __ . __ . __ . __ . __ . __ . __ . __ . __
 72
    65
 73
     4
 40
1.0
 49
0.5
 74
     0
 49
-0.25
 74
     0
 49
0.0
 74
     0
 49
-0.25
 74
     0
  0
LTYPE
  5
1A
100
AcDbSymbolTableRecord
100
AcDbLinetypeTableRecord
  2
DIVIDE
 70
    64
  3
____ . . ____ . . ____ . . ____ . . ____ . . __
 72
    65
 73
     6
 40
1.25
 49
0.5
 74
     0
 49
-0.25
 74
     0
 49
0.0
 74
     0
 49
-0.25
 74
     0
 49
0.0
 74
     0
 49
-0.25
 74
     0
  0
LTYPE
  5
1B
100
AcDbSymbolTableRecord
100
AcDbLinetypeTableRecord
  2
DOT
 70
    64
  3
. . . . . . . . . . . . . . . . . . . . . . . .
 72
    65
 73
     2
 40
0.25
 49
0.0
 74
     0
 49
-0.25
 74
     0
  0
ENDTAB
  0
TABLE
  2
LAYER
  5
2
100
AcDbSymbolTable
 70
   102
  0
LAYER
  5
F
100
AcDbSymbolTableRecord
100
AcDbLayerTableRecord
  2
0
 70
     0
 62
     7
  6
CONTINUOUS
370
     -3
390
F
  0
LAYER
  5
1C
100
AcDbSymbolTableRecord
100
AcDbLayerTableRecord
  2
M1
 70
     0
 62
     3
  6
CONTINUOUS
370
     -3
390
F
  0
LAYER
  5
1D
100
AcDbSymbolTableRecord
100
AcDbLayerTableRecord
  2
M2
 70
     0
 62
     3
  6
CONTINUOUS
370
     -3
390
F
  0
LAYER
  5
1E
100
AcDbSymbolTableRecord
100
AcDbLayerTableRecord
  2
M3
 70
     0
 62
     3
  6
CONTINUOUS
370
     -3
390
F
  0
LAYER
  5
1F
100
AcDbSymbolTableRecord
100
AcDbLayerTableRecord
  2
M7
 70
     0
 62
     2
  6
CONTINUOUS
370
     -3
390
F
  0
ENDTAB
  0
TABLE
  2
STYLE
  5
3
100
AcDbSymbolTable
 70
     2
  0
STYLE
  5
10
100
AcDbSymbolTableRecord
100
AcDbTextStyleTableRecord
  2
STANDARD
 70
     0
 40
0.0
 41
1.0
 50
0.0
 71
     0
 42
0.2
  3
txt
  4
BIGFONT
  0
ENDTAB
  0
TABLE
  2
VIEW
  5
6
100
AcDbSymbolTable
 70
     0
  0
ENDTAB
  0
TABLE
  2
UCS
  5
7
100
AcDbSymbolTable
 70
     0
  0
ENDTAB
  0
TABLE
  2
APPID
  5
9
100
AcDbSymbolTable
 70
     1
  0
APPID
  5
11
100
AcDbSymbolTableRecord
100
AcDbRegAppTableRecord
  2
ACAD
 70
     0
  0
ENDTAB
  0
TABLE
  2
DIMSTYLE
  5
A
100
AcDbSymbolTable
 70
     2
100
AcDbDimStyleTable
 71
     1
  0
DIMSTYLE
105
48
100
AcDbSymbolTableRecord
100
AcDbDimStyleTableRecord
  2
STANDARD
 70
     0
  3

  4

  5

  6
_OPEN
  7
_OPEN
 40
1.0
 41
3.0
 42
0.0
 43
8.0
 44
1.5
 45
0.0
 46
0.0
 47
0.0
 48
0.0
140
3.2
141
0.09
142
0.0
143
0.03937
144
1.0
145
0.0
146
1.0
147
1.0
148
0.000000
 71
     0
 72
     0
 73
     1
 74
     1
 75
     0
 76
     0
 77
     3
 78
     8
170
     0
171
     2
172
     0
173
     1
174
     0
175
     0
176
     0
177
     0
178
     0
270
     2
271
     2
272
     4
273
     2
274
     2
340
10
275
     0
278
    46
280
     0
281
     0
282
     0
283
     1
284
     0
285
     0
286
     0
287
     3
288
     0
371
   13
372
   13
  0
DIMSTYLE
105
49
100
AcDbSymbolTableRecord
100
AcDbDimStyleTableRecord
  2
LEADSTYL
 70
     0
  3

  4

  5

  6
_OPEN
  7
_OPEN
 40
1.0
 41
3.0
 42
0.0625
 43
0.38
 44
0.18
 45
0.0
 46
0.0
 47
0.0
 48
0.0
140
3.2
141
0.09
142
0.0
143
25.4
144
1.0
145
0.0
146
1.0
147
1.0
 71
     0
 72
     0
 73
     1
 74
     1
 75
     0
 76
     0
 77
     0
 78
     0
170
     0
171
     2
172
     0
173
     1
174
     0
175
     0
176
     0
177
     0
178
     0
270
     2
271
     4
272
     4
273
     2
274
     2
340
10
275
     0
280
     0
281
     0
282
     0
283
     1
284
     0
285
     0
286
     0
287
     3
288
     0
  0
ENDTAB
  0
TABLE
  2
BLOCK_RECORD
  5
1
100
AcDbSymbolTable
 70
     6
  0
BLOCK_RECORD
  5
20
100
AcDbSymbolTableRecord
100
AcDbBlockTableRecord
  2
*MODEL_SPACE
  0
BLOCK_RECORD
  5
23
100
AcDbSymbolTableRecord
100
AcDbBlockTableRecord
  2
*PAPER_SPACE
  0
BLOCK_RECORD
  5
26
100
AcDbSymbolTableRecord
100
AcDbBlockTableRecord
  2
_NONE
  0
BLOCK_RECORD
  5
2A
100
AcDbSymbolTableRecord
100
AcDbBlockTableRecord
  2
_OPEN
  0
BLOCK_RECORD
  5
30
100
AcDbSymbolTableRecord
100
AcDbBlockTableRecord
  2
_CLOSED
  0
BLOCK_RECORD
  5
37
100
AcDbSymbolTableRecord
100
AcDbBlockTableRecord
  2
_ORIGIN
  0
BLOCK_RECORD
  5
3C
100
AcDbSymbolTableRecord
100
AcDbBlockTableRecord
  2
_DOT
  0
BLOCK_RECORD
  5
44
100
AcDbSymbolTableRecord
100
AcDbBlockTableRecord
  2
_OBLIQUE
  0
ENDTAB
  0
ENDSEC
  0
SECTION
  2
BLOCKS
  0
BLOCK
  5
21
100
AcDbEntity
  8
0
100
AcDbBlockBegin
  2
*MODEL_SPACE
 70
     0
 10
0.0
 20
0.0
 30
0.0
  3
*MODEL_SPACE
  1

  0
ENDBLK
  5
22
100
AcDbEntity
  8
0
100
AcDbBlockEnd
  0
BLOCK
  5
24
100
AcDbEntity
 67
     1
  8
0
100
AcDbBlockBegin
  2
*PAPER_SPACE
 70
     0
 10
0.0
 20
0.0
 30
0.0
  3
*PAPER_SPACE
  1

  0
ENDBLK
  5
25
100
AcDbEntity
 67
     1
  8
0
100
AcDbBlockEnd
  0
BLOCK
  5
27
100
AcDbEntity
  8
0
100
AcDbBlockBegin
  2
_NONE
 70
     0
 10
0.0
 20
0.0
  0
CIRCLE
  5
28
100
AcDbEntity
  8
0
 62
     0
370
13
100
AcDbCircle
 10
0.0
 20
0.0
 40
0.25
  0
ENDBLK
  5
29
100
AcDbEntity
  8
0
100
AcDbBlockEnd
  0
BLOCK
  5
2B
100
AcDbEntity
  8
0
100
AcDbBlockBegin
  2
_OPEN
 70
     0
 10
0.0
 20
0.0
  0
LINE
  5
2C
100
AcDbEntity
  8
0
 62
     0
370
13
100
AcDbLine
 10
-0.965926
 20
0.258819
 11
0.0
 21
0.0
  0
LINE
  5
2D
100
AcDbEntity
  8
0
 62
     0
370
13
100
AcDbLine
 10
0.0
 20
0.0
 11
-0.965926
 21
-0.258819
  0
LINE
  5
2E
100
AcDbEntity
  8
0
 62
     0
370
13
100
AcDbLine
 10
0.0
 20
0.0
 11
-1.0
 21
0.0
  0
ENDBLK
  5
2F
100
AcDbEntity
  8
0
100
AcDbBlockEnd
  0
BLOCK
  5
31
100
AcDbEntity
  8
0
100
AcDbBlockBegin
  2
_CLOSED
 70
     0
 10
0.0
 20
0.0
  0
LINE
  5
32
100
AcDbEntity
  8
0
 62
     0
370
13
100
AcDbLine
 10
-0.965926
 20
0.258819
 11
0.0
 21
0.0
  0
LINE
  5
33
100
AcDbEntity
  8
0
 62
     0
370
13
100
AcDbLine
 10
0.0
 20
0.0
 11
-0.965926
 21
-0.258819
  0
LINE
  5
34
100
AcDbEntity
  8
0
 62
     0
370
13
100
AcDbLine
 10
-0.965926
 20
0.258819
 11
-0.965926
 21
-0.258819
  0
LINE
  5
35
100
AcDbEntity
  8
0
 62
     0
370
13
100
AcDbLine
 10
0.0
 20
0.0
 11
-1.0
 21
0.0
  0
ENDBLK
  5
36
100
AcDbEntity
  8
0
100
AcDbBlockEnd
  0
BLOCK
  5
38
100
AcDbEntity
  8
0
100
AcDbBlockBegin
  2
_ORIGIN
 70
     0
 10
0.0
 20
0.0
  0
CIRCLE
  5
39
100
AcDbEntity
  8
0
 62
     0
370
13
100
AcDbCircle
 10
0.0
 20
0.0
 40
0.5
  0
LINE
  5
3A
100
AcDbEntity
  8
0
 62
     0
370
13
100
AcDbLine
 10
0.0
 20
0.0
 11
-1.0
 21
0.0
  0
ENDBLK
  5
3B
100
AcDbEntity
  8
0
100
AcDbBlockEnd
  0
BLOCK
  5
3D
100
AcDbEntity
  8
0
100
AcDbBlockBegin
  2
_DOT
 70
     0
 10
0.0
 20
0.0
  0
POLYLINE
  5
3E
100
AcDbEntity
  8
0
 62
     0
100
AcDb2dPolyline
 66
     1
 70
     1
 40
0.5
 41
0.5
  0
VERTEX
  5
3F
100
AcDbEntity
  8
0
 62
     0
100
AcDbVertex
100
AcDb2dVertex
 10
-0.25
 20
0.0
 42
1.0
  0
VERTEX
  5
40
100
AcDbEntity
  8
0
 62
     0
100
AcDbVertex
100
AcDb2dVertex
 10
0.25
 20
0.0
 42
1.0
  0
SEQEND
  5
41
100
AcDbEntity
  8
0
 62
     0
  0
LINE
  5
42
100
AcDbEntity
  8
0
 62
     0
370
13
100
AcDbLine
 10
-0.5
 20
0.0
 11
-1.0
 21
0.0
  0
ENDBLK
  5
43
100
AcDbEntity
  8
0
100
AcDbBlockEnd
  0
BLOCK
  5
45
100
AcDbEntity
  8
0
100
AcDbBlockBegin
  2
_OBLIQUE
 70
     0
 10
0.0
 20
0.0
  0
LINE
  5
46
100
AcDbEntity
  8
0
 62
     0
370
13
100
AcDbLine
 10
-0.353553
 20
-0.353553
 11
0.353553
 21
0.353553
  0
ENDBLK
  5
47
100
AcDbEntity
  8
0
100
AcDbBlockEnd
  0
ENDSEC
  0
SECTION
  2
ENTITIES
  0
LINE
  5
4A
100
AcDbEntity
  8
M1
  6
CONTINUOUS
370
25
100
AcDbLine
 10
-24.84027
 20
24.186248
 11
-24.84027
 21
24.086248
  0
LINE
  5
4B
100
AcDbEntity
  8
M1
  6
CONTINUOUS
370
25
100
AcDbLine
 10
-24.84027
 20
24.086248
 11
-24.74027
 21
24.086248
  0
CIRCLE
  5
4C
100
AcDbEntity
  8
M1
  6
CONTINUOUS
370
25
100
AcDbCircle
 10
52.466666
 20
75.552612
 40
1.2
  0
CIRCLE
  5
4D
100
AcDbEntity
  8
M1
  6
CONTINUOUS
370
25
100
AcDbCircle
 10
112.866668
 20
75.552612
 40
1.2
  0
CIRCLE
  5
4E
100
AcDbEntity
  8
M1
  6
CONTINUOUS
370
25
100
AcDbCircle
 10
72.166666
 20
137.752612
 40
1.2
  0
CIRCLE
  5
4F
100
AcDbEntity
  8
M1
  6
CONTINUOUS
370
25
100
AcDbCircle
 10
93.166668
 20
137.752612
 40
1.2
  0
LINE
  5
50
100
AcDbEntity
  8
M1
  6
DASHED
370
13
100
AcDbLine
 10
39.917268
 20
132.952612
 11
148.460682
 21
132.952612
  0
LINE
  5
51
100
AcDbEntity
  8
M1
  6
CONTINUOUS
370
25
 62
   253
100
AcDbLine
 10
329.466012
 20
341.09091
 11
333.466012
 21
341.09091
  0
LINE
  5
52
100
AcDbEntity
  8
M1
  6
CONTINUOUS
370
25
 62
   253
100
AcDbLine
 10
333.466012
 20
341.09091
 11
333.466012
 21
322.09091
  0
LINE
  5
53
100
AcDbEntity
  8
M1
  6
CONTINUOUS
370
25
 62
   253
100
AcDbLine
 10
319.466012
 20
340.09091
 11
319.466012
 21
335.09091
  0
LINE
  5
54
100
AcDbEntity
  8
M1
  6
CONTINUOUS
370
25
 62
   253
100
AcDbLine
 10
329.466012
 20
335.09091
 11
319.466012
 21
335.09091
  0
LINE
  5
55
100
AcDbEntity
  8
M1
  6
CONTINUOUS
370
25
 62
   253
100
AcDbLine
 10
329.466012
 20
322.09091
 11
329.466012
 21
335.09091
  0
LINE
  5
56
100
AcDbEntity
  8
M1
  6
CONTINUOUS
370
25
 62
   253
100
AcDbLine
 10
329.466012
 20
322.09091
 11
333.466012
 21
322.09091
  0
LINE
  5
57
100
AcDbEntity
  8
M1
  6
DASHDOT
370
13
 62
   253
100
AcDbLine
 10
327.156396
 20
325.09091
 11
335.284948
 21
325.09091
  0
LINE
  5
58
100
AcDbEntity
  8
M1
  6
DASHDOT
370
13
 62
   253
100
AcDbLine
 10
327.156396
 20
331.09091
 11
335.284948
 21
331.09091
  0
LINE
  5
59
100
AcDbEntity
  8
M1
  6
DASHED
370
13
 62
     6
100
AcDbLine
 10
338.266012
 20
420.29091
 11
347.066012
 21
420.29091
  0
LINE
  5
5A
100
AcDbEntity
  8
M1
  6
DASHED
370
13
 62
     6
100
AcDbLine
 10
347.066012
 20
420.29091
 11
347.066012
 21
419.09091
  0
LINE
  5
5B
100
AcDbEntity
  8
M1
  6
DASHED
370
13
 62
     6
100
AcDbLine
 10
337.066012
 20
419.09091
 11
347.066012
 21
419.09091
  0
LINE
  5
5C
100
AcDbEntity
  8
M1
  6
DASHED
370
13
 62
     6
100
AcDbLine
 10
338.266012
 20
429.09091
 11
338.266012
 21
420.29091
  0
LINE
  5
5D
100
AcDbEntity
  8
M1
  6
DASHED
370
13
 62
     6
100
AcDbLine
 10
337.066012
 20
429.09091
 11
337.066012
 21
419.09091
  0
LINE
  5
5E
100
AcDbEntity
  8
M1
  6
DASHED
370
13
 62
     6
100
AcDbLine
 10
337.066012
 20
429.09091
 11
338.266012
 21
429.09091
  0
LINE
  5
5F
100
AcDbEntity
  8
M1
  6
CONTINUOUS
370
25
 62
     2
100
AcDbLine
 10
338.266012
 20
360.690912
 11
338.58601
 21
360.690912
  0
LINE
  5
60
100
AcDbEntity
  8
M1
  6
CONTINUOUS
370
25
 62
     2
100
AcDbLine
 10
338.58601
 20
360.690912
 11
338.58601
 21
365.090912
  0
LINE
  5
61
100
AcDbEntity
  8
M1
  6
CONTINUOUS
370
25
 62
     2
100
AcDbLine
 10
338.58601
 20
365.090912
 11
338.266012
 21
365.090912
  0
LINE
  5
62
100
AcDbEntity
  8
M1
  6
CONTINUOUS
370
25
 62
     2
100
AcDbLine
 10
338.266012
 20
365.090912
 11
338.266012
 21
360.690912
  0
LINE
  5
63
100
AcDbEntity
  8
M1
  6
DASHDOT
370
13
 62
     2
100
AcDbLine
 10
337.966008
 20
362.890908
 11
339.18601
 21
362.890912
  0
LINE
  5
64
100
AcDbEntity
  8
M1
  6
DASHED
370
13
 62
   234
100
AcDbLine
 10
309.186
 20
423.490914
 11
311.066012
 21
423.490914
  0
LINE
  5
65
100
AcDbEntity
  8
M1
  6
DASHED
370
13
 62
   234
100
AcDbLine
 10
311.066012
 20
423.490914
 11
311.066012
 21
426.690914
  0
LINE
  5
66
100
AcDbEntity
  8
M1
  6
DASHED
370
13
 62
   234
100
AcDbLine
 10
311.066012
 20
426.690914
 11
309.18601
 21
426.690914
  0
LINE
  5
67
100
AcDbEntity
  8
M1
  6
DASHED
370
13
 62
   234
100
AcDbLine
 10
309.06601
 20
426.48307
 11
309.06601
 21
423.698744
  0
LINE
  5
68
100
AcDbEntity
  8
M1
  6
DASHED
370
13
 62
   234
100
AcDbLine
 10
311.066012
 20
424.09091
 11
329.466012
 21
424.09091
  0
LINE
  5
69
100
AcDbEntity
  8
M1
  6
DASHDOT
370
13
 62
   234
100
AcDbLine
 10
308.339678
 20
425.09091
 11
344.256262
 21
425.09091
  0
LINE
  5
6A
100
AcDbEntity
  8
M1
  6
DASHED
370
13
 62
   234
100
AcDbLine
 10
309.18601
 20
426.690914
 11
309.18601
 21
423.490914
  0
LINE
  5
6B
100
AcDbEntity
  8
M1
  6
DASHED
370
13
 62
   234
100
AcDbLine
 10
309.06601
 20
426.48307
 11
309.18601
 21
426.690914
  0
LINE
  5
6C
100
AcDbEntity
  8
M1
  6
DASHED
370
13
 62
   234
100
AcDbLine
 10
309.06601
 20
423.698744
 11
309.186
 21
423.490914
  0
LINE
  5
6D
100
AcDbEntity
  8
M1
  6
DASHED
370
13
 62
   234
100
AcDbLine
 10
329.466012
 20
426.09091
 11
311.066012
 21
426.09091
  0
LINE
  5
6E
100
AcDbEntity
  8
M1
  6
CONTINUOUS
370
25
 62
   234
100
AcDbLine
 10
342.426012
 20
363.89091
 11
340.18601
 21
363.89091
  0
LINE
  5
6F
100
AcDbEntity
  8
M1
  6
CONTINUOUS
370
25
 62
   234
100
AcDbLine
 10
342.426012
 20
361.89091
 11
342.426012
 21
363.89091
  0
LINE
  5
70
100
AcDbEntity
  8
M1
  6
CONTINUOUS
370
25
 62
   234
100
AcDbLine
 10
340.18601
 20
361.89091
 11
342.426012
 21
361.89091
  0
LINE
  5
71
100
AcDbEntity
  8
M1
  6
CONTINUOUS
370
25
 62
   114
100
AcDbLine
 10
340.186006
 20
427.05092
 11
338.586004
 21
427.05092
  0
LINE
  5
72
100
AcDbEntity
  8
M1
  6
CONTINUOUS
370
25
 62
   114
100
AcDbLine
 10
338.58601
 20
427.050912
 11
338.58601
 21
423.130916
  0
LINE
  5
73
100
AcDbEntity
  8
M1
  6
CONTINUOUS
370
25
 62
   114
100
AcDbLine
 10
338.586006
 20
423.13092
 11
340.186006
 21
423.13092
  0
LINE
  5
74
100
AcDbEntity
  8
M1
  6
CONTINUOUS
370
25
 62
   114
100
AcDbLine
 10
340.18601
 20
423.130922
 11
340.18601
 21
427.050924
  0
LINE
  5
75
100
AcDbEntity
  8
M1
  6
DASHDOT
370
13
 62
   114
100
AcDbLine
 10
341.886006
 20
425.09091
 11
337.486004
 21
425.09091
  0
LINE
  5
76
100
AcDbEntity
  8
M1
  6
CONTINUOUS
370
25
 62
   114
100
AcDbLine
 10
340.186006
 20
424.110918
 11
338.586006
 21
424.110918
  0
LINE
  5
77
100
AcDbEntity
  8
M1
  6
CONTINUOUS
370
25
 62
   114
100
AcDbLine
 10
340.186006
 20
426.070916
 11
338.586004
 21
426.070916
  0
LINE
  5
78
100
AcDbEntity
  8
M1
  6
CONTINUOUS
370
25
 62
     2
100
AcDbLine
 10
338.266012
 20
422.890912
 11
338.58601
 21
422.890912
  0
LINE
  5
79
100
AcDbEntity
  8
M1
  6
CONTINUOUS
370
25
 62
     2
100
AcDbLine
 10
338.58601
 20
422.890912
 11
338.58601
 21
427.290912
  0
LINE
  5
7A
100
AcDbEntity
  8
M1
  6
CONTINUOUS
370
25
 62
     2
100
AcDbLine
 10
338.58601
 20
427.290912
 11
338.266012
 21
427.290912
  0
LINE
  5
7B
100
AcDbEntity
  8
M1
  6
CONTINUOUS
370
25
 62
     2
100
AcDbLine
 10
338.266012
 20
427.290912
 11
338.266012
 21
422.890912
  0
LINE
  5
7C
100
AcDbEntity
  8
M1
  6
DASHDOT
370
13
 62
     2
100
AcDbLine
 10
337.966008
 20
425.09091
 11
339.18601
 21
425.090912
  0
LINE
  5
7D
100
AcDbEntity
  8
M1
  6
DASHED
370
13
 62
     6
100
AcDbLine
 10
338.266012
 20
367.69091
 11
347.066012
 21
367.69091
  0
LINE
  5
7E
100
AcDbEntity
  8
M1
  6
DASHED
370
13
 62
     6
100
AcDbLine
 10
347.066012
 20
367.69091
 11
347.066012
 21
368.89091
  0
LINE
  5
7F
100
AcDbEntity
  8
M1
  6
DASHED
370
13
 62
     6
100
AcDbLine
 10
337.066012
 20
368.89091
 11
347.066012
 21
368.89091
  0
LINE
  5
80
100
AcDbEntity
  8
M1
  6
DASHED
370
13
 62
     6
100
AcDbLine
 10
338.266012
 20
358.89091
 11
338.266012
 21
367.69091
  0
LINE
  5
81
100
AcDbEntity
  8
M1
  6
DASHED
370
13
 62
     6
100
AcDbLine
 10
337.066012
 20
358.89091
 11
337.066012
 21
368.89091
  0
LINE
  5
82
100
AcDbEntity
  8
M1
  6
DASHED
370
13
 62
     6
100
AcDbLine
 10
337.066012
 20
358.89091
 11
338.266012
 21
358.89091
  0
LINE
  5
83
100
AcDbEntity
  8
M1
  6
CONTINUOUS
370
25
 62
   114
100
AcDbLine
 10
340.186006
 20
364.85092
 11
338.586004
 21
364.85092
  0
LINE
  5
84
100
AcDbEntity
  8
M1
  6
CONTINUOUS
370
25
 62
   114
100
AcDbLine
 10
338.58601
 20
364.85091
 11
338.58601
 21
360.930916
  0
LINE
  5
85
100
AcDbEntity
  8
M1
  6
CONTINUOUS
370
25
 62
   114
100
AcDbLine
 10
338.586006
 20
360.930918
 11
340.186006
 21
360.930918
  0
LINE
  5
86
100
AcDbEntity
  8
M1
  6
CONTINUOUS
370
25
 62
   114
100
AcDbLine
 10
340.18601
 20
360.930922
 11
340.18601
 21
364.850922
  0
LINE
  5
87
100
AcDbEntity
  8
M1
  6
DASHDOT
370
13
 62
   114
100
AcDbLine
 10
341.486006
 20
362.89091
 11
337.486004
 21
362.89091
  0
LINE
  5
88
100
AcDbEntity
  8
M1
  6
CONTINUOUS
370
25
 62
   114
100
AcDbLine
 10
340.186006
 20
361.910918
 11
338.586006
 21
361.910918
  0
LINE
  5
89
100
AcDbEntity
  8
M1
  6
CONTINUOUS
370
25
 62
   114
100
AcDbLine
 10
340.186006
 20
363.870914
 11
338.586004
 21
363.870914
  0
LINE
  5
8A
100
AcDbEntity
  8
M1
  6
CONTINUOUS
370
25
100
AcDbLine
 10
342.826012
 20
424.09091
 11
342.826012
 21
426.09091
  0
LINE
  5
8B
100
AcDbEntity
  8
M1
  6
CONTINUOUS
370
25
100
AcDbLine
 10
340.18601
 20
424.09091
 11
342.826012
 21
424.09091
  0
LINE
  5
8C
100
AcDbEntity
  8
M1
  6
CONTINUOUS
370
25
100
AcDbLine
 10
342.826012
 20
426.09091
 11
340.18601
 21
426.09091
  0
LINE
  5
8D
100
AcDbEntity
  8
M1
  6
CONTINUOUS
370
25
 62
   253
100
AcDbLine
 10
329.466012
 20
448.09091
 11
333.466012
 21
448.09091
  0
LINE
  5
8E
100
AcDbEntity
  8
M1
  6
CONTINUOUS
370
25
 62
   253
100
AcDbLine
 10
333.466012
 20
392.09091
 11
333.466012
 21
448.09091
  0
LINE
  5
8F
100
AcDbEntity
  8
M1
  6
CONTINUOUS
370
25
 62
   253
100
AcDbLine
 10
329.466012
 20
448.09091
 11
329.466012
 21
392.09091
  0
LINE
  5
90
100
AcDbEntity
  8
M1
  6
CONTINUOUS
370
25
 62
   253
100
AcDbLine
 10
329.466012
 20
392.09091
 11
333.466012
 21
392.09091
  0
LINE
  5
91
100
AcDbEntity
  8
M1
  6
DASHDOT
370
13
 62
   253
100
AcDbLine
 10
335.624368
 20
445.09091
 11
327.192188
 21
445.09091
  0
LINE
  5
92
100
AcDbEntity
  8
M1
  6
DASHDOT
370
13
 62
   253
100
AcDbLine
 10
335.624368
 20
439.09091
 11
327.192188
 21
439.09091
  0
LINE
  5
93
100
AcDbEntity
  8
M1
  6
CONTINUOUS
370
25
 62
   194
100
AcDbLine
 10
333.466012
 20
388.09091
 11
333.466012
 21
434.09091
  0
LINE
  5
94
100
AcDbEntity
  8
M1
  6
CONTINUOUS
370
25
 62
   194
100
AcDbLine
 10
333.466012
 20
388.09091
 11
337.066012
 21
388.09091
  0
LINE
  5
95
100
AcDbEntity
  8
M1
  6
CONTINUOUS
370
25
 62
   194
100
AcDbLine
 10
337.066012
 20
434.09091
 11
337.066012
 21
388.09091
  0
LINE
  5
96
100
AcDbEntity
  8
M1
  6
CONTINUOUS
370
25
 62
   194
100
AcDbLine
 10
333.466012
 20
434.09091
 11
337.066012
 21
434.09091
  0
LINE
  5
97
100
AcDbEntity
  8
M1
  6
CONTINUOUS
370
25
100
AcDbLine
 10
337.066012
 20
364.89091
 11
329.466012
 21
364.89091
  0
LINE
  5
98
100
AcDbEntity
  8
M1
  6
DASHDOT
370
13
100
AcDbLine
 10
324.494126
 20
362.89091
 11
344.744724
 21
362.89091
  0
LINE
  5
99
100
AcDbEntity
  8
M1
  6
CONTINUOUS
370
25
100
AcDbLine
 10
337.066012
 20
360.89091
 11
329.466012
 21
360.89091
  0
LINE
  5
9A
100
AcDbEntity
  8
M1
  6
DASHDOT
370
13
 62
     7
100
AcDbLine
 10
284.925908
 20
378.69091
 11
344.706242
 21
378.69091
  0
LINE
  5
9B
100
AcDbEntity
  8
M1
  6
CONTINUOUS
370
25
 62
     7
100
AcDbLine
 10
329.466012
 20
430.09091
 11
329.466012
 21
340.09091
  0
LINE
  5
9C
100
AcDbEntity
  8
M1
  6
CONTINUOUS
370
25
 62
     7
100
AcDbLine
 10
292.46601
 20
430.09091
 11
292.46601
 21
340.09091
  0
LINE
  5
9D
100
AcDbEntity
  8
M1
  6
CONTINUOUS
370
25
 62
     7
100
AcDbLine
 10
292.46601
 20
430.09091
 11
329.466012
 21
430.09091
  0
LINE
  5
9E
100
AcDbEntity
  8
M1
  6
CONTINUOUS
370
25
 62
     7
100
AcDbLine
 10
292.46601
 20
340.09091
 11
329.466012
 21
340.09091
  0
LINE
  5
9F
100
AcDbEntity
  8
M1
  6
CONTINUOUS
370
25
 62
     7
100
AcDbLine
 10
290.46601
 20
392.69091
 11
290.46601
 21
364.69091
  0
LINE
  5
A0
100
AcDbEntity
  8
M1
  6
CONTINUOUS
370
25
 62
     7
100
AcDbLine
 10
290.46601
 20
364.69091
 11
292.46601
 21
364.69091
  0
LINE
  5
A1
100
AcDbEntity
  8
M1
  6
CONTINUOUS
370
25
 62
     7
100
AcDbLine
 10
290.46601
 20
392.69091
 11
292.46601
 21
392.69091
  0
LINE
  5
A2
100
AcDbEntity
  8
M1
  6
DASHDOT
370
13
 62
     7
100
AcDbLine
 10
280.46601
 20
379.09091
 11
280.46601
 21
375.639948
  0
LINE
  5
A3
100
AcDbEntity
  8
M1
  6
DASHDOT
370
13
 62
     7
100
AcDbLine
 10
309.46601
 20
384.233748
 11
309.46601
 21
374.063916
  0
LINE
  5
A4
100
AcDbEntity
  8
M1
  6
DASHDOT
370
13
 62
     7
100
AcDbLine
 10
319.7255
 20
379.09091
 11
260.931034
 21
379.09091
  0
LINE
  5
A5
100
AcDbEntity
  8
M1
  6
DASHDOT
370
13
 62
     7
100
AcDbLine
 10
309.46601
 20
379.09091
 11
278.367496
 21
389.37576
  0
LINE
  5
A6
100
AcDbEntity
  8
M1
  6
DASHDOT
370
13
 62
     7
100
AcDbLine
 10
309.46601
 20
379.09091
 11
277.208546
 21
373.403048
  0
LINE
  5
A7
100
AcDbEntity
  8
M1
  6
DASHDOT
370
13
 62
     7
100
AcDbLine
 10
309.46601
 20
379.09091
 11
277.00627
 21
383.47964
  0
LINE
  5
A8
100
AcDbEntity
  8
M1
  6
DASHDOT
370
13
 62
     7
100
AcDbLine
 10
309.46601
 20
379.09091
 11
277.871848
 21
370.447724
  0
LINE
  5
A9
100
AcDbEntity
  8
M1
  6
CONTINUOUS
370
25
 62
     7
100
AcDbLine
 10
282.576356
 20
390.143014
 11
281.288988
 21
386.25037
  0
LINE
  5
AA
100
AcDbEntity
  8
M1
  6
CONTINUOUS
370
25
 62
     7
100
AcDbLine
 10
290.46601
 20
387.889318
 11
282.576356
 21
390.143014
  0
LINE
  5
AB
100
AcDbEntity
  8
M1
  6
CONTINUOUS
370
25
 62
     7
100
AcDbLine
 10
281.288988
 20
386.25037
 11
290.46601
 21
382.790364
  0
ARC
  5
AC
100
AcDbEntity
  8
M1
  6
DASHDOT
370
13
 62
     7
100
AcDbCircle
 10
309.46601
 20
379.09091
 40
29.0
100
AcDbArc
 50
161.7
 51
180.0
  0
ARC
  5
AD
100
AcDbEntity
  8
M1
  6
DASHDOT
370
13
100
AcDbCircle
 10
309.46601
 20
379.09091
 40
48.534976
100
AcDbArc
 50
161.7
 51
180.472207
  0
LINE
  5
AE
100
AcDbEntity
  8
M1
  6
DASHDOT
370
13
100
AcDbLine
 10
289.814038
 20
425.09091
 11
339.980202
 21
425.09091
  0
LINE
  5
AF
100
AcDbEntity
  8
M1
  6
DASHED
370
13
100
AcDbLine
 10
292.46601
 20
427.09091
 11
311.066012
 21
427.09091
  0
LINE
  5
B0
100
AcDbEntity
  8
M1
  6
DASHED
370
13
100
AcDbLine
 10
311.066012
 20
426.29091
 11
329.466012
 21
426.29091
  0
LINE
  5
B1
100
AcDbEntity
  8
M1
  6
DASHED
370
13
100
AcDbLine
 10
311.066012
 20
427.09091
 11
311.066012
 21
423.09091
  0
LINE
  5
B2
100
AcDbEntity
  8
M1
  6
DASHED
370
13
100
AcDbLine
 10
311.066012
 20
423.89091
 11
329.466012
 21
423.89091
  0
LINE
  5
B3
100
AcDbEntity
  8
M1
  6
DASHED
370
13
100
AcDbLine
 10
292.46601
 20
423.09091
 11
311.066012
 21
423.09091
  0
LINE
  5
B4
100
AcDbEntity
  8
M1
  6
DASHED
370
13
 62
   253
100
AcDbLine
 10
290.46601
 20
389.587634
 11
281.351526
 21
392.601962
  0
LINE
  5
B5
100
AcDbEntity
  8
M1
  6
DASHED
370
13
 62
   253
100
AcDbLine
 10
281.351526
 20
392.601962
 11
278.839586
 21
385.006558
  0
LINE
  5
B6
100
AcDbEntity
  8
M1
  6
DASHED
370
13
 62
   253
100
AcDbLine
 10
278.839586
 20
385.006558
 11
287.954072
 21
381.99223
  0
LINE
  5
B7
100
AcDbEntity
  8
M1
  6
DASHED
370
13
 62
   253
100
AcDbLine
 10
287.954072
 20
381.99223
 11
290.46601
 21
389.587634
  0
LINE
  5
B8
100
AcDbEntity
  8
M1
  6
DASHED
370
13
 62
   253
100
AcDbLine
 10
278.839586
 20
385.006558
 11
270.739488
 21
389.387442
  0
LINE
  5
B9
100
AcDbEntity
  8
M1
  6
DASHED
370
13
 62
   253
100
AcDbLine
 10
281.351526
 20
392.601962
 11
272.236632
 21
393.914392
  0
ARC
  5
BA
100
AcDbEntity
  8
M1
  6
DASHED
370
13
 62
   253
100
AcDbCircle
 10
267.753024
 20
392.886162
 40
4.6
100
AcDbArc
 50
12.916355
 51
310.483645
  0
LINE
  5
BB
100
AcDbEntity
  8
M1
  6
CONTINUOUS
370
25
 62
   253
100
AcDbLine
 10
68.166666
 20
337.09091
 11
68.166666
 21
319.09091
  0
LINE
  5
BC
100
AcDbEntity
  8
M1
  6
CONTINUOUS
370
25
 62
   253
100
AcDbLine
 10
55.166666
 20
319.09091
 11
68.166666
 21
319.09091
  0
LINE
  5
BD
100
AcDbEntity
  8
M1
  6
CONTINUOUS
370
25
 62
   253
100
AcDbLine
 10
55.166666
 20
332.09091
 11
68.166666
 21
332.09091
  0
CIRCLE
  5
BE
100
AcDbEntity
  8
M1
  6
CONTINUOUS
370
25
 62
   253
100
AcDbCircle
 10
64.666666
 20
322.09091
 40
1.1
  0
LINE
  5
BF
100
AcDbEntity
  8
M1
  6
DASHDOT
370
13
 62
   253
100
AcDbLine
 10
60.9
 20
322.09091
 11
68.433334
 21
322.09091
  0
LINE
  5
C0
100
AcDbEntity
  8
M1
  6
DASHDOT
370
13
 62
   253
100
AcDbLine
 10
64.666666
 20
318.324242
 11
64.666666
 21
325.857576
  0
CIRCLE
  5
C1
100
AcDbEntity
  8
M1
  6
CONTINUOUS
370
25
 62
   253
100
AcDbCircle
 10
64.666666
 20
328.09091
 40
1.1
  0
LINE
  5
C2
100
AcDbEntity
  8
M1
  6
DASHDOT
370
13
 62
   253
100
AcDbLine
 10
60.9
 20
328.09091
 11
68.433334
 21
328.09091
  0
LINE
  5
C3
100
AcDbEntity
  8
M1
  6
DASHDOT
370
13
 62
   253
100
AcDbLine
 10
64.666666
 20
324.324242
 11
64.666666
 21
331.857576
  0
CIRCLE
  5
C4
100
AcDbEntity
  8
M1
  6
CONTINUOUS
370
25
 62
   253
100
AcDbCircle
 10
58.666666
 20
322.09091
 40
1.1
  0
LINE
  5
C5
100
AcDbEntity
  8
M1
  6
DASHDOT
370
13
 62
   253
100
AcDbLine
 10
54.9
 20
322.09091
 11
62.433334
 21
322.09091
  0
LINE
  5
C6
100
AcDbEntity
  8
M1
  6
DASHDOT
370
13
 62
   253
100
AcDbLine
 10
58.666666
 20
318.324242
 11
58.666666
 21
325.857576
  0
CIRCLE
  5
C7
100
AcDbEntity
  8
M1
  6
CONTINUOUS
370
25
 62
   253
100
AcDbCircle
 10
58.666666
 20
328.09091
 40
1.1
  0
LINE
  5
C8
100
AcDbEntity
  8
M1
  6
DASHDOT
370
13
 62
   253
100
AcDbLine
 10
54.9
 20
328.09091
 11
62.433334
 21
328.09091
  0
LINE
  5
C9
100
AcDbEntity
  8
M1
  6
DASHDOT
370
13
 62
   253
100
AcDbLine
 10
58.666666
 20
324.324242
 11
58.666666
 21
331.857576
  0
LINE
  5
CA
100
AcDbEntity
  8
M1
  6
CONTINUOUS
370
25
 62
   253
100
AcDbLine
 10
55.166666
 20
337.09091
 11
55.166666
 21
319.09091
  0
LINE
  5
CB
100
AcDbEntity
  8
M1
  6
DASHDOT
370
13
 62
   253
100
AcDbLine
 10
103.666668
 20
421.898666
 11
103.666668
 21
448.736138
  0
CIRCLE
  5
CC
100
AcDbEntity
  8
M1
  6
CONTINUOUS
370
25
 62
   253
100
AcDbCircle
 10
106.666668
 20
436.09091
 40
1.1
  0
LINE
  5
CD
100
AcDbEntity
  8
M1
  6
DASHDOT
370
13
 62
   253
100
AcDbLine
 10
102.9
 20
436.09091
 11
110.433334
 21
436.09091
  0
LINE
  5
CE
100
AcDbEntity
  8
M1
  6
DASHDOT
370
13
 62
   253
100
AcDbLine
 10
106.666668
 20
432.324244
 11
106.666668
 21
439.857578
  0
CIRCLE
  5
CF
100
AcDbEntity
  8
M1
  6
CONTINUOUS
370
25
 62
   253
100
AcDbCircle
 10
106.666668
 20
442.09091
 40
1.1
  0
LINE
  5
D0
100
AcDbEntity
  8
M1
  6
DASHDOT
370
13
 62
   253
100
AcDbLine
 10
102.9
 20
442.09091
 11
110.433334
 21
442.09091
  0
LINE
  5
D1
100
AcDbEntity
  8
M1
  6
DASHDOT
370
13
 62
   253
100
AcDbLine
 10
106.666668
 20
438.324244
 11
106.666668
 21
445.857578
  0
LINE
  5
D2
100
AcDbEntity
  8
M1
  6
CONTINUOUS
370
25
 62
   253
100
AcDbLine
 10
97.166668
 20
445.09091
 11
110.166668
 21
445.09091
  0
LINE
  5
D3
100
AcDbEntity
  8
M1
  6
CONTINUOUS
370
25
 62
   253
100
AcDbLine
 10
97.166668
 20
445.09091
 11
97.166668
 21
427.09091
  0
LINE
  5
D4
100
AcDbEntity
  8
M1
  6
CONTINUOUS
370
25
 62
   253
100
AcDbLine
 10
110.166668
 20
445.09091
 11
110.166668
 21
427.09091
  0
CIRCLE
  5
D5
100
AcDbEntity
  8
M1
  6
CONTINUOUS
370
25
 62
   253
100
AcDbCircle
 10
100.666668
 20
442.09091
 40
1.1
  0
LINE
  5
D6
100
AcDbEntity
  8
M1
  6
DASHDOT
370
13
 62
   253
100
AcDbLine
 10
96.9
 20
442.09091
 11
104.433334
 21
442.09091
  0
LINE
  5
D7
100
AcDbEntity
  8
M1
  6
DASHDOT
370
13
 62
   253
100
AcDbLine
 10
100.666668
 20
438.324244
 11
100.666668
 21
445.857578
  0
CIRCLE
  5
D8
100
AcDbEntity
  8
M1
  6
CONTINUOUS
370
25
 62
   253
100
AcDbCircle
 10
100.666668
 20
436.09091
 40
1.1
  0
LINE
  5
D9
100
AcDbEntity
  8
M1
  6
DASHDOT
370
13
 62
   253
100
AcDbLine
 10
96.9
 20
436.09091
 11
104.433334
 21
436.09091
  0
LINE
  5
DA
100
AcDbEntity
  8
M1
  6
DASHDOT
370
13
 62
   253
100
AcDbLine
 10
100.666668
 20
432.324244
 11
100.666668
 21
439.857578
  0
LINE
  5
DB
100
AcDbEntity
  8
M1
  6
DASHDOT
370
13
 62
   253
100
AcDbLine
 10
125.666668
 20
421.898666
 11
125.666668
 21
448.736138
  0
LINE
  5
DC
100
AcDbEntity
  8
M1
  6
DASHDOT
370
13
 62
   253
100
AcDbLine
 10
124.900002
 20
436.09091
 11
132.433334
 21
436.09091
  0
LINE
  5
DD
100
AcDbEntity
  8
M1
  6
DASHDOT
370
13
 62
   253
100
AcDbLine
 10
128.666668
 20
432.324244
 11
128.666668
 21
439.857578
  0
LINE
  5
DE
100
AcDbEntity
  8
M1
  6
DASHDOT
370
13
 62
   253
100
AcDbLine
 10
124.900002
 20
442.09091
 11
132.433334
 21
442.09091
  0
LINE
  5
DF
100
AcDbEntity
  8
M1
  6
DASHDOT
370
13
 62
   253
100
AcDbLine
 10
128.666668
 20
438.324244
 11
128.666668
 21
445.857578
  0
LINE
  5
E0
100
AcDbEntity
  8
M1
  6
CONTINUOUS
370
25
 62
   253
100
AcDbLine
 10
119.166668
 20
445.09091
 11
132.166668
 21
445.09091
  0
LINE
  5
E1
100
AcDbEntity
  8
M1
  6
CONTINUOUS
370
25
 62
   253
100
AcDbLine
 10
119.166668
 20
445.09091
 11
119.166668
 21
427.09091
  0
LINE
  5
E2
100
AcDbEntity
  8
M1
  6
CONTINUOUS
370
25
 62
   253
100
AcDbLine
 10
132.166668
 20
445.09091
 11
132.166668
 21
427.09091
  0
LINE
  5
E3
100
AcDbEntity
  8
M1
  6
DASHDOT
370
13
 62
   253
100
AcDbLine
 10
118.9
 20
442.09091
 11
126.433334
 21
442.09091
  0
LINE
  5
E4
100
AcDbEntity
  8
M1
  6
DASHDOT
370
13
 62
   253
100
AcDbLine
 10
122.666668
 20
438.324244
 11
122.666668
 21
445.857578
  0
LINE
  5
E5
100
AcDbEntity
  8
M1
  6
DASHDOT
370
13
 62
   253
100
AcDbLine
 10
118.9
 20
436.09091
 11
126.433334
 21
436.09091
  0
LINE
  5
E6
100
AcDbEntity
  8
M1
  6
DASHDOT
370
13
 62
   253
100
AcDbLine
 10
122.666668
 20
432.324244
 11
122.666668
 21
439.857578
  0
CIRCLE
  5
E7
100
AcDbEntity
  8
M1
  6
CONTINUOUS
370
25
 62
   253
100
AcDbCircle
 10
128.666668
 20
436.09091
 40
1.1
  0
CIRCLE
  5
E8
100
AcDbEntity
  8
M1
  6
CONTINUOUS
370
25
 62
   253
100
AcDbCircle
 10
128.666668
 20
442.09091
 40
1.1
  0
CIRCLE
  5
E9
100
AcDbEntity
  8
M1
  6
CONTINUOUS
370
25
 62
   253
100
AcDbCircle
 10
122.666668
 20
442.09091
 40
1.1
  0
CIRCLE
  5
EA
100
AcDbEntity
  8
M1
  6
CONTINUOUS
370
25
 62
   253
100
AcDbCircle
 10
122.666668
 20
436.09091
 40
1.1
  0
LINE
  5
EB
100
AcDbEntity
  8
M1
  6
DASHDOT
370
13
 62
   253
100
AcDbLine
 10
82.666666
 20
421.898666
 11
82.666666
 21
448.736138
  0
CIRCLE
  5
EC
100
AcDbEntity
  8
M1
  6
CONTINUOUS
370
25
 62
   253
100
AcDbCircle
 10
85.666668
 20
436.09091
 40
1.1
  0
LINE
  5
ED
100
AcDbEntity
  8
M1
  6
DASHDOT
370
13
 62
   253
100
AcDbLine
 10
81.9
 20
436.09091
 11
89.433334
 21
436.09091
  0
LINE
  5
EE
100
AcDbEntity
  8
M1
  6
DASHDOT
370
13
 62
   253
100
AcDbLine
 10
85.666668
 20
432.324244
 11
85.666668
 21
439.857578
  0
CIRCLE
  5
EF
100
AcDbEntity
  8
M1
  6
CONTINUOUS
370
25
 62
   253
100
AcDbCircle
 10
85.666668
 20
442.09091
 40
1.1
  0
LINE
  5
F0
100
AcDbEntity
  8
M1
  6
DASHDOT
370
13
 62
   253
100
AcDbLine
 10
81.9
 20
442.09091
 11
89.433334
 21
442.09091
  0
LINE
  5
F1
100
AcDbEntity
  8
M1
  6
DASHDOT
370
13
 62
   253
100
AcDbLine
 10
85.666668
 20
438.324244
 11
85.666668
 21
445.857578
  0
LINE
  5
F2
100
AcDbEntity
  8
M1
  6
CONTINUOUS
370
25
 62
   253
100
AcDbLine
 10
76.166666
 20
445.09091
 11
89.166668
 21
445.09091
  0
LINE
  5
F3
100
AcDbEntity
  8
M1
  6
CONTINUOUS
370
25
 62
   253
100
AcDbLine
 10
76.166666
 20
445.09091
 11
76.166666
 21
427.09091
  0
LINE
  5
F4
100
AcDbEntity
  8
M1
  6
CONTINUOUS
370
25
 62
   253
100
AcDbLine
 10
89.166668
 20
445.09091
 11
89.166668
 21
427.09091
  0
CIRCLE
  5
F5
100
AcDbEntity
  8
M1
  6
CONTINUOUS
370
25
 62
   253
100
AcDbCircle
 10
79.666666
 20
442.09091
 40
1.1
  0
LINE
  5
F6
100
AcDbEntity
  8
M1
  6
DASHDOT
370
13
 62
   253
100
AcDbLine
 10
75.9
 20
442.09091
 11
83.433334
 21
442.09091
  0
LINE
  5
F7
100
AcDbEntity
  8
M1
  6
DASHDOT
370
13
 62
   253
100
AcDbLine
 10
79.666666
 20
438.324244
 11
79.666666
 21
445.857578
  0
CIRCLE
  5
F8
100
AcDbEntity
  8
M1
  6
CONTINUOUS
370
25
 62
   253
100
AcDbCircle
 10
79.666666
 20
436.09091
 40
1.1
  0
LINE
  5
F9
100
AcDbEntity
  8
M1
  6
DASHDOT
370
13
 62
   253
100
AcDbLine
 10
75.9
 20
436.09091
 11
83.433334
 21
436.09091
  0
LINE
  5
FA
100
AcDbEntity
  8
M1
  6
DASHDOT
370
13
 62
   253
100
AcDbLine
 10
79.666666
 20
432.324244
 11
79.666666
 21
439.857578
  0
LINE
  5
FB
100
AcDbEntity
  8
M1
  6
DASHDOT
370
13
 62
   253
100
AcDbLine
 10
61.666666
 20
421.898666
 11
61.666666
 21
448.736138
  0
CIRCLE
  5
FC
100
AcDbEntity
  8
M1
  6
CONTINUOUS
370
25
 62
   253
100
AcDbCircle
 10
64.666666
 20
436.09091
 40
1.1
  0
LINE
  5
FD
100
AcDbEntity
  8
M1
  6
DASHDOT
370
13
 62
   253
100
AcDbLine
 10
60.9
 20
436.09091
 11
68.433334
 21
436.09091
  0
LINE
  5
FE
100
AcDbEntity
  8
M1
  6
DASHDOT
370
13
 62
   253
100
AcDbLine
 10
64.666666
 20
432.324244
 11
64.666666
 21
439.857578
  0
CIRCLE
  5
FF
100
AcDbEntity
  8
M1
  6
CONTINUOUS
370
25
 62
   253
100
AcDbCircle
 10
64.666666
 20
442.09091
 40
1.1
  0
LINE
  5
100
100
AcDbEntity
  8
M1
  6
DASHDOT
370
13
 62
   253
100
AcDbLine
 10
60.9
 20
442.09091
 11
68.433334
 21
442.09091
  0
LINE
  5
101
100
AcDbEntity
  8
M1
  6
DASHDOT
370
13
 62
   253
100
AcDbLine
 10
64.666666
 20
438.324244
 11
64.666666
 21
445.857578
  0
LINE
  5
102
100
AcDbEntity
  8
M1
  6
CONTINUOUS
370
25
 62
   253
100
AcDbLine
 10
55.166666
 20
445.09091
 11
68.166666
 21
445.09091
  0
LINE
  5
103
100
AcDbEntity
  8
M1
  6
CONTINUOUS
370
25
 62
   253
100
AcDbLine
 10
55.166666
 20
445.09091
 11
55.166666
 21
427.09091
  0
LINE
  5
104
100
AcDbEntity
  8
M1
  6
CONTINUOUS
370
25
 62
   253
100
AcDbLine
 10
68.166666
 20
445.09091
 11
68.166666
 21
427.09091
  0
CIRCLE
  5
105
100
AcDbEntity
  8
M1
  6
CONTINUOUS
370
25
 62
   253
100
AcDbCircle
 10
58.666666
 20
442.09091
 40
1.1
  0
LINE
  5
106
100
AcDbEntity
  8
M1
  6
DASHDOT
370
13
 62
   253
100
AcDbLine
 10
54.9
 20
442.09091
 11
62.433334
 21
442.09091
  0
LINE
  5
107
100
AcDbEntity
  8
M1
  6
DASHDOT
370
13
 62
   253
100
AcDbLine
 10
58.666666
 20
438.324244
 11
58.666666
 21
445.857578
  0
CIRCLE
  5
108
100
AcDbEntity
  8
M1
  6
CONTINUOUS
370
25
 62
   253
100
AcDbCircle
 10
58.666666
 20
436.09091
 40
1.1
  0
LINE
  5
109
100
AcDbEntity
  8
M1
  6
DASHDOT
370
13
 62
   253
100
AcDbLine
 10
54.9
 20
436.09091
 11
62.433334
 21
436.09091
  0
LINE
  5
10A
100
AcDbEntity
  8
M1
  6
DASHDOT
370
13
 62
   253
100
AcDbLine
 10
58.666666
 20
432.324244
 11
58.666666
 21
439.857578
  0
LINE
  5
10B
100
AcDbEntity
  8
M1
  6
CONTINUOUS
370
25
 62
   253
100
AcDbLine
 10
89.166668
 20
337.09091
 11
89.166668
 21
319.09091
  0
LINE
  5
10C
100
AcDbEntity
  8
M1
  6
CONTINUOUS
370
25
 62
   253
100
AcDbLine
 10
76.166666
 20
319.09091
 11
89.166668
 21
319.09091
  0
LINE
  5
10D
100
AcDbEntity
  8
M1
  6
CONTINUOUS
370
25
 62
   253
100
AcDbLine
 10
76.166666
 20
332.09091
 11
89.166668
 21
332.09091
  0
CIRCLE
  5
10E
100
AcDbEntity
  8
M1
  6
CONTINUOUS
370
25
 62
   253
100
AcDbCircle
 10
85.666668
 20
322.09091
 40
1.1
  0
LINE
  5
10F
100
AcDbEntity
  8
M1
  6
DASHDOT
370
13
 62
   253
100
AcDbLine
 10
81.9
 20
322.09091
 11
89.433334
 21
322.09091
  0
LINE
  5
110
100
AcDbEntity
  8
M1
  6
DASHDOT
370
13
 62
   253
100
AcDbLine
 10
85.666668
 20
318.324242
 11
85.666668
 21
325.857576
  0
CIRCLE
  5
111
100
AcDbEntity
  8
M1
  6
CONTINUOUS
370
25
 62
   253
100
AcDbCircle
 10
85.666668
 20
328.09091
 40
1.1
  0
LINE
  5
112
100
AcDbEntity
  8
M1
  6
DASHDOT
370
13
 62
   253
100
AcDbLine
 10
81.9
 20
328.09091
 11
89.433334
 21
328.09091
  0
LINE
  5
113
100
AcDbEntity
  8
M1
  6
DASHDOT
370
13
 62
   253
100
AcDbLine
 10
85.666668
 20
324.324242
 11
85.666668
 21
331.857576
  0
CIRCLE
  5
114
100
AcDbEntity
  8
M1
  6
CONTINUOUS
370
25
 62
   253
100
AcDbCircle
 10
79.666666
 20
322.09091
 40
1.1
  0
LINE
  5
115
100
AcDbEntity
  8
M1
  6
DASHDOT
370
13
 62
   253
100
AcDbLine
 10
75.9
 20
322.09091
 11
83.433334
 21
322.09091
  0
LINE
  5
116
100
AcDbEntity
  8
M1
  6
DASHDOT
370
13
 62
   253
100
AcDbLine
 10
79.666666
 20
318.324242
 11
79.666666
 21
325.857576
  0
CIRCLE
  5
117
100
AcDbEntity
  8
M1
  6
CONTINUOUS
370
25
 62
   253
100
AcDbCircle
 10
79.666666
 20
328.09091
 40
1.1
  0
LINE
  5
118
100
AcDbEntity
  8
M1
  6
DASHDOT
370
13
 62
   253
100
AcDbLine
 10
75.9
 20
328.09091
 11
83.433334
 21
328.09091
  0
LINE
  5
119
100
AcDbEntity
  8
M1
  6
DASHDOT
370
13
 62
   253
100
AcDbLine
 10
79.666666
 20
324.324242
 11
79.666666
 21
331.857576
  0
LINE
  5
11A
100
AcDbEntity
  8
M1
  6
CONTINUOUS
370
25
 62
   253
100
AcDbLine
 10
76.166666
 20
337.09091
 11
76.166666
 21
319.09091
  0
LINE
  5
11B
100
AcDbEntity
  8
M1
  6
CONTINUOUS
370
25
 62
   253
100
AcDbLine
 10
110.166668
 20
337.09091
 11
110.166668
 21
319.09091
  0
LINE
  5
11C
100
AcDbEntity
  8
M1
  6
CONTINUOUS
370
25
 62
   253
100
AcDbLine
 10
97.166668
 20
319.09091
 11
110.166668
 21
319.09091
  0
LINE
  5
11D
100
AcDbEntity
  8
M1
  6
CONTINUOUS
370
25
 62
   253
100
AcDbLine
 10
97.166668
 20
332.09091
 11
110.166668
 21
332.09091
  0
CIRCLE
  5
11E
100
AcDbEntity
  8
M1
  6
CONTINUOUS
370
25
 62
   253
100
AcDbCircle
 10
106.666668
 20
322.09091
 40
1.1
  0
LINE
  5
11F
100
AcDbEntity
  8
M1
  6
DASHDOT
370
13
 62
   253
100
AcDbLine
 10
102.9
 20
322.09091
 11
110.433334
 21
322.09091
  0
LINE
  5
120
100
AcDbEntity
  8
M1
  6
DASHDOT
370
13
 62
   253
100
AcDbLine
 10
106.666668
 20
318.324242
 11
106.666668
 21
325.857576
  0
CIRCLE
  5
121
100
AcDbEntity
  8
M1
  6
CONTINUOUS
370
25
 62
   253
100
AcDbCircle
 10
106.666668
 20
328.09091
 40
1.1
  0
LINE
  5
122
100
AcDbEntity
  8
M1
  6
DASHDOT
370
13
 62
   253
100
AcDbLine
 10
102.9
 20
328.09091
 11
110.433334
 21
328.09091
  0
LINE
  5
123
100
AcDbEntity
  8
M1
  6
DASHDOT
370
13
 62
   253
100
AcDbLine
 10
106.666668
 20
324.324242
 11
106.666668
 21
331.857576
  0
CIRCLE
  5
124
100
AcDbEntity
  8
M1
  6
CONTINUOUS
370
25
 62
   253
100
AcDbCircle
 10
100.666668
 20
322.09091
 40
1.1
  0
LINE
  5
125
100
AcDbEntity
  8
M1
  6
DASHDOT
370
13
 62
   253
100
AcDbLine
 10
96.9
 20
322.09091
 11
104.433334
 21
322.09091
  0
LINE
  5
126
100
AcDbEntity
  8
M1
  6
DASHDOT
370
13
 62
   253
100
AcDbLine
 10
100.666668
 20
318.324242
 11
100.666668
 21
325.857576
  0
CIRCLE
  5
127
100
AcDbEntity
  8
M1
  6
CONTINUOUS
370
25
 62
   253
100
AcDbCircle
 10
100.666668
 20
328.09091
 40
1.1
  0
LINE
  5
128
100
AcDbEntity
  8
M1
  6
DASHDOT
370
13
 62
   253
100
AcDbLine
 10
96.9
 20
328.09091
 11
104.433334
 21
328.09091
  0
LINE
  5
129
100
AcDbEntity
  8
M1
  6
DASHDOT
370
13
 62
   253
100
AcDbLine
 10
100.666668
 20
324.324242
 11
100.666668
 21
331.857576
  0
LINE
  5
12A
100
AcDbEntity
  8
M1
  6
CONTINUOUS
370
25
 62
   253
100
AcDbLine
 10
97.166668
 20
337.09091
 11
97.166668
 21
319.09091
  0
LINE
  5
12B
100
AcDbEntity
  8
M1
  6
CONTINUOUS
370
25
 62
   253
100
AcDbLine
 10
132.166668
 20
337.09091
 11
132.166668
 21
319.09091
  0
LINE
  5
12C
100
AcDbEntity
  8
M1
  6
CONTINUOUS
370
25
 62
   253
100
AcDbLine
 10
119.166668
 20
319.09091
 11
132.166668
 21
319.09091
  0
LINE
  5
12D
100
AcDbEntity
  8
M1
  6
CONTINUOUS
370
25
 62
   253
100
AcDbLine
 10
119.166668
 20
332.09091
 11
132.166668
 21
332.09091
  0
LINE
  5
12E
100
AcDbEntity
  8
M1
  6
DASHDOT
370
13
 62
   253
100
AcDbLine
 10
124.900002
 20
322.09091
 11
132.433334
 21
322.09091
  0
LINE
  5
12F
100
AcDbEntity
  8
M1
  6
DASHDOT
370
13
 62
   253
100
AcDbLine
 10
128.666668
 20
318.324242
 11
128.666668
 21
325.857576
  0
LINE
  5
130
100
AcDbEntity
  8
M1
  6
DASHDOT
370
13
 62
   253
100
AcDbLine
 10
124.900002
 20
328.09091
 11
132.433334
 21
328.09091
  0
LINE
  5
131
100
AcDbEntity
  8
M1
  6
DASHDOT
370
13
 62
   253
100
AcDbLine
 10
128.666668
 20
324.324242
 11
128.666668
 21
331.857576
  0
LINE
  5
132
100
AcDbEntity
  8
M1
  6
DASHDOT
370
13
 62
   253
100
AcDbLine
 10
118.9
 20
322.09091
 11
126.433334
 21
322.09091
  0
LINE
  5
133
100
AcDbEntity
  8
M1
  6
DASHDOT
370
13
 62
   253
100
AcDbLine
 10
122.666668
 20
318.324242
 11
122.666668
 21
325.857576
  0
LINE
  5
134
100
AcDbEntity
  8
M1
  6
DASHDOT
370
13
 62
   253
100
AcDbLine
 10
118.9
 20
328.09091
 11
126.433334
 21
328.09091
  0
LINE
  5
135
100
AcDbEntity
  8
M1
  6
DASHDOT
370
13
 62
   253
100
AcDbLine
 10
122.666668
 20
324.324242
 11
122.666668
 21
331.857576
  0
LINE
  5
136
100
AcDbEntity
  8
M1
  6
CONTINUOUS
370
25
 62
   253
100
AcDbLine
 10
119.166668
 20
337.09091
 11
119.166668
 21
319.09091
  0
CIRCLE
  5
137
100
AcDbEntity
  8
M1
  6
CONTINUOUS
370
25
 62
   253
100
AcDbCircle
 10
128.666668
 20
322.09091
 40
1.1
  0
CIRCLE
  5
138
100
AcDbEntity
  8
M1
  6
CONTINUOUS
370
25
 62
   253
100
AcDbCircle
 10
128.666668
 20
328.09091
 40
1.1
  0
CIRCLE
  5
139
100
AcDbEntity
  8
M1
  6
CONTINUOUS
370
25
 62
   253
100
AcDbCircle
 10
122.666668
 20
322.09091
 40
1.1
  0
CIRCLE
  5
13A
100
AcDbEntity
  8
M1
  6
CONTINUOUS
370
25
 62
   253
100
AcDbCircle
 10
122.666668
 20
328.09091
 40
1.1
  0
LINE
  5
13B
100
AcDbEntity
  8
M1
  6
CONTINUOUS
370
25
 62
     7
100
AcDbLine
 10
76.666666
 20
379.790364
 11
88.666668
 21
379.790364
  0
LINE
  5
13C
100
AcDbEntity
  8
M1
  6
CONTINUOUS
370
25
 62
     7
100
AcDbLine
 10
76.666666
 20
386.543014
 11
76.666666
 21
367.29091
  0
LINE
  5
13D
100
AcDbEntity
  8
M1
  6
CONTINUOUS
370
25
 62
     7
100
AcDbLine
 10
88.066668
 20
383.250368
 11
77.266666
 21
383.250368
  0
ARC
  5
13E
100
AcDbEntity
  8
M1
  6
CONTINUOUS
370
25
 62
     7
100
AcDbCircle
 10
77.266666
 20
383.85037
 40
0.6
100
AcDbArc
 50
180.0
 51
270.0
  0
ARC
  5
13F
100
AcDbEntity
  8
M1
  6
CONTINUOUS
370
25
 62
     7
100
AcDbCircle
 10
88.066668
 20
383.85037
 40
0.6
100
AcDbArc
 50
270.0
 51
360.0
  0
ARC
  5
140
100
AcDbEntity
  8
M1
  6
CONTINUOUS
370
25
 62
     7
100
AcDbCircle
 10
88.066668
 20
386.543014
 40
0.6
100
AcDbArc
 50
0.0
 51
90.0
  0
ARC
  5
141
100
AcDbEntity
  8
M1
  6
CONTINUOUS
370
25
 62
     7
100
AcDbCircle
 10
77.266666
 20
386.543014
 40
0.6
100
AcDbArc
 50
90.0
 51
180.0
  0
LINE
  5
142
100
AcDbEntity
  8
M1
  6
DASHDOT
370
13
 62
     7
100
AcDbLine
 10
108.2
 20
359.89091
 11
117.533334
 21
359.89091
  0
LINE
  5
143
100
AcDbEntity
  8
M1
  6
DASHDOT
370
13
 62
     7
100
AcDbLine
 10
112.866668
 20
355.224244
 11
112.866668
 21
364.557576
  0
LINE
  5
144
100
AcDbEntity
  8
M1
  6
CONTINUOUS
370
25
 62
     7
100
AcDbLine
 10
77.266666
 20
387.143014
 11
88.066668
 21
387.143014
  0
LINE
  5
145
100
AcDbEntity
  8
M1
  6
CONTINUOUS
370
25
 62
     7
100
AcDbLine
 10
88.666668
 20
386.543014
 11
88.666668
 21
367.29091
  0
LINE
  5
146
100
AcDbEntity
  8
M1
  6
CONTINUOUS
370
25
 62
     7
100
AcDbLine
 10
52.466666
 20
361.89091
 11
50.666666
 21
361.89091
  0
LINE
  5
147
100
AcDbEntity
  8
M1
  6
CONTINUOUS
370
25
 62
     7
100
AcDbLine
 10
52.466666
 20
357.89091
 11
50.666666
 21
357.89091
  0
CIRCLE
  5
148
100
AcDbEntity
  8
M1
  6
CONTINUOUS
370
25
 62
     7
100
AcDbCircle
 10
72.166666
 20
422.09091
 40
2.0
  0
LINE
  5
149
100
AcDbEntity
  8
M1
  6
DASHDOT
370
13
 62
     7
100
AcDbLine
 10
67.5
 20
422.09091
 11
76.833334
 21
422.09091
  0
LINE
  5
14A
100
AcDbEntity
  8
M1
  6
DASHDOT
370
13
 62
     7
100
AcDbLine
 10
72.166666
 20
417.424244
 11
72.166666
 21
426.757578
  0
CIRCLE
  5
14B
100
AcDbEntity
  8
M1
  6
CONTINUOUS
370
25
 62
     7
100
AcDbCircle
 10
93.166668
 20
422.09091
 40
2.0
  0
LINE
  5
14C
100
AcDbEntity
  8
M1
  6
DASHDOT
370
13
 62
     7
100
AcDbLine
 10
88.5
 20
422.09091
 11
97.833334
 21
422.09091
  0
LINE
  5
14D
100
AcDbEntity
  8
M1
  6
DASHDOT
370
13
 62
     7
100
AcDbLine
 10
93.166668
 20
417.424244
 11
93.166668
 21
426.757578
  0
LINE
  5
14E
100
AcDbEntity
  8
M1
  6
DASHDOT
370
13
 62
     7
100
AcDbLine
 10
47.8
 20
359.89091
 11
57.133334
 21
359.89091
  0
LINE
  5
14F
100
AcDbEntity
  8
M1
  6
DASHDOT
370
13
 62
     7
100
AcDbLine
 10
52.466666
 20
355.224244
 11
52.466666
 21
364.557576
  0
ARC
  5
150
100
AcDbEntity
  8
M1
  6
CONTINUOUS
370
25
 62
     7
100
AcDbCircle
 10
52.466666
 20
359.89091
 40
2.0
100
AcDbArc
 50
270.0
 51
450.0
  0
LINE
  5
151
100
AcDbEntity
  8
M1
  6
CONTINUOUS
370
25
 62
     7
100
AcDbLine
 10
136.466668
 20
337.09091
 11
136.466668
 21
431.09091
  0
LINE
  5
152
100
AcDbEntity
  8
M1
  6
CONTINUOUS
370
25
 62
     7
100
AcDbLine
 10
136.466668
 20
427.09091
 11
50.666666
 21
427.09091
  0
LINE
  5
153
100
AcDbEntity
  8
M1
  6
CONTINUOUS
370
25
 62
     7
100
AcDbLine
 10
50.666666
 20
431.09091
 11
50.666666
 21
337.09091
  0
LINE
  5
154
100
AcDbEntity
  8
M1
  6
CONTINUOUS
370
25
 62
     7
100
AcDbLine
 10
50.666666
 20
337.09091
 11
136.466668
 21
337.09091
  0
LINE
  5
155
100
AcDbEntity
  8
M1
  6
DASHDOT
370
13
 62
     7
100
AcDbLine
 10
44.0
 20
375.69091
 11
143.133334
 21
375.69091
  0
LINE
  5
156
100
AcDbEntity
  8
M1
  6
DASHDOT
370
13
 62
     7
100
AcDbLine
 10
82.666666
 20
316.403428
 11
82.666666
 21
433.757578
  0
LINE
  5
157
100
AcDbEntity
  8
M1
  6
CONTINUOUS
370
25
 62
     7
100
AcDbLine
 10
94.166668
 20
388.69091
 11
94.166668
 21
362.69091
  0
LINE
  5
158
100
AcDbEntity
  8
M1
  6
CONTINUOUS
370
25
 62
     7
100
AcDbLine
 10
71.166666
 20
388.69091
 11
71.166666
 21
362.69091
  0
LINE
  5
159
100
AcDbEntity
  8
M1
  6
CONTINUOUS
370
25
 62
     7
100
AcDbLine
 10
72.166666
 20
389.69091
 11
93.166668
 21
389.69091
  0
LINE
  5
15A
100
AcDbEntity
  8
M1
  6
CONTINUOUS
370
25
 62
     7
100
AcDbLine
 10
72.166666
 20
361.69091
 11
93.166668
 21
361.69091
  0
LINE
  5
15B
100
AcDbEntity
  8
M1
  6
CONTINUOUS
370
25
 62
     7
100
AcDbLine
 10
71.166666
 20
384.09091
 11
76.666666
 21
384.09091
  0
LINE
  5
15C
100
AcDbEntity
  8
M1
  6
CONTINUOUS
370
25
 62
     7
100
AcDbLine
 10
71.166666
 20
367.29091
 11
94.166668
 21
367.29091
  0
LINE
  5
15D
100
AcDbEntity
  8
M1
  6
CONTINUOUS
370
25
 62
     7
100
AcDbLine
 10
76.466666
 20
384.09091
 11
76.466666
 21
367.29091
  0
LINE
  5
15E
100
AcDbEntity
  8
M1
  6
CONTINUOUS
370
25
 62
     7
100
AcDbLine
 10
88.866668
 20
384.09091
 11
88.866668
 21
367.29091
  0
LINE
  5
15F
100
AcDbEntity
  8
M1
  6
CONTINUOUS
370
25
 62
     7
100
AcDbLine
 10
88.666668
 20
384.09091
 11
94.166668
 21
384.09091
  0
LINE
  5
160
100
AcDbEntity
  8
M1
  6
DASHDOT
370
13
 62
     7
100
AcDbLine
 10
103.666668
 20
341.088056
 11
103.666668
 21
316.403428
  0
LINE
  5
161
100
AcDbEntity
  8
M1
  6
DASHDOT
370
13
 62
     7
100
AcDbLine
 10
61.666666
 20
341.088056
 11
61.666666
 21
316.403428
  0
ARC
  5
162
100
AcDbEntity
  8
M1
  6
CONTINUOUS
370
25
 62
     7
100
AcDbCircle
 10
72.166666
 20
388.69091
 40
1.0
100
AcDbArc
 50
90.0
 51
180.0
  0
ARC
  5
163
100
AcDbEntity
  8
M1
  6
CONTINUOUS
370
25
 62
     7
100
AcDbCircle
 10
72.166666
 20
362.69091
 40
1.0
100
AcDbArc
 50
180.0
 51
270.0
  0
ARC
  5
164
100
AcDbEntity
  8
M1
  6
CONTINUOUS
370
25
 62
     7
100
AcDbCircle
 10
93.166668
 20
362.69091
 40
1.0
100
AcDbArc
 50
270.0
 51
360.0
  0
ARC
  5
165
100
AcDbEntity
  8
M1
  6
CONTINUOUS
370
25
 62
     7
100
AcDbCircle
 10
93.166668
 20
388.69091
 40
1.0
100
AcDbArc
 50
0.0
 51
90.0
  0
LINE
  5
166
100
AcDbEntity
  8
M1
  6
CONTINUOUS
370
25
100
AcDbLine
 10
136.466668
 20
431.09091
 11
132.166668
 21
431.09091
  0
LINE
  5
167
100
AcDbEntity
  8
M1
  6
CONTINUOUS
370
25
100
AcDbLine
 10
97.166668
 20
431.09091
 11
89.166668
 21
431.09091
  0
LINE
  5
168
100
AcDbEntity
  8
M1
  6
CONTINUOUS
370
25
100
AcDbLine
 10
76.166666
 20
431.09091
 11
68.166666
 21
431.09091
  0
LINE
  5
169
100
AcDbEntity
  8
M1
  6
CONTINUOUS
370
25
100
AcDbLine
 10
55.166666
 20
431.09091
 11
50.666666
 21
431.09091
  0
CIRCLE
  5
16A
100
AcDbEntity
  8
M1
  6
CONTINUOUS
370
25
100
AcDbCircle
 10
112.866668
 20
359.89091
 40
2.0
  0
LINE
  5
16B
100
AcDbEntity
  8
M1
  6
CONTINUOUS
370
25
100
AcDbLine
 10
119.166668
 20
431.09091
 11
110.166668
 21
431.09091
  0
LINE
  5
16C
100
AcDbEntity
  8
M1
  6
DASHDOT
370
13
 62
     7
100
AcDbLine
 10
125.666668
 20
341.088056
 11
125.666668
 21
316.403428
  0
CIRCLE
  5
16D
100
AcDbEntity
  8
M1
  6
CONTINUOUS
370
25
100
AcDbCircle
 10
125.666668
 20
410.801354
 40
3.0
  0
TEXT
  5
16E
100
AcDbEntity
  8
M1
100
AcDbText
 10
124.023338
 20
408.791351
 40
4.02
  1
Ｎ
 41
0.721393
  7
STANDARD
100
AcDbText
  0
LINE
  5
16F
100
AcDbEntity
  8
M1
  6
DASHDOT
370
13
 62
     7
100
AcDbLine
 10
108.2
 20
75.552612
 11
117.533334
 21
75.552612
  0
LINE
  5
170
100
AcDbEntity
  8
M1
  6
DASHDOT
370
13
 62
     7
100
AcDbLine
 10
112.866668
 20
70.885944
 11
112.866668
 21
80.219278
  0
LINE
  5
171
100
AcDbEntity
  8
M1
  6
DASHDOT
370
13
 62
     7
100
AcDbLine
 10
67.5
 20
137.752612
 11
76.833334
 21
137.752612
  0
LINE
  5
172
100
AcDbEntity
  8
M1
  6
DASHDOT
370
13
 62
     7
100
AcDbLine
 10
72.166666
 20
133.085946
 11
72.166666
 21
142.419278
  0
LINE
  5
173
100
AcDbEntity
  8
M1
  6
DASHDOT
370
13
 62
     7
100
AcDbLine
 10
88.5
 20
137.752612
 11
97.833334
 21
137.752612
  0
LINE
  5
174
100
AcDbEntity
  8
M1
  6
DASHDOT
370
13
 62
     7
100
AcDbLine
 10
93.166668
 20
133.085946
 11
93.166668
 21
142.419278
  0
LINE
  5
175
100
AcDbEntity
  8
M1
  6
DASHDOT
370
13
 62
     7
100
AcDbLine
 10
47.8
 20
75.552612
 11
57.133334
 21
75.552612
  0
LINE
  5
176
100
AcDbEntity
  8
M1
  6
DASHDOT
370
13
 62
     7
100
AcDbLine
 10
52.466666
 20
70.885944
 11
52.466666
 21
80.219278
  0
LINE
  5
177
100
AcDbEntity
  8
M1
  6
DIVIDE
370
13
 62
     7
100
AcDbLine
 10
136.466668
 20
52.752612
 11
136.466668
 21
142.752612
  0
LINE
  5
178
100
AcDbEntity
  8
M1
  6
DIVIDE
370
13
 62
     7
100
AcDbLine
 10
136.466668
 20
142.752612
 11
50.666666
 21
142.752612
  0
LINE
  5
179
100
AcDbEntity
  8
M1
  6
DIVIDE
370
13
 62
     7
100
AcDbLine
 10
50.666666
 20
142.752612
 11
50.666666
 21
52.752612
  0
LINE
  5
17A
100
AcDbEntity
  8
M1
  6
DIVIDE
370
13
 62
     7
100
AcDbLine
 10
50.666666
 20
52.752612
 11
136.466668
 21
52.752612
  0
LINE
  5
17B
100
AcDbEntity
  8
M1
  6
DASHDOT
370
13
 62
     7
100
AcDbLine
 10
44.0
 20
91.352612
 11
143.133334
 21
91.352612
  0
LINE
  5
17C
100
AcDbEntity
  8
M1
  6
DASHDOT
370
13
 62
     7
100
AcDbLine
 10
82.666666
 20
46.085944
 11
82.666666
 21
149.419278
  0
SPLINE
  5
17D
100
AcDbEntity
  8
M1
  6
CONTINUOUS
370
25
100
AcDbSpline
210
0.0
220
0.0
230
-1.0
 70
     8
 71
     3
 72
    14
 73
    10
 43
0.0000001
 40
0.0
 40
0.0
 40
0.0
 40
0.0
 40
1.0
 40
1.0
 40
1.0
 40
2.0
 40
2.0
 40
2.0
 40
3.0
 40
3.0
 40
3.0
 40
3.0
 10
149.175514
 20
81.552612
 10
149.37543
 20
80.651106
 10
149.486596
 20
79.78975
 10
149.418974
 20
79.009274
 10
149.284696
 20
77.459498
 10
148.445468
 20
76.22863
 10
148.286016
 20
74.855092
 10
148.165316
 20
73.815386
 10
148.434116
 20
72.693932
 10
148.79758
 20
71.552612
  0
LINE
  5
17E
100
AcDbEntity
  8
M1
  6
CONTINUOUS
370
25
100
AcDbLine
 10
40.254164
 20
71.552612
 11
148.79758
 21
71.552612
  0
LINE
  5
17F
100
AcDbEntity
  8
M1
  6
CONTINUOUS
370
25
100
AcDbLine
 10
40.632098
 20
81.552612
 11
149.175514
 21
81.552612
  0
LINE
  5
180
100
AcDbEntity
  8
M1
  6
DASHED
370
13
100
AcDbLine
 10
149.384588
 20
80.352612
 11
40.841174
 21
80.352612
  0
SPLINE
  5
181
100
AcDbEntity
  8
M1
  6
CONTINUOUS
370
25
100
AcDbSpline
210
0.0
220
0.0
230
-1.0
 70
     8
 71
     3
 72
    14
 73
    10
 43
0.0000001
 40
0.0
 40
0.0
 40
0.0
 40
0.0
 40
1.0
 40
1.0
 40
1.0
 40
2.0
 40
2.0
 40
2.0
 40
3.0
 40
3.0
 40
3.0
 40
3.0
 10
40.632098
 20
81.552612
 10
40.832014
 20
80.651106
 10
40.943182
 20
79.78975
 10
40.875558
 20
79.009274
 10
40.74128
 20
77.459498
 10
39.902052
 20
76.22863
 10
39.7426
 20
74.855092
 10
39.6219
 20
73.815386
 10
39.8907
 20
72.693932
 10
40.254164
 20
71.552612
  0
SPLINE
  5
182
100
AcDbEntity
  8
M1
  6
CONTINUOUS
370
25
100
AcDbSpline
210
0.0
220
0.0
230
-1.0
 70
     8
 71
     3
 72
    14
 73
    10
 43
0.0000001
 40
0.0
 40
0.0
 40
0.0
 40
0.0
 40
1.0
 40
1.0
 40
1.0
 40
2.0
 40
2.0
 40
2.0
 40
3.0
 40
3.0
 40
3.0
 40
3.0
 10
149.175514
 20
141.752612
 10
149.37543
 20
140.851108
 10
149.486596
 20
139.98975
 10
149.418974
 20
139.209276
 10
149.284696
 20
137.6595
 10
148.445468
 20
136.42863
 10
148.286016
 20
135.055092
 10
148.165316
 20
134.015386
 10
148.434116
 20
132.893934
 10
148.79758
 20
131.752612
  0
LINE
  5
183
100
AcDbEntity
  8
M1
  6
CONTINUOUS
370
25
100
AcDbLine
 10
40.254164
 20
131.752612
 11
148.79758
 21
131.752612
  0
LINE
  5
184
100
AcDbEntity
  8
M1
  6
CONTINUOUS
370
25
100
AcDbLine
 10
40.632098
 20
141.752612
 11
149.175514
 21
141.752612
  0
SPLINE
  5
185
100
AcDbEntity
  8
M1
  6
CONTINUOUS
370
25
100
AcDbSpline
210
0.0
220
0.0
230
-1.0
 70
     8
 71
     3
 72
    14
 73
    10
 43
0.0000001
 40
0.0
 40
0.0
 40
0.0
 40
0.0
 40
1.0
 40
1.0
 40
1.0
 40
2.0
 40
2.0
 40
2.0
 40
3.0
 40
3.0
 40
3.0
 40
3.0
 10
40.632098
 20
141.752612
 10
40.832014
 20
140.851108
 10
40.943182
 20
139.98975
 10
40.875558
 20
139.209276
 10
40.74128
 20
137.6595
 10
39.902052
 20
136.42863
 10
39.7426
 20
135.055092
 10
39.6219
 20
134.015386
 10
39.8907
 20
132.893934
 10
40.254164
 20
131.752612
  0
LINE
  5
186
100
AcDbEntity
  8
M1
  6
DIVIDE
370
13
 62
     7
100
AcDbLine
 10
136.466668
 20
170.335616
 11
136.466668
 21
260.335616
  0
LINE
  5
187
100
AcDbEntity
  8
M1
  6
DIVIDE
370
13
 62
     7
100
AcDbLine
 10
136.466668
 20
260.335616
 11
50.666666
 21
260.335616
  0
LINE
  5
188
100
AcDbEntity
  8
M1
  6
DIVIDE
370
13
 62
     7
100
AcDbLine
 10
50.666666
 20
260.335616
 11
50.666666
 21
170.335616
  0
LINE
  5
189
100
AcDbEntity
  8
M1
  6
DIVIDE
370
13
 62
     7
100
AcDbLine
 10
50.666666
 20
170.335616
 11
136.466668
 21
170.335616
  0
LINE
  5
18A
100
AcDbEntity
  8
M1
  6
DASHDOT
370
13
 62
     7
100
AcDbLine
 10
44.0
 20
208.935616
 11
143.133334
 21
208.935616
  0
LINE
  5
18B
100
AcDbEntity
  8
M1
  6
DASHDOT
370
13
 62
     7
100
AcDbLine
 10
82.666666
 20
163.668948
 11
82.666666
 21
267.002284
  0
LINE
  5
18C
100
AcDbEntity
  8
M1
  6
CONTINUOUS
370
25
 62
     7
100
AcDbLine
 10
72.766666
 20
223.335616
 11
92.566668
 21
223.335616
  0
LINE
  5
18D
100
AcDbEntity
  8
M1
  6
CONTINUOUS
370
25
 62
     7
100
AcDbLine
 10
70.766666
 20
221.335616
 11
70.766666
 21
196.535616
  0
LINE
  5
18E
100
AcDbEntity
  8
M1
  6
CONTINUOUS
370
25
 62
     7
100
AcDbLine
 10
72.766666
 20
194.535616
 11
92.566668
 21
194.535616
  0
LINE
  5
18F
100
AcDbEntity
  8
M1
  6
CONTINUOUS
370
25
 62
     7
100
AcDbLine
 10
94.566668
 20
221.335616
 11
94.566668
 21
196.535616
  0
ARC
  5
190
100
AcDbEntity
  8
M1
  6
CONTINUOUS
370
25
 62
     7
100
AcDbCircle
 10
92.566668
 20
196.535616
 40
2.0
100
AcDbArc
 50
270.0
 51
360.0
  0
ARC
  5
191
100
AcDbEntity
  8
M1
  6
CONTINUOUS
370
25
 62
     7
100
AcDbCircle
 10
92.566668
 20
221.335616
 40
2.0
100
AcDbArc
 50
0.0
 51
90.0
  0
ARC
  5
192
100
AcDbEntity
  8
M1
  6
CONTINUOUS
370
25
 62
     7
100
AcDbCircle
 10
72.766666
 20
221.335616
 40
2.0
100
AcDbArc
 50
90.0
 51
180.0
  0
ARC
  5
193
100
AcDbEntity
  8
M1
  6
CONTINUOUS
370
25
 62
     7
100
AcDbCircle
 10
72.766666
 20
196.535616
 40
2.0
100
AcDbArc
 50
180.0
 51
270.0
  0
LINE
  5
194
100
AcDbEntity
  8
M2
  6
CONTINUOUS
370
50
 62
     7
100
AcDbLine
 10
398.680412
 20
19.601204
 11
398.680412
 21
569.601204
  0
LINE
  5
195
100
AcDbEntity
  8
M2
  6
CONTINUOUS
370
50
 62
     7
100
AcDbLine
 10
18.680412
 20
569.601204
 11
398.680412
 21
569.601204
  0
LINE
  5
196
100
AcDbEntity
  8
M2
  6
CONTINUOUS
370
50
 62
     7
100
AcDbLine
 10
18.680412
 20
569.601204
 11
18.680412
 21
19.601204
  0
LINE
  5
197
100
AcDbEntity
  8
M2
  6
CONTINUOUS
370
50
 62
     7
100
AcDbLine
 10
18.680412
 20
19.601204
 11
398.680412
 21
19.601204
  0
TEXT
  5
198
100
AcDbEntity
  8
M3
100
AcDbText
 10
69.078514
 20
196.535614
 40
8.0
  1
（ＨＯＬＥ）
 41
0.479167
  7
STANDARD
100
AcDbText
  0
LINE
  5
199
100
AcDbEntity
  8
M7
  6
CONTINUOUS
370
13
100
AcDbLine
 10
53.022286
 20
24.039228
 11
123.302284
 21
24.039228
  0
TEXT
  5
19A
100
AcDbEntity
  8
M7
100
AcDbText
 10
53.301174
 20
24.539228
 40
5.0
  1
ＤＲＩＬＬＩＮＧ　ＰＬＡＮ．
 41
0.833333
  7
STANDARD
100
AcDbText
  0
LINE
  5
19B
100
AcDbEntity
  8
M7
  6
CONTINUOUS
370
13
100
AcDbLine
 10
251.104713
 20
254.835616
 11
321.384711
 21
254.835616
  0
TEXT
  5
19C
100
AcDbEntity
  8
M7
100
AcDbText
 10
251.383606
 20
255.335617
 40
5.0
  1
ＳＣＡＬＥ　１：１０
 41
0.833333
  7
STANDARD
100
AcDbText
  0
ENDSEC
  0
SECTION
  2
OBJECTS
  0
DICTIONARY
  5
C
100
AcDbDictionary
  3
ACAD_GROUP
350
D
  3
ACAD_MLINESTYLE
350
E
  0
DICTIONARY
  5
D
102
{ACAD_REACTORS
330
C
102
}
100
AcDbDictionary
  0
DICTIONARY
  5
E
102
{ACAD_REACTORS
330
C
102
}
100
AcDbDictionary
  3
STANDARD
350
13
  0
MLINESTYLE
  5
13
102
{ACAD_REACTORS
330
E
102
}
100
AcDbMlineStyle
  2
STANDARD
 70
     0
  3

 62
     0
 51
90.0
 52
90.0
 71
     2
 49
0.5
 62
   256
  6
BYLAYER
 49
-0.5
 62
   256
  6
BYLAYER
  0
ENDSEC
  0
EOF
