  0
SECTION
  2
HEADER
  9
$ACADVER
  1
AC1015
  9
$INSBASE
 10
0.000000
 20
0.000000
 30
0.0
  9
$VIEWCTR
 10
7.531722
 20
4.5
  9
$VIEWSIZE
 40
9.0
  9
$SNAPMODE
 70
     0
  9
$SNAPUNIT
 10
1.0
 20
1.0
  9
$SNAPBASE
 10
0.0
 20
0.0
  9
$SNAPANG
 50
0.0
  9
$SNAPSTYLE
 70
     0
  9
$SNAPISOPAIR
 70
     0
  9
$GRIDMODE
 70
     0
  9
$GRIDUNIT
 10
0.0
 20
0.0
  9
$ORTHOMODE
 70
     0
  9
$REGENMODE
 70
     1
  9
$FILLMODE
 70
     1
  9
$QTEXTMODE
 70
     0
  9
$DRAGMODE
 70
     2
  9
$LTSCALE
  40
     1.000000
  9
$OSMODE
 70
     0
  9
$ATTMODE
 70
     1
  9
$TEXTSIZE
 40
0.2
  9
$TRACEWID
 40
0.05
  9
$TEXTSTYLE
  7
STANDARD
  9
$CELTYPE
  6
BYLAYER
  9
$CECOLOR
 62
   256
  9
$DIMSCALE
 40
1.0
  9
$DIMASZ
 40
0.18
  9
$DIMEXO
 40
0.0625
  9
$DIMDLI
 40
0.38
  9
$DIMRND
 40
0.0
  9
$DIMDLE
 40
0.0
  9
$DIMEXE
 40
0.18
  9
$DIMTP
 40
0.0
  9
$DIMTM
 40
0.0
  9
$DIMTXT
 40
0.18
  9
$DIMCEN
 40
0.09
  9
$DIMTSZ
 40
0.0
  9
$DIMADEC
 70
     0
  9
$DIMALTRND
 40
0.000000
  9
$DIMAZIN
 70
     0
  9
$DIMDSEP
 70
    46
  9
$DIMATFIT
 70
     3
  9
$DIMFRAC
 70
     0
  9
$DIMLDRBLK
  1

  9
$DIMLUNIT
 70
     2
  9
$DIMLWD
 70
   13
  9
$DIMLWE
 70
   13
  9
$DIMTMOVE
 70
     0
  9
$CELWEIGHT
370
    25
  9
$LWDISPLAY
290
    1
  9
$EXTNAMES
290
    1
  9
$DIMTOL
 70
     0
  9
$DIMLIM
 70
     0
  9
$DIMTIH
 70
     1
  9
$DIMTOH
 70
     1
  9
$DIMSE1
 70
     0
  9
$DIMSE2
 70
     0
  9
$DIMTAD
 70
     0
  9
$DIMZIN
 70
     0
  9
$DIMBLK
  1

  9
$LUNITS
 70
     2
  9
$LUPREC
 70
     4
  9
$AXISMODE
 70
     0
  9
$AXISUNIT
 10
0.0
 20
0.0
  9
$SKETCHINC
 40
0.1
  9
$FILLETRAD
 40
0.0
  9
$AUNITS
 70
     0
  9
$AUPREC
 70
     0
  9
$MENU
  1
ACAD
  9
$ELEVATION
 40
0.0
  9
$THICKNESS
 40
0.0
  9
$VIEWDIR
 10
0.0
 20
0.0
 30
1.0
  9
$LIMCHECK
 70
     0
  9
$BLIPMODE
 70
     1
  9
$CHAMFERA
 40
0.0
  9
$CHAMFERB
 40
0.0
  9
$FASTZOOM
 70
     1
  9
$SKPOLY
 70
     0
  9
$TDCREATE
 40
0000000.0000000000
  9
$TDUPDATE
 40
0000000.0000000000
  9
$TDINDWG
 40
0.0000000000
  9
$TDUSRTIMER
 40
0.0000000000
  9
$USRTIMER
 70
     1
  9
$ANGBASE
 50
0.0
  9
$ANGDIR
 70
     0
  9
$PDMODE
 70
     0
  9
$PDSIZE
 40
0.0
  9
$PLINEWID
 40
0.0
  9
$COORDS
 70
     0
  9
$USERI1
 70
     0
  9
$USERI2
 70
     0
  9
$USERI3
 70
     0
  9
$USERI4
 70
     0
  9
$USERI5
 70
     0
  9
$USERR1
 40
0.0
  9
$USERR2
 40
0.0
  9
$USERR3
 40
0.0
  9
$USERR4
 40
0.0
  9
$USERR5
 40
0.0
  9
$CLAYER
  8
M2
  9
$EXTMIN
 10
0.0
 20
0.0
  9
$EXTMAX
 10
841.0
 20
594.0
  9
$LIMMIN
 10
0.0
 20
0.0
  9
$LIMMAX
 10
841.0
 20
594.0
  9
$HANDSEED
  5
145
  0
ENDSEC
  0
SECTION
  2
CLASSES
  0
CLASS
  1
DIMASSOC
  2
AcDbDimAssoc
  3
"AcDbDimAssoc|Product Desc:     AcDim ARX App For Dimension|Company:          Autodesk, Inc.|WEB Address:      www.autodesk.com"
 90
        0
280
     0
281
     0
  0
ENDSEC
  0
SECTION
  2
TABLES
  0
TABLE
  2
VPORT
  5
8
100
AcDbSymbolTable
 70
     2
  0
VPORT
  5
14
100
AcDbSymbolTableRecord
100
AcDbViewportTableRecord
  2
*ACTIVE
 70
     0
 10
0.0
 20
0.0
 11
1.0
 21
1.0
 12
484.0
 22
297.0
 13
0.0
 23
0.0
 14
1.0
 24
1.0
 15
0.0
 25
0.0
 16
0.0
 26
0.0
 36
1.0
 17
0.0
 27
0.0
 37
0.0
 40
594.0
 41
2.0
 42
50.0
 43
0.0
 44
0.0
 50
0.0
 51
0.0
 71
     0
 72
   100
 73
     1
 74
     1
 75
     0
 76
     0
 77
     0
 78
     0
  0
ENDTAB
  0
TABLE
  2
LTYPE
  5
5
100
AcDbSymbolTable
 70
     5
  0
LTYPE
  5
15
100
AcDbSymbolTableRecord
100
AcDbLinetypeTableRecord
  2
BYBLOCK
 70
     0
  3

 72
    65
 73
     0
 40
0.0
  0
LTYPE
  5
16
100
AcDbSymbolTableRecord
100
AcDbLinetypeTableRecord
  2
BYLAYER
 70
     0
  3

 72
    65
 73
     0
 40
0.0
  0
LTYPE
  5
17
100
AcDbSymbolTableRecord
100
AcDbLinetypeTableRecord
  2
CONTINUOUS
 70
    64
  3
Solid line
 72
    65
 73
     0
 40
0.0
  0
LTYPE
  5
18
100
AcDbSymbolTableRecord
100
AcDbLinetypeTableRecord
  2
DASHED
 70
    64
  3
__ __ __ __ __ __ __ __ __ __ __ __ __ __ __ __
 72
    65
 73
     2
 40
0.75
 49
0.5
 74
     0
 49
-0.25
 74
     0
  0
LTYPE
  5
19
100
AcDbSymbolTableRecord
100
AcDbLinetypeTableRecord
  2
DASHDOT
 70
    64
  3
__ . __ . __ . __ . __ . __ . __ . __ . __ . __
 72
    65
 73
     4
 40
1.0
 49
0.5
 74
     0
 49
-0.25
 74
     0
 49
0.0
 74
     0
 49
-0.25
 74
     0
  0
LTYPE
  5
1A
100
AcDbSymbolTableRecord
100
AcDbLinetypeTableRecord
  2
DIVIDE
 70
    64
  3
____ . . ____ . . ____ . . ____ . . ____ . . __
 72
    65
 73
     6
 40
1.25
 49
0.5
 74
     0
 49
-0.25
 74
     0
 49
0.0
 74
     0
 49
-0.25
 74
     0
 49
0.0
 74
     0
 49
-0.25
 74
     0
  0
LTYPE
  5
1B
100
AcDbSymbolTableRecord
100
AcDbLinetypeTableRecord
  2
DOT
 70
    64
  3
. . . . . . . . . . . . . . . . . . . . . . . .
 72
    65
 73
     2
 40
0.25
 49
0.0
 74
     0
 49
-0.25
 74
     0
  0
ENDTAB
  0
TABLE
  2
LAYER
  5
2
100
AcDbSymbolTable
 70
   102
  0
LAYER
  5
F
100
AcDbSymbolTableRecord
100
AcDbLayerTableRecord
  2
0
 70
     0
 62
     7
  6
CONTINUOUS
370
     -3
390
F
  0
LAYER
  5
1C
100
AcDbSymbolTableRecord
100
AcDbLayerTableRecord
  2
M2
 70
     0
 62
     3
  6
CONTINUOUS
370
     -3
390
F
  0
LAYER
  5
1D
100
AcDbSymbolTableRecord
100
AcDbLayerTableRecord
  2
M3
 70
     0
 62
     7
  6
CONTINUOUS
370
     -3
390
F
  0
ENDTAB
  0
TABLE
  2
STYLE
  5
3
100
AcDbSymbolTable
 70
     2
  0
STYLE
  5
10
100
AcDbSymbolTableRecord
100
AcDbTextStyleTableRecord
  2
STANDARD
 70
     0
 40
0.0
 41
1.0
 50
0.0
 71
     0
 42
0.2
  3
txt
  4
BIGFONT
  0
ENDTAB
  0
TABLE
  2
VIEW
  5
6
100
AcDbSymbolTable
 70
     0
  0
ENDTAB
  0
TABLE
  2
UCS
  5
7
100
AcDbSymbolTable
 70
     0
  0
ENDTAB
  0
TABLE
  2
APPID
  5
9
100
AcDbSymbolTable
 70
     1
  0
APPID
  5
11
100
AcDbSymbolTableRecord
100
AcDbRegAppTableRecord
  2
ACAD
 70
     0
  0
ENDTAB
  0
TABLE
  2
DIMSTYLE
  5
A
100
AcDbSymbolTable
 70
     2
100
AcDbDimStyleTable
 71
     1
  0
DIMSTYLE
105
46
100
AcDbSymbolTableRecord
100
AcDbDimStyleTableRecord
  2
STANDARD
 70
     0
  3

  4

  5

  6
_OPEN
  7
_OPEN
 40
1.0
 41
3.0
 42
0.0
 43
8.0
 44
1.5
 45
0.0
 46
0.0
 47
0.0
 48
0.0
140
3.2
141
0.09
142
0.0
143
0.03937
144
1.0
145
0.0
146
1.0
147
1.0
148
0.000000
 71
     0
 72
     0
 73
     1
 74
     1
 75
     0
 76
     0
 77
     3
 78
     8
170
     0
171
     2
172
     0
173
     1
174
     0
175
     0
176
     0
177
     0
178
     0
270
     2
271
     2
272
     4
273
     2
274
     2
340
10
275
     0
278
    46
280
     0
281
     0
282
     0
283
     1
284
     0
285
     0
286
     0
287
     3
288
     0
371
   13
372
   13
  0
DIMSTYLE
105
47
100
AcDbSymbolTableRecord
100
AcDbDimStyleTableRecord
  2
LEADSTYL
 70
     0
  3

  4

  5

  6
_OPEN
  7
_OPEN
 40
1.0
 41
3.0
 42
0.0625
 43
0.38
 44
0.18
 45
0.0
 46
0.0
 47
0.0
 48
0.0
140
3.2
141
0.09
142
0.0
143
25.4
144
1.0
145
0.0
146
1.0
147
1.0
 71
     0
 72
     0
 73
     1
 74
     1
 75
     0
 76
     0
 77
     0
 78
     0
170
     0
171
     2
172
     0
173
     1
174
     0
175
     0
176
     0
177
     0
178
     0
270
     2
271
     4
272
     4
273
     2
274
     2
340
10
275
     0
280
     0
281
     0
282
     0
283
     1
284
     0
285
     0
286
     0
287
     3
288
     0
  0
ENDTAB
  0
TABLE
  2
BLOCK_RECORD
  5
1
100
AcDbSymbolTable
 70
     6
  0
BLOCK_RECORD
  5
1E
100
AcDbSymbolTableRecord
100
AcDbBlockTableRecord
  2
*MODEL_SPACE
  0
BLOCK_RECORD
  5
21
100
AcDbSymbolTableRecord
100
AcDbBlockTableRecord
  2
*PAPER_SPACE
  0
BLOCK_RECORD
  5
24
100
AcDbSymbolTableRecord
100
AcDbBlockTableRecord
  2
_NONE
  0
BLOCK_RECORD
  5
28
100
AcDbSymbolTableRecord
100
AcDbBlockTableRecord
  2
_OPEN
  0
BLOCK_RECORD
  5
2E
100
AcDbSymbolTableRecord
100
AcDbBlockTableRecord
  2
_CLOSED
  0
BLOCK_RECORD
  5
35
100
AcDbSymbolTableRecord
100
AcDbBlockTableRecord
  2
_ORIGIN
  0
BLOCK_RECORD
  5
3A
100
AcDbSymbolTableRecord
100
AcDbBlockTableRecord
  2
_DOT
  0
BLOCK_RECORD
  5
42
100
AcDbSymbolTableRecord
100
AcDbBlockTableRecord
  2
_OBLIQUE
  0
ENDTAB
  0
ENDSEC
  0
SECTION
  2
BLOCKS
  0
BLOCK
  5
1F
100
AcDbEntity
  8
0
100
AcDbBlockBegin
  2
*MODEL_SPACE
 70
     0
 10
0.0
 20
0.0
 30
0.0
  3
*MODEL_SPACE
  1

  0
ENDBLK
  5
20
100
AcDbEntity
  8
0
100
AcDbBlockEnd
  0
BLOCK
  5
22
100
AcDbEntity
 67
     1
  8
0
100
AcDbBlockBegin
  2
*PAPER_SPACE
 70
     0
 10
0.0
 20
0.0
 30
0.0
  3
*PAPER_SPACE
  1

  0
ENDBLK
  5
23
100
AcDbEntity
 67
     1
  8
0
100
AcDbBlockEnd
  0
BLOCK
  5
25
100
AcDbEntity
  8
0
100
AcDbBlockBegin
  2
_NONE
 70
     0
 10
0.0
 20
0.0
  0
CIRCLE
  5
26
100
AcDbEntity
  8
0
 62
     0
370
13
100
AcDbCircle
 10
0.0
 20
0.0
 40
0.25
  0
ENDBLK
  5
27
100
AcDbEntity
  8
0
100
AcDbBlockEnd
  0
BLOCK
  5
29
100
AcDbEntity
  8
0
100
AcDbBlockBegin
  2
_OPEN
 70
     0
 10
0.0
 20
0.0
  0
LINE
  5
2A
100
AcDbEntity
  8
0
 62
     0
370
13
100
AcDbLine
 10
-0.965926
 20
0.258819
 11
0.0
 21
0.0
  0
LINE
  5
2B
100
AcDbEntity
  8
0
 62
     0
370
13
100
AcDbLine
 10
0.0
 20
0.0
 11
-0.965926
 21
-0.258819
  0
LINE
  5
2C
100
AcDbEntity
  8
0
 62
     0
370
13
100
AcDbLine
 10
0.0
 20
0.0
 11
-1.0
 21
0.0
  0
ENDBLK
  5
2D
100
AcDbEntity
  8
0
100
AcDbBlockEnd
  0
BLOCK
  5
2F
100
AcDbEntity
  8
0
100
AcDbBlockBegin
  2
_CLOSED
 70
     0
 10
0.0
 20
0.0
  0
LINE
  5
30
100
AcDbEntity
  8
0
 62
     0
370
13
100
AcDbLine
 10
-0.965926
 20
0.258819
 11
0.0
 21
0.0
  0
LINE
  5
31
100
AcDbEntity
  8
0
 62
     0
370
13
100
AcDbLine
 10
0.0
 20
0.0
 11
-0.965926
 21
-0.258819
  0
LINE
  5
32
100
AcDbEntity
  8
0
 62
     0
370
13
100
AcDbLine
 10
-0.965926
 20
0.258819
 11
-0.965926
 21
-0.258819
  0
LINE
  5
33
100
AcDbEntity
  8
0
 62
     0
370
13
100
AcDbLine
 10
0.0
 20
0.0
 11
-1.0
 21
0.0
  0
ENDBLK
  5
34
100
AcDbEntity
  8
0
100
AcDbBlockEnd
  0
BLOCK
  5
36
100
AcDbEntity
  8
0
100
AcDbBlockBegin
  2
_ORIGIN
 70
     0
 10
0.0
 20
0.0
  0
CIRCLE
  5
37
100
AcDbEntity
  8
0
 62
     0
370
13
100
AcDbCircle
 10
0.0
 20
0.0
 40
0.5
  0
LINE
  5
38
100
AcDbEntity
  8
0
 62
     0
370
13
100
AcDbLine
 10
0.0
 20
0.0
 11
-1.0
 21
0.0
  0
ENDBLK
  5
39
100
AcDbEntity
  8
0
100
AcDbBlockEnd
  0
BLOCK
  5
3B
100
AcDbEntity
  8
0
100
AcDbBlockBegin
  2
_DOT
 70
     0
 10
0.0
 20
0.0
  0
POLYLINE
  5
3C
100
AcDbEntity
  8
0
 62
     0
100
AcDb2dPolyline
 66
     1
 70
     1
 40
0.5
 41
0.5
  0
VERTEX
  5
3D
100
AcDbEntity
  8
0
 62
     0
100
AcDbVertex
100
AcDb2dVertex
 10
-0.25
 20
0.0
 42
1.0
  0
VERTEX
  5
3E
100
AcDbEntity
  8
0
 62
     0
100
AcDbVertex
100
AcDb2dVertex
 10
0.25
 20
0.0
 42
1.0
  0
SEQEND
  5
3F
100
AcDbEntity
  8
0
 62
     0
  0
LINE
  5
40
100
AcDbEntity
  8
0
 62
     0
370
13
100
AcDbLine
 10
-0.5
 20
0.0
 11
-1.0
 21
0.0
  0
ENDBLK
  5
41
100
AcDbEntity
  8
0
100
AcDbBlockEnd
  0
BLOCK
  5
43
100
AcDbEntity
  8
0
100
AcDbBlockBegin
  2
_OBLIQUE
 70
     0
 10
0.0
 20
0.0
  0
LINE
  5
44
100
AcDbEntity
  8
0
 62
     0
370
13
100
AcDbLine
 10
-0.353553
 20
-0.353553
 11
0.353553
 21
0.353553
  0
ENDBLK
  5
45
100
AcDbEntity
  8
0
100
AcDbBlockEnd
  0
ENDSEC
  0
SECTION
  2
ENTITIES
  0
CIRCLE
  5
48
100
AcDbEntity
  8
M2
  6
CONTINUOUS
370
25
100
AcDbCircle
 10
47.499999
 20
98.40985
 40
1.749997
  0
CIRCLE
  5
49
100
AcDbEntity
  8
M2
  6
CONTINUOUS
370
25
100
AcDbCircle
 10
82.499999
 20
98.40985
 40
1.749997
  0
CIRCLE
  5
4A
100
AcDbEntity
  8
M2
  6
CONTINUOUS
370
25
100
AcDbCircle
 10
47.499999
 20
219.90985
 40
1.749997
  0
CIRCLE
  5
4B
100
AcDbEntity
  8
M2
  6
CONTINUOUS
370
25
100
AcDbCircle
 10
82.499999
 20
219.90985
 40
1.749997
  0
LINE
  5
4C
100
AcDbEntity
  8
M2
  6
DASHDOT
370
25
100
AcDbLine
 10
75.750003
 20
98.40985
 11
89.249996
 21
98.40985
  0
LINE
  5
4D
100
AcDbEntity
  8
M2
  6
DASHDOT
370
25
100
AcDbLine
 10
82.499999
 20
91.659853
 11
82.499999
 21
105.159847
  0
LINE
  5
4E
100
AcDbEntity
  8
M2
  6
DASHDOT
370
25
100
AcDbLine
 10
40.750003
 20
98.40985
 11
54.249996
 21
98.40985
  0
LINE
  5
4F
100
AcDbEntity
  8
M2
  6
DASHDOT
370
25
100
AcDbLine
 10
47.499999
 20
91.659853
 11
47.499999
 21
105.159847
  0
LINE
  5
50
100
AcDbEntity
  8
M2
  6
DASHDOT
370
25
100
AcDbLine
 10
40.750003
 20
219.90985
 11
54.249996
 21
219.90985
  0
LINE
  5
51
100
AcDbEntity
  8
M2
  6
DASHDOT
370
25
100
AcDbLine
 10
47.499999
 20
213.159854
 11
47.499999
 21
226.659847
  0
LINE
  5
52
100
AcDbEntity
  8
M2
  6
DASHDOT
370
25
100
AcDbLine
 10
75.750003
 20
219.90985
 11
89.249996
 21
219.90985
  0
LINE
  5
53
100
AcDbEntity
  8
M2
  6
DASHDOT
370
25
100
AcDbLine
 10
82.499999
 20
213.159854
 11
82.499999
 21
226.659847
  0
LINE
  5
54
100
AcDbEntity
  8
M2
  6
CONTINUOUS
370
25
 62
     4
100
AcDbLine
 10
259.251566
 20
438.878814
 11
255.80157
 21
438.878814
  0
LINE
  5
55
100
AcDbEntity
  8
M2
  6
CONTINUOUS
370
25
 62
     4
100
AcDbLine
 10
255.80157
 20
441.37881
 11
255.80157
 21
438.878814
  0
LINE
  5
56
100
AcDbEntity
  8
M2
  6
CONTINUOUS
370
25
 62
     4
100
AcDbLine
 10
238.900699
 20
480.951843
 11
240.874278
 21
486.374209
  0
LINE
  5
57
100
AcDbEntity
  8
M2
  6
CONTINUOUS
370
25
 62
     4
100
AcDbLine
 10
252.501666
 20
482.928454
 11
241.505441
 21
486.676461
  0
LINE
  5
58
100
AcDbEntity
  8
M2
  6
CONTINUOUS
370
25
 62
     4
100
AcDbLine
 10
252.501666
 20
475.157036
 11
239.189914
 21
480.314602
  0
ARC
  5
59
100
AcDbEntity
  8
M2
  6
CONTINUOUS
370
25
 62
     4
100
AcDbCircle
 10
239.370545
 20
480.780834
 40
0.5
100
AcDbArc
 50
160.0
 51
248.822283
  0
ARC
  5
5A
100
AcDbEntity
  8
M2
  6
CONTINUOUS
370
25
 62
     4
100
AcDbCircle
 10
241.344124
 20
486.203199
 40
0.5
100
AcDbArc
 50
71.177717
 51
160.000055
  0
LINE
  5
5B
100
AcDbEntity
  8
M2
  6
CONTINUOUS
370
25
 62
     4
100
AcDbLine
 10
307.50165
 20
402.128844
 11
275.001734
 21
402.128844
  0
LINE
  5
5C
100
AcDbEntity
  8
M2
  6
CONTINUOUS
370
25
 62
     4
100
AcDbLine
 10
307.50165
 20
402.128844
 11
307.50165
 21
539.128844
  0
LINE
  5
5D
100
AcDbEntity
  8
M2
  6
CONTINUOUS
370
25
 62
     4
100
AcDbLine
 10
275.001566
 20
539.128844
 11
307.50165
 21
539.128844
  0
LINE
  5
5E
100
AcDbEntity
  8
M2
  6
CONTINUOUS
370
25
 62
     4
100
AcDbLine
 10
290.00165
 20
579.130263
 11
290.00165
 21
539.128844
  0
LINE
  5
5F
100
AcDbEntity
  8
M2
  6
CONTINUOUS
370
25
 62
     4
100
AcDbLine
 10
286.75165
 20
579.130211
 11
286.75165
 21
539.128844
  0
LINE
  5
60
100
AcDbEntity
  8
M2
  6
CONTINUOUS
370
25
 62
     4
100
AcDbLine
 10
286.75165
 20
579.130211
 11
290.00165
 21
579.130263
  0
LINE
  5
61
100
AcDbEntity
  8
M2
  6
CONTINUOUS
370
25
 62
     4
100
AcDbLine
 10
290.00165
 20
362.128844
 11
290.00165
 21
402.128844
  0
LINE
  5
62
100
AcDbEntity
  8
M2
  6
CONTINUOUS
370
25
 62
     4
100
AcDbLine
 10
286.75165
 20
362.128844
 11
286.75165
 21
402.128844
  0
LINE
  5
63
100
AcDbEntity
  8
M2
  6
CONTINUOUS
370
25
 62
     4
100
AcDbLine
 10
290.00165
 20
362.128844
 11
286.75165
 21
362.128844
  0
LINE
  5
64
100
AcDbEntity
  8
M2
  6
CONTINUOUS
370
25
 62
     4
100
AcDbLine
 10
257.251566
 20
415.128821
 11
260.751566
 21
415.128821
  0
ARC
  5
65
100
AcDbEntity
  8
M2
  6
CONTINUOUS
370
25
 62
     4
100
AcDbCircle
 10
257.251566
 20
416.378821
 40
1.25
100
AcDbArc
 50
179.99965
 51
270.0
  0
LINE
  5
66
100
AcDbEntity
  8
M2
  6
CONTINUOUS
370
25
 62
     4
100
AcDbLine
 10
260.751566
 20
415.128821
 11
260.751566
 21
402.628814
  0
LINE
  5
67
100
AcDbEntity
  8
M2
  6
CONTINUOUS
370
25
 62
     4
100
AcDbLine
 10
261.251566
 20
402.128814
 11
275.001566
 21
402.128814
  0
ARC
  5
68
100
AcDbEntity
  8
M2
  6
CONTINUOUS
370
25
 62
     4
100
AcDbCircle
 10
261.251566
 20
402.628814
 40
0.5
100
AcDbArc
 50
179.999126
 51
270.0
  0
LINE
  5
69
100
AcDbEntity
  8
M2
  6
CONTINUOUS
370
25
 62
     4
100
AcDbLine
 10
275.001566
 20
402.128814
 11
275.001566
 21
539.128844
  0
LINE
  5
6A
100
AcDbEntity
  8
M2
  6
CONTINUOUS
370
25
 62
     4
100
AcDbLine
 10
257.151566
 20
501.878813
 11
259.351566
 21
501.878813
  0
LINE
  5
6B
100
AcDbEntity
  8
M2
  6
CONTINUOUS
370
25
 62
     4
100
AcDbLine
 10
261.251566
 20
539.128844
 11
275.001566
 21
539.128844
  0
LINE
  5
6C
100
AcDbEntity
  8
M2
  6
CONTINUOUS
370
25
 62
     4
100
AcDbLine
 10
259.351566
 20
525.628813
 11
259.351566
 21
501.878813
  0
LINE
  5
6D
100
AcDbEntity
  8
M2
  6
CONTINUOUS
370
25
 62
     4
100
AcDbLine
 10
256.001566
 20
438.878814
 11
256.001566
 21
416.378821
  0
LINE
  5
6E
100
AcDbEntity
  8
M2
  6
CONTINUOUS
370
25
 62
     4
100
AcDbLine
 10
254.301566
 20
448.128814
 11
253.501582
 21
448.128814
  0
LINE
  5
6F
100
AcDbEntity
  8
M2
  6
CONTINUOUS
370
25
 62
     4
100
AcDbLine
 10
254.301566
 20
493.128813
 11
253.501582
 21
493.128813
  0
LINE
  5
70
100
AcDbEntity
  8
M2
  6
CONTINUOUS
370
25
 62
     4
100
AcDbLine
 10
252.501582
 20
492.128813
 11
252.501582
 21
449.128814
  0
LINE
  5
71
100
AcDbEntity
  8
M2
  6
CONTINUOUS
370
25
 62
     4
100
AcDbLine
 10
259.251566
 20
438.878814
 11
256.001566
 21
438.878814
  0
LINE
  5
72
100
AcDbEntity
  8
M2
  6
CONTINUOUS
370
25
 62
     4
100
AcDbLine
 10
259.851566
 20
526.128813
 11
260.751566
 21
526.128813
  0
LINE
  5
73
100
AcDbEntity
  8
M2
  6
CONTINUOUS
370
25
 62
     4
100
AcDbLine
 10
260.751566
 20
538.628844
 11
260.751566
 21
526.128813
  0
ARC
  5
74
100
AcDbEntity
  8
M2
  6
CONTINUOUS
370
25
 62
     4
100
AcDbCircle
 10
259.851566
 20
525.628813
 40
0.5
100
AcDbArc
 50
90.0
 51
180.0
  0
ARC
  5
75
100
AcDbEntity
  8
M2
  6
CONTINUOUS
370
25
 62
     4
100
AcDbCircle
 10
261.251566
 20
538.628844
 40
0.5
100
AcDbArc
 50
90.0
 51
180.0
  0
ARC
  5
76
100
AcDbEntity
  8
M2
  6
CONTINUOUS
370
25
 62
     4
100
AcDbCircle
 10
253.501582
 20
492.128813
 40
1.0
100
AcDbArc
 50
90.0
 51
180.0
  0
ARC
  5
77
100
AcDbEntity
  8
M2
  6
CONTINUOUS
370
25
 62
     4
100
AcDbCircle
 10
253.501582
 20
449.128814
 40
1.0
100
AcDbArc
 50
180.0
 51
270.0
  0
LINE
  5
78
100
AcDbEntity
  8
M2
  6
DASHDOT
370
25
 62
     4
100
AcDbLine
 10
229.23117
 20
470.628844
 11
320.00165
 21
470.628844
  0
LINE
  5
79
100
AcDbEntity
  8
M2
  6
CONTINUOUS
370
25
 62
     4
100
AcDbLine
 10
255.801566
 20
500.628871
 11
255.801566
 21
438.878814
  0
LINE
  5
7A
100
AcDbEntity
  8
M2
  6
CONTINUOUS
370
25
 62
     4
100
AcDbLine
 10
254.001566
 20
492.628813
 11
254.001566
 21
448.628814
  0
LINE
  5
7B
100
AcDbEntity
  8
M2
  6
CONTINUOUS
370
25
 62
     4
100
AcDbLine
 10
255.551566
 20
493.128813
 11
254.301566
 21
493.128813
  0
LINE
  5
7C
100
AcDbEntity
  8
M2
  6
CONTINUOUS
370
25
 62
     4
100
AcDbLine
 10
255.551566
 20
448.128814
 11
254.301566
 21
448.128814
  0
LINE
  5
7D
100
AcDbEntity
  8
M2
  6
CONTINUOUS
370
25
 62
     4
100
AcDbLine
 10
255.801566
 20
438.878814
 11
259.201566
 21
438.878814
  0
LINE
  5
7E
100
AcDbEntity
  8
M2
  6
CONTINUOUS
370
25
 62
     4
100
AcDbLine
 10
259.201566
 20
501.878871
 11
259.201566
 21
438.878814
  0
LINE
  5
7F
100
AcDbEntity
  8
M2
  6
CONTINUOUS
370
25
 62
     4
100
AcDbLine
 10
259.201566
 20
501.878871
 11
257.051566
 21
501.878871
  0
ARC
  5
80
100
AcDbEntity
  8
M2
  6
CONTINUOUS
370
25
 62
     4
100
AcDbCircle
 10
257.051566
 20
500.628871
 40
1.25
100
AcDbArc
 50
90.0
 51
180.0
  0
ARC
  5
81
100
AcDbEntity
  8
M2
  6
CONTINUOUS
370
25
 62
     4
100
AcDbCircle
 10
254.301566
 20
448.628814
 40
0.5
100
AcDbArc
 50
180.0
 51
270.0
  0
ARC
  5
82
100
AcDbEntity
  8
M2
  6
CONTINUOUS
370
25
 62
     4
100
AcDbCircle
 10
254.301566
 20
492.628813
 40
0.5
100
AcDbArc
 50
90.0
 51
180.0
  0
ARC
  5
83
100
AcDbEntity
  8
M2
  6
CONTINUOUS
370
25
 62
     4
100
AcDbCircle
 10
255.551566
 20
447.878814
 40
0.25
100
AcDbArc
 50
0.0
 51
90.0
  0
ARC
  5
84
100
AcDbEntity
  8
M2
  6
CONTINUOUS
370
25
 62
     4
100
AcDbCircle
 10
255.551566
 20
493.378813
 40
0.25
100
AcDbArc
 50
270.0
 51
360.0
  0
LINE
  5
85
100
AcDbEntity
  8
M2
  6
CONTINUOUS
370
25
 62
     4
100
AcDbLine
 10
292.00165
 20
539.128844
 11
292.00165
 21
539.128722
  0
LINE
  5
86
100
AcDbEntity
  8
M2
  6
DASHDOT
370
25
 62
     2
100
AcDbLine
 10
292.685782
 20
551.630305
 11
281.494618
 21
551.630129
  0
LINE
  5
87
100
AcDbEntity
  8
M2
  6
DASHDOT
370
25
 62
     2
100
AcDbLine
 10
286.75165
 20
555.005211
 11
286.75165
 21
548.255211
  0
LINE
  5
88
100
AcDbEntity
  8
M2
  6
DASHDOT
370
25
 62
     2
100
AcDbLine
 10
281.494366
 20
567.630129
 11
292.685529
 21
567.630305
  0
LINE
  5
89
100
AcDbEntity
  8
M2
  6
DASHDOT
370
25
 62
     2
100
AcDbLine
 10
286.75165
 20
575.005211
 11
286.75165
 21
564.255211
  0
LINE
  5
8A
100
AcDbEntity
  8
M2
  6
DASHDOT
370
25
 62
     2
100
AcDbLine
 10
281.494303
 20
571.630129
 11
292.685467
 21
571.630305
  0
LINE
  5
8B
100
AcDbEntity
  8
M2
  6
DASHDOT
370
25
 62
     2
100
AcDbLine
 10
292.685782
 20
389.627383
 11
281.494618
 21
389.627559
  0
LINE
  5
8C
100
AcDbEntity
  8
M2
  6
DASHDOT
370
25
 62
     2
100
AcDbLine
 10
286.75165
 20
386.252476
 11
286.75165
 21
393.002476
  0
LINE
  5
8D
100
AcDbEntity
  8
M2
  6
DASHDOT
370
25
 62
     2
100
AcDbLine
 10
281.494366
 20
373.627559
 11
292.685529
 21
373.627383
  0
LINE
  5
8E
100
AcDbEntity
  8
M2
  6
DASHDOT
370
25
 62
     2
100
AcDbLine
 10
286.75165
 20
366.252476
 11
286.75165
 21
377.002476
  0
LINE
  5
8F
100
AcDbEntity
  8
M2
  6
DASHDOT
370
25
 62
     2
100
AcDbLine
 10
281.494303
 20
369.627559
 11
292.685467
 21
369.627383
  0
LINE
  5
90
100
AcDbEntity
  8
M2
  6
DASHED
370
25
100
AcDbLine
 10
292.00165
 20
534.628478
 11
292.00165
 21
528.128478
  0
LINE
  5
91
100
AcDbEntity
  8
M2
  6
DASHDOT
370
25
100
AcDbLine
 10
281.615033
 20
531.378478
 11
307.50165
 21
531.378478
  0
LINE
  5
92
100
AcDbEntity
  8
M2
  6
DASHED
370
25
100
AcDbLine
 10
292.00165
 20
406.62921
 11
292.00165
 21
413.12921
  0
LINE
  5
93
100
AcDbEntity
  8
M2
  6
DASHDOT
370
25
100
AcDbLine
 10
281.615033
 20
409.87921
 11
307.50165
 21
409.87921
  0
LINE
  5
94
100
AcDbEntity
  8
M2
  6
DASHDOT
370
25
 62
     2
100
AcDbLine
 10
29.999893
 20
545.128714
 11
29.999893
 21
558.128714
  0
LINE
  5
95
100
AcDbEntity
  8
M2
  6
DASHDOT
370
25
 62
     2
100
AcDbLine
 10
23.499893
 20
551.628714
 11
36.499893
 21
551.628714
  0
LINE
  5
96
100
AcDbEntity
  8
M2
  6
DASHDOT
370
25
 62
     2
100
AcDbLine
 10
23.499893
 20
567.628714
 11
36.499893
 21
567.628714
  0
LINE
  5
97
100
AcDbEntity
  8
M2
  6
DASHDOT
370
25
 62
     2
100
AcDbLine
 10
23.499893
 20
571.628714
 11
36.499893
 21
571.628714
  0
LINE
  5
98
100
AcDbEntity
  8
M2
  6
DASHDOT
370
25
 62
     2
100
AcDbLine
 10
29.999893
 20
561.086574
 11
29.999893
 21
578.128714
  0
LINE
  5
99
100
AcDbEntity
  8
M2
  6
DASHDOT
370
25
 62
     2
100
AcDbLine
 10
65.000106
 20
545.128714
 11
65.000106
 21
558.128714
  0
LINE
  5
9A
100
AcDbEntity
  8
M2
  6
DASHDOT
370
25
 62
     2
100
AcDbLine
 10
58.500106
 20
551.628714
 11
71.500106
 21
551.628714
  0
LINE
  5
9B
100
AcDbEntity
  8
M2
  6
DASHDOT
370
25
 62
     2
100
AcDbLine
 10
58.500106
 20
567.628714
 11
71.500106
 21
567.628714
  0
LINE
  5
9C
100
AcDbEntity
  8
M2
  6
DASHDOT
370
25
 62
     2
100
AcDbLine
 10
58.500106
 20
571.628714
 11
71.500106
 21
571.628714
  0
LINE
  5
9D
100
AcDbEntity
  8
M2
  6
DASHDOT
370
25
 62
     2
100
AcDbLine
 10
65.000106
 20
561.086574
 11
65.000106
 21
578.128714
  0
LINE
  5
9E
100
AcDbEntity
  8
M2
  6
DASHDOT
370
25
 62
     2
100
AcDbLine
 10
100.000107
 20
545.128714
 11
100.000107
 21
558.128714
  0
LINE
  5
9F
100
AcDbEntity
  8
M2
  6
DASHDOT
370
25
 62
     2
100
AcDbLine
 10
93.500106
 20
551.628714
 11
106.500107
 21
551.628714
  0
LINE
  5
A0
100
AcDbEntity
  8
M2
  6
DASHDOT
370
25
 62
     2
100
AcDbLine
 10
93.500106
 20
567.628714
 11
106.500107
 21
567.628714
  0
LINE
  5
A1
100
AcDbEntity
  8
M2
  6
DASHDOT
370
25
 62
     2
100
AcDbLine
 10
93.500106
 20
571.628714
 11
106.500107
 21
571.628714
  0
LINE
  5
A2
100
AcDbEntity
  8
M2
  6
DASHDOT
370
25
 62
     2
100
AcDbLine
 10
100.000107
 20
561.086574
 11
100.000107
 21
578.128714
  0
LINE
  5
A3
100
AcDbEntity
  8
M2
  6
DASHDOT
370
25
 62
     2
100
AcDbLine
 10
29.999893
 20
396.128974
 11
29.999893
 21
383.128974
  0
LINE
  5
A4
100
AcDbEntity
  8
M2
  6
DASHDOT
370
25
 62
     2
100
AcDbLine
 10
23.499893
 20
389.628974
 11
36.499893
 21
389.628974
  0
LINE
  5
A5
100
AcDbEntity
  8
M2
  6
DASHDOT
370
25
 62
     2
100
AcDbLine
 10
23.499893
 20
373.628974
 11
36.499893
 21
373.628974
  0
LINE
  5
A6
100
AcDbEntity
  8
M2
  6
DASHDOT
370
25
 62
     2
100
AcDbLine
 10
23.499893
 20
369.628974
 11
36.499893
 21
369.628974
  0
LINE
  5
A7
100
AcDbEntity
  8
M2
  6
DASHDOT
370
25
 62
     2
100
AcDbLine
 10
29.999893
 20
380.171113
 11
29.999893
 21
363.128974
  0
LINE
  5
A8
100
AcDbEntity
  8
M2
  6
DASHDOT
370
25
 62
     2
100
AcDbLine
 10
65.000106
 20
396.128974
 11
65.000106
 21
383.128974
  0
LINE
  5
A9
100
AcDbEntity
  8
M2
  6
DASHDOT
370
25
 62
     2
100
AcDbLine
 10
58.500106
 20
389.628974
 11
71.500106
 21
389.628974
  0
LINE
  5
AA
100
AcDbEntity
  8
M2
  6
DASHDOT
370
25
 62
     2
100
AcDbLine
 10
58.500106
 20
373.628974
 11
71.500106
 21
373.628974
  0
LINE
  5
AB
100
AcDbEntity
  8
M2
  6
DASHDOT
370
25
 62
     2
100
AcDbLine
 10
58.500106
 20
369.628974
 11
71.500106
 21
369.628974
  0
LINE
  5
AC
100
AcDbEntity
  8
M2
  6
DASHDOT
370
25
 62
     2
100
AcDbLine
 10
65.000106
 20
380.171113
 11
65.000106
 21
363.128974
  0
LINE
  5
AD
100
AcDbEntity
  8
M2
  6
DASHDOT
370
25
 62
     2
100
AcDbLine
 10
100.000107
 20
396.128974
 11
100.000107
 21
383.128974
  0
LINE
  5
AE
100
AcDbEntity
  8
M2
  6
DASHDOT
370
25
 62
     2
100
AcDbLine
 10
93.500106
 20
389.628974
 11
106.500107
 21
389.628974
  0
LINE
  5
AF
100
AcDbEntity
  8
M2
  6
DASHDOT
370
25
 62
     2
100
AcDbLine
 10
93.500106
 20
373.628974
 11
106.500107
 21
373.628974
  0
LINE
  5
B0
100
AcDbEntity
  8
M2
  6
DASHDOT
370
25
 62
     2
100
AcDbLine
 10
93.500106
 20
369.628974
 11
106.500107
 21
369.628974
  0
LINE
  5
B1
100
AcDbEntity
  8
M2
  6
DASHDOT
370
25
 62
     2
100
AcDbLine
 10
100.000107
 20
380.171113
 11
100.000107
 21
363.128974
  0
LINE
  5
B2
100
AcDbEntity
  8
M2
  6
CONTINUOUS
370
25
 62
     4
100
AcDbLine
 10
84.499999
 20
489.628844
 11
84.499999
 21
451.628844
  0
LINE
  5
B3
100
AcDbEntity
  8
M2
  6
CONTINUOUS
370
25
 62
     4
100
AcDbLine
 10
45.499999
 20
489.628844
 11
45.499999
 21
451.628844
  0
LINE
  5
B4
100
AcDbEntity
  8
M2
  6
CONTINUOUS
370
25
 62
     4
100
AcDbLine
 10
117.5
 20
402.128844
 11
117.5
 21
539.128844
  0
LINE
  5
B5
100
AcDbEntity
  8
M2
  6
CONTINUOUS
370
25
 62
     4
100
AcDbLine
 10
117.5
 20
539.128844
 11
12.499999
 21
539.128844
  0
LINE
  5
B6
100
AcDbEntity
  8
M2
  6
CONTINUOUS
370
25
 62
     4
100
AcDbLine
 10
12.499999
 20
539.128844
 11
12.499999
 21
402.128844
  0
LINE
  5
B7
100
AcDbEntity
  8
M2
  6
CONTINUOUS
370
25
 62
     4
100
AcDbLine
 10
12.499999
 20
402.128844
 11
117.5
 21
402.128844
  0
LINE
  5
B8
100
AcDbEntity
  8
M2
  6
DASHDOT
370
25
 62
     4
100
AcDbLine
 10
-1.421085E-014
 20
470.628844
 11
130.0
 21
470.628844
  0
LINE
  5
B9
100
AcDbEntity
  8
M2
  6
DASHDOT
370
25
 62
     4
100
AcDbLine
 10
64.999999
 20
389.628844
 11
64.999999
 21
551.628844
  0
CIRCLE
  5
BA
100
AcDbEntity
  8
M2
  6
CONTINUOUS
370
25
 62
     4
100
AcDbCircle
 10
29.999893
 20
389.628974
 40
3.375
  0
ARC
  5
BB
100
AcDbEntity
  8
M2
  6
CONTINUOUS
370
25
 62
     4
100
AcDbCircle
 10
29.999893
 20
373.628974
 40
3.375
100
AcDbArc
 50
0.0
 51
180.0
  0
ARC
  5
BC
100
AcDbEntity
  8
M2
  6
CONTINUOUS
370
25
 62
     4
100
AcDbCircle
 10
29.999893
 20
369.628974
 40
3.375
100
AcDbArc
 50
180.0
 51
360.0
  0
LINE
  5
BD
100
AcDbEntity
  8
M2
  6
CONTINUOUS
370
25
 62
     4
100
AcDbLine
 10
26.624893
 20
373.628974
 11
26.624893
 21
369.628974
  0
LINE
  5
BE
100
AcDbEntity
  8
M2
  6
CONTINUOUS
370
25
 62
     4
100
AcDbLine
 10
33.374893
 20
369.628974
 11
33.374893
 21
373.628974
  0
LINE
  5
BF
100
AcDbEntity
  8
M2
  6
CONTINUOUS
370
25
 62
     4
100
AcDbLine
 10
39.999893
 20
362.128973
 11
39.999893
 21
402.128844
  0
LINE
  5
C0
100
AcDbEntity
  8
M2
  6
CONTINUOUS
370
25
 62
     4
100
AcDbLine
 10
19.999893
 20
402.128844
 11
19.999893
 21
362.128658
  0
LINE
  5
C1
100
AcDbEntity
  8
M2
  6
CONTINUOUS
370
25
 62
     4
100
AcDbLine
 10
19.999893
 20
362.128658
 11
39.999893
 21
362.128973
  0
CIRCLE
  5
C2
100
AcDbEntity
  8
M2
  6
CONTINUOUS
370
25
 62
     4
100
AcDbCircle
 10
65.000106
 20
389.628974
 40
3.375
  0
ARC
  5
C3
100
AcDbEntity
  8
M2
  6
CONTINUOUS
370
25
 62
     4
100
AcDbCircle
 10
65.000106
 20
373.628974
 40
3.375
100
AcDbArc
 50
0.0
 51
180.0
  0
ARC
  5
C4
100
AcDbEntity
  8
M2
  6
CONTINUOUS
370
25
 62
     4
100
AcDbCircle
 10
65.000106
 20
369.628974
 40
3.375
100
AcDbArc
 50
180.0
 51
360.0
  0
LINE
  5
C5
100
AcDbEntity
  8
M2
  6
CONTINUOUS
370
25
 62
     4
100
AcDbLine
 10
68.375106
 20
373.628974
 11
68.375106
 21
369.628974
  0
LINE
  5
C6
100
AcDbEntity
  8
M2
  6
CONTINUOUS
370
25
 62
     4
100
AcDbLine
 10
61.625106
 20
369.628974
 11
61.625106
 21
373.628974
  0
LINE
  5
C7
100
AcDbEntity
  8
M2
  6
CONTINUOUS
370
25
 62
     4
100
AcDbLine
 10
55.000106
 20
362.128973
 11
55.000106
 21
402.128844
  0
LINE
  5
C8
100
AcDbEntity
  8
M2
  6
CONTINUOUS
370
25
 62
     4
100
AcDbLine
 10
75.000106
 20
402.128844
 11
75.000106
 21
362.128658
  0
LINE
  5
C9
100
AcDbEntity
  8
M2
  6
CONTINUOUS
370
25
 62
     4
100
AcDbLine
 10
75.000106
 20
362.128658
 11
55.000106
 21
362.128973
  0
CIRCLE
  5
CA
100
AcDbEntity
  8
M2
  6
CONTINUOUS
370
25
 62
     4
100
AcDbCircle
 10
100.000107
 20
389.628974
 40
3.375
  0
ARC
  5
CB
100
AcDbEntity
  8
M2
  6
CONTINUOUS
370
25
 62
     4
100
AcDbCircle
 10
100.000107
 20
373.628974
 40
3.375
100
AcDbArc
 50
0.0
 51
180.0
  0
ARC
  5
CC
100
AcDbEntity
  8
M2
  6
CONTINUOUS
370
25
 62
     4
100
AcDbCircle
 10
100.000107
 20
369.628974
 40
3.375
100
AcDbArc
 50
180.0
 51
360.0
  0
LINE
  5
CD
100
AcDbEntity
  8
M2
  6
CONTINUOUS
370
25
 62
     4
100
AcDbLine
 10
103.375107
 20
373.628974
 11
103.375107
 21
369.628974
  0
LINE
  5
CE
100
AcDbEntity
  8
M2
  6
CONTINUOUS
370
25
 62
     4
100
AcDbLine
 10
96.625106
 20
369.628974
 11
96.625106
 21
373.628974
  0
LINE
  5
CF
100
AcDbEntity
  8
M2
  6
CONTINUOUS
370
25
 62
     4
100
AcDbLine
 10
90.000106
 20
362.128973
 11
90.000106
 21
402.128844
  0
LINE
  5
D0
100
AcDbEntity
  8
M2
  6
CONTINUOUS
370
25
 62
     4
100
AcDbLine
 10
110.000107
 20
402.128844
 11
110.000107
 21
362.128658
  0
LINE
  5
D1
100
AcDbEntity
  8
M2
  6
CONTINUOUS
370
25
 62
     4
100
AcDbLine
 10
110.000107
 20
362.128658
 11
90.000106
 21
362.128973
  0
CIRCLE
  5
D2
100
AcDbEntity
  8
M2
  6
CONTINUOUS
370
25
 62
     4
100
AcDbCircle
 10
29.999893
 20
551.628714
 40
3.375
  0
ARC
  5
D3
100
AcDbEntity
  8
M2
  6
CONTINUOUS
370
25
 62
     4
100
AcDbCircle
 10
29.999893
 20
567.628714
 40
3.375
100
AcDbArc
 50
180.0
 51
360.0
  0
ARC
  5
D4
100
AcDbEntity
  8
M2
  6
CONTINUOUS
370
25
 62
     4
100
AcDbCircle
 10
29.999893
 20
571.628714
 40
3.375
100
AcDbArc
 50
0.0
 51
180.0
  0
LINE
  5
D5
100
AcDbEntity
  8
M2
  6
CONTINUOUS
370
25
 62
     4
100
AcDbLine
 10
26.624893
 20
567.628714
 11
26.624893
 21
571.628714
  0
LINE
  5
D6
100
AcDbEntity
  8
M2
  6
CONTINUOUS
370
25
 62
     4
100
AcDbLine
 10
33.374893
 20
571.628714
 11
33.374893
 21
567.628714
  0
LINE
  5
D7
100
AcDbEntity
  8
M2
  6
CONTINUOUS
370
25
 62
     4
100
AcDbLine
 10
39.999893
 20
579.128715
 11
39.999893
 21
539.128844
  0
LINE
  5
D8
100
AcDbEntity
  8
M2
  6
CONTINUOUS
370
25
 62
     4
100
AcDbLine
 10
19.999893
 20
539.128844
 11
19.999893
 21
579.12903
  0
LINE
  5
D9
100
AcDbEntity
  8
M2
  6
CONTINUOUS
370
25
 62
     4
100
AcDbLine
 10
19.999893
 20
579.12903
 11
39.999893
 21
579.128715
  0
CIRCLE
  5
DA
100
AcDbEntity
  8
M2
  6
CONTINUOUS
370
25
 62
     4
100
AcDbCircle
 10
65.000106
 20
551.628714
 40
3.375
  0
ARC
  5
DB
100
AcDbEntity
  8
M2
  6
CONTINUOUS
370
25
 62
     4
100
AcDbCircle
 10
65.000106
 20
567.628714
 40
3.375
100
AcDbArc
 50
180.0
 51
360.0
  0
ARC
  5
DC
100
AcDbEntity
  8
M2
  6
CONTINUOUS
370
25
 62
     4
100
AcDbCircle
 10
65.000106
 20
571.628714
 40
3.375
100
AcDbArc
 50
0.0
 51
180.0
  0
LINE
  5
DD
100
AcDbEntity
  8
M2
  6
CONTINUOUS
370
25
 62
     4
100
AcDbLine
 10
68.375106
 20
567.628714
 11
68.375106
 21
571.628714
  0
LINE
  5
DE
100
AcDbEntity
  8
M2
  6
CONTINUOUS
370
25
 62
     4
100
AcDbLine
 10
61.625106
 20
571.628714
 11
61.625106
 21
567.628714
  0
LINE
  5
DF
100
AcDbEntity
  8
M2
  6
CONTINUOUS
370
25
 62
     4
100
AcDbLine
 10
55.000106
 20
579.128715
 11
55.000106
 21
539.128844
  0
LINE
  5
E0
100
AcDbEntity
  8
M2
  6
CONTINUOUS
370
25
 62
     4
100
AcDbLine
 10
75.000106
 20
539.128844
 11
75.000106
 21
579.12903
  0
LINE
  5
E1
100
AcDbEntity
  8
M2
  6
CONTINUOUS
370
25
 62
     4
100
AcDbLine
 10
75.000106
 20
579.12903
 11
55.000106
 21
579.128715
  0
CIRCLE
  5
E2
100
AcDbEntity
  8
M2
  6
CONTINUOUS
370
25
 62
     4
100
AcDbCircle
 10
100.000107
 20
551.628714
 40
3.375
  0
ARC
  5
E3
100
AcDbEntity
  8
M2
  6
CONTINUOUS
370
25
 62
     4
100
AcDbCircle
 10
100.000107
 20
567.628714
 40
3.375
100
AcDbArc
 50
180.0
 51
360.0
  0
ARC
  5
E4
100
AcDbEntity
  8
M2
  6
CONTINUOUS
370
25
 62
     4
100
AcDbCircle
 10
100.000107
 20
571.628714
 40
3.375
100
AcDbArc
 50
0.0
 51
180.0
  0
LINE
  5
E5
100
AcDbEntity
  8
M2
  6
CONTINUOUS
370
25
 62
     4
100
AcDbLine
 10
103.375107
 20
567.628714
 11
103.375107
 21
571.628714
  0
LINE
  5
E6
100
AcDbEntity
  8
M2
  6
CONTINUOUS
370
25
 62
     4
100
AcDbLine
 10
96.625106
 20
571.628714
 11
96.625106
 21
567.628714
  0
LINE
  5
E7
100
AcDbEntity
  8
M2
  6
CONTINUOUS
370
25
 62
     4
100
AcDbLine
 10
90.000106
 20
579.128715
 11
90.000106
 21
539.128844
  0
LINE
  5
E8
100
AcDbEntity
  8
M2
  6
CONTINUOUS
370
25
 62
     4
100
AcDbLine
 10
110.000107
 20
539.128844
 11
110.000107
 21
579.12903
  0
LINE
  5
E9
100
AcDbEntity
  8
M2
  6
CONTINUOUS
370
25
 62
     4
100
AcDbLine
 10
110.000107
 20
579.12903
 11
90.000106
 21
579.128715
  0
LINE
  5
EA
100
AcDbEntity
  8
M2
  6
CONTINUOUS
370
25
 62
     4
100
AcDbLine
 10
107.5
 20
450.628844
 11
107.5
 21
490.628844
  0
LINE
  5
EB
100
AcDbEntity
  8
M2
  6
CONTINUOUS
370
25
 62
     4
100
AcDbLine
 10
105.0
 20
493.128844
 11
24.999999
 21
493.128844
  0
LINE
  5
EC
100
AcDbEntity
  8
M2
  6
CONTINUOUS
370
25
 62
     4
100
AcDbLine
 10
22.499999
 20
490.628844
 11
22.499999
 21
450.628844
  0
LINE
  5
ED
100
AcDbEntity
  8
M2
  6
CONTINUOUS
370
25
 62
     4
100
AcDbLine
 10
24.999999
 20
448.128844
 11
105.0
 21
448.128844
  0
ARC
  5
EE
100
AcDbEntity
  8
M2
  6
CONTINUOUS
370
25
 62
     4
100
AcDbCircle
 10
105.0
 20
490.628844
 40
2.5
100
AcDbArc
 50
0.0
 51
90.0
  0
ARC
  5
EF
100
AcDbEntity
  8
M2
  6
CONTINUOUS
370
25
 62
     4
100
AcDbCircle
 10
24.999999
 20
490.628844
 40
2.5
100
AcDbArc
 50
90.0
 51
180.0
  0
ARC
  5
F0
100
AcDbEntity
  8
M2
  6
CONTINUOUS
370
25
 62
     4
100
AcDbCircle
 10
24.999999
 20
450.628844
 40
2.5
100
AcDbArc
 50
180.0
 51
270.0
  0
ARC
  5
F1
100
AcDbEntity
  8
M2
  6
CONTINUOUS
370
25
 62
     4
100
AcDbCircle
 10
105.0
 20
450.628844
 40
2.5
100
AcDbArc
 50
270.0
 51
360.0
  0
LINE
  5
F2
100
AcDbEntity
  8
M2
  6
CONTINUOUS
370
25
 62
     4
100
AcDbLine
 10
77.499999
 20
483.378844
 11
77.499999
 21
453.278928
  0
LINE
  5
F3
100
AcDbEntity
  8
M2
  6
CONTINUOUS
370
25
 62
     4
100
AcDbLine
 10
52.499999
 20
483.378844
 11
77.499999
 21
483.378844
  0
LINE
  5
F4
100
AcDbEntity
  8
M2
  6
CONTINUOUS
370
25
 62
     4
100
AcDbLine
 10
52.499999
 20
483.378844
 11
52.499999
 21
453.278928
  0
LINE
  5
F5
100
AcDbEntity
  8
M2
  6
CONTINUOUS
370
25
 62
     4
100
AcDbLine
 10
52.499999
 20
453.278928
 11
77.499999
 21
453.278928
  0
ARC
  5
F6
100
AcDbEntity
  8
M2
  6
CONTINUOUS
370
25
 62
     4
100
AcDbCircle
 10
54.874962
 20
464.503517
 40
1.375
100
AcDbArc
 50
180.000079
 51
270.0
  0
LINE
  5
F7
100
AcDbEntity
  8
M2
  6
CONTINUOUS
370
25
 62
     4
100
AcDbLine
 10
53.499962
 20
464.503515
 11
53.499955
 21
469.253515
  0
ARC
  5
F8
100
AcDbEntity
  8
M2
  6
CONTINUOUS
370
25
 62
     4
100
AcDbCircle
 10
54.874955
 20
469.253517
 40
1.375
100
AcDbArc
 50
90.0
 51
180.000099
  0
LINE
  5
F9
100
AcDbEntity
  8
M2
  6
CONTINUOUS
370
25
 62
     4
100
AcDbLine
 10
75.116262
 20
463.128546
 11
54.874964
 21
463.128517
  0
ARC
  5
FA
100
AcDbEntity
  8
M2
  6
CONTINUOUS
370
25
 62
     4
100
AcDbCircle
 10
75.125037
 20
464.503517
 40
1.375
100
AcDbArc
 50
269.634341
 51
359.999921
  0
LINE
  5
FB
100
AcDbEntity
  8
M2
  6
CONTINUOUS
370
25
 62
     4
100
AcDbLine
 10
76.500037
 20
464.503515
 11
76.500043
 21
469.253515
  0
LINE
  5
FC
100
AcDbEntity
  8
M2
  6
CONTINUOUS
370
25
 62
     4
100
AcDbLine
 10
75.123988
 20
470.628546
 11
54.874953
 21
470.628517
  0
ARC
  5
FD
100
AcDbEntity
  8
M2
  6
CONTINUOUS
370
25
 62
     4
100
AcDbCircle
 10
75.125043
 20
469.253517
 40
1.375
100
AcDbArc
 50
0.0
 51
90.0
  0
ARC
  5
FE
100
AcDbEntity
  8
M2
  6
CONTINUOUS
370
25
 62
     4
100
AcDbCircle
 10
80.999999
 20
489.628844
 40
3.5
100
AcDbArc
 50
0.0
 51
90.0
  0
ARC
  5
FF
100
AcDbEntity
  8
M2
  6
CONTINUOUS
370
25
 62
     4
100
AcDbCircle
 10
48.999999
 20
489.628844
 40
3.5
100
AcDbArc
 50
90.0
 51
180.0
  0
ARC
  5
100
100
AcDbEntity
  8
M2
  6
CONTINUOUS
370
25
 62
     4
100
AcDbCircle
 10
48.999999
 20
451.628844
 40
3.5
100
AcDbArc
 50
180.0
 51
270.0
  0
ARC
  5
101
100
AcDbEntity
  8
M2
  6
CONTINUOUS
370
25
 62
     4
100
AcDbCircle
 10
80.999999
 20
451.628844
 40
3.5
100
AcDbArc
 50
270.0
 51
360.0
  0
LINE
  5
102
100
AcDbEntity
  8
M2
  6
CONTINUOUS
370
25
 62
     4
100
AcDbLine
 10
12.499999
 20
526.128844
 11
117.5
 21
526.128844
  0
LINE
  5
103
100
AcDbEntity
  8
M2
  6
CONTINUOUS
370
25
 62
     4
100
AcDbLine
 10
12.499999
 20
415.128844
 11
117.5
 21
415.128844
  0
LINE
  5
104
100
AcDbEntity
  8
M2
  6
DASHDOT
370
25
 62
     4
100
AcDbLine
 10
117.5
 20
90.660094
 11
117.5
 21
227.659606
  0
LINE
  5
105
100
AcDbEntity
  8
M2
  6
DASHDOT
370
25
 62
     4
100
AcDbLine
 10
117.5
 20
227.659606
 11
12.499999
 21
227.659606
  0
LINE
  5
106
100
AcDbEntity
  8
M2
  6
DASHDOT
370
25
 62
     4
100
AcDbLine
 10
12.499999
 20
227.659606
 11
12.499999
 21
90.660094
  0
LINE
  5
107
100
AcDbEntity
  8
M2
  6
DASHDOT
370
25
 62
     4
100
AcDbLine
 10
12.499999
 20
90.660094
 11
117.5
 21
90.660094
  0
LINE
  5
108
100
AcDbEntity
  8
M2
  6
DASHDOT
370
25
 62
     4
100
AcDbLine
 10
64.999999
 20
71.475707
 11
64.999999
 21
240.159605
  0
LINE
  5
109
100
AcDbEntity
  8
M2
  6
DASHDOT
370
25
 62
     4
100
AcDbLine
 10
5.668556
 20
159.15985
 11
126.579678
 21
159.15985
  0
LINE
  5
10A
100
AcDbEntity
  8
M2
  6
DASHDOT
370
25
100
AcDbLine
 10
40.749999
 20
531.378844
 11
54.249999
 21
531.378844
  0
LINE
  5
10B
100
AcDbEntity
  8
M2
  6
DASHDOT
370
25
100
AcDbLine
 10
47.499999
 20
524.628844
 11
47.499999
 21
538.128844
  0
CIRCLE
  5
10C
100
AcDbEntity
  8
M2
  6
CONTINUOUS
370
25
100
AcDbCircle
 10
47.499999
 20
531.378844
 40
1.75
  0
CIRCLE
  5
10D
100
AcDbEntity
  8
M2
  6
CONTINUOUS
370
25
100
AcDbCircle
 10
82.499999
 20
531.378844
 40
1.75
  0
LINE
  5
10E
100
AcDbEntity
  8
M2
  6
DASHDOT
370
25
100
AcDbLine
 10
89.249999
 20
531.378844
 11
75.749999
 21
531.378844
  0
LINE
  5
10F
100
AcDbEntity
  8
M2
  6
DASHDOT
370
25
100
AcDbLine
 10
82.499999
 20
524.628844
 11
82.499999
 21
538.128844
  0
CIRCLE
  5
110
100
AcDbEntity
  8
M2
  6
CONTINUOUS
370
25
100
AcDbCircle
 10
82.499999
 20
409.878844
 40
1.75
  0
LINE
  5
111
100
AcDbEntity
  8
M2
  6
DASHDOT
370
25
100
AcDbLine
 10
89.249999
 20
409.878844
 11
75.749999
 21
409.878844
  0
LINE
  5
112
100
AcDbEntity
  8
M2
  6
DASHDOT
370
25
100
AcDbLine
 10
82.499999
 20
416.628844
 11
82.499999
 21
403.128844
  0
CIRCLE
  5
113
100
AcDbEntity
  8
M2
  6
CONTINUOUS
370
25
100
AcDbCircle
 10
47.499999
 20
409.878844
 40
1.75
  0
LINE
  5
114
100
AcDbEntity
  8
M2
  6
DASHDOT
370
25
100
AcDbLine
 10
40.749999
 20
409.878844
 11
54.249999
 21
409.878844
  0
LINE
  5
115
100
AcDbEntity
  8
M2
  6
DASHDOT
370
25
100
AcDbLine
 10
47.499999
 20
416.628844
 11
47.499999
 21
403.128844
  0
LINE
  5
116
100
AcDbEntity
  8
M2
  6
CONTINUOUS
370
25
 62
     7
100
AcDbLine
 10
215.00165
 20
182.15985
 11
295.00165
 21
182.15985
  0
LINE
  5
117
100
AcDbEntity
  8
M2
  6
CONTINUOUS
370
25
 62
     7
100
AcDbLine
 10
215.00165
 20
136.15985
 11
295.00165
 21
136.15985
  0
LINE
  5
118
100
AcDbEntity
  8
M2
  6
CONTINUOUS
370
25
 62
     7
100
AcDbLine
 10
298.00165
 20
179.15985
 11
298.00165
 21
139.15985
  0
LINE
  5
119
100
AcDbEntity
  8
M2
  6
CONTINUOUS
370
25
 62
     7
100
AcDbLine
 10
212.00165
 20
179.15985
 11
212.00165
 21
139.15985
  0
ARC
  5
11A
100
AcDbEntity
  8
M2
  6
CONTINUOUS
370
25
 62
     7
100
AcDbCircle
 10
295.00165
 20
179.15985
 40
3.0
100
AcDbArc
 50
0.0
 51
90.0
  0
ARC
  5
11B
100
AcDbEntity
  8
M2
  6
CONTINUOUS
370
25
 62
     7
100
AcDbCircle
 10
215.00165
 20
179.15985
 40
3.0
100
AcDbArc
 50
90.0
 51
180.0
  0
ARC
  5
11C
100
AcDbEntity
  8
M2
  6
CONTINUOUS
370
25
 62
     7
100
AcDbCircle
 10
215.00165
 20
139.15985
 40
3.0
100
AcDbArc
 50
180.0
 51
270.0
  0
ARC
  5
11D
100
AcDbEntity
  8
M2
  6
CONTINUOUS
370
25
 62
     7
100
AcDbCircle
 10
295.00165
 20
139.15985
 40
3.0
100
AcDbArc
 50
270.0
 51
360.0
  0
LINE
  5
11E
100
AcDbEntity
  8
M2
  6
DASHDOT
370
25
 62
     4
100
AcDbLine
 10
255.00165
 20
78.160094
 11
255.00165
 21
237.320152
  0
LINE
  5
11F
100
AcDbEntity
  8
M2
  6
DASHDOT
370
25
 62
     4
100
AcDbLine
 10
190.002016
 20
159.15985
 11
320.00165
 21
159.15985
  0
LINE
  5
120
100
AcDbEntity
  8
M2
  6
DASHDOT
370
25
 62
     4
100
AcDbLine
 10
307.50165
 20
90.660094
 11
307.50165
 21
227.659606
  0
LINE
  5
121
100
AcDbEntity
  8
M2
  6
DASHDOT
370
25
 62
     4
100
AcDbLine
 10
307.50165
 20
227.659606
 11
202.502016
 21
227.659606
  0
LINE
  5
122
100
AcDbEntity
  8
M2
  6
DASHDOT
370
25
 62
     4
100
AcDbLine
 10
202.502016
 20
227.659606
 11
202.502016
 21
90.660094
  0
LINE
  5
123
100
AcDbEntity
  8
M2
  6
DASHDOT
370
25
 62
     4
100
AcDbLine
 10
202.502016
 20
90.660094
 11
307.50165
 21
90.660094
  0
LINE
  5
124
100
AcDbEntity
  8
M3
  6
CONTINUOUS
370
25
100
AcDbLine
 10
217.377566
 20
41.250001
 11
217.377566
 21
-3.552714E-015
  0
LINE
  5
125
100
AcDbEntity
  8
M3
  6
CONTINUOUS
370
25
100
AcDbLine
 10
12.377559
 20
41.250001
 11
12.377559
 21
-3.552714E-015
  0
LINE
  5
126
100
AcDbEntity
  8
M3
  6
CONTINUOUS
370
25
100
AcDbLine
 10
12.377559
 20
-3.552714E-015
 11
217.377566
 21
-3.552714E-015
  0
LINE
  5
127
100
AcDbEntity
  8
M3
  6
CONTINUOUS
370
25
100
AcDbLine
 10
12.377559
 20
41.250001
 11
217.377566
 21
41.250001
  0
LINE
  5
128
100
AcDbEntity
  8
M3
  6
CONTINUOUS
370
25
100
AcDbLine
 10
169.877567
 20
27.500002
 11
169.877567
 21
41.250001
  0
LINE
  5
129
100
AcDbEntity
  8
M3
  6
CONTINUOUS
370
25
100
AcDbLine
 10
42.377559
 20
27.500002
 11
169.877567
 21
27.500002
  0
LINE
  5
12A
100
AcDbEntity
  8
M3
  6
CONTINUOUS
370
25
 60
     1
100
AcDbLine
 10
192.377547
 20
27.500002
 11
192.377547
 21
41.250001
  0
LINE
  5
12B
100
AcDbEntity
  8
M3
  6
CONTINUOUS
370
25
100
AcDbLine
 10
169.877567
 20
27.500002
 11
192.377547
 21
27.500002
  0
TEXT
  5
12C
100
AcDbEntity
  8
M3
100
AcDbText
 10
172.528961
 20
31.250003
 40
6.25
  1
ＲＥＶ．：
 41
0.666667
  7
STANDARD
100
AcDbText
  0
LINE
  5
12D
100
AcDbEntity
  8
M3
  6
CONTINUOUS
370
25
 60
     1
100
AcDbLine
 10
217.377566
 20
27.500002
 11
217.377566
 21
41.250001
  0
LINE
  5
12E
100
AcDbEntity
  8
M3
  6
CONTINUOUS
370
25
100
AcDbLine
 10
192.377547
 20
27.500002
 11
217.377566
 21
27.500002
  0
TEXT
  5
12F
100
AcDbEntity
  8
M3
100
AcDbText
 10
202.551147
 20
31.250003
 40
6.25
  1
００
 41
0.833333
  7
STANDARD
100
AcDbText
  0
LINE
  5
130
100
AcDbEntity
  8
M3
  6
CONTINUOUS
370
25
 60
     1
100
AcDbLine
 10
42.377559
 20
27.500002
 11
42.377559
 21
41.250001
  0
LINE
  5
131
100
AcDbEntity
  8
M3
  6
CONTINUOUS
370
25
100
AcDbLine
 10
12.377559
 20
27.500002
 11
42.377559
 21
27.500002
  0
TEXT
  5
132
100
AcDbEntity
  8
M3
100
AcDbText
 10
15.05117
 20
31.250003
 40
6.25
  1
登録名：
 41
0.833333
  7
STANDARD
100
AcDbText
  0
LINE
  5
133
100
AcDbEntity
  8
M3
  6
CONTINUOUS
370
25
 60
     1
100
AcDbLine
 10
217.377566
 20
13.749999
 11
217.377566
 21
27.500002
  0
LINE
  5
134
100
AcDbEntity
  8
M3
  6
CONTINUOUS
370
25
100
AcDbLine
 10
192.377547
 20
13.749999
 11
217.377566
 21
13.749999
  0
LINE
  5
135
100
AcDbEntity
  8
M3
  6
CONTINUOUS
370
25
 60
     1
100
AcDbLine
 10
192.377547
 20
13.749999
 11
192.377547
 21
27.500002
  0
LINE
  5
136
100
AcDbEntity
  8
M3
  6
CONTINUOUS
370
25
100
AcDbLine
 10
42.377559
 20
13.749999
 11
192.377547
 21
13.749999
  0
TEXT
  5
137
100
AcDbEntity
  8
M3
100
AcDbText
 10
45.051162
 20
17.500003
 40
6.25
  1
表面形
 41
0.833333
  7
STANDARD
100
AcDbText
  0
LINE
  5
138
100
AcDbEntity
  8
M3
  6
CONTINUOUS
370
25
 60
     1
100
AcDbLine
 10
42.377559
 20
13.749999
 11
42.377559
 21
27.500002
  0
LINE
  5
139
100
AcDbEntity
  8
M3
  6
CONTINUOUS
370
25
100
AcDbLine
 10
12.377559
 20
13.749999
 11
42.377559
 21
13.749999
  0
TEXT
  5
13A
100
AcDbEntity
  8
M3
100
AcDbText
 10
13.783805
 20
17.500003
 40
6.25
  1
接続方式：
 41
0.75
  7
STANDARD
100
AcDbText
  0
LINE
  5
13B
100
AcDbEntity
  8
M3
  6
CONTINUOUS
370
25
 60
     1
100
AcDbLine
 10
217.377566
 20
-3.552714E-015
 11
217.377566
 21
13.749999
  0
LINE
  5
13C
100
AcDbEntity
  8
M3
  6
CONTINUOUS
370
25
 60
     1
100
AcDbLine
 10
192.377547
 20
-3.552714E-015
 11
217.377566
 21
-3.552714E-015
  0
LINE
  5
13D
100
AcDbEntity
  8
M3
  6
CONTINUOUS
370
25
 60
     1
100
AcDbLine
 10
192.377547
 20
-3.552714E-015
 11
192.377547
 21
13.749999
  0
LINE
  5
13E
100
AcDbEntity
  8
M3
  6
CONTINUOUS
370
25
 60
     1
100
AcDbLine
 10
42.377559
 20
-3.552714E-015
 11
192.377547
 21
-3.552714E-015
  0
TEXT
  5
13F
100
AcDbEntity
  8
M3
100
AcDbText
 10
45.033813
 20
3.750001
 40
6.25
  1
ＥＸ６００Ｂ／ＲＸ６００Ｂ
 41
0.75
  7
STANDARD
100
AcDbText
  0
LINE
  5
140
100
AcDbEntity
  8
M3
  6
CONTINUOUS
370
25
 60
     1
100
AcDbLine
 10
42.377559
 20
-3.552714E-015
 11
42.377559
 21
13.749999
  0
LINE
  5
141
100
AcDbEntity
  8
M3
  6
CONTINUOUS
370
25
 60
     1
100
AcDbLine
 10
12.377559
 20
-3.552714E-015
 11
42.377559
 21
-3.552714E-015
  0
TEXT
  5
142
100
AcDbEntity
  8
M3
100
AcDbText
 10
13.783805
 20
3.750001
 40
6.25
  1
適用形式：
 41
0.75
  7
STANDARD
100
AcDbText
  0
TEXT
  5
143
100
AcDbEntity
  8
M3
100
AcDbText
 10
45.051162
 20
31.250003
 40
6.25
  1
ＥＸ６００Ｂ　３Ｐ
 41
0.833333
  7
STANDARD
100
AcDbText
  0
ENDSEC
  0
SECTION
  2
OBJECTS
  0
DICTIONARY
  5
C
100
AcDbDictionary
  3
ACAD_GROUP
350
D
  3
ACAD_MLINESTYLE
350
E
  0
DICTIONARY
  5
D
102
{ACAD_REACTORS
330
C
102
}
100
AcDbDictionary
  0
DICTIONARY
  5
E
102
{ACAD_REACTORS
330
C
102
}
100
AcDbDictionary
  3
STANDARD
350
13
  0
MLINESTYLE
  5
13
102
{ACAD_REACTORS
330
E
102
}
100
AcDbMlineStyle
  2
STANDARD
 70
     0
  3

 62
     0
 51
90.0
 52
90.0
 71
     2
 49
0.5
 62
   256
  6
BYLAYER
 49
-0.5
 62
   256
  6
BYLAYER
  0
ENDSEC
  0
EOF
